0
SECTION
2
HEADER
9
$MEASUREMENT
70
1
0
ENDSEC
0
SECTION
2
TABLES
0
TABLE
2
LTYPE
0
LTYPE
72
65
70
64
2
CONTINUOUS
3
______
73
0
40
0
0
ENDTAB
0
TABLE
2
LAYER
0
LAYER
2
DEFAULT_255_2_778
70
0
62
255
6
CONTINUOUS
0
ENDTAB
0
ENDSEC
0
SECTION
2
ENTITIES
0
LINE
8
DEFAULT_255_2_778
10
27.6696941
20
87.3563551
11
27.6696941
21
88.9565551
0
LINE
8
DEFAULT_255_2_778
10
27.6696941
20
88.9565551
11
22.3700941
21
88.9565551
0
LINE
8
DEFAULT_255_2_778
10
22.3700941
20
88.9565551
11
22.3700941
21
87.3563551
0
LINE
8
DEFAULT_255_2_778
10
22.3700941
20
87.3563551
11
27.6696941
21
87.3563551
0
LINE
8
DEFAULT_255_2_778
10
2.1696941
20
2.9664551
11
22.1697941
21
2.9664551
0
LINE
8
DEFAULT_255_2_778
10
22.6698941
20
3.2564551
11
22.1697941
21
3.2564551
0
ARC
8
DEFAULT_255_2_778
10
18.0385559
20
5.7185635
40
1.2938085
50
146.7148745
51
180.0917915
0
ARC
8
DEFAULT_255_2_778
10
18.0444077
20
5.7168305
40
1.2996527
50
96.4921002
51
146.792589
0
ARC
8
DEFAULT_255_2_778
10
18.044394
20
5.7024959
40
1.3138949
50
89.9888749
51
96.4208275
0
ARC
8
DEFAULT_255_2_778
10
18.0467219
20
5.7225839
40
1.2938085
50
56.7148745
51
90.0917915
0
ARC
8
DEFAULT_255_2_778
10
18.0449889
20
5.7167321
40
1.2996527
50
6.4921002
51
56.792589
0
ARC
8
DEFAULT_255_2_778
10
18.0306543
20
5.7167458
40
1.3138949
50
359.9888749
51
6.4208275
0
ARC
8
DEFAULT_255_2_778
10
18.0507423
20
5.7144179
40
1.2938085
50
326.7148745
51
0.0917915
0
ARC
8
DEFAULT_255_2_778
10
18.0448905
20
5.7161509
40
1.2996527
50
276.4921002
51
326.792589
0
ARC
8
DEFAULT_255_2_778
10
18.0449042
20
5.7304855
40
1.3138949
50
269.9888749
51
276.4208275
0
ARC
8
DEFAULT_255_2_778
10
18.0425763
20
5.7103976
40
1.2938085
50
236.7148745
51
270.0917915
0
ARC
8
DEFAULT_255_2_778
10
18.0443093
20
5.7162493
40
1.2996527
50
186.4921002
51
236.792589
0
ARC
8
DEFAULT_255_2_778
10
18.0586439
20
5.7162356
40
1.3138949
50
179.9888749
51
186.4208275
0
LINE
8
DEFAULT_255_2_778
10
22.1697491
20
72.9563907
11
22.1697491
21
72.4562907
0
LINE
8
DEFAULT_255_2_778
10
22.1697491
20
72.4562907
11
22.6698491
21
72.4562907
0
LINE
8
DEFAULT_255_2_778
10
16.7447491
20
5.7164907
11
16.7447491
21
5.7164907
0
LINE
8
DEFAULT_255_2_778
10
12.0825491
20
72.9547907
11
12.1015491
21
72.9388907
0
LINE
8
DEFAULT_255_2_778
10
12.1015491
20
72.9388907
11
12.1645491
21
72.8936907
0
LINE
8
DEFAULT_255_2_778
10
2.1697097
20
8.4665971
11
22.1698097
21
8.4665971
0
LINE
8
DEFAULT_255_2_778
10
22.6699097
20
20.8564971
11
22.1698097
21
20.8564971
0
LINE
8
DEFAULT_255_2_778
10
22.6699097
20
19.2565971
11
22.1698097
21
19.2565971
0
LINE
8
DEFAULT_255_2_778
10
22.1698097
20
15.2565971
11
22.6699097
21
15.2565971
0
LINE
8
DEFAULT_255_2_778
10
22.6699097
20
13.6563971
11
22.1698097
21
13.6563971
0
LINE
8
DEFAULT_255_2_778
10
22.6699097
20
60.8564971
11
22.1698097
21
60.8564971
0
LINE
8
DEFAULT_255_2_778
10
22.6699097
20
59.2565971
11
22.1698097
21
59.2565971
0
LINE
8
DEFAULT_255_2_778
10
22.1698097
20
55.2565971
11
22.6699097
21
55.2565971
0
LINE
8
DEFAULT_255_2_778
10
22.6699097
20
53.6565971
11
22.1698097
21
53.6565971
0
LINE
8
DEFAULT_255_2_778
10
2.1697097
20
66.9463971
11
22.1698097
21
66.9463971
0
LINE
8
DEFAULT_255_2_778
10
23.669818
20
1.4564323
11
23.669818
21
73.9565323
0
LINE
8
DEFAULT_255_2_778
10
23.669818
20
73.9565323
11
0.669818
21
73.9565323
0
LINE
8
DEFAULT_255_2_778
10
0.669818
20
73.9565323
11
0.669818
21
1.4564323
0
LINE
8
DEFAULT_255_2_778
10
0.669818
20
1.4564323
11
23.669818
21
1.4564323
0
LINE
8
DEFAULT_255_2_778
10
22.6699107
20
2.4563396
11
22.6699107
21
72.9564396
0
LINE
8
DEFAULT_255_2_778
10
22.6699107
20
72.9564396
11
1.6699107
21
72.9564396
0
LINE
8
DEFAULT_255_2_778
10
1.6699107
20
72.9564396
11
1.6699107
21
2.4563396
0
LINE
8
DEFAULT_255_2_778
10
1.6699107
20
2.4563396
11
22.6699107
21
2.4563396
0
LINE
8
DEFAULT_255_2_778
10
22.1698409
20
2.4566074
11
22.1698409
21
72.4465074
0
LINE
8
DEFAULT_255_2_778
10
22.1698409
20
72.4465074
11
2.1697409
21
72.4465074
0
LINE
8
DEFAULT_255_2_778
10
6.1697409
20
72.4463074
11
6.1697409
21
72.9564074
0
ARC
8
DEFAULT_255_2_778
10
6.288492
20
5.7184397
40
1.2937434
50
146.8027153
51
180.0930056
0
ARC
8
DEFAULT_255_2_778
10
6.294276
20
5.7166656
40
1.2995558
50
96.4974011
51
146.876889
0
ARC
8
DEFAULT_255_2_778
10
6.2943919
20
5.7017693
40
1.3143704
50
89.9887351
51
96.428937
0
ARC
8
DEFAULT_255_2_778
10
6.2967348
20
5.7222198
40
1.2939215
50
56.8054555
51
90.0923061
0
ARC
8
DEFAULT_255_2_778
10
6.2951348
20
5.7165924
40
1.2995078
50
6.50217
51
56.8822586
0
ARC
8
DEFAULT_255_2_778
10
6.2807047
20
5.7165956
40
1.3138456
50
359.9888363
51
6.43077
0
ARC
8
DEFAULT_255_2_778
10
6.3006935
20
5.7142383
40
1.2938585
50
326.8021795
51
0.093053
0
ARC
8
DEFAULT_255_2_778
10
6.2949458
20
5.7159674
40
1.2996158
50
276.4997895
51
326.8771337
0
ARC
8
DEFAULT_255_2_778
10
6.2949074
20
5.7305113
40
1.3140717
50
269.9887905
51
276.4296717
0
ARC
8
DEFAULT_255_2_778
10
6.2925336
20
5.710375
40
1.293937
50
236.8052685
51
270.0937283
0
ARC
8
DEFAULT_255_2_778
10
6.294185
20
5.7159602
40
1.299516
50
186.4973705
51
236.879159
0
ARC
8
DEFAULT_255_2_778
10
6.3091207
20
5.7160812
40
1.3143704
50
179.9887351
51
186.428937
0
LINE
8
DEFAULT_255_2_778
10
5.6699503
20
72.4463396
11
5.6699503
21
72.9564396
0
LINE
8
DEFAULT_255_2_778
10
3.9697503
20
72.9564396
11
3.9697503
21
72.4463396
0
LINE
8
DEFAULT_255_2_778
10
2.1697503
20
2.4563396
11
2.1697503
21
72.9564396
0
LINE
8
DEFAULT_255_2_778
10
12.1699503
20
72.4463396
11
12.1699503
21
72.9564396
0
LINE
8
DEFAULT_255_2_778
10
10.9197503
20
72.9564396
11
10.9197503
21
72.4463396
0
LINE
8
DEFAULT_255_2_778
10
19.3472503
20
2.9664396
11
17.9447503
21
2.4563396
0
LINE
8
DEFAULT_255_2_778
10
22.0198503
20
2.4563396
11
22.0198503
21
2.9664396
0
LINE
8
DEFAULT_255_2_778
10
6.8520503
20
4.5563396
11
5.7371503
21
4.5563396
0
LINE
8
DEFAULT_255_2_778
10
4.9947503
20
5.7163396
11
4.9947503
21
5.7163396
0
LINE
8
DEFAULT_255_2_778
10
7.3696503
20
6.4235396
11
7.3696503
21
5.0088396
0
LINE
8
DEFAULT_255_2_778
10
5.6696503
20
6.8452396
11
5.6696503
21
4.5870396
0
LINE
8
DEFAULT_255_2_778
10
5.2698503
20
2.4563396
11
5.2698503
21
2.7564396
0
LINE
8
DEFAULT_255_2_778
10
5.2698503
20
2.7564396
11
7.0198503
21
2.7564396
0
LINE
8
DEFAULT_255_2_778
10
7.0198503
20
2.7564396
11
7.0198503
21
2.9664396
0
LINE
8
DEFAULT_255_2_778
10
3.9697503
20
2.4563396
11
3.9697503
21
2.7564396
0
LINE
8
DEFAULT_255_2_778
10
3.9697503
20
2.7564396
11
3.8646503
21
2.9664396
0
LINE
8
DEFAULT_255_2_778
10
7.3696503
20
2.9664396
11
7.3696503
21
2.4563396
0
LINE
8
DEFAULT_255_2_778
10
7.6696503
20
2.4563396
11
7.6696503
21
2.9664396
0
LINE
8
DEFAULT_255_2_778
10
5.6696503
20
2.7564396
11
5.6696503
21
2.4563396
0
ARC
8
DEFAULT_255_2_778
10
6.2885383
20
69.6985922
40
1.2938585
50
146.8021795
51
180.093053
0
ARC
8
DEFAULT_255_2_778
10
6.2942859
20
69.6968631
40
1.2996158
50
96.4997895
51
146.8771337
0
ARC
8
DEFAULT_255_2_778
10
6.2943244
20
69.6823192
40
1.3140717
50
89.9887905
51
96.4296717
0
ARC
8
DEFAULT_255_2_778
10
6.2966693
20
69.702504
40
1.2938885
50
56.7179954
51
90.0924523
0
ARC
8
DEFAULT_255_2_778
10
6.2950137
20
69.6968158
40
1.2995535
50
6.4896882
51
56.7945945
0
ARC
8
DEFAULT_255_2_778
10
6.2802877
20
69.6967473
40
1.3141938
50
359.9888195
51
6.4200928
0
ARC
8
DEFAULT_255_2_778
10
6.3006746
20
69.6944181
40
1.2938085
50
326.7148745
51
0.0917915
0
ARC
8
DEFAULT_255_2_778
10
6.2948229
20
69.696151
40
1.2996527
50
276.4921002
51
326.792589
0
ARC
8
DEFAULT_255_2_778
10
6.2948366
20
69.7104856
40
1.3138949
50
269.9888749
51
276.4208275
0
ARC
8
DEFAULT_255_2_778
10
6.2925087
20
69.6903977
40
1.2938085
50
236.7148745
51
270.0917915
0
ARC
8
DEFAULT_255_2_778
10
6.2942417
20
69.6962494
40
1.2996527
50
186.4921002
51
236.792589
0
ARC
8
DEFAULT_255_2_778
10
6.3085763
20
69.6962357
40
1.3138949
50
179.9888749
51
186.4208275
0
ARC
8
DEFAULT_255_2_778
10
18.0385883
20
69.6988636
40
1.2938085
50
146.7148745
51
180.0917915
0
ARC
8
DEFAULT_255_2_778
10
18.0444401
20
69.6971306
40
1.2996527
50
96.4921002
51
146.792589
0
ARC
8
DEFAULT_255_2_778
10
18.0444264
20
69.682796
40
1.3138949
50
89.9888749
51
96.4208275
0
ARC
8
DEFAULT_255_2_778
10
18.0467828
20
69.702834
40
1.2938585
50
56.8021795
51
90.093053
0
ARC
8
DEFAULT_255_2_778
10
18.0450537
20
69.6970864
40
1.2996158
50
6.4997895
51
56.8771337
0
ARC
8
DEFAULT_255_2_778
10
18.0305098
20
69.6970479
40
1.3140717
50
359.9887905
51
6.4296717
0
ARC
8
DEFAULT_255_2_778
10
18.0506946
20
69.694703
40
1.2938885
50
326.7179954
51
0.0924523
0
ARC
8
DEFAULT_255_2_778
10
18.0450064
20
69.6963586
40
1.2995535
50
276.4896882
51
326.7945945
0
ARC
8
DEFAULT_255_2_778
10
18.0449379
20
69.7110846
40
1.3141938
50
269.9888195
51
276.4200928
0
ARC
8
DEFAULT_255_2_778
10
18.0426087
20
69.6906977
40
1.2938085
50
236.7148745
51
270.0917915
0
ARC
8
DEFAULT_255_2_778
10
18.0443417
20
69.6965494
40
1.2996527
50
186.4921002
51
236.792589
0
ARC
8
DEFAULT_255_2_778
10
18.0586763
20
69.6965357
40
1.3138949
50
179.9888749
51
186.4208275
0
ARC
8
DEFAULT_255_2_778
10
18.4193918
20
71.2572914
40
0.5006009
50
270.0560496
51
299.6160582
0
ARC
8
DEFAULT_255_2_778
10
7.8989542
20
63.0320566
40
1.4957277
50
359.9553425
51
34.3386467
0
ARC
8
DEFAULT_255_2_778
10
7.895375
20
63.0319041
40
1.4987704
50
34.2662787
51
77.5943799
0
ARC
8
DEFAULT_255_2_778
10
7.8921076
20
63.0157592
40
1.5152404
50
77.6048637
51
80.9870554
0
ARC
8
DEFAULT_255_2_778
10
4.6929082
20
63.5627728
40
1.4935193
50
89.9242978
51
119.8591134
0
ARC
8
DEFAULT_255_2_778
10
4.6956921
20
63.5558178
40
1.5009375
50
119.8190952
51
172.1195925
0
ARC
8
DEFAULT_255_2_778
10
4.7082839
20
63.5566202
40
1.5133026
50
172.2150501
51
180.0086844
0
ARC
8
DEFAULT_255_2_778
10
4.6880244
20
11.8540355
40
1.4930445
50
179.9172873
51
209.8171141
0
ARC
8
DEFAULT_255_2_778
10
4.6955515
20
11.8572442
40
1.5011709
50
209.7805207
51
262.1113798
0
ARC
8
DEFAULT_255_2_778
10
4.6948348
20
11.8700513
40
1.5137604
50
262.2047816
51
270.0017668
0
ARC
8
DEFAULT_255_2_778
10
7.8966355
20
12.3778025
40
1.4957466
50
278.9557745
51
313.3394388
0
ARC
8
DEFAULT_255_2_778
10
7.8961002
20
12.3811792
40
1.4985713
50
313.2657184
51
356.5998134
0
ARC
8
DEFAULT_255_2_778
10
7.8799276
20
12.3818302
40
1.514754
50
356.6115139
51
359.9947282
0
LINE
8
DEFAULT_255_2_778
10
5.6695815
20
68.5675908
11
5.6695815
21
70.8257908
0
LINE
8
DEFAULT_255_2_778
10
6.1696815
20
68.4145908
11
6.1696815
21
70.9786908
0
LINE
8
DEFAULT_255_2_778
10
4.9946815
20
69.6964908
11
4.9946815
21
69.6964908
0
LINE
8
DEFAULT_255_2_778
10
16.7447815
20
69.6967908
11
16.7447815
21
69.6967908
0
LINE
8
DEFAULT_255_2_778
10
18.4198815
20
70.7566908
11
17.3033815
21
70.7566908
0
LINE
8
DEFAULT_255_2_778
10
8.1294815
20
64.5122908
11
4.6948815
21
65.0562908
0
LINE
8
DEFAULT_255_2_778
10
3.1949815
20
63.5563908
11
3.1949815
21
11.8561908
0
LINE
8
DEFAULT_255_2_778
10
4.6948815
20
10.3562908
11
8.1294815
21
10.9002908
0
LINE
8
DEFAULT_255_2_778
10
9.3946815
20
12.3816908
11
9.3946815
21
63.0308908
0
ARC
8
DEFAULT_255_2_778
10
16.4381604
20
63.5588069
40
1.4932471
50
150.1431825
51
180.0829091
0
ARC
8
DEFAULT_255_2_778
10
16.4452867
20
63.5558755
40
1.5008872
50
97.8776642
51
150.1815622
0
ARC
8
DEFAULT_255_2_778
10
16.4445844
20
63.5429196
40
1.5136267
50
89.9912773
51
97.7841144
0
ARC
8
DEFAULT_255_2_778
10
19.6464701
20
63.0349303
40
1.4958493
50
46.6639336
51
81.0448918
0
ARC
8
DEFAULT_255_2_778
10
19.6458113
20
63.0315066
40
1.4987928
50
3.7835523
51
46.7354382
0
ARC
8
DEFAULT_255_2_778
10
19.6298252
20
63.0308133
40
1.5147898
50
0.0125877
51
3.7698167
0
ARC
8
DEFAULT_255_2_778
10
19.6484764
20
12.3812942
40
1.4961387
50
325.6607501
51
0.0364528
0
ARC
8
DEFAULT_255_2_778
10
19.6453601
20
12.3810622
40
1.4985822
50
282.4012625
51
325.7352862
0
ARC
8
DEFAULT_255_2_778
10
19.6422142
20
12.3969293
40
1.5147548
50
279.0053911
51
282.3885889
0
ARC
8
DEFAULT_255_2_778
10
16.4428189
20
11.8504466
40
1.4936018
50
240.1851685
51
270.0765659
0
ARC
8
DEFAULT_255_2_778
10
16.4455667
20
11.8572512
40
1.5008723
50
187.8837681
51
240.2233111
0
ARC
8
DEFAULT_255_2_778
10
16.4583862
20
11.8565122
40
1.5134713
50
179.9911457
51
187.7894895
0
LINE
8
DEFAULT_255_2_778
10
7.8149148
20
53.5963461
11
7.8149148
21
54.8364461
0
LINE
8
DEFAULT_255_2_778
10
7.8149148
20
54.8364461
11
7.3148148
21
54.8364461
0
LINE
8
DEFAULT_255_2_778
10
7.3148148
20
54.8364461
11
7.3148148
21
53.5963461
0
LINE
8
DEFAULT_255_2_778
10
7.3148148
20
53.5963461
11
7.8149148
21
53.5963461
0
LINE
8
DEFAULT_255_2_778
10
7.8149148
20
56.1363461
11
7.8149148
21
57.3764461
0
LINE
8
DEFAULT_255_2_778
10
7.8149148
20
57.3764461
11
7.3148148
21
57.3764461
0
LINE
8
DEFAULT_255_2_778
10
7.3148148
20
57.3764461
11
7.3148148
21
56.1363461
0
LINE
8
DEFAULT_255_2_778
10
7.3148148
20
56.1363461
11
7.8149148
21
56.1363461
0
LINE
8
DEFAULT_255_2_778
10
7.8149148
20
58.6763461
11
7.8149148
21
59.9164461
0
LINE
8
DEFAULT_255_2_778
10
7.8149148
20
59.9164461
11
7.3148148
21
59.9164461
0
LINE
8
DEFAULT_255_2_778
10
7.3148148
20
59.9164461
11
7.3148148
21
58.6763461
0
LINE
8
DEFAULT_255_2_778
10
7.3148148
20
58.6763461
11
7.8149148
21
58.6763461
0
LINE
8
DEFAULT_255_2_778
10
7.8149148
20
61.2163461
11
7.8149148
21
62.4564461
0
LINE
8
DEFAULT_255_2_778
10
7.8149148
20
62.4564461
11
7.3148148
21
62.4564461
0
LINE
8
DEFAULT_255_2_778
10
7.3148148
20
62.4564461
11
7.3148148
21
61.2163461
0
LINE
8
DEFAULT_255_2_778
10
7.3148148
20
61.2163461
11
7.8149148
21
61.2163461
0
LINE
8
DEFAULT_255_2_778
10
5.2749148
20
53.5963461
11
5.2749148
21
54.8364461
0
LINE
8
DEFAULT_255_2_778
10
5.2749148
20
54.8364461
11
4.7748148
21
54.8364461
0
LINE
8
DEFAULT_255_2_778
10
4.7748148
20
54.8364461
11
4.7748148
21
53.5963461
0
LINE
8
DEFAULT_255_2_778
10
4.7748148
20
53.5963461
11
5.2749148
21
53.5963461
0
LINE
8
DEFAULT_255_2_778
10
5.2749148
20
56.1363461
11
5.2749148
21
57.3764461
0
LINE
8
DEFAULT_255_2_778
10
5.2749148
20
57.3764461
11
4.7748148
21
57.3764461
0
LINE
8
DEFAULT_255_2_778
10
4.7748148
20
57.3764461
11
4.7748148
21
56.1363461
0
LINE
8
DEFAULT_255_2_778
10
4.7748148
20
56.1363461
11
5.2749148
21
56.1363461
0
LINE
8
DEFAULT_255_2_778
10
5.2749148
20
58.6763461
11
5.2749148
21
59.9164461
0
LINE
8
DEFAULT_255_2_778
10
5.2749148
20
59.9164461
11
4.7748148
21
59.9164461
0
LINE
8
DEFAULT_255_2_778
10
4.7748148
20
59.9164461
11
4.7748148
21
58.6763461
0
LINE
8
DEFAULT_255_2_778
10
4.7748148
20
58.6763461
11
5.2749148
21
58.6763461
0
LINE
8
DEFAULT_255_2_778
10
5.2749148
20
61.2163461
11
5.2749148
21
62.4564461
0
LINE
8
DEFAULT_255_2_778
10
5.2749148
20
62.4564461
11
4.7748148
21
62.4564461
0
LINE
8
DEFAULT_255_2_778
10
4.7748148
20
62.4564461
11
4.7748148
21
61.2163461
0
LINE
8
DEFAULT_255_2_778
10
4.7748148
20
61.2163461
11
5.2749148
21
61.2163461
0
LINE
8
DEFAULT_255_2_778
10
7.8149148
20
43.4363461
11
7.8149148
21
44.6764461
0
LINE
8
DEFAULT_255_2_778
10
7.8149148
20
44.6764461
11
7.3148148
21
44.6764461
0
LINE
8
DEFAULT_255_2_778
10
7.3148148
20
44.6764461
11
7.3148148
21
43.4363461
0
LINE
8
DEFAULT_255_2_778
10
7.3148148
20
43.4363461
11
7.8149148
21
43.4363461
0
LINE
8
DEFAULT_255_2_778
10
7.8149148
20
45.9763461
11
7.8149148
21
47.2164461
0
LINE
8
DEFAULT_255_2_778
10
7.8149148
20
47.2164461
11
7.3148148
21
47.2164461
0
LINE
8
DEFAULT_255_2_778
10
7.3148148
20
47.2164461
11
7.3148148
21
45.9763461
0
LINE
8
DEFAULT_255_2_778
10
7.3148148
20
45.9763461
11
7.8149148
21
45.9763461
0
LINE
8
DEFAULT_255_2_778
10
7.8149148
20
48.5163461
11
7.8149148
21
49.7564461
0
LINE
8
DEFAULT_255_2_778
10
7.8149148
20
49.7564461
11
7.3148148
21
49.7564461
0
LINE
8
DEFAULT_255_2_778
10
7.3148148
20
49.7564461
11
7.3148148
21
48.5163461
0
LINE
8
DEFAULT_255_2_778
10
7.3148148
20
48.5163461
11
7.8149148
21
48.5163461
0
LINE
8
DEFAULT_255_2_778
10
7.8149148
20
51.0563461
11
7.8149148
21
52.2964461
0
LINE
8
DEFAULT_255_2_778
10
7.8149148
20
52.2964461
11
7.3148148
21
52.2964461
0
LINE
8
DEFAULT_255_2_778
10
7.3148148
20
52.2964461
11
7.3148148
21
51.0563461
0
LINE
8
DEFAULT_255_2_778
10
7.3148148
20
51.0563461
11
7.8149148
21
51.0563461
0
LINE
8
DEFAULT_255_2_778
10
5.2749148
20
43.4363461
11
5.2749148
21
44.6764461
0
LINE
8
DEFAULT_255_2_778
10
5.2749148
20
44.6764461
11
4.7748148
21
44.6764461
0
LINE
8
DEFAULT_255_2_778
10
4.7748148
20
44.6764461
11
4.7748148
21
43.4363461
0
LINE
8
DEFAULT_255_2_778
10
4.7748148
20
43.4363461
11
5.2749148
21
43.4363461
0
LINE
8
DEFAULT_255_2_778
10
5.2749148
20
45.9763461
11
5.2749148
21
47.2164461
0
LINE
8
DEFAULT_255_2_778
10
5.2749148
20
47.2164461
11
4.7748148
21
47.2164461
0
LINE
8
DEFAULT_255_2_778
10
4.7748148
20
47.2164461
11
4.7748148
21
45.9763461
0
LINE
8
DEFAULT_255_2_778
10
4.7748148
20
45.9763461
11
5.2749148
21
45.9763461
0
LINE
8
DEFAULT_255_2_778
10
5.2749148
20
48.5163461
11
5.2749148
21
49.7564461
0
LINE
8
DEFAULT_255_2_778
10
5.2749148
20
49.7564461
11
4.7748148
21
49.7564461
0
LINE
8
DEFAULT_255_2_778
10
4.7748148
20
49.7564461
11
4.7748148
21
48.5163461
0
LINE
8
DEFAULT_255_2_778
10
4.7748148
20
48.5163461
11
5.2749148
21
48.5163461
0
LINE
8
DEFAULT_255_2_778
10
5.2749148
20
51.0563461
11
5.2749148
21
52.2964461
0
LINE
8
DEFAULT_255_2_778
10
5.2749148
20
52.2964461
11
4.7748148
21
52.2964461
0
LINE
8
DEFAULT_255_2_778
10
4.7748148
20
52.2964461
11
4.7748148
21
51.0563461
0
LINE
8
DEFAULT_255_2_778
10
4.7748148
20
51.0563461
11
5.2749148
21
51.0563461
0
LINE
8
DEFAULT_255_2_778
10
7.8149148
20
33.2763461
11
7.8149148
21
34.5164461
0
LINE
8
DEFAULT_255_2_778
10
7.8149148
20
34.5164461
11
7.3148148
21
34.5164461
0
LINE
8
DEFAULT_255_2_778
10
7.3148148
20
34.5164461
11
7.3148148
21
33.2763461
0
LINE
8
DEFAULT_255_2_778
10
7.3148148
20
33.2763461
11
7.8149148
21
33.2763461
0
LINE
8
DEFAULT_255_2_778
10
7.8149148
20
35.8163461
11
7.8149148
21
37.0564461
0
LINE
8
DEFAULT_255_2_778
10
7.8149148
20
37.0564461
11
7.3148148
21
37.0564461
0
LINE
8
DEFAULT_255_2_778
10
7.3148148
20
37.0564461
11
7.3148148
21
35.8163461
0
LINE
8
DEFAULT_255_2_778
10
7.3148148
20
35.8163461
11
7.8149148
21
35.8163461
0
LINE
8
DEFAULT_255_2_778
10
7.8149148
20
38.3563461
11
7.8149148
21
39.5964461
0
LINE
8
DEFAULT_255_2_778
10
7.8149148
20
39.5964461
11
7.3148148
21
39.5964461
0
LINE
8
DEFAULT_255_2_778
10
7.3148148
20
39.5964461
11
7.3148148
21
38.3563461
0
LINE
8
DEFAULT_255_2_778
10
7.3148148
20
38.3563461
11
7.8149148
21
38.3563461
0
LINE
8
DEFAULT_255_2_778
10
7.8149148
20
40.8963461
11
7.8149148
21
42.1364461
0
LINE
8
DEFAULT_255_2_778
10
7.8149148
20
42.1364461
11
7.3148148
21
42.1364461
0
LINE
8
DEFAULT_255_2_778
10
7.3148148
20
42.1364461
11
7.3148148
21
40.8963461
0
LINE
8
DEFAULT_255_2_778
10
7.3148148
20
40.8963461
11
7.8149148
21
40.8963461
0
LINE
8
DEFAULT_255_2_778
10
5.2749148
20
33.2763461
11
5.2749148
21
34.5164461
0
LINE
8
DEFAULT_255_2_778
10
5.2749148
20
34.5164461
11
4.7748148
21
34.5164461
0
LINE
8
DEFAULT_255_2_778
10
4.7748148
20
34.5164461
11
4.7748148
21
33.2763461
0
LINE
8
DEFAULT_255_2_778
10
4.7748148
20
33.2763461
11
5.2749148
21
33.2763461
0
LINE
8
DEFAULT_255_2_778
10
5.2749148
20
35.8163461
11
5.2749148
21
37.0564461
0
LINE
8
DEFAULT_255_2_778
10
5.2749148
20
37.0564461
11
4.7748148
21
37.0564461
0
LINE
8
DEFAULT_255_2_778
10
4.7748148
20
37.0564461
11
4.7748148
21
35.8163461
0
LINE
8
DEFAULT_255_2_778
10
4.7748148
20
35.8163461
11
5.2749148
21
35.8163461
0
LINE
8
DEFAULT_255_2_778
10
5.2749148
20
38.3563461
11
5.2749148
21
39.5964461
0
LINE
8
DEFAULT_255_2_778
10
5.2749148
20
39.5964461
11
4.7748148
21
39.5964461
0
LINE
8
DEFAULT_255_2_778
10
4.7748148
20
39.5964461
11
4.7748148
21
38.3563461
0
LINE
8
DEFAULT_255_2_778
10
4.7748148
20
38.3563461
11
5.2749148
21
38.3563461
0
LINE
8
DEFAULT_255_2_778
10
5.2749148
20
40.8963461
11
5.2749148
21
42.1364461
0
LINE
8
DEFAULT_255_2_778
10
5.2749148
20
42.1364461
11
4.7748148
21
42.1364461
0
LINE
8
DEFAULT_255_2_778
10
4.7748148
20
42.1364461
11
4.7748148
21
40.8963461
0
LINE
8
DEFAULT_255_2_778
10
4.7748148
20
40.8963461
11
5.2749148
21
40.8963461
0
LINE
8
DEFAULT_255_2_778
10
7.8149148
20
23.1163461
11
7.8149148
21
24.3564461
0
LINE
8
DEFAULT_255_2_778
10
7.8149148
20
24.3564461
11
7.3148148
21
24.3564461
0
LINE
8
DEFAULT_255_2_778
10
7.3148148
20
24.3564461
11
7.3148148
21
23.1163461
0
LINE
8
DEFAULT_255_2_778
10
7.3148148
20
23.1163461
11
7.8149148
21
23.1163461
0
LINE
8
DEFAULT_255_2_778
10
7.8149148
20
25.6563461
11
7.8149148
21
26.8964461
0
LINE
8
DEFAULT_255_2_778
10
7.8149148
20
26.8964461
11
7.3148148
21
26.8964461
0
LINE
8
DEFAULT_255_2_778
10
7.3148148
20
26.8964461
11
7.3148148
21
25.6563461
0
LINE
8
DEFAULT_255_2_778
10
7.3148148
20
25.6563461
11
7.8149148
21
25.6563461
0
LINE
8
DEFAULT_255_2_778
10
7.8149148
20
28.1963461
11
7.8149148
21
29.4364461
0
LINE
8
DEFAULT_255_2_778
10
7.8149148
20
29.4364461
11
7.3148148
21
29.4364461
0
LINE
8
DEFAULT_255_2_778
10
7.3148148
20
29.4364461
11
7.3148148
21
28.1963461
0
LINE
8
DEFAULT_255_2_778
10
7.3148148
20
28.1963461
11
7.8149148
21
28.1963461
0
LINE
8
DEFAULT_255_2_778
10
7.8149148
20
30.7363461
11
7.8149148
21
31.9764461
0
LINE
8
DEFAULT_255_2_778
10
7.8149148
20
31.9764461
11
7.3148148
21
31.9764461
0
LINE
8
DEFAULT_255_2_778
10
7.3148148
20
31.9764461
11
7.3148148
21
30.7363461
0
LINE
8
DEFAULT_255_2_778
10
7.3148148
20
30.7363461
11
7.8149148
21
30.7363461
0
LINE
8
DEFAULT_255_2_778
10
5.2749148
20
23.1163461
11
5.2749148
21
24.3564461
0
LINE
8
DEFAULT_255_2_778
10
5.2749148
20
24.3564461
11
4.7748148
21
24.3564461
0
LINE
8
DEFAULT_255_2_778
10
4.7748148
20
24.3564461
11
4.7748148
21
23.1163461
0
LINE
8
DEFAULT_255_2_778
10
4.7748148
20
23.1163461
11
5.2749148
21
23.1163461
0
LINE
8
DEFAULT_255_2_778
10
5.2749148
20
25.6563461
11
5.2749148
21
26.8964461
0
LINE
8
DEFAULT_255_2_778
10
5.2749148
20
26.8964461
11
4.7748148
21
26.8964461
0
LINE
8
DEFAULT_255_2_778
10
4.7748148
20
26.8964461
11
4.7748148
21
25.6563461
0
LINE
8
DEFAULT_255_2_778
10
4.7748148
20
25.6563461
11
5.2749148
21
25.6563461
0
LINE
8
DEFAULT_255_2_778
10
5.2749148
20
28.1963461
11
5.2749148
21
29.4364461
0
LINE
8
DEFAULT_255_2_778
10
5.2749148
20
29.4364461
11
4.7748148
21
29.4364461
0
LINE
8
DEFAULT_255_2_778
10
4.7748148
20
29.4364461
11
4.7748148
21
28.1963461
0
LINE
8
DEFAULT_255_2_778
10
4.7748148
20
28.1963461
11
5.2749148
21
28.1963461
0
LINE
8
DEFAULT_255_2_778
10
5.2749148
20
30.7363461
11
5.2749148
21
31.9764461
0
LINE
8
DEFAULT_255_2_778
10
5.2749148
20
31.9764461
11
4.7748148
21
31.9764461
0
LINE
8
DEFAULT_255_2_778
10
4.7748148
20
31.9764461
11
4.7748148
21
30.7363461
0
LINE
8
DEFAULT_255_2_778
10
4.7748148
20
30.7363461
11
5.2749148
21
30.7363461
0
LINE
8
DEFAULT_255_2_778
10
7.8149148
20
12.9563461
11
7.8149148
21
14.1964461
0
LINE
8
DEFAULT_255_2_778
10
7.8149148
20
14.1964461
11
7.3148148
21
14.1964461
0
LINE
8
DEFAULT_255_2_778
10
7.3148148
20
14.1964461
11
7.3148148
21
12.9563461
0
LINE
8
DEFAULT_255_2_778
10
7.3148148
20
12.9563461
11
7.8149148
21
12.9563461
0
LINE
8
DEFAULT_255_2_778
10
7.8149148
20
15.4963461
11
7.8149148
21
16.7364461
0
LINE
8
DEFAULT_255_2_778
10
7.8149148
20
16.7364461
11
7.3148148
21
16.7364461
0
LINE
8
DEFAULT_255_2_778
10
7.3148148
20
16.7364461
11
7.3148148
21
15.4963461
0
LINE
8
DEFAULT_255_2_778
10
7.3148148
20
15.4963461
11
7.8149148
21
15.4963461
0
LINE
8
DEFAULT_255_2_778
10
7.8149148
20
18.0363461
11
7.8149148
21
19.2764461
0
LINE
8
DEFAULT_255_2_778
10
7.8149148
20
19.2764461
11
7.3148148
21
19.2764461
0
LINE
8
DEFAULT_255_2_778
10
7.3148148
20
19.2764461
11
7.3148148
21
18.0363461
0
LINE
8
DEFAULT_255_2_778
10
7.3148148
20
18.0363461
11
7.8149148
21
18.0363461
0
LINE
8
DEFAULT_255_2_778
10
7.8149148
20
20.5763461
11
7.8149148
21
21.8164461
0
LINE
8
DEFAULT_255_2_778
10
7.8149148
20
21.8164461
11
7.3148148
21
21.8164461
0
LINE
8
DEFAULT_255_2_778
10
7.3148148
20
21.8164461
11
7.3148148
21
20.5763461
0
LINE
8
DEFAULT_255_2_778
10
7.3148148
20
20.5763461
11
7.8149148
21
20.5763461
0
LINE
8
DEFAULT_255_2_778
10
5.2749148
20
12.9563461
11
5.2749148
21
14.1964461
0
LINE
8
DEFAULT_255_2_778
10
5.2749148
20
14.1964461
11
4.7748148
21
14.1964461
0
LINE
8
DEFAULT_255_2_778
10
4.7748148
20
14.1964461
11
4.7748148
21
12.9563461
0
LINE
8
DEFAULT_255_2_778
10
4.7748148
20
12.9563461
11
5.2749148
21
12.9563461
0
LINE
8
DEFAULT_255_2_778
10
5.2749148
20
15.4963461
11
5.2749148
21
16.7364461
0
LINE
8
DEFAULT_255_2_778
10
5.2749148
20
16.7364461
11
4.7748148
21
16.7364461
0
LINE
8
DEFAULT_255_2_778
10
4.7748148
20
16.7364461
11
4.7748148
21
15.4963461
0
LINE
8
DEFAULT_255_2_778
10
4.7748148
20
15.4963461
11
5.2749148
21
15.4963461
0
LINE
8
DEFAULT_255_2_778
10
5.2749148
20
18.0363461
11
5.2749148
21
19.2764461
0
LINE
8
DEFAULT_255_2_778
10
5.2749148
20
19.2764461
11
4.7748148
21
19.2764461
0
LINE
8
DEFAULT_255_2_778
10
4.7748148
20
19.2764461
11
4.7748148
21
18.0363461
0
LINE
8
DEFAULT_255_2_778
10
4.7748148
20
18.0363461
11
5.2749148
21
18.0363461
0
LINE
8
DEFAULT_255_2_778
10
5.2749148
20
20.5763461
11
5.2749148
21
21.8164461
0
LINE
8
DEFAULT_255_2_778
10
5.2749148
20
21.8164461
11
4.7748148
21
21.8164461
0
LINE
8
DEFAULT_255_2_778
10
4.7748148
20
21.8164461
11
4.7748148
21
20.5763461
0
LINE
8
DEFAULT_255_2_778
10
4.7748148
20
20.5763461
11
5.2749148
21
20.5763461
0
LINE
8
DEFAULT_255_2_778
10
16.4448148
20
65.0565461
11
19.8793148
21
64.5125461
0
LINE
8
DEFAULT_255_2_778
10
21.1446148
20
63.0311461
11
21.1446148
21
12.3822461
0
LINE
8
DEFAULT_255_2_778
10
19.8793148
20
10.9008461
11
16.4448148
21
10.3568461
0
LINE
8
DEFAULT_255_2_778
10
14.9449148
20
11.8567461
11
14.9449148
21
63.5566461
0
ARC
8
DEFAULT_255_2_778
10
11.5449091
20
61.0568654
40
1.0003419
50
180.0031419
51
224.9924261
0
ARC
8
DEFAULT_255_2_778
10
11.5446201
20
61.0568055
40
1.000095
50
225.0017048
51
270.0026977
0
ARC
8
DEFAULT_255_2_778
10
12.6696987
20
47.0063818
40
1.0001287
50
12.3276104
51
90.0018046
0
ARC
8
DEFAULT_255_2_778
10
18.6715614
20
75.8061036
40
1.9983222
50
319.4854204
51
336.8797167
0
ARC
8
DEFAULT_255_2_778
10
18.6687933
20
75.8058
40
2.0007491
50
336.9188374
51
0.0181462
0
LINE
8
DEFAULT_255_2_778
10
20.6695423
20
75.8064337
11
20.6695423
21
75.8066565
0
ARC
8
DEFAULT_255_2_778
10
18.6710769
20
75.8074165
40
1.9984655
50
359.9782129
51
28.1406292
0
ARC
8
DEFAULT_255_2_778
10
18.6670433
20
75.803634
40
2.0038069
50
28.1816023
51
40.4551946
0
ARC
8
DEFAULT_255_2_778
10
18.6676335
20
75.8068851
40
1.9982295
50
139.5309447
51
156.9142873
0
ARC
8
DEFAULT_255_2_778
10
18.6704179
20
75.8071794
40
2.000676
50
156.9533085
51
180.0149752
0
LINE
8
DEFAULT_255_2_778
10
16.669742
20
75.8066565
11
16.669742
21
75.8065423
0
ARC
8
DEFAULT_255_2_778
10
18.6682902
20
75.8055647
40
1.9985484
50
179.9719715
51
208.1702987
0
ARC
8
DEFAULT_255_2_778
10
18.6723002
20
75.8093392
40
2.0038658
50
208.2113108
51
220.5008222
0
ARC
8
DEFAULT_255_2_778
10
18.6670119
20
75.8087443
40
0.8474477
50
133.6455615
51
180.1510286
0
ARC
8
DEFAULT_255_2_778
10
18.6674315
20
75.8092201
40
0.8473932
50
89.848835
51
133.6882919
0
ARC
8
DEFAULT_255_2_778
10
18.6718527
20
75.8091367
40
0.8474766
50
43.6033795
51
90.1477532
0
ARC
8
DEFAULT_255_2_778
10
18.6724034
20
75.8087185
40
0.8473667
50
359.8507046
51
43.6495366
0
ARC
8
DEFAULT_255_2_778
10
18.6723066
20
75.804356
40
0.8474633
50
313.5993957
51
0.1456617
0
ARC
8
DEFAULT_255_2_778
10
18.6718309
20
75.8037885
40
0.8473808
50
269.8536982
51
313.649149
0
ARC
8
DEFAULT_255_2_778
10
18.6674646
20
75.8038434
40
0.8474358
50
223.5985901
51
270.1489161
0
ARC
8
DEFAULT_255_2_778
10
18.6669715
20
75.8043192
40
0.8474071
50
179.8518397
51
223.6448797
0
LINE
8
DEFAULT_255_2_778
10
19.6358672
20
53.5963105
11
19.6358672
21
54.8364105
0
LINE
8
DEFAULT_255_2_778
10
19.6358672
20
54.8364105
11
19.0649672
21
54.8364105
0
LINE
8
DEFAULT_255_2_778
10
19.0649672
20
54.8364105
11
19.0649672
21
53.5963105
0
LINE
8
DEFAULT_255_2_778
10
19.0649672
20
53.5963105
11
19.6358672
21
53.5963105
0
LINE
8
DEFAULT_255_2_778
10
19.6358672
20
56.1363105
11
19.6358672
21
57.3764105
0
LINE
8
DEFAULT_255_2_778
10
19.6358672
20
57.3764105
11
19.0649672
21
57.3764105
0
LINE
8
DEFAULT_255_2_778
10
19.0649672
20
57.3764105
11
19.0649672
21
56.1363105
0
LINE
8
DEFAULT_255_2_778
10
19.0649672
20
56.1363105
11
19.6358672
21
56.1363105
0
LINE
8
DEFAULT_255_2_778
10
19.6358672
20
58.6763105
11
19.6358672
21
59.9164105
0
LINE
8
DEFAULT_255_2_778
10
19.6358672
20
59.9164105
11
19.0649672
21
59.9164105
0
LINE
8
DEFAULT_255_2_778
10
19.0649672
20
59.9164105
11
19.0649672
21
58.6763105
0
LINE
8
DEFAULT_255_2_778
10
19.0649672
20
58.6763105
11
19.6358672
21
58.6763105
0
LINE
8
DEFAULT_255_2_778
10
19.6358672
20
61.2163105
11
19.6358672
21
62.4564105
0
LINE
8
DEFAULT_255_2_778
10
19.6358672
20
62.4564105
11
19.0649672
21
62.4564105
0
LINE
8
DEFAULT_255_2_778
10
19.0649672
20
62.4564105
11
19.0649672
21
61.2163105
0
LINE
8
DEFAULT_255_2_778
10
19.0649672
20
61.2163105
11
19.6358672
21
61.2163105
0
LINE
8
DEFAULT_255_2_778
10
17.0958672
20
53.5963105
11
17.0958672
21
54.8364105
0
LINE
8
DEFAULT_255_2_778
10
17.0958672
20
54.8364105
11
16.5249672
21
54.8364105
0
LINE
8
DEFAULT_255_2_778
10
16.5249672
20
54.8364105
11
16.5249672
21
53.5963105
0
LINE
8
DEFAULT_255_2_778
10
16.5249672
20
53.5963105
11
17.0958672
21
53.5963105
0
LINE
8
DEFAULT_255_2_778
10
17.0958672
20
56.1363105
11
17.0958672
21
57.3764105
0
LINE
8
DEFAULT_255_2_778
10
17.0958672
20
57.3764105
11
16.5249672
21
57.3764105
0
LINE
8
DEFAULT_255_2_778
10
16.5249672
20
57.3764105
11
16.5249672
21
56.1363105
0
LINE
8
DEFAULT_255_2_778
10
16.5249672
20
56.1363105
11
17.0958672
21
56.1363105
0
LINE
8
DEFAULT_255_2_778
10
17.0958672
20
58.6763105
11
17.0958672
21
59.9164105
0
LINE
8
DEFAULT_255_2_778
10
17.0958672
20
59.9164105
11
16.5249672
21
59.9164105
0
LINE
8
DEFAULT_255_2_778
10
16.5249672
20
59.9164105
11
16.5249672
21
58.6763105
0
LINE
8
DEFAULT_255_2_778
10
16.5249672
20
58.6763105
11
17.0958672
21
58.6763105
0
LINE
8
DEFAULT_255_2_778
10
17.0958672
20
61.2163105
11
17.0958672
21
62.4564105
0
LINE
8
DEFAULT_255_2_778
10
17.0958672
20
62.4564105
11
16.5249672
21
62.4564105
0
LINE
8
DEFAULT_255_2_778
10
16.5249672
20
62.4564105
11
16.5249672
21
61.2163105
0
LINE
8
DEFAULT_255_2_778
10
16.5249672
20
61.2163105
11
17.0958672
21
61.2163105
0
LINE
8
DEFAULT_255_2_778
10
19.6358672
20
43.4363105
11
19.6358672
21
44.6764105
0
LINE
8
DEFAULT_255_2_778
10
19.6358672
20
44.6764105
11
19.0649672
21
44.6764105
0
LINE
8
DEFAULT_255_2_778
10
19.0649672
20
44.6764105
11
19.0649672
21
43.4363105
0
LINE
8
DEFAULT_255_2_778
10
19.0649672
20
43.4363105
11
19.6358672
21
43.4363105
0
LINE
8
DEFAULT_255_2_778
10
19.6358672
20
45.9763105
11
19.6358672
21
47.2164105
0
LINE
8
DEFAULT_255_2_778
10
19.6358672
20
47.2164105
11
19.0649672
21
47.2164105
0
LINE
8
DEFAULT_255_2_778
10
19.0649672
20
47.2164105
11
19.0649672
21
45.9763105
0
LINE
8
DEFAULT_255_2_778
10
19.0649672
20
45.9763105
11
19.6358672
21
45.9763105
0
LINE
8
DEFAULT_255_2_778
10
19.6358672
20
48.5163105
11
19.6358672
21
49.7564105
0
LINE
8
DEFAULT_255_2_778
10
19.6358672
20
49.7564105
11
19.0649672
21
49.7564105
0
LINE
8
DEFAULT_255_2_778
10
19.0649672
20
49.7564105
11
19.0649672
21
48.5163105
0
LINE
8
DEFAULT_255_2_778
10
19.0649672
20
48.5163105
11
19.6358672
21
48.5163105
0
LINE
8
DEFAULT_255_2_778
10
19.6358672
20
51.0563105
11
19.6358672
21
52.2964105
0
LINE
8
DEFAULT_255_2_778
10
19.6358672
20
52.2964105
11
19.0649672
21
52.2964105
0
LINE
8
DEFAULT_255_2_778
10
19.0649672
20
52.2964105
11
19.0649672
21
51.0563105
0
LINE
8
DEFAULT_255_2_778
10
19.0649672
20
51.0563105
11
19.6358672
21
51.0563105
0
LINE
8
DEFAULT_255_2_778
10
17.0958672
20
43.4363105
11
17.0958672
21
44.6764105
0
LINE
8
DEFAULT_255_2_778
10
17.0958672
20
44.6764105
11
16.5249672
21
44.6764105
0
LINE
8
DEFAULT_255_2_778
10
16.5249672
20
44.6764105
11
16.5249672
21
43.4363105
0
LINE
8
DEFAULT_255_2_778
10
16.5249672
20
43.4363105
11
17.0958672
21
43.4363105
0
LINE
8
DEFAULT_255_2_778
10
17.0958672
20
45.9763105
11
17.0958672
21
47.2164105
0
LINE
8
DEFAULT_255_2_778
10
17.0958672
20
47.2164105
11
16.5249672
21
47.2164105
0
LINE
8
DEFAULT_255_2_778
10
16.5249672
20
47.2164105
11
16.5249672
21
45.9763105
0
LINE
8
DEFAULT_255_2_778
10
16.5249672
20
45.9763105
11
17.0958672
21
45.9763105
0
LINE
8
DEFAULT_255_2_778
10
17.0958672
20
48.5163105
11
17.0958672
21
49.7564105
0
LINE
8
DEFAULT_255_2_778
10
17.0958672
20
49.7564105
11
16.5249672
21
49.7564105
0
LINE
8
DEFAULT_255_2_778
10
16.5249672
20
49.7564105
11
16.5249672
21
48.5163105
0
LINE
8
DEFAULT_255_2_778
10
16.5249672
20
48.5163105
11
17.0958672
21
48.5163105
0
LINE
8
DEFAULT_255_2_778
10
17.0958672
20
51.0563105
11
17.0958672
21
52.2964105
0
LINE
8
DEFAULT_255_2_778
10
17.0958672
20
52.2964105
11
16.5249672
21
52.2964105
0
LINE
8
DEFAULT_255_2_778
10
16.5249672
20
52.2964105
11
16.5249672
21
51.0563105
0
LINE
8
DEFAULT_255_2_778
10
16.5249672
20
51.0563105
11
17.0958672
21
51.0563105
0
LINE
8
DEFAULT_255_2_778
10
19.6358672
20
33.2763105
11
19.6358672
21
34.5164105
0
LINE
8
DEFAULT_255_2_778
10
19.6358672
20
34.5164105
11
19.0649672
21
34.5164105
0
LINE
8
DEFAULT_255_2_778
10
19.0649672
20
34.5164105
11
19.0649672
21
33.2763105
0
LINE
8
DEFAULT_255_2_778
10
19.0649672
20
33.2763105
11
19.6358672
21
33.2763105
0
LINE
8
DEFAULT_255_2_778
10
19.6358672
20
35.8163105
11
19.6358672
21
37.0564105
0
LINE
8
DEFAULT_255_2_778
10
19.6358672
20
37.0564105
11
19.0649672
21
37.0564105
0
LINE
8
DEFAULT_255_2_778
10
19.0649672
20
37.0564105
11
19.0649672
21
35.8163105
0
LINE
8
DEFAULT_255_2_778
10
19.0649672
20
35.8163105
11
19.6358672
21
35.8163105
0
LINE
8
DEFAULT_255_2_778
10
19.6358672
20
38.3563105
11
19.6358672
21
39.5964105
0
LINE
8
DEFAULT_255_2_778
10
19.6358672
20
39.5964105
11
19.0649672
21
39.5964105
0
LINE
8
DEFAULT_255_2_778
10
19.0649672
20
39.5964105
11
19.0649672
21
38.3563105
0
LINE
8
DEFAULT_255_2_778
10
19.0649672
20
38.3563105
11
19.6358672
21
38.3563105
0
LINE
8
DEFAULT_255_2_778
10
19.6358672
20
40.8963105
11
19.6358672
21
42.1364105
0
LINE
8
DEFAULT_255_2_778
10
19.6358672
20
42.1364105
11
19.0649672
21
42.1364105
0
LINE
8
DEFAULT_255_2_778
10
19.0649672
20
42.1364105
11
19.0649672
21
40.8963105
0
LINE
8
DEFAULT_255_2_778
10
19.0649672
20
40.8963105
11
19.6358672
21
40.8963105
0
LINE
8
DEFAULT_255_2_778
10
17.0958672
20
33.2763105
11
17.0958672
21
34.5164105
0
LINE
8
DEFAULT_255_2_778
10
17.0958672
20
34.5164105
11
16.5249672
21
34.5164105
0
LINE
8
DEFAULT_255_2_778
10
16.5249672
20
34.5164105
11
16.5249672
21
33.2763105
0
LINE
8
DEFAULT_255_2_778
10
16.5249672
20
33.2763105
11
17.0958672
21
33.2763105
0
LINE
8
DEFAULT_255_2_778
10
17.0958672
20
35.8163105
11
17.0958672
21
37.0564105
0
LINE
8
DEFAULT_255_2_778
10
17.0958672
20
37.0564105
11
16.5249672
21
37.0564105
0
LINE
8
DEFAULT_255_2_778
10
16.5249672
20
37.0564105
11
16.5249672
21
35.8163105
0
LINE
8
DEFAULT_255_2_778
10
16.5249672
20
35.8163105
11
17.0958672
21
35.8163105
0
LINE
8
DEFAULT_255_2_778
10
17.0958672
20
38.3563105
11
17.0958672
21
39.5964105
0
LINE
8
DEFAULT_255_2_778
10
17.0958672
20
39.5964105
11
16.5249672
21
39.5964105
0
LINE
8
DEFAULT_255_2_778
10
16.5249672
20
39.5964105
11
16.5249672
21
38.3563105
0
LINE
8
DEFAULT_255_2_778
10
16.5249672
20
38.3563105
11
17.0958672
21
38.3563105
0
LINE
8
DEFAULT_255_2_778
10
17.0958672
20
40.8963105
11
17.0958672
21
42.1364105
0
LINE
8
DEFAULT_255_2_778
10
17.0958672
20
42.1364105
11
16.5249672
21
42.1364105
0
LINE
8
DEFAULT_255_2_778
10
16.5249672
20
42.1364105
11
16.5249672
21
40.8963105
0
LINE
8
DEFAULT_255_2_778
10
16.5249672
20
40.8963105
11
17.0958672
21
40.8963105
0
LINE
8
DEFAULT_255_2_778
10
19.6358672
20
23.1163105
11
19.6358672
21
24.3564105
0
LINE
8
DEFAULT_255_2_778
10
19.6358672
20
24.3564105
11
19.0649672
21
24.3564105
0
LINE
8
DEFAULT_255_2_778
10
19.0649672
20
24.3564105
11
19.0649672
21
23.1163105
0
LINE
8
DEFAULT_255_2_778
10
19.0649672
20
23.1163105
11
19.6358672
21
23.1163105
0
LINE
8
DEFAULT_255_2_778
10
19.6358672
20
25.6563105
11
19.6358672
21
26.8964105
0
LINE
8
DEFAULT_255_2_778
10
19.6358672
20
26.8964105
11
19.0649672
21
26.8964105
0
LINE
8
DEFAULT_255_2_778
10
19.0649672
20
26.8964105
11
19.0649672
21
25.6563105
0
LINE
8
DEFAULT_255_2_778
10
19.0649672
20
25.6563105
11
19.6358672
21
25.6563105
0
LINE
8
DEFAULT_255_2_778
10
19.6358672
20
28.1963105
11
19.6358672
21
29.4364105
0
LINE
8
DEFAULT_255_2_778
10
19.6358672
20
29.4364105
11
19.0649672
21
29.4364105
0
LINE
8
DEFAULT_255_2_778
10
19.0649672
20
29.4364105
11
19.0649672
21
28.1963105
0
LINE
8
DEFAULT_255_2_778
10
19.0649672
20
28.1963105
11
19.6358672
21
28.1963105
0
LINE
8
DEFAULT_255_2_778
10
19.6358672
20
30.7363105
11
19.6358672
21
31.9764105
0
LINE
8
DEFAULT_255_2_778
10
19.6358672
20
31.9764105
11
19.0649672
21
31.9764105
0
LINE
8
DEFAULT_255_2_778
10
19.0649672
20
31.9764105
11
19.0649672
21
30.7363105
0
LINE
8
DEFAULT_255_2_778
10
19.0649672
20
30.7363105
11
19.6358672
21
30.7363105
0
LINE
8
DEFAULT_255_2_778
10
17.0958672
20
23.1163105
11
17.0958672
21
24.3564105
0
LINE
8
DEFAULT_255_2_778
10
17.0958672
20
24.3564105
11
16.5249672
21
24.3564105
0
LINE
8
DEFAULT_255_2_778
10
16.5249672
20
24.3564105
11
16.5249672
21
23.1163105
0
LINE
8
DEFAULT_255_2_778
10
16.5249672
20
23.1163105
11
17.0958672
21
23.1163105
0
LINE
8
DEFAULT_255_2_778
10
17.0958672
20
25.6563105
11
17.0958672
21
26.8964105
0
LINE
8
DEFAULT_255_2_778
10
17.0958672
20
26.8964105
11
16.5249672
21
26.8964105
0
LINE
8
DEFAULT_255_2_778
10
16.5249672
20
26.8964105
11
16.5249672
21
25.6563105
0
LINE
8
DEFAULT_255_2_778
10
16.5249672
20
25.6563105
11
17.0958672
21
25.6563105
0
LINE
8
DEFAULT_255_2_778
10
17.0958672
20
28.1963105
11
17.0958672
21
29.4364105
0
LINE
8
DEFAULT_255_2_778
10
17.0958672
20
29.4364105
11
16.5249672
21
29.4364105
0
LINE
8
DEFAULT_255_2_778
10
16.5249672
20
29.4364105
11
16.5249672
21
28.1963105
0
LINE
8
DEFAULT_255_2_778
10
16.5249672
20
28.1963105
11
17.0958672
21
28.1963105
0
LINE
8
DEFAULT_255_2_778
10
17.0958672
20
30.7363105
11
17.0958672
21
31.9764105
0
LINE
8
DEFAULT_255_2_778
10
17.0958672
20
31.9764105
11
16.5249672
21
31.9764105
0
LINE
8
DEFAULT_255_2_778
10
16.5249672
20
31.9764105
11
16.5249672
21
30.7363105
0
LINE
8
DEFAULT_255_2_778
10
16.5249672
20
30.7363105
11
17.0958672
21
30.7363105
0
LINE
8
DEFAULT_255_2_778
10
19.6358672
20
12.9563105
11
19.6358672
21
14.1964105
0
LINE
8
DEFAULT_255_2_778
10
19.6358672
20
14.1964105
11
19.0649672
21
14.1964105
0
LINE
8
DEFAULT_255_2_778
10
19.0649672
20
14.1964105
11
19.0649672
21
12.9563105
0
LINE
8
DEFAULT_255_2_778
10
19.0649672
20
12.9563105
11
19.6358672
21
12.9563105
0
LINE
8
DEFAULT_255_2_778
10
19.6358672
20
15.4963105
11
19.6358672
21
16.7364105
0
LINE
8
DEFAULT_255_2_778
10
19.6358672
20
16.7364105
11
19.0649672
21
16.7364105
0
LINE
8
DEFAULT_255_2_778
10
19.0649672
20
16.7364105
11
19.0649672
21
15.4963105
0
LINE
8
DEFAULT_255_2_778
10
19.0649672
20
15.4963105
11
19.6358672
21
15.4963105
0
LINE
8
DEFAULT_255_2_778
10
19.6358672
20
18.0363105
11
19.6358672
21
19.2764105
0
LINE
8
DEFAULT_255_2_778
10
19.6358672
20
19.2764105
11
19.0649672
21
19.2764105
0
LINE
8
DEFAULT_255_2_778
10
19.0649672
20
19.2764105
11
19.0649672
21
18.0363105
0
LINE
8
DEFAULT_255_2_778
10
19.0649672
20
18.0363105
11
19.6358672
21
18.0363105
0
LINE
8
DEFAULT_255_2_778
10
19.6358672
20
20.5763105
11
19.6358672
21
21.8164105
0
LINE
8
DEFAULT_255_2_778
10
19.6358672
20
21.8164105
11
19.0649672
21
21.8164105
0
LINE
8
DEFAULT_255_2_778
10
19.0649672
20
21.8164105
11
19.0649672
21
20.5763105
0
LINE
8
DEFAULT_255_2_778
10
19.0649672
20
20.5763105
11
19.6358672
21
20.5763105
0
LINE
8
DEFAULT_255_2_778
10
17.0958672
20
12.9563105
11
17.0958672
21
14.1964105
0
LINE
8
DEFAULT_255_2_778
10
17.0958672
20
14.1964105
11
16.5249672
21
14.1964105
0
LINE
8
DEFAULT_255_2_778
10
16.5249672
20
14.1964105
11
16.5249672
21
12.9563105
0
LINE
8
DEFAULT_255_2_778
10
16.5249672
20
12.9563105
11
17.0958672
21
12.9563105
0
LINE
8
DEFAULT_255_2_778
10
17.0958672
20
15.4963105
11
17.0958672
21
16.7364105
0
LINE
8
DEFAULT_255_2_778
10
17.0958672
20
16.7364105
11
16.5249672
21
16.7364105
0
LINE
8
DEFAULT_255_2_778
10
16.5249672
20
16.7364105
11
16.5249672
21
15.4963105
0
LINE
8
DEFAULT_255_2_778
10
16.5249672
20
15.4963105
11
17.0958672
21
15.4963105
0
LINE
8
DEFAULT_255_2_778
10
17.0958672
20
18.0363105
11
17.0958672
21
19.2764105
0
LINE
8
DEFAULT_255_2_778
10
17.0958672
20
19.2764105
11
16.5249672
21
19.2764105
0
LINE
8
DEFAULT_255_2_778
10
16.5249672
20
19.2764105
11
16.5249672
21
18.0363105
0
LINE
8
DEFAULT_255_2_778
10
16.5249672
20
18.0363105
11
17.0958672
21
18.0363105
0
LINE
8
DEFAULT_255_2_778
10
17.0958672
20
20.5763105
11
17.0958672
21
21.8164105
0
LINE
8
DEFAULT_255_2_778
10
17.0958672
20
21.8164105
11
16.5249672
21
21.8164105
0
LINE
8
DEFAULT_255_2_778
10
16.5249672
20
21.8164105
11
16.5249672
21
20.5763105
0
LINE
8
DEFAULT_255_2_778
10
16.5249672
20
20.5763105
11
17.0958672
21
20.5763105
0
LINE
8
DEFAULT_255_2_778
10
13.6695672
20
45.9766105
11
13.6695672
21
44.7865105
0
LINE
8
DEFAULT_255_2_778
10
13.6695672
20
47.2164105
11
13.6695672
21
48.5163105
0
LINE
8
DEFAULT_255_2_778
10
13.9195672
20
29.4364105
11
10.4196672
21
29.4364105
0
LINE
8
DEFAULT_255_2_778
10
13.9195672
20
30.7363105
11
10.4196672
21
30.7363105
0
LINE
8
DEFAULT_255_2_778
10
13.9195672
20
31.9764105
11
10.4196672
21
31.9764105
0
LINE
8
DEFAULT_255_2_778
10
13.9195672
20
33.2763105
11
10.4196672
21
33.2763105
0
LINE
8
DEFAULT_255_2_778
10
13.9195672
20
34.5164105
11
10.4196672
21
34.5164105
0
LINE
8
DEFAULT_255_2_778
10
13.9195672
20
35.8163105
11
10.4196672
21
35.8163105
0
LINE
8
DEFAULT_255_2_778
10
13.9195672
20
37.0564105
11
10.4196672
21
37.0564105
0
LINE
8
DEFAULT_255_2_778
10
13.9195672
20
38.3563105
11
10.4196672
21
38.3563105
0
LINE
8
DEFAULT_255_2_778
10
13.9195672
20
10.3563105
11
13.9195672
21
65.0565105
0
LINE
8
DEFAULT_255_2_778
10
13.9195672
20
65.0565105
11
10.4196672
21
65.0565105
0
LINE
8
DEFAULT_255_2_778
10
10.4196672
20
65.0565105
11
10.4196672
21
10.3565105
0
LINE
8
DEFAULT_255_2_778
10
10.4196672
20
10.3565105
11
13.9195672
21
10.3563105
0
LINE
8
DEFAULT_255_2_778
10
13.9195672
20
59.9162105
11
10.4196672
21
59.9162105
0
LINE
8
DEFAULT_255_2_778
10
13.9195672
20
61.2161105
11
10.4196672
21
61.2161105
0
LINE
8
DEFAULT_255_2_778
10
13.9195672
20
62.4562105
11
10.4196672
21
62.4562105
0
LINE
8
DEFAULT_255_2_778
10
10.4196672
20
62.9562105
11
13.9195672
21
62.9562105
0
LINE
8
DEFAULT_255_2_778
10
10.4196672
20
64.5564105
11
13.9195672
21
64.5564105
0
LINE
8
DEFAULT_255_2_778
10
13.9195672
20
49.7564105
11
10.4196672
21
49.7564105
0
LINE
8
DEFAULT_255_2_778
10
10.4196672
20
50.5065105
11
13.9195672
21
50.5065105
0
LINE
8
DEFAULT_255_2_778
10
13.9195672
20
51.0566105
11
10.4196672
21
51.0566105
0
LINE
8
DEFAULT_255_2_778
10
13.9195672
20
52.2967105
11
10.4196672
21
52.2967105
0
LINE
8
DEFAULT_255_2_778
10
13.9195672
20
53.5966105
11
10.4196672
21
53.5966105
0
LINE
8
DEFAULT_255_2_778
10
13.9195672
20
54.8367105
11
10.4196672
21
54.8367105
0
LINE
8
DEFAULT_255_2_778
10
13.9195672
20
56.1366105
11
10.4196672
21
56.1366105
0
LINE
8
DEFAULT_255_2_778
10
13.9195672
20
57.3767105
11
10.4196672
21
57.3767105
0
LINE
8
DEFAULT_255_2_778
10
13.9195672
20
58.0064105
11
10.4196672
21
58.0064105
0
LINE
8
DEFAULT_255_2_778
10
13.9195672
20
58.6763105
11
10.4196672
21
58.6763105
0
LINE
8
DEFAULT_255_2_778
10
13.9195672
20
39.5964105
11
10.4196672
21
39.5964105
0
LINE
8
DEFAULT_255_2_778
10
13.9195672
20
40.8963105
11
10.4196672
21
40.8963105
0
LINE
8
DEFAULT_255_2_778
10
13.9195672
20
42.1364105
11
10.4196672
21
42.1364105
0
LINE
8
DEFAULT_255_2_778
10
10.4196672
20
42.3015105
11
13.9195672
21
42.3015105
0
LINE
8
DEFAULT_255_2_778
10
13.9195672
20
42.8016105
11
10.4196672
21
42.8016105
0
LINE
8
DEFAULT_255_2_778
10
13.9195672
20
43.4366105
11
10.4196672
21
43.4366105
0
LINE
8
DEFAULT_255_2_778
10
13.9195672
20
44.6767105
11
10.4196672
21
44.6767105
0
LINE
8
DEFAULT_255_2_778
10
13.9195672
20
44.7868105
11
10.4196672
21
44.7868105
0
LINE
8
DEFAULT_255_2_778
10
13.9195672
20
45.9769105
11
10.4196672
21
45.9769105
0
LINE
8
DEFAULT_255_2_778
10
13.9195672
20
47.2170105
11
10.4196672
21
47.2170105
0
LINE
8
DEFAULT_255_2_778
10
13.9195672
20
48.5169105
11
10.4196672
21
48.5169105
0
LINE
8
DEFAULT_255_2_778
10
13.9195672
20
19.2770105
11
10.4196672
21
19.2770105
0
LINE
8
DEFAULT_255_2_778
10
13.9195672
20
20.5769105
11
10.4196672
21
20.5769105
0
LINE
8
DEFAULT_255_2_778
10
13.9195672
20
21.8170105
11
10.4196672
21
21.8170105
0
LINE
8
DEFAULT_255_2_778
10
13.9195672
20
23.1169105
11
10.4196672
21
23.1169105
0
LINE
8
DEFAULT_255_2_778
10
13.9195672
20
24.3570105
11
10.4196672
21
24.3570105
0
LINE
8
DEFAULT_255_2_778
10
13.9195672
20
25.6569105
11
10.4196672
21
25.6569105
0
LINE
8
DEFAULT_255_2_778
10
13.9195672
20
26.8970105
11
10.4196672
21
26.8970105
0
LINE
8
DEFAULT_255_2_778
10
13.9195672
20
28.1969105
11
10.4196672
21
28.1969105
0
LINE
8
DEFAULT_255_2_778
10
13.9195672
20
12.9569105
11
10.4196672
21
12.9569105
0
LINE
8
DEFAULT_255_2_778
10
13.9195672
20
14.1970105
11
10.4196672
21
14.1970105
0
LINE
8
DEFAULT_255_2_778
10
10.4196672
20
14.7269105
11
13.9195672
21
14.7269105
0
LINE
8
DEFAULT_255_2_778
10
10.4196672
20
14.9270105
11
13.9195672
21
14.9270105
0
LINE
8
DEFAULT_255_2_778
10
13.9195672
20
15.4969105
11
10.4196672
21
15.4969105
0
LINE
8
DEFAULT_255_2_778
10
13.9195672
20
16.7370105
11
10.4196672
21
16.7370105
0
LINE
8
DEFAULT_255_2_778
10
10.4196672
20
17.2119105
11
13.9195672
21
17.2119105
0
LINE
8
DEFAULT_255_2_778
10
13.9195672
20
18.0369105
11
10.4196672
21
18.0369105
0
LINE
8
DEFAULT_255_2_778
10
10.5696672
20
48.5169105
11
10.5696672
21
48.0068105
0
LINE
8
DEFAULT_255_2_778
10
10.4196672
20
61.0568105
11
10.5445672
21
61.0568105
0
LINE
8
DEFAULT_255_2_778
10
10.5445672
20
61.0568105
11
10.5445672
21
61.2169105
0
LINE
8
DEFAULT_255_2_778
10
11.5446672
20
60.0567105
11
13.9195672
21
60.0567105
0
LINE
8
DEFAULT_255_2_778
10
10.4196672
20
48.0065105
11
12.6696672
21
48.0065105
0
LINE
8
DEFAULT_255_2_778
10
17.8195672
20
75.8065105
11
17.8195672
21
75.8065105
0
LINE
8
DEFAULT_255_2_778
10
20.5275672
20
77.7417105
11
20.5275672
21
77.5012105
0
LINE
8
DEFAULT_255_2_778
10
20.5275672
20
77.5012105
11
20.3346672
21
77.5012105
0
LINE
8
DEFAULT_255_2_778
10
20.3346672
20
77.5012105
11
20.3346672
21
77.7417105
0
LINE
8
DEFAULT_255_2_778
10
20.3346672
20
77.7417105
11
20.5275672
21
77.7417105
0
LINE
8
DEFAULT_255_2_778
10
18.1666672
20
78.7217105
11
18.4066672
21
78.7217105
0
LINE
8
DEFAULT_255_2_778
10
18.4066672
20
78.7217105
11
18.4066672
21
77.5237105
0
LINE
8
DEFAULT_255_2_778
10
18.4066672
20
77.5237105
11
18.1666672
21
77.5237105
0
LINE
8
DEFAULT_255_2_778
10
18.1666672
20
77.5237105
11
18.1666672
21
78.7217105
0
LINE
8
DEFAULT_255_2_778
10
16.8921936
20
77.5237167
11
17.2919936
21
77.5237167
0
ARC
8
DEFAULT_255_2_778
10
17.3047031
20
78.4609876
40
0.9373571
50
269.2231071
51
284.1989417
0
ARC
8
DEFAULT_255_2_778
10
17.4254046
20
78.0189718
40
0.4793151
50
283.1718021
51
320.6985679
0
ARC
8
DEFAULT_255_2_778
10
17.3748044
20
78.0329548
40
0.5277548
50
323.0040112
51
352.1747866
0
ARC
8
DEFAULT_255_2_778
10
17.0702066
20
78.0951325
40
0.8382234
50
350.7988744
51
356.7640574
0
ARC
8
DEFAULT_255_2_778
10
16.7202792
20
78.1542029
40
1.1915731
50
354.8776847
51
358.2703569
0
ARC
8
DEFAULT_255_2_778
10
16.8635231
20
78.1491605
40
1.0482426
50
358.3095226
51
359.9891627
0
ARC
8
DEFAULT_255_2_778
10
17.1841554
20
78.1607898
40
0.7277064
50
359.0687167
51
17.4487833
0
ARC
8
DEFAULT_255_2_778
10
17.4385082
20
78.2358261
40
0.4625813
50
18.0290819
51
76.4842768
0
ARC
8
DEFAULT_255_2_778
10
17.2906612
20
77.77573
40
0.9451835
50
74.287984
51
88.159167
0
ARC
8
DEFAULT_255_2_778
10
17.261409
20
77.3446711
40
1.3770456
50
87.5188012
51
90.0048023
0
LINE
8
DEFAULT_255_2_778
10
17.2612936
20
78.7217167
11
16.8921936
21
78.7217167
0
LINE
8
DEFAULT_255_2_778
10
16.8921936
20
78.7217167
11
16.8921936
21
77.5237167
0
ARC
8
DEFAULT_255_2_778
10
17.1840035
20
78.1511856
40
0.477188
50
358.8389764
51
22.0436714
0
ARC
8
DEFAULT_255_2_778
10
17.3345041
20
78.2006925
40
0.3192845
50
23.9456628
51
79.3618979
0
ARC
8
DEFAULT_255_2_778
10
17.2377352
20
77.8444402
40
0.6879038
50
76.9174284
51
90.6939062
0
ARC
8
DEFAULT_255_2_778
10
17.230639
20
77.4758883
40
1.0564061
50
90.0669716
51
93.6522645
0
ARC
8
DEFAULT_255_2_778
10
17.2402747
20
77.3061225
40
1.2264415
50
93.5962907
51
94.7697676
0
LINE
8
DEFAULT_255_2_778
10
17.1382936
20
78.5283167
11
17.1382936
21
77.6986167
0
ARC
8
DEFAULT_255_2_778
10
17.194144
20
78.9070677
40
1.2097409
50
267.3538715
51
269.7953904
0
ARC
8
DEFAULT_255_2_778
10
17.193103
20
78.7722253
40
1.074896
50
269.825211
51
270.0032767
0
ARC
8
DEFAULT_255_2_778
10
17.2044408
20
78.4683542
40
0.7711073
50
269.1621019
51
283.9400599
0
ARC
8
DEFAULT_255_2_778
10
17.3097862
20
78.0734867
40
0.3625608
50
282.8153496
51
318.445622
0
ARC
8
DEFAULT_255_2_778
10
17.2962179
20
78.0601295
40
0.3643497
50
321.4341494
51
356.5863536
0
ARC
8
DEFAULT_255_2_778
10
17.0569688
20
78.0948199
40
0.6055831
50
354.6575068
51
0.098741
0
ARC
8
DEFAULT_255_2_778
10
16.9265283
20
78.0952139
40
0.7360231
50
0.0505725
51
3.6068237
0
LINE
8
DEFAULT_255_2_778
10
16.8921936
20
77.5237167
11
16.8921936
21
77.5237167
0
LINE
8
DEFAULT_255_2_778
10
17.6610936
20
78.1415167
11
17.6610936
21
78.1415167
0
ARC
8
DEFAULT_255_2_778
10
18.9838506
20
77.6436993
40
0.9154179
50
68.8677878
51
77.2425553
0
ARC
8
DEFAULT_255_2_778
10
19.0685136
20
78.0238344
40
0.525973
50
77.0933167
51
89.4084455
0
ARC
8
DEFAULT_255_2_778
10
19.0662595
20
78.268423
40
0.2814614
50
88.435508
51
118.4801425
0
ARC
8
DEFAULT_255_2_778
10
19.0462658
20
78.3162131
40
0.2299797
50
119.7794538
51
136.4877773
0
ARC
8
DEFAULT_255_2_778
10
19.0295905
20
78.3848902
40
0.1748534
50
149.1489785
51
167.9306259
0
ARC
8
DEFAULT_255_2_778
10
18.9695319
20
78.3995738
40
0.1130666
50
168.8433542
51
179.8220744
0
ARC
8
DEFAULT_255_2_778
10
18.9733603
20
78.4056633
40
0.1170354
50
182.8103851
51
241.7997736
0
ARC
8
DEFAULT_255_2_778
10
19.1306655
20
78.6412206
40
0.399902
50
237.8825119
51
253.8405772
0
ARC
8
DEFAULT_255_2_778
10
19.2521781
20
79.0029017
40
0.7812764
50
252.6633035
51
256.0535052
0
ARC
8
DEFAULT_255_2_778
10
18.8182555
20
77.3912065
40
0.8880919
50
62.7131338
51
73.9441894
0
ARC
8
DEFAULT_255_2_778
10
19.0338238
20
77.7993934
40
0.4265239
50
41.9016206
51
63.3107569
0
ARC
8
DEFAULT_255_2_778
10
19.1617524
20
77.9170572
40
0.2527343
50
359.538539
51
41.416748
0
ARC
8
DEFAULT_255_2_778
10
19.06764
20
77.9181201
40
0.3468525
50
344.1229892
51
359.4881735
0
ARC
8
DEFAULT_255_2_778
10
18.9178212
20
77.9576781
40
0.5017866
50
337.0175832
51
344.4584092
0
ARC
8
DEFAULT_255_2_778
10
18.9763729
20
78.0041124
40
0.4706085
50
300.5176214
51
329.0035752
0
ARC
8
DEFAULT_255_2_778
10
18.9912085
20
78.0038061
40
0.4629832
50
269.2338811
51
298.9550442
0
ARC
8
DEFAULT_255_2_778
10
18.9808392
20
78.1557126
40
0.6148624
50
270.0024003
51
270.3894075
0
ARC
8
DEFAULT_255_2_778
10
18.9859222
20
78.2871951
40
0.7463619
50
258.3554636
51
269.61177
0
ARC
8
DEFAULT_255_2_778
10
19.0595778
20
78.655271
40
1.121731
50
250.662777
51
258.46541
0
ARC
8
DEFAULT_255_2_778
10
19.1789383
20
79.0115737
40
1.4974664
50
247.9174735
51
250.8676571
0
ARC
8
DEFAULT_255_2_778
10
5.8877031
20
79.4422942
40
12.8575013
50
351.8698406
51
352.7489465
0
ARC
8
DEFAULT_255_2_778
10
19.0304316
20
78.7307423
40
0.9904684
50
246.9342175
51
255.435213
0
ARC
8
DEFAULT_255_2_778
10
18.927124
20
78.3240639
40
0.5708845
50
255.2062193
51
268.7448466
0
ARC
8
DEFAULT_255_2_778
10
18.9190878
20
78.1837062
40
0.430413
50
269.4051067
51
269.9990624
0
ARC
8
DEFAULT_255_2_778
10
18.9268299
20
78.0643665
40
0.3111699
50
268.5729866
51
300.0875486
0
ARC
8
DEFAULT_255_2_778
10
18.9402483
20
78.0311788
40
0.2757729
50
301.1321042
51
313.4142321
0
ARC
8
DEFAULT_255_2_778
10
19.005842
20
77.9108655
40
0.1475184
50
327.1550301
51
348.3743366
0
ARC
8
DEFAULT_255_2_778
10
19.0532791
20
77.899172
40
0.0987162
50
349.4738619
51
359.8780656
0
ARC
8
DEFAULT_255_2_778
10
19.0384709
20
77.8923304
40
0.1137177
50
3.343117
51
58.9994084
0
ARC
8
DEFAULT_255_2_778
10
18.8687334
20
77.6606299
40
0.4006002
50
55.2557969
51
71.1159913
0
ARC
8
DEFAULT_255_2_778
10
18.7055766
20
77.2348079
40
0.8564689
50
70.0083461
51
74.6582031
0
ARC
8
DEFAULT_255_2_778
10
19.0618429
20
78.7116242
40
0.663658
50
242.130151
51
258.7331535
0
ARC
8
DEFAULT_255_2_778
10
18.8709414
20
78.3735242
40
0.2757419
50
185.2994723
51
244.3559762
0
ARC
8
DEFAULT_255_2_778
10
19.175553
20
78.3641733
40
0.579399
50
180.0081681
51
181.5939937
0
ARC
8
DEFAULT_255_2_778
10
18.9793131
20
78.3743139
40
0.3832955
50
154.901302
51
181.5283548
0
ARC
8
DEFAULT_255_2_778
10
18.901633
20
78.3966385
40
0.3037475
50
106.9634766
51
152.4986736
0
ARC
8
DEFAULT_255_2_778
10
19.0159289
20
78.0802482
40
0.6399454
50
93.0426484
51
108.4868072
0
ARC
8
DEFAULT_255_2_778
10
19.050575
20
77.6915872
40
1.0299921
50
89.9229813
51
93.819643
0
ARC
8
DEFAULT_255_2_778
10
19.0492162
20
77.3610698
40
1.3605115
50
85.5824658
51
89.8844658
0
ARC
8
DEFAULT_255_2_778
10
19.0122566
20
76.8759341
40
1.8470527
50
82.0351589
51
85.5985151
0
ARC
8
DEFAULT_255_2_778
10
18.945258
20
76.3805579
40
2.346935
50
80.1442611
51
82.0910573
0
ARC
8
DEFAULT_255_2_778
10
20.0034712
20
77.2292962
40
1.4923789
50
85.7693931
51
90.2876723
0
ARC
8
DEFAULT_255_2_778
10
20.1176671
20
78.2739085
40
0.4437191
50
43.8936113
51
90.5296447
0
ARC
8
DEFAULT_255_2_778
10
20.1726845
20
78.3750644
40
0.3357418
50
9.1765466
51
37.9525585
0
ARC
8
DEFAULT_255_2_778
10
20.0149901
20
78.3390678
40
0.4972671
50
4.9825116
51
10.3734651
0
ARC
8
DEFAULT_255_2_778
10
20.1843829
20
78.3134613
40
0.3267069
50
291.6780045
51
2.8764521
0
ARC
8
DEFAULT_255_2_778
10
20.0994982
20
78.5430858
40
0.5714775
50
273.1228143
51
291.0824757
0
ARC
8
DEFAULT_255_2_778
10
20.0657323
20
78.8876865
40
0.9175276
50
269.9224949
51
274.055993
0
ARC
8
DEFAULT_255_2_778
10
20.0647143
20
79.0478914
40
1.0777316
50
268.4455253
51
269.9881392
0
ARC
8
DEFAULT_255_2_778
10
20.0189917
20
78.8118132
40
0.6504594
50
269.8402616
51
273.1176879
0
ARC
8
DEFAULT_255_2_778
10
20.0673588
20
78.3487854
40
0.1869208
50
266.0148759
51
337.5024012
0
ARC
8
DEFAULT_255_2_778
10
20.0044508
20
78.366693
40
0.2520059
50
339.213915
51
348.4780045
0
ARC
8
DEFAULT_255_2_778
10
20.08124
20
78.3556997
40
0.1705036
50
3.751733
51
81.8573113
0
ARC
8
DEFAULT_255_2_778
10
20.0376507
20
78.1925552
40
0.3387706
50
78.4656011
51
90.4477182
0
ARC
8
DEFAULT_255_2_778
10
20.0351626
20
78.0809536
40
0.4503619
50
90.0202461
51
92.2886122
0
ARC
8
DEFAULT_255_2_778
10
17.4031777
20
75.8885867
40
1.7630421
50
144.5492501
51
167.5373634
0
ARC
8
DEFAULT_255_2_778
10
17.4876203
20
75.8154166
40
1.8742993
50
122.6662239
51
144.2243464
0
LINE
8
DEFAULT_255_2_778
10
13.4451782
20
78.7690563
11
13.4448012
21
78.7690564
0
ARC
8
DEFAULT_255_2_778
10
13.4447973
20
78.2695099
40
0.4995465
50
89.9995541
51
135.0302273
0
ARC
8
DEFAULT_255_2_778
10
13.4444246
20
78.2691372
40
0.4995466
50
134.9697727
51
180.0004459
0
ARC
8
DEFAULT_255_2_778
10
13.1226459
20
78.2690391
40
0.1777679
50
179.9696211
51
180.0911391
0
ARC
8
DEFAULT_255_2_778
10
13.445039
20
76.7694174
40
0.5001611
50
180.0642774
51
269.9947508
0
LINE
8
DEFAULT_255_2_778
10
13.4449932
20
76.2692563
11
13.4451782
21
76.2692563
0
ARC
8
DEFAULT_255_2_778
10
19.8652685
20
75.8248961
40
1.8618516
50
35.1408468
51
56.2714479
0
ARC
8
DEFAULT_255_2_778
10
19.9402896
20
75.8894693
40
1.7633625
50
12.4209834
51
34.8281795
0
LINE
8
DEFAULT_255_2_778
10
23.9451782
20
76.2687563
11
23.9453633
21
76.2687563
0
ARC
8
DEFAULT_255_2_778
10
23.9454665
20
76.7687681
40
0.5000119
50
269.9881749
51
359.9413467
0
ARC
8
DEFAULT_255_2_778
10
24.2675767
20
78.2684393
40
0.1779017
50
359.9088609
51
0.0303789
0
ARC
8
DEFAULT_255_2_778
10
23.9455505
20
78.2685792
40
0.4999279
50
359.9947697
51
44.995891
0
ARC
8
DEFAULT_255_2_778
10
23.9453162
20
78.2681826
40
0.500374
50
45.0090474
51
89.9727149
0
LINE
8
DEFAULT_255_2_778
10
23.9455545
20
78.7685564
11
23.9451782
21
78.7685563
0
LINE
8
DEFAULT_255_2_778
10
19.3469782
20
78.6928563
11
19.3205782
21
78.5031563
0
LINE
8
DEFAULT_255_2_778
10
20.5103782
20
78.3822563
11
20.5111782
21
78.3557563
0
LINE
8
DEFAULT_255_2_778
10
20.5111782
20
78.3557563
11
20.5106782
21
78.3298563
0
LINE
8
DEFAULT_255_2_778
10
20.0354782
20
77.9705563
11
19.9306782
21
77.9705563
0
LINE
8
DEFAULT_255_2_778
10
19.9306782
20
77.9705563
11
19.9306782
21
77.5109563
0
LINE
8
DEFAULT_255_2_778
10
19.9306782
20
77.5109563
11
19.6829782
21
77.5109563
0
LINE
8
DEFAULT_255_2_778
10
19.6829782
20
77.5109563
11
19.6829782
21
78.7214563
0
LINE
8
DEFAULT_255_2_778
10
19.6829782
20
78.7214563
11
19.9959782
21
78.7216563
0
LINE
8
DEFAULT_255_2_778
10
20.2513782
20
78.3163563
11
20.2526782
21
78.3414563
0
LINE
8
DEFAULT_255_2_778
10
20.2526782
20
78.3414563
11
20.2513782
21
78.3668563
0
LINE
8
DEFAULT_255_2_778
10
20.0171782
20
78.5309563
11
19.9303782
21
78.5309563
0
LINE
8
DEFAULT_255_2_778
10
19.9303782
20
78.5309563
11
19.9303782
21
78.1613563
0
LINE
8
DEFAULT_255_2_778
10
19.9303782
20
78.1613563
11
20.0171782
21
78.1613563
0
LINE
8
DEFAULT_255_2_778
10
16.4759782
20
77.3932563
11
16.4759782
21
78.7690563
0
LINE
8
DEFAULT_255_2_778
10
16.4759782
20
78.7690563
11
13.4451782
21
78.7690563
0
LINE
8
DEFAULT_255_2_778
10
12.9448782
20
78.2687563
11
12.9448782
21
76.7688563
0
LINE
8
DEFAULT_255_2_778
10
13.4451782
20
76.2692563
11
15.6816782
21
76.2690563
0
LINE
8
DEFAULT_255_2_778
10
15.2538782
20
78.5020563
11
15.2538782
21
78.1872563
0
LINE
8
DEFAULT_255_2_778
10
15.2538782
20
78.1872563
11
14.5429782
21
78.1872563
0
LINE
8
DEFAULT_255_2_778
10
14.5429782
20
78.1872563
11
14.5429782
21
77.6945563
0
LINE
8
DEFAULT_255_2_778
10
14.5429782
20
77.6945563
11
15.2194782
21
77.6945563
0
LINE
8
DEFAULT_255_2_778
10
15.2194782
20
77.6945563
11
15.2194782
21
77.3789563
0
LINE
8
DEFAULT_255_2_778
10
15.2194782
20
77.3789563
11
14.5429782
21
77.3789563
0
LINE
8
DEFAULT_255_2_778
10
14.5429782
20
77.3789563
11
14.5429782
21
76.5015563
0
LINE
8
DEFAULT_255_2_778
10
14.5429782
20
76.5015563
11
14.1418782
21
76.5015563
0
LINE
8
DEFAULT_255_2_778
10
14.1418782
20
76.5015563
11
14.1418782
21
78.5020563
0
LINE
8
DEFAULT_255_2_778
10
14.1418782
20
78.5020563
11
15.2538782
21
78.5020563
0
LINE
8
DEFAULT_255_2_778
10
23.6414782
20
76.8164563
11
23.6414782
21
76.5015563
0
LINE
8
DEFAULT_255_2_778
10
23.6414782
20
76.5015563
11
22.4632782
21
76.5015563
0
LINE
8
DEFAULT_255_2_778
10
22.4632782
20
76.5015563
11
22.4632782
21
78.5020563
0
LINE
8
DEFAULT_255_2_778
10
22.4632782
20
78.5020563
11
22.8643782
21
78.5020563
0
LINE
8
DEFAULT_255_2_778
10
22.8643782
20
78.5020563
11
22.8643782
21
76.8164563
0
LINE
8
DEFAULT_255_2_778
10
22.8643782
20
76.8164563
11
23.6414782
21
76.8164563
0
LINE
8
DEFAULT_255_2_778
10
21.6623782
20
76.2687563
11
23.9451782
21
76.2687563
0
LINE
8
DEFAULT_255_2_778
10
24.4454782
20
76.7682563
11
24.4454782
21
78.2681563
0
LINE
8
DEFAULT_255_2_778
10
23.9451782
20
78.7685563
11
20.8990782
21
78.7685563
0
LINE
8
DEFAULT_255_2_778
10
20.8990782
20
78.7685563
11
20.8990782
21
77.3733563
0
ARC
8
DEFAULT_255_2_778
10
28.1699215
20
89.2564948
40
0.4999174
50
359.9854173
51
44.980173
0
ARC
8
DEFAULT_255_2_778
10
28.1698306
20
89.2564633
40
0.5000041
50
44.9753589
51
89.9990469
0
LINE
8
DEFAULT_255_2_778
10
0.6698389
20
89.7564675
11
0.6694612
21
89.7564677
0
ARC
8
DEFAULT_255_2_778
10
0.6694238
20
89.2565204
40
0.4999473
50
89.9957191
51
134.9787502
0
ARC
8
DEFAULT_255_2_778
10
0.669686
20
89.2567826
40
0.4999472
50
135.0212498
51
180.0042809
0
ARC
8
DEFAULT_255_2_778
10
0.3480332
20
89.2566509
40
0.1782944
50
179.9696533
51
180.0910426
0
ARC
8
DEFAULT_255_2_778
10
0.6698147
20
0.2564433
40
0.5000758
50
180.008676
51
270.0027763
0
ARC
8
DEFAULT_255_2_778
10
17.5133257
20
75.8087455
40
1.3436885
50
148.0180994
51
180.092869
0
ARC
8
DEFAULT_255_2_778
10
17.5193176
20
75.8067368
40
1.3498357
50
96.641673
51
148.0804902
0
ARC
8
DEFAULT_255_2_778
10
17.5192572
20
75.7919542
40
1.3645134
50
89.988171
51
96.5673616
0
ARC
8
DEFAULT_255_2_778
10
19.8217168
20
75.8127808
40
1.3436885
50
58.0180994
51
90.092869
0
ARC
8
DEFAULT_255_2_778
10
19.8197082
20
75.8067889
40
1.3498357
50
6.641673
51
58.0804902
0
ARC
8
DEFAULT_255_2_778
10
19.8049255
20
75.8068493
40
1.3645134
50
359.988171
51
6.5673616
0
ARC
8
DEFAULT_255_2_778
10
17.5157229
20
75.8048884
40
1.3458817
50
186.3270477
51
222.1632115
0
ARC
8
DEFAULT_255_2_778
10
17.5189412
20
75.8050899
40
1.348404
50
222.0777634
51
266.5205518
0
ARC
8
DEFAULT_255_2_778
10
17.5197668
20
75.8224098
40
1.3657422
50
266.530078
51
270.0030231
0
ARC
8
DEFAULT_255_2_778
10
19.8213064
20
75.8023981
40
1.3457314
50
269.9375199
51
305.7802487
0
ARC
8
DEFAULT_255_2_778
10
19.8213615
20
75.8057759
40
1.3484408
50
305.6944333
51
350.3250267
0
ARC
8
DEFAULT_255_2_778
10
19.8041594
20
75.8084968
40
1.3658556
50
350.3337833
51
353.6135595
0
LINE
8
DEFAULT_255_2_778
10
28.1698389
20
89.7564675
11
0.6698389
21
89.7564675
0
LINE
8
DEFAULT_255_2_778
10
0.1697389
20
89.2563675
11
0.1697389
21
0.2563675
0
LINE
8
DEFAULT_255_2_778
10
0.6698389
20
-0.2436325
11
28.6698389
21
-0.2436325
0
LINE
8
DEFAULT_255_2_778
10
28.6698389
20
-0.2436325
11
28.6698389
21
89.2563675
0
LINE
8
DEFAULT_255_2_778
10
0.9698389
20
75.6565675
11
0.9698389
21
75.7565675
0
LINE
8
DEFAULT_255_2_778
10
0.1697389
20
75.7565675
11
16.1696389
21
75.7565675
0
LINE
8
DEFAULT_255_2_778
10
16.1696389
20
75.7565675
11
16.1696389
21
75.8065675
0
LINE
8
DEFAULT_255_2_778
10
17.5195389
20
77.1564675
11
19.8195389
21
77.1564675
0
LINE
8
DEFAULT_255_2_778
10
21.1694389
20
75.8065675
11
21.1694389
21
75.7565675
0
LINE
8
DEFAULT_255_2_778
10
21.1694389
20
75.7565675
11
28.6693389
21
75.7565675
0
LINE
8
DEFAULT_255_2_778
10
0.1697389
20
75.6565675
11
16.1780389
21
75.6565675
0
LINE
8
DEFAULT_255_2_778
10
17.5198389
20
74.4566675
11
19.8198389
21
74.4566675
0
LINE
8
DEFAULT_255_2_778
10
21.1615389
20
75.6565675
11
28.6698389
21
75.6565675
0
LINE
8
DEFAULT_255_2_778
10
1.4275719
20
78.7055812
11
1.4275719
21
77.7799812
0
LINE
8
DEFAULT_255_2_778
10
1.4275719
20
77.7799812
11
1.6199719
21
77.7799812
0
LINE
8
DEFAULT_255_2_778
10
1.6199719
20
77.7799812
11
1.6199719
21
78.9785812
0
LINE
8
DEFAULT_255_2_778
10
1.6199719
20
78.9785812
11
1.4497719
21
78.9785812
0
LINE
8
DEFAULT_255_2_778
10
1.4497719
20
78.9785812
11
1.1698719
21
78.6967812
0
LINE
8
DEFAULT_255_2_778
10
1.1698719
20
78.6967812
11
1.2656719
21
78.5406812
0
LINE
8
DEFAULT_255_2_778
10
1.2656719
20
78.5406812
11
1.4275719
21
78.7055812
0
LINE
8
DEFAULT_255_2_778
10
2.7059813
20
77.7647187
11
2.8488813
21
77.7647187
0
LINE
8
DEFAULT_255_2_778
10
2.8488813
20
77.7647187
11
3.1837813
21
79.0045187
0
LINE
8
DEFAULT_255_2_778
10
3.1837813
20
79.0045187
11
3.0411813
21
79.0045187
0
LINE
8
DEFAULT_255_2_778
10
3.0411813
20
79.0045187
11
2.7059813
21
77.7647187
0
ARC
8
DEFAULT_255_2_778
10
2.071254
20
78.6250435
40
0.2248906
50
359.842524
51
9.5830209
0
ARC
8
DEFAULT_255_2_778
10
1.9100357
20
78.6370851
40
0.3863154
50
335.1433064
51
358.1220666
0
ARC
8
DEFAULT_255_2_778
10
1.3994638
20
78.8572845
40
0.9422662
50
325.0807409
51
336.0443927
0
ARC
8
DEFAULT_255_2_778
10
0.5699369
20
79.4239584
40
1.9468476
50
318.9867382
51
325.3806175
0
ARC
8
DEFAULT_255_2_778
10
-0.5646429
20
80.3984118
40
3.4424352
50
315.2850472
51
319.1409982
0
LINE
8
DEFAULT_255_2_778
10
1.8816063
20
77.9763825
11
1.8816063
21
77.7802825
0
LINE
8
DEFAULT_255_2_778
10
1.8816063
20
77.7802825
11
2.5182063
21
77.7802825
0
LINE
8
DEFAULT_255_2_778
10
2.5182063
20
77.7802825
11
2.5182063
21
77.9655825
0
LINE
8
DEFAULT_255_2_778
10
2.5182063
20
77.9655825
11
2.1263063
21
77.9655825
0
ARC
8
DEFAULT_255_2_778
10
0.8916344
20
79.2059627
40
1.7501307
50
314.8678588
51
324.006848
0
ARC
8
DEFAULT_255_2_778
10
1.4559404
20
78.8009339
40
1.0555346
50
323.793378
51
338.2559336
0
ARC
8
DEFAULT_255_2_778
10
1.8021624
20
78.6629085
40
0.682814
50
338.2511365
51
359.5137186
0
ARC
8
DEFAULT_255_2_778
10
1.8828658
20
78.6571996
40
0.602086
50
359.9917912
51
10.9417878
0
ARC
8
DEFAULT_255_2_778
10
2.1342294
20
78.6845671
40
0.3507173
50
14.3486672
51
37.8601233
0
ARC
8
DEFAULT_255_2_778
10
2.2190482
20
78.7400986
40
0.2498051
50
39.7443455
51
90.8938356
0
ARC
8
DEFAULT_255_2_778
10
2.2027044
20
78.5995447
40
0.3905271
50
88.1735474
51
90.0096374
0
ARC
8
DEFAULT_255_2_778
10
2.2077289
20
78.4651203
40
0.5249761
50
90.555556
51
102.5301511
0
ARC
8
DEFAULT_255_2_778
10
2.2827687
20
78.1147095
40
0.8833252
50
102.3504565
51
110.1549097
0
ARC
8
DEFAULT_255_2_778
10
2.4223174
20
77.7202459
40
1.3017257
50
109.9386708
51
113.6127996
0
ARC
8
DEFAULT_255_2_778
10
0.2979954
20
78.6840508
40
1.6191766
50
5.122068
51
8.1281569
0
ARC
8
DEFAULT_255_2_778
10
-3.0059782
20
78.3736986
40
4.9376845
50
3.8598267
51
5.2861566
0
ARC
8
DEFAULT_255_2_778
10
2.3778732
20
77.9853121
40
0.8536361
50
114.9971358
51
122.3972841
0
ARC
8
DEFAULT_255_2_778
10
2.1969327
20
78.3791672
40
0.4202202
50
102.6107991
51
115.329945
0
ARC
8
DEFAULT_255_2_778
10
2.1528535
20
78.5681622
40
0.2261677
50
90.4517102
51
102.1666807
0
ARC
8
DEFAULT_255_2_778
10
2.1537914
20
78.6605298
40
0.1338209
50
14.2112875
51
91.1650722
0
ARC
8
DEFAULT_255_2_778
10
2.003049
20
78.5922217
40
0.2981541
50
13.6301136
51
19.8336869
0
LINE
8
DEFAULT_255_2_778
10
2.2928063
20
78.6624825
11
2.2930063
21
78.6624825
0
ARC
8
DEFAULT_255_2_778
10
3.6169309
20
78.6313817
40
0.2283323
50
359.844003
51
9.484809
0
ARC
8
DEFAULT_255_2_778
10
3.4536453
20
78.6434763
40
0.3918234
50
335.3133062
51
358.1401856
0
ARC
8
DEFAULT_255_2_778
10
2.9384215
20
78.8640181
40
0.9521839
50
325.2856218
51
336.2039615
0
ARC
8
DEFAULT_255_2_778
10
2.1028578
20
79.4305399
40
1.9616708
50
319.2024943
51
325.5823751
0
ARC
8
DEFAULT_255_2_778
10
0.9607484
20
80.4040603
40
3.4623732
50
315.5036372
51
319.3557689
0
LINE
8
DEFAULT_255_2_778
10
3.4304417
20
77.9774077
11
3.4304417
21
77.7798077
0
LINE
8
DEFAULT_255_2_778
10
3.4304417
20
77.7798077
11
4.0675417
21
77.7798077
0
LINE
8
DEFAULT_255_2_778
10
4.0675417
20
77.7798077
11
4.0675417
21
77.9663077
0
LINE
8
DEFAULT_255_2_778
10
4.0675417
20
77.9663077
11
3.6754417
21
77.9663077
0
ARC
8
DEFAULT_255_2_778
10
2.4276187
20
79.2101176
40
1.7618528
50
315.0922794
51
324.2157631
0
ARC
8
DEFAULT_255_2_778
10
2.9937762
20
78.8068379
40
1.0667673
50
324.0062212
51
338.4065067
0
ARC
8
DEFAULT_255_2_778
10
3.341626
20
78.669211
40
0.6926809
50
338.4026002
51
359.5201337
0
ARC
8
DEFAULT_255_2_778
10
3.4233702
20
78.6635064
40
0.6109127
50
359.9909259
51
10.8599357
0
ARC
8
DEFAULT_255_2_778
10
3.6776893
20
78.6907309
40
0.3566482
50
14.2643621
51
37.1925492
0
ARC
8
DEFAULT_255_2_778
10
3.7677061
20
78.749283
40
0.2496664
50
38.9763473
51
91.4358774
0
ARC
8
DEFAULT_255_2_778
10
3.7519916
20
78.6079386
40
0.391047
50
88.6140446
51
90.0055463
0
ARC
8
DEFAULT_255_2_778
10
3.7570577
20
78.4779089
40
0.5211018
50
90.5611939
51
102.6331161
0
ARC
8
DEFAULT_255_2_778
10
3.8321277
20
78.1299898
40
0.8770208
50
102.4475865
51
110.2645165
0
ARC
8
DEFAULT_255_2_778
10
3.9722127
20
77.7366522
40
1.2945402
50
110.0511809
51
113.7886526
0
ARC
8
DEFAULT_255_2_778
10
1.8156123
20
78.6898318
40
1.6507253
50
5.0846958
51
8.0574632
0
ARC
8
DEFAULT_255_2_778
10
-1.5395197
20
78.3770796
40
5.0203928
50
3.8332507
51
5.246321
0
ARC
8
DEFAULT_255_2_778
10
3.9283614
20
77.9953334
40
0.8514984
50
115.1638318
51
122.5965833
0
ARC
8
DEFAULT_255_2_778
10
3.746676
20
78.387669
40
0.4191498
50
102.7944336
51
115.4893854
0
ARC
8
DEFAULT_255_2_778
10
3.7020866
20
78.5764358
40
0.2252016
50
90.4647486
51
102.3672285
0
ARC
8
DEFAULT_255_2_778
10
3.7028721
20
78.6680424
40
0.133613
50
14.610437
51
91.1202027
0
ARC
8
DEFAULT_255_2_778
10
3.55117
20
78.5986488
40
0.2993106
50
13.5563535
51
20.148098
0
LINE
8
DEFAULT_255_2_778
10
3.8421417
20
78.6688077
11
3.8421417
21
78.6690077
0
LINE
8
DEFAULT_255_2_778
10
5.3883292
20
78.0374812
11
5.1428292
21
78.9785812
0
LINE
8
DEFAULT_255_2_778
10
5.1428292
20
78.9785812
11
4.9372292
21
78.9785812
0
LINE
8
DEFAULT_255_2_778
10
4.9372292
20
78.9785812
11
5.2666292
21
77.7799812
0
LINE
8
DEFAULT_255_2_778
10
5.2666292
20
77.7799812
11
5.5026292
21
77.7799812
0
LINE
8
DEFAULT_255_2_778
10
5.5026292
20
77.7799812
11
5.8251292
21
78.9785812
0
LINE
8
DEFAULT_255_2_778
10
5.8251292
20
78.9785812
11
5.6346292
21
78.9785812
0
LINE
8
DEFAULT_255_2_778
10
5.6346292
20
78.9785812
11
5.3883292
21
78.0374812
0
LINE
8
DEFAULT_255_2_778
10
5.3909771
20
78.0375
11
5.3883771
21
78.0375
0
LINE
8
DEFAULT_255_2_778
10
5.9508753
20
77.7799812
11
6.2707753
21
77.7799812
0
ARC
8
DEFAULT_255_2_778
10
6.2837655
20
78.3557752
40
0.5759405
50
268.7075934
51
291.6104136
0
ARC
8
DEFAULT_255_2_778
10
6.3348132
20
78.1930284
40
0.4060245
50
293.3716587
51
345.2578065
0
ARC
8
DEFAULT_255_2_778
10
5.9152904
20
78.3327228
40
0.8477587
50
343.3421149
51
358.0841808
0
ARC
8
DEFAULT_255_2_778
10
5.2774364
20
78.4105002
40
1.4889254
50
355.9129409
51
358.6218756
0
ARC
8
DEFAULT_255_2_778
10
5.4531863
20
78.4055737
40
1.313108
50
358.6523404
51
359.9911162
0
ARC
8
DEFAULT_255_2_778
10
5.8570267
20
78.4170205
40
0.9093422
50
359.2659121
51
13.4562107
0
ARC
8
DEFAULT_255_2_778
10
6.2884077
20
78.5271759
40
0.4642192
50
12.6232898
51
44.2344394
0
ARC
8
DEFAULT_255_2_778
10
6.3164883
20
78.5285734
40
0.4435145
50
46.6364013
51
81.5589761
0
ARC
8
DEFAULT_255_2_778
10
6.2502666
20
78.2103942
40
0.7681979
50
80.1567646
51
90.3051523
0
LINE
8
DEFAULT_255_2_778
10
6.2461753
20
78.9785812
11
5.9508753
21
78.9785812
0
LINE
8
DEFAULT_255_2_778
10
5.9508753
20
78.9785812
11
5.9508753
21
77.7799812
0
ARC
8
DEFAULT_255_2_778
10
5.9683377
20
78.4071835
40
0.5975069
50
359.127134
51
16.6362678
0
ARC
8
DEFAULT_255_2_778
10
6.2646331
20
78.4998462
40
0.2871123
50
15.8467616
51
88.8012926
0
ARC
8
DEFAULT_255_2_778
10
6.2212421
20
78.2483687
40
0.5407879
50
84.7591104
51
90.0980107
0
ARC
8
DEFAULT_255_2_778
10
6.2215496
20
78.1047063
40
0.6844507
50
90.1031797
51
95.0195223
0
ARC
8
DEFAULT_255_2_778
10
6.2299054
20
77.994549
40
0.7949176
50
94.9247812
51
95.952071
0
LINE
8
DEFAULT_255_2_778
10
6.1474753
20
78.7851812
11
6.1474753
21
77.9548812
0
ARC
8
DEFAULT_255_2_778
10
6.1918008
20
78.7234936
40
0.7698895
50
266.6994331
51
269.9532694
0
ARC
8
DEFAULT_255_2_778
10
6.202696
20
78.4253871
40
0.4719235
50
268.6008445
51
291.1284816
0
ARC
8
DEFAULT_255_2_778
10
6.2554086
20
78.2632945
40
0.3018689
50
292.8861632
51
351.3154763
0
ARC
8
DEFAULT_255_2_778
10
5.9251227
20
78.3468558
40
0.6418205
50
348.3921886
51
0.5391988
0
ARC
8
DEFAULT_255_2_778
10
5.6456027
20
78.352271
40
0.9213121
50
0.0388546
51
2.8500856
0
LINE
8
DEFAULT_255_2_778
10
5.9508753
20
77.7799812
11
5.9508753
21
77.7799812
0
LINE
8
DEFAULT_255_2_778
10
6.5657753
20
78.3980812
11
6.5657753
21
78.3980812
0
ARC
8
DEFAULT_255_2_778
10
7.3395369
20
78.3071312
40
0.5248164
50
56.755345
51
65.4586857
0
ARC
8
DEFAULT_255_2_778
10
7.3990883
20
78.4389776
40
0.3801466
50
65.3696634
51
77.5157242
0
ARC
8
DEFAULT_255_2_778
10
7.4179944
20
78.5216422
40
0.29535
50
77.6300448
51
89.8218029
0
ARC
8
DEFAULT_255_2_778
10
7.4349343
20
78.5110075
40
0.3064024
50
92.9972785
51
158.8614793
0
ARC
8
DEFAULT_255_2_778
10
7.6332236
20
78.3919525
40
0.5357439
50
154.6294038
51
173.1555643
0
ARC
8
DEFAULT_255_2_778
10
7.6182078
20
78.3926275
40
0.5207557
50
173.0324056
51
179.9475831
0
ARC
8
DEFAULT_255_2_778
10
7.5824577
20
78.393012
40
0.4850055
50
179.9891463
51
182.8431548
0
ARC
8
DEFAULT_255_2_778
10
7.8741893
20
78.397656
40
0.7766705
50
182.1178009
51
193.8981746
0
ARC
8
DEFAULT_255_2_778
10
7.5414498
20
78.312449
40
0.4332148
50
193.5292602
51
213.2447404
0
ARC
8
DEFAULT_255_2_778
10
7.4158029
20
78.232555
40
0.28434
50
213.6605208
51
272.083406
0
ARC
8
DEFAULT_255_2_778
10
7.421967
20
78.4147383
40
0.466354
50
270.5126864
51
285.7590213
0
ARC
8
DEFAULT_255_2_778
10
7.3977809
20
78.5171896
40
0.5715412
50
285.3030927
51
286.6432795
0
ARC
8
DEFAULT_255_2_778
10
7.3780847
20
78.5790487
40
0.636451
50
286.7471512
51
293.8519305
0
ARC
8
DEFAULT_255_2_778
10
7.3913409
20
78.5734749
40
0.8149606
50
278.1909485
51
288.0348655
0
ARC
8
DEFAULT_255_2_778
10
7.4104998
20
78.4459042
40
0.6859621
50
270.10002
51
278.1251248
0
ARC
8
DEFAULT_255_2_778
10
7.3915913
20
78.2335008
40
0.4739842
50
207.2883631
51
272.4311666
0
ARC
8
DEFAULT_255_2_778
10
7.5467353
20
78.3079383
40
0.6460087
50
187.9790387
51
206.8470865
0
ARC
8
DEFAULT_255_2_778
10
7.8235643
20
78.3542364
40
0.926614
50
179.7998328
51
188.4380328
0
ARC
8
DEFAULT_255_2_778
10
8.0200961
20
78.3570239
40
1.1231402
50
177.2779298
51
179.9770586
0
ARC
8
DEFAULT_255_2_778
10
8.1047201
20
78.3533926
40
1.2078413
50
176.1185216
51
177.2965118
0
ARC
8
DEFAULT_255_2_778
10
7.7359169
20
78.3803522
40
0.8380614
50
161.1517445
51
176.2506348
0
ARC
8
DEFAULT_255_2_778
10
7.4822783
20
78.4691531
40
0.5693391
50
138.1295637
51
161.3628749
0
ARC
8
DEFAULT_255_2_778
10
7.3984344
20
78.5394617
40
0.4599909
50
89.3337201
51
137.680434
0
ARC
8
DEFAULT_255_2_778
10
7.4019471
20
78.4439906
40
0.5554338
50
75.1497532
51
89.8105781
0
ARC
8
DEFAULT_255_2_778
10
7.389775
20
78.3902562
40
0.6104963
50
73.0719801
51
75.3380416
0
ARC
8
DEFAULT_255_2_778
10
7.3789197
20
78.3562878
40
0.6461537
50
66.2797157
51
73.0281431
0
LINE
8
DEFAULT_255_2_778
10
7.6404492
20
78.9494547
11
7.6272492
21
78.7460547
0
LINE
8
DEFAULT_255_2_778
10
7.6354492
20
77.9969547
11
7.6436492
21
77.7985547
0
ARC
8
DEFAULT_255_2_778
10
0.1978356
20
77.0655079
40
1.6226795
50
359.5767745
51
7.587308
0
ARC
8
DEFAULT_255_2_778
10
1.0491049
20
77.1845395
40
0.7631671
50
7.1675873
51
21.5099126
0
ARC
8
DEFAULT_255_2_778
10
1.4649432
20
77.3568527
40
0.3132076
50
20.0755454
51
55.4922406
0
ARC
8
DEFAULT_255_2_778
10
1.5079347
20
77.3970252
40
0.2560614
50
58.3281227
51
91.2898157
0
ARC
8
DEFAULT_255_2_778
10
1.4942526
20
77.3699381
40
0.2831944
50
88.3977753
51
163.5685423
0
ARC
8
DEFAULT_255_2_778
10
1.9380156
20
77.1845017
40
0.7630844
50
159.6357921
51
174.3969236
0
ARC
8
DEFAULT_255_2_778
10
2.6443563
20
77.0988671
40
1.4745009
50
173.765047
51
180.2621071
0
ARC
8
DEFAULT_255_2_778
10
3.0076992
20
77.0800403
40
1.8378681
50
179.6233552
51
187.0130636
0
ARC
8
DEFAULT_255_2_778
10
2.066697
20
76.9587413
40
0.889113
50
186.6586818
51
199.5369355
0
ARC
8
DEFAULT_255_2_778
10
1.5849675
20
76.7804454
40
0.3755577
50
198.4791041
51
226.8564169
0
ARC
8
DEFAULT_255_2_778
10
1.4951189
20
76.6990234
40
0.2548992
50
229.0774758
51
271.5853421
0
ARC
8
DEFAULT_255_2_778
10
1.5048171
20
76.7064472
40
0.2622387
50
269.4218358
51
341.0384979
0
ARC
8
DEFAULT_255_2_778
10
1.0818774
20
76.9053412
40
0.7286199
50
337.0504364
51
352.0682469
0
ARC
8
DEFAULT_255_2_778
10
0.2718686
20
77.0318218
40
1.5483916
50
351.5688921
51
359.521235
0
ARC
8
DEFAULT_255_2_778
10
-0.4124691
20
77.0532719
40
2.23294
50
359.1175819
51
0.0064126
0
ARC
8
DEFAULT_255_2_778
10
1.5038515
20
77.3621274
40
0.0786858
50
96.4070392
51
165.4946356
0
ARC
8
DEFAULT_255_2_778
10
1.8404297
20
77.2157314
40
0.4449247
50
158.0787626
51
172.9063952
0
ARC
8
DEFAULT_255_2_778
10
2.7807973
20
77.0770969
40
1.3953793
50
172.0257354
51
178.5238955
0
ARC
8
DEFAULT_255_2_778
10
4.0110065
20
77.0269474
40
2.6265369
50
178.1215813
51
180.0550934
0
ARC
8
DEFAULT_255_2_778
10
3.0569076
20
77.0128486
40
1.6724768
50
179.6035197
51
185.4153185
0
ARC
8
DEFAULT_255_2_778
10
1.9621439
20
76.902623
40
0.5722327
50
184.7729101
51
197.121587
0
ARC
8
DEFAULT_255_2_778
10
1.5315137
20
76.76135
40
0.1193804
50
193.1664206
51
235.2974199
0
ARC
8
DEFAULT_255_2_778
10
1.4893833
20
76.7111484
40
0.0544609
50
241.6814038
51
270.3339453
0
ARC
8
DEFAULT_255_2_778
10
1.4896631
20
76.7193961
40
0.0627078
50
270.034332
51
274.9471823
0
ARC
8
DEFAULT_255_2_778
10
1.4870294
20
76.7395852
40
0.0830536
50
275.5562496
51
345.8884415
0
ARC
8
DEFAULT_255_2_778
10
1.1582013
20
76.8794441
40
0.4395712
50
338.6393525
51
353.6354139
0
ARC
8
DEFAULT_255_2_778
10
0.2423458
20
77.0006982
40
1.3633556
50
352.8377454
51
359.7784611
0
ARC
8
DEFAULT_255_2_778
10
-0.687503
20
77.0241134
40
2.2933738
50
359.2832951
51
0.0077049
0
ARC
8
DEFAULT_255_2_778
10
-1.0960845
20
77.0698747
40
2.7023377
50
359.0362501
51
359.9858903
0
ARC
8
DEFAULT_255_2_778
10
-0.0507553
20
77.0796217
40
1.657041
50
359.6399623
51
5.2613664
0
ARC
8
DEFAULT_255_2_778
10
0.9981332
20
77.1826335
40
0.6031594
50
4.6538222
51
16.5703917
0
ARC
8
DEFAULT_255_2_778
10
1.4410504
20
77.3224549
40
0.1389738
50
13.395184
51
50.6796616
0
ARC
8
DEFAULT_255_2_778
10
1.4954426
20
77.3804109
40
0.059912
50
55.8071222
51
90.3554648
0
LINE
8
DEFAULT_255_2_778
10
4.1604709
20
78.2230218
11
4.1604709
21
78.0290218
0
LINE
8
DEFAULT_255_2_778
10
4.1604709
20
78.0290218
11
4.5734709
21
78.0290218
0
LINE
8
DEFAULT_255_2_778
10
4.5734709
20
78.0290218
11
4.5734709
21
77.7800218
0
LINE
8
DEFAULT_255_2_778
10
4.5734709
20
77.7800218
11
4.7573709
21
77.7800218
0
LINE
8
DEFAULT_255_2_778
10
4.7573709
20
77.7800218
11
4.7573709
21
78.0290218
0
LINE
8
DEFAULT_255_2_778
10
4.7573709
20
78.0290218
11
4.8793709
21
78.0290218
0
LINE
8
DEFAULT_255_2_778
10
4.8793709
20
78.0290218
11
4.8793709
21
78.2076218
0
LINE
8
DEFAULT_255_2_778
10
4.8793709
20
78.2076218
11
4.7573709
21
78.2076218
0
LINE
8
DEFAULT_255_2_778
10
4.7573709
20
78.2076218
11
4.7573709
21
78.9786218
0
LINE
8
DEFAULT_255_2_778
10
4.7573709
20
78.9786218
11
4.5181709
21
78.9786218
0
LINE
8
DEFAULT_255_2_778
10
4.5181709
20
78.9786218
11
4.1604709
21
78.2230218
0
LINE
8
DEFAULT_255_2_778
10
4.5734709
20
78.7278218
11
4.5705709
21
78.7278218
0
LINE
8
DEFAULT_255_2_778
10
4.5705709
20
78.7278218
11
4.3332709
21
78.2076218
0
LINE
8
DEFAULT_255_2_778
10
4.3332709
20
78.2076218
11
4.5734709
21
78.2076218
0
LINE
8
DEFAULT_255_2_778
10
4.5734709
20
78.2076218
11
4.5734709
21
78.7278218
0
LINE
8
DEFAULT_255_2_778
10
1.8204709
20
77.0535218
11
1.8204709
21
77.0535218
0
LINE
8
DEFAULT_255_2_778
10
1.4950709
20
77.4403218
11
1.4950709
21
77.4403218
0
ARC
8
DEFAULT_255_2_778
10
3.9476144
20
76.9309571
40
0.5185537
50
164.0114808
51
180.9021333
0
ARC
8
DEFAULT_255_2_778
10
3.6539309
20
77.0208406
40
0.2115446
50
134.7598058
51
165.5048086
0
ARC
8
DEFAULT_255_2_778
10
3.560223
20
77.1134784
40
0.0797934
50
92.6503186
51
133.8197857
0
ARC
8
DEFAULT_255_2_778
10
3.5574399
20
77.1269368
40
0.0662559
50
90.012867
51
90.7839681
0
ARC
8
DEFAULT_255_2_778
10
3.5610431
20
77.1041435
40
0.0891226
50
20.959883
51
92.3266223
0
ARC
8
DEFAULT_255_2_778
10
3.3795179
20
77.0215827
40
0.2884264
50
4.1778812
51
23.3769219
0
ARC
8
DEFAULT_255_2_778
10
2.9598727
20
76.9725605
40
0.7107641
50
359.7203665
51
5.6548051
0
ARC
8
DEFAULT_255_2_778
10
2.6118794
20
76.9696891
40
1.058749
50
358.1747795
51
359.9676682
0
ARC
8
DEFAULT_255_2_778
10
2.4982512
20
76.972628
40
1.1724134
50
357.9648576
51
358.2080945
0
ARC
8
DEFAULT_255_2_778
10
4.4833011
20
76.9403108
40
0.6287451
50
168.7975168
51
180.8491683
0
ARC
8
DEFAULT_255_2_778
10
4.0774807
20
77.0263555
40
0.2140128
50
143.6200997
51
170.287208
0
ARC
8
DEFAULT_255_2_778
10
3.9685186
20
77.1066384
40
0.0786685
50
91.0878739
51
143.6248478
0
ARC
8
DEFAULT_255_2_778
10
3.9652064
20
77.8679843
40
0.682694
50
270.1526314
51
271.071698
0
ARC
8
DEFAULT_255_2_778
10
3.990721
20
76.5063244
40
0.6792047
50
90.1585995
51
91.0752632
0
ARC
8
DEFAULT_255_2_778
10
3.9987596
20
77.1148708
40
0.0713484
50
17.0022108
51
97.9910329
0
ARC
8
DEFAULT_255_2_778
10
3.7933893
20
77.0363344
40
0.2910968
50
3.9875334
51
19.9661275
0
ARC
8
DEFAULT_255_2_778
10
3.205299
20
76.9762886
40
0.8821438
50
359.636542
51
5.2220176
0
ARC
8
DEFAULT_255_2_778
10
3.6759861
20
77.0335189
40
0.5890348
50
3.1603512
51
17.7039105
0
ARC
8
DEFAULT_255_2_778
10
4.0124432
20
77.1465426
40
0.2342028
50
16.3937396
51
49.2119132
0
ARC
8
DEFAULT_255_2_778
10
4.0598533
20
77.1888568
40
0.1713929
50
51.9720237
51
91.4805247
0
ARC
8
DEFAULT_255_2_778
10
4.0424706
20
77.1421514
40
0.2184258
50
86.599904
51
124.7807167
0
ARC
8
DEFAULT_255_2_778
10
4.1074551
20
77.0878428
40
0.3009356
50
129.0484515
51
152.2637927
0
ARC
8
DEFAULT_255_2_778
10
4.513776
20
76.8373702
40
0.7778235
50
149.8623909
51
151.4516098
0
ARC
8
DEFAULT_255_2_778
10
3.6355329
20
77.1554516
40
0.2022358
50
15.3812431
51
90.4793838
0
ARC
8
DEFAULT_255_2_778
10
3.6338845
20
77.1506922
40
0.2069881
50
90.0120764
51
102.7559577
0
ARC
8
DEFAULT_255_2_778
10
3.6401787
20
77.1305377
40
0.2280412
50
103.1802842
51
130.7973938
0
ARC
8
DEFAULT_255_2_778
10
3.6956826
20
77.0653579
40
0.3136501
50
130.6933088
51
148.2743104
0
ARC
8
DEFAULT_255_2_778
10
3.7614461
20
77.0203676
40
0.3932625
50
147.7373125
51
149.9842047
0
LINE
8
DEFAULT_255_2_778
10
2.124225
20
76.7124927
11
2.311525
21
76.7124927
0
LINE
8
DEFAULT_255_2_778
10
2.311525
20
76.7124927
11
2.311525
21
76.4780927
0
LINE
8
DEFAULT_255_2_778
10
2.311525
20
76.4780927
11
2.124225
21
76.4780927
0
LINE
8
DEFAULT_255_2_778
10
2.124225
20
76.4780927
11
2.124225
21
76.7124927
0
LINE
8
DEFAULT_255_2_778
10
3.252425
20
77.3522927
11
3.252425
21
76.4777927
0
LINE
8
DEFAULT_255_2_778
10
3.252425
20
76.4777927
11
3.429125
21
76.4777927
0
LINE
8
DEFAULT_255_2_778
10
3.429125
20
76.4777927
11
3.429125
21
76.9227927
0
LINE
8
DEFAULT_255_2_778
10
3.669925
20
76.9309927
11
3.669925
21
76.4780927
0
LINE
8
DEFAULT_255_2_778
10
3.669925
20
76.4780927
11
3.854625
21
76.4780927
0
LINE
8
DEFAULT_255_2_778
10
3.854625
20
76.4780927
11
3.854625
21
76.9309927
0
LINE
8
DEFAULT_255_2_778
10
4.087425
20
76.9706927
11
4.087425
21
76.4777927
0
LINE
8
DEFAULT_255_2_778
10
4.087425
20
76.4777927
11
4.264125
21
76.4777927
0
LINE
8
DEFAULT_255_2_778
10
4.264125
20
76.4777927
11
4.264125
21
77.0659927
0
LINE
8
DEFAULT_255_2_778
10
3.420925
20
77.2170927
11
3.420925
21
77.3522927
0
LINE
8
DEFAULT_255_2_778
10
3.420925
20
77.3522927
11
3.252425
21
77.3522927
0
LINE
8
DEFAULT_255_2_778
10
2.7060021
20
77.3876135
11
2.7060021
21
76.4423135
0
LINE
8
DEFAULT_255_2_778
10
2.7060021
20
76.4423135
11
2.9161021
21
76.4423135
0
LINE
8
DEFAULT_255_2_778
10
2.9161021
20
76.4423135
11
2.9161021
21
77.6665135
0
LINE
8
DEFAULT_255_2_778
10
2.9161021
20
77.6665135
11
2.7301021
21
77.6665135
0
LINE
8
DEFAULT_255_2_778
10
2.7301021
20
77.6665135
11
2.4245021
21
77.3789135
0
LINE
8
DEFAULT_255_2_778
10
2.4245021
20
77.3789135
11
2.5290021
21
77.2194135
0
LINE
8
DEFAULT_255_2_778
10
2.5290021
20
77.2194135
11
2.7060021
21
77.3876135
0
ARC
8
DEFAULT_255_2_778
10
4.0952839
20
90.233797
40
3.2887225
50
306.8595399
51
311.7833799
0
ARC
8
DEFAULT_255_2_778
10
4.8781893
20
89.3625281
40
2.1173839
50
311.6954906
51
318.739741
0
ARC
8
DEFAULT_255_2_778
10
5.4991808
20
88.8216502
40
1.293876
50
318.6094592
51
328.9155348
0
ARC
8
DEFAULT_255_2_778
10
5.9568086
20
88.5504761
40
0.7619636
50
328.6118753
51
346.137511
0
ARC
8
DEFAULT_255_2_778
10
6.16717
20
88.493178
40
0.5440262
50
346.6881384
51
359.832782
0
ARC
8
DEFAULT_255_2_778
10
6.1990035
20
88.4901397
40
0.5121923
50
0.1622729
51
26.9164031
0
ARC
8
DEFAULT_255_2_778
10
6.1208813
20
88.4563457
40
0.5971725
50
26.4143938
51
27.1946401
0
ARC
8
DEFAULT_255_2_778
10
6.1784871
20
88.3992092
40
0.5772253
50
34.8753216
51
80.3913207
0
ARC
8
DEFAULT_255_2_778
10
6.1057652
20
88.0804395
40
0.9038508
50
79.2189412
51
90.3339268
0
ARC
8
DEFAULT_255_2_778
10
6.1053583
20
87.6928311
40
1.2914528
50
90.2156529
51
97.6427596
0
ARC
8
DEFAULT_255_2_778
10
6.172228
20
87.1834282
40
1.8052245
50
97.5960097
51
103.2658453
0
ARC
8
DEFAULT_255_2_778
10
6.3268671
20
86.5220292
40
2.4844599
50
103.2368269
51
107.7472616
0
ARC
8
DEFAULT_255_2_778
10
6.3549859
20
86.4167065
40
2.5933469
50
107.6296429
51
107.7018774
0
ARC
8
DEFAULT_255_2_778
10
6.559957
20
85.8861736
40
2.817217
50
107.2658302
51
110.2029319
0
ARC
8
DEFAULT_255_2_778
10
6.2766725
20
86.7996541
40
1.8608196
50
103.6537643
51
107.2845146
0
ARC
8
DEFAULT_255_2_778
10
6.1125499
20
87.483155
40
1.1578941
50
98.2642618
51
103.745739
0
ARC
8
DEFAULT_255_2_778
10
6.0425654
20
87.9740837
40
0.6620051
50
90.4172855
51
98.3774509
0
ARC
8
DEFAULT_255_2_778
10
6.0436055
20
88.3077267
40
0.3283968
50
74.6846096
51
91.0227011
0
ARC
8
DEFAULT_255_2_778
10
6.098197
20
88.4873818
40
0.1407986
50
2.3342904
51
76.8011869
0
ARC
8
DEFAULT_255_2_778
10
5.9931651
20
88.4695077
40
0.2468453
50
359.8991044
51
5.4882588
0
ARC
8
DEFAULT_255_2_778
10
5.8947895
20
88.4711526
40
0.3452268
50
350.8008755
51
359.6548688
0
ARC
8
DEFAULT_255_2_778
10
5.7164666
20
88.4988654
40
0.5256878
50
345.061342
51
350.9263633
0
ARC
8
DEFAULT_255_2_778
10
5.569976
20
88.535928
40
0.6767843
50
343.5751624
51
345.2266876
0
ARC
8
DEFAULT_255_2_778
10
4.8139349
20
89.0613862
40
1.5774798
50
318.9212289
51
332.97297
0
ARC
8
DEFAULT_255_2_778
10
4.2014435
20
89.5866215
40
2.3843191
50
309.9470646
51
319.0783789
0
ARC
8
DEFAULT_255_2_778
10
3.5993663
20
90.2868465
40
3.3077414
50
305.7527464
51
310.1544939
0
LINE
8
DEFAULT_255_2_778
10
5.5320417
20
87.6024623
11
5.5320417
21
87.2862623
0
LINE
8
DEFAULT_255_2_778
10
5.5320417
20
87.2862623
11
6.7345417
21
87.2862623
0
ARC
8
DEFAULT_255_2_778
10
6.7767979
20
87.302829
40
0.0453876
50
175.962318
51
201.4077946
0
ARC
8
DEFAULT_255_2_778
10
8.4039281
20
87.3977369
40
1.6749179
50
180.7606247
51
183.1388676
0
ARC
8
DEFAULT_255_2_778
10
14.5699376
20
87.5163217
40
7.8420441
50
180.3266544
51
181.028914
0
ARC
8
DEFAULT_255_2_778
10
26.5901961
20
87.5945682
40
19.8625559
50
179.9772284
51
180.3546804
0
LINE
8
DEFAULT_255_2_778
10
6.7276417
20
87.6024623
11
6.0680417
21
87.6024623
0
LINE
8
DEFAULT_255_2_778
10
4.3930417
20
76.4780623
11
4.5866417
21
76.4780623
0
LINE
8
DEFAULT_255_2_778
10
4.5866417
20
76.4780623
11
4.6684417
21
76.7460623
0
LINE
8
DEFAULT_255_2_778
10
4.6684417
20
76.7460623
11
5.0473417
21
76.7460623
0
LINE
8
DEFAULT_255_2_778
10
5.0473417
20
76.7460623
11
5.1274417
21
76.4780623
0
LINE
8
DEFAULT_255_2_778
10
5.1274417
20
76.4780623
11
5.3351417
21
76.4780623
0
LINE
8
DEFAULT_255_2_778
10
5.3351417
20
76.4780623
11
4.9684417
21
77.6464623
0
LINE
8
DEFAULT_255_2_778
10
4.9684417
20
77.6464623
11
4.7568417
21
77.6464623
0
LINE
8
DEFAULT_255_2_778
10
4.7568417
20
77.6464623
11
4.3930417
21
76.4780623
0
LINE
8
DEFAULT_255_2_778
10
4.8597417
20
77.4122623
11
4.8570417
21
77.4122623
0
LINE
8
DEFAULT_255_2_778
10
4.8570417
20
77.4122623
11
4.7221417
21
76.9299623
0
LINE
8
DEFAULT_255_2_778
10
4.7221417
20
76.9299623
11
4.9951417
21
76.9299623
0
LINE
8
DEFAULT_255_2_778
10
4.9951417
20
76.9299623
11
4.8597417
21
77.4122623
0
LINE
8
DEFAULT_255_2_778
10
3.9432417
20
88.9843623
11
3.2780417
21
87.9805623
0
LINE
8
DEFAULT_255_2_778
10
3.2780417
20
87.9805623
11
3.2780417
21
87.3240623
0
LINE
8
DEFAULT_255_2_778
10
3.2780417
20
87.3240623
11
2.9055417
21
87.3240623
0
LINE
8
DEFAULT_255_2_778
10
2.9055417
20
87.3240623
11
2.9055417
21
87.9805623
0
LINE
8
DEFAULT_255_2_778
10
2.9055417
20
87.9805623
11
2.2273417
21
88.9843623
0
LINE
8
DEFAULT_255_2_778
10
2.2273417
20
88.9843623
11
2.6634417
21
88.9843623
0
LINE
8
DEFAULT_255_2_778
10
2.6634417
20
88.9843623
11
3.1028417
21
88.2874623
0
LINE
8
DEFAULT_255_2_778
10
3.1028417
20
88.2874623
11
3.5497417
21
88.9843623
0
LINE
8
DEFAULT_255_2_778
10
3.5497417
20
88.9843623
11
3.9432417
21
88.9843623
0
LINE
8
DEFAULT_255_2_778
10
2.2599417
20
87.6521623
11
2.2599417
21
87.3240623
0
LINE
8
DEFAULT_255_2_778
10
2.2599417
20
87.3240623
11
1.1698417
21
87.3240623
0
LINE
8
DEFAULT_255_2_778
10
1.1698417
20
87.3240623
11
1.1698417
21
88.9843623
0
LINE
8
DEFAULT_255_2_778
10
1.1698417
20
88.9843623
11
1.5976417
21
88.9843623
0
LINE
8
DEFAULT_255_2_778
10
1.5976417
20
88.9843623
11
1.5976417
21
87.6521623
0
LINE
8
DEFAULT_255_2_778
10
1.5976417
20
87.6521623
11
2.2599417
21
87.6521623
0
LINE
8
DEFAULT_255_2_778
10
5.5664417
20
88.8872623
11
5.5870417
21
88.5300623
0
LINE
8
DEFAULT_255_2_778
10
6.0680417
20
87.6024623
11
6.0680417
21
87.6024623
0
LINE
8
DEFAULT_255_2_778
10
5.0645688
20
87.9419073
11
5.0645688
21
88.9844073
0
LINE
8
DEFAULT_255_2_778
10
5.0645688
20
88.9844073
11
4.5753688
21
88.9844073
0
LINE
8
DEFAULT_255_2_778
10
4.5753688
20
88.9844073
11
3.9109688
21
87.9941073
0
LINE
8
DEFAULT_255_2_778
10
3.9109688
20
87.9941073
11
3.9109688
21
87.6427073
0
LINE
8
DEFAULT_255_2_778
10
3.9109688
20
87.6427073
11
4.6515688
21
87.6427073
0
LINE
8
DEFAULT_255_2_778
10
4.6515688
20
87.6427073
11
4.6515688
21
87.3268073
0
LINE
8
DEFAULT_255_2_778
10
4.6515688
20
87.3268073
11
5.0645688
21
87.3268073
0
LINE
8
DEFAULT_255_2_778
10
5.0645688
20
87.3268073
11
5.0645688
21
87.6427073
0
LINE
8
DEFAULT_255_2_778
10
5.0645688
20
87.6427073
11
5.3000688
21
87.6427073
0
LINE
8
DEFAULT_255_2_778
10
5.3000688
20
87.6427073
11
5.3000688
21
87.9419073
0
LINE
8
DEFAULT_255_2_778
10
5.3000688
20
87.9419073
11
5.0645688
21
87.9419073
0
LINE
8
DEFAULT_255_2_778
10
4.7303688
20
88.6426073
11
4.7348688
21
87.9419073
0
LINE
8
DEFAULT_255_2_778
10
4.7348688
20
87.9419073
11
4.2789688
21
87.9419073
0
LINE
8
DEFAULT_255_2_778
10
4.2789688
20
87.9419073
11
4.7303688
21
88.6426073
0
ARC
8
DEFAULT_255_2_778
10
7.5635478
20
88.4369973
40
0.2208074
50
358.1979568
51
80.1606554
0
ARC
8
DEFAULT_255_2_778
10
7.4207504
20
87.9859457
40
0.6925547
50
74.8900026
51
89.4997157
0
ARC
8
DEFAULT_255_2_778
10
7.3974277
20
87.5431992
40
1.1356547
50
88.5180786
51
90.0142152
0
LINE
8
DEFAULT_255_2_778
10
7.397146
20
88.6788537
11
7.397146
21
88.2089537
0
ARC
8
DEFAULT_255_2_778
10
7.4089982
20
89.1005938
40
0.8917189
50
269.2384316
51
280.7601467
0
ARC
8
DEFAULT_255_2_778
10
7.5199635
20
88.5546737
40
0.3347556
50
279.546208
51
305.7217393
0
ARC
8
DEFAULT_255_2_778
10
7.6075444
20
88.4230331
40
0.176841
50
307.5865548
51
2.2752506
0
ARC
8
DEFAULT_255_2_778
10
7.5329044
20
89.9705443
40
2.0977881
50
266.2895074
51
268.0567545
0
ARC
8
DEFAULT_255_2_778
10
7.5244534
20
89.7200298
40
1.8471309
50
268.0552464
51
269.9789675
0
ARC
8
DEFAULT_255_2_778
10
7.5347013
20
89.1753747
40
1.3025213
50
269.5193776
51
280.0915942
0
ARC
8
DEFAULT_255_2_778
10
7.6432507
20
88.5939012
40
0.7110411
50
279.6900701
51
298.475072
0
ARC
8
DEFAULT_255_2_778
10
7.7538122
20
88.3778404
40
0.4684415
50
299.1877231
51
354.7068857
0
ARC
8
DEFAULT_255_2_778
10
7.4267779
20
88.4421286
40
0.8007276
50
352.2844112
51
0.1904916
0
ARC
8
DEFAULT_255_2_778
10
7.247622
20
88.444427
40
0.9798791
50
0.0212684
51
2.3937723
0
ARC
8
DEFAULT_255_2_778
10
7.7626692
20
88.4989858
40
0.464177
50
358.3170727
51
30.3550507
0
ARC
8
DEFAULT_255_2_778
10
7.7886296
20
88.4918045
40
0.4458233
50
32.8382719
51
67.9599988
0
ARC
8
DEFAULT_255_2_778
10
7.6121804
20
88.095418
40
0.8795806
50
66.9952898
51
81.7060875
0
ARC
8
DEFAULT_255_2_778
10
7.4917059
20
87.3314335
40
1.652978
50
81.3938182
51
90.1751535
0
ARC
8
DEFAULT_255_2_778
10
7.4776009
20
86.7334687
40
2.2509533
50
89.7695942
51
89.9990781
0
ARC
8
DEFAULT_255_2_778
10
7.478227
20
86.6004879
40
2.3839341
50
90.0141771
51
91.4559811
0
ARC
8
DEFAULT_255_2_778
10
7.4828201
20
86.3994869
40
2.584987
50
91.444552
51
91.8992992
0
LINE
8
DEFAULT_255_2_778
10
7.397146
20
88.9830537
11
6.954746
21
88.9830537
0
LINE
8
DEFAULT_255_2_778
10
7.784246
20
88.4300537
11
7.784246
21
88.4300537
0
LINE
8
DEFAULT_255_2_778
10
6.954746
20
88.9830537
11
6.954746
21
87.3241537
0
LINE
8
DEFAULT_255_2_778
10
6.954746
20
87.3241537
11
7.397146
21
87.3241537
0
LINE
8
DEFAULT_255_2_778
10
7.397146
20
87.3241537
11
7.397146
21
87.8771537
0
LINE
8
DEFAULT_255_2_778
10
6.954746
20
88.9830537
11
6.954746
21
88.9830537
0
LINE
8
DEFAULT_255_2_778
10
9.6619563
20
88.9843625
11
9.6619563
21
88.7226625
0
LINE
8
DEFAULT_255_2_778
10
9.6619563
20
88.7226625
11
9.1864563
21
88.7226625
0
LINE
8
DEFAULT_255_2_778
10
9.1864563
20
88.7226625
11
9.1864563
21
87.3238625
0
LINE
8
DEFAULT_255_2_778
10
9.1864563
20
87.3238625
11
8.8533563
21
87.3238625
0
LINE
8
DEFAULT_255_2_778
10
8.8533563
20
87.3238625
11
8.8533563
21
88.7226625
0
LINE
8
DEFAULT_255_2_778
10
8.8533563
20
88.7226625
11
8.3776563
21
88.7226625
0
LINE
8
DEFAULT_255_2_778
10
8.3776563
20
88.7226625
11
8.3776563
21
88.9843625
0
LINE
8
DEFAULT_255_2_778
10
8.3776563
20
88.9843625
11
9.6619563
21
88.9843625
0
LINE
8
DEFAULT_255_2_778
10
9.7010865
20
88.6311323
11
10.2442865
21
88.9843323
0
LINE
8
DEFAULT_255_2_778
10
10.2442865
20
88.9843323
11
10.6204865
21
88.9843323
0
LINE
8
DEFAULT_255_2_778
10
10.6204865
20
88.9843323
11
10.6204865
21
87.3838323
0
LINE
8
DEFAULT_255_2_778
10
10.6204865
20
87.3838323
11
10.1937865
21
87.3838323
0
LINE
8
DEFAULT_255_2_778
10
10.1937865
20
87.3838323
11
10.1937865
21
88.5578323
0
LINE
8
DEFAULT_255_2_778
10
10.1937865
20
88.5578323
11
9.8912865
21
88.3424323
0
LINE
8
DEFAULT_255_2_778
10
9.8912865
20
88.3424323
11
9.7010865
21
88.6311323
0
ARC
8
DEFAULT_255_2_778
10
11.6002478
20
88.4369973
40
0.2208074
50
358.1979568
51
80.1606554
0
ARC
8
DEFAULT_255_2_778
10
11.4574504
20
87.9859457
40
0.6925547
50
74.8900026
51
89.4997157
0
ARC
8
DEFAULT_255_2_778
10
11.4341277
20
87.5431992
40
1.1356547
50
88.5180786
51
90.0142152
0
LINE
8
DEFAULT_255_2_778
10
11.433846
20
88.6788537
11
11.433846
21
88.2089537
0
ARC
8
DEFAULT_255_2_778
10
11.4456982
20
89.1005938
40
0.8917189
50
269.2384316
51
280.7601467
0
ARC
8
DEFAULT_255_2_778
10
11.5566635
20
88.5546737
40
0.3347556
50
279.546208
51
305.7217393
0
ARC
8
DEFAULT_255_2_778
10
11.6442444
20
88.4230331
40
0.176841
50
307.5865548
51
2.2752506
0
ARC
8
DEFAULT_255_2_778
10
11.5696044
20
89.9705443
40
2.0977881
50
266.2895074
51
268.0567545
0
ARC
8
DEFAULT_255_2_778
10
11.5611534
20
89.7200298
40
1.8471309
50
268.0552464
51
269.9789675
0
ARC
8
DEFAULT_255_2_778
10
11.5714013
20
89.1753747
40
1.3025213
50
269.5193776
51
280.0915942
0
ARC
8
DEFAULT_255_2_778
10
11.6799507
20
88.5939012
40
0.7110411
50
279.6900701
51
298.475072
0
ARC
8
DEFAULT_255_2_778
10
11.7905122
20
88.3778404
40
0.4684415
50
299.1877231
51
354.7068857
0
ARC
8
DEFAULT_255_2_778
10
11.4634779
20
88.4421286
40
0.8007276
50
352.2844112
51
0.1904916
0
ARC
8
DEFAULT_255_2_778
10
11.284322
20
88.444427
40
0.9798791
50
0.0212684
51
2.3937723
0
ARC
8
DEFAULT_255_2_778
10
11.7993692
20
88.4989858
40
0.464177
50
358.3170727
51
30.3550507
0
ARC
8
DEFAULT_255_2_778
10
11.8253296
20
88.4918045
40
0.4458233
50
32.8382719
51
67.9599988
0
ARC
8
DEFAULT_255_2_778
10
11.6488804
20
88.095418
40
0.8795806
50
66.9952898
51
81.7060875
0
ARC
8
DEFAULT_255_2_778
10
11.5284059
20
87.3314335
40
1.652978
50
81.3938182
51
90.1751535
0
ARC
8
DEFAULT_255_2_778
10
11.5143009
20
86.7334687
40
2.2509533
50
89.7695942
51
89.9990781
0
ARC
8
DEFAULT_255_2_778
10
11.514927
20
86.6004879
40
2.3839341
50
90.0141771
51
91.4559811
0
ARC
8
DEFAULT_255_2_778
10
11.5195201
20
86.3994869
40
2.584987
50
91.444552
51
91.8992992
0
LINE
8
DEFAULT_255_2_778
10
11.433846
20
88.9830537
11
10.991446
21
88.9830537
0
LINE
8
DEFAULT_255_2_778
10
11.820946
20
88.4300537
11
11.820946
21
88.4300537
0
LINE
8
DEFAULT_255_2_778
10
10.991446
20
88.9830537
11
10.991446
21
87.3241537
0
LINE
8
DEFAULT_255_2_778
10
10.991446
20
87.3241537
11
11.433846
21
87.3241537
0
LINE
8
DEFAULT_255_2_778
10
11.433846
20
87.3241537
11
11.433846
21
87.8771537
0
LINE
8
DEFAULT_255_2_778
10
10.991446
20
88.9830537
11
10.991446
21
88.9830537
0
ENDSEC
0
EOF