0
SECTION
2
HEADER
9
$MEASUREMENT
70
1
0
ENDSEC
0
SECTION
2
TABLES
0
TABLE
2
LTYPE
0
LTYPE
72
65
70
64
2
CONTINUOUS
3
______
73
0
40
0
0
ENDTAB
0
TABLE
2
LAYER
0
LAYER
2
DEFAULT_255_2_778
70
0
62
255
6
CONTINUOUS
0
ENDTAB
0
ENDSEC
0
SECTION
2
ENTITIES
0
ARC
8
DEFAULT_255_2_778
10
28.1699215
20
89.2564947
40
0.4999174
50
359.9854173
51
44.980173
0
ARC
8
DEFAULT_255_2_778
10
28.1698311
20
89.2564648
40
0.5000027
50
44.9752778
51
89.9991041
0
ARC
8
DEFAULT_255_2_778
10
0.6701307
20
89.2562624
40
0.5002052
50
90.0334169
51
135.0151151
0
ARC
8
DEFAULT_255_2_778
10
0.6699443
20
89.2560752
40
0.5002057
50
134.9848649
51
179.966524
0
ARC
8
DEFAULT_255_2_778
10
0.6698147
20
0.2564432
40
0.5000758
50
180.008676
51
270.0027763
0
LINE
8
DEFAULT_255_2_778
10
28.1698389
20
89.7564675
11
0.6698389
21
89.7564675
0
LINE
8
DEFAULT_255_2_778
10
0.1697389
20
89.2563675
11
0.1697389
21
0.2563675
0
LINE
8
DEFAULT_255_2_778
10
0.6698389
20
-0.2436325
11
28.6698389
21
-0.2436325
0
LINE
8
DEFAULT_255_2_778
10
28.6698389
20
-0.2436325
11
28.6698389
21
89.2563675
0
LINE
8
DEFAULT_255_2_778
10
0.1697712
20
75.7565062
11
28.6696712
21
75.7565062
0
LINE
8
DEFAULT_255_2_778
10
0.1697712
20
75.6565062
11
28.6696712
21
75.6565062
0
ARC
8
DEFAULT_255_2_778
10
4.2487212
20
90.2050103
40
3.1763561
50
306.7392932
51
311.6570853
0
ARC
8
DEFAULT_255_2_778
10
5.0103398
20
89.3540948
40
2.0343834
50
311.5598066
51
318.7322745
0
ARC
8
DEFAULT_255_2_778
10
5.6216608
20
88.8221207
40
1.2240187
50
318.5748389
51
329.4012944
0
ARC
8
DEFAULT_255_2_778
10
6.0671324
20
88.5632947
40
0.7088405
50
329.0804383
51
347.6320904
0
ARC
8
DEFAULT_255_2_778
10
6.2552114
20
88.516017
40
0.5150338
50
348.2880374
51
359.8774695
0
ARC
8
DEFAULT_255_2_778
10
6.2795997
20
88.513485
40
0.4906465
50
0.167064
51
27.0303013
0
ARC
8
DEFAULT_255_2_778
10
6.2063314
20
88.4818249
40
0.5703224
50
26.5183507
51
27.2982826
0
ARC
8
DEFAULT_255_2_778
10
6.2564317
20
88.4232962
40
0.5577086
50
35.0254779
51
80.4604155
0
ARC
8
DEFAULT_255_2_778
10
6.1855922
20
88.1122103
40
0.876424
50
79.2637157
51
90.3327437
0
ARC
8
DEFAULT_255_2_778
10
6.1856614
20
87.7264212
40
1.2622088
50
90.2341834
51
97.9323388
0
ARC
8
DEFAULT_255_2_778
10
6.2566217
20
87.2047597
40
1.7886724
50
97.8775687
51
103.6548135
0
ARC
8
DEFAULT_255_2_778
10
6.4096815
20
86.5646852
40
2.4467898
50
103.5993192
51
107.7353739
0
ARC
8
DEFAULT_255_2_778
10
6.6227929
20
85.9884902
40
2.7295683
50
107.1871885
51
110.1136965
0
ARC
8
DEFAULT_255_2_778
10
6.3393279
20
86.9097705
40
1.7656665
50
103.1979011
51
107.2334782
0
ARC
8
DEFAULT_255_2_778
10
6.1810813
20
87.5907656
40
1.0665293
50
97.544623
51
103.2738964
0
ARC
8
DEFAULT_255_2_778
10
6.1231645
20
88.030398
40
0.6230985
50
90.3385982
51
97.5729096
0
ARC
8
DEFAULT_255_2_778
10
6.1252282
20
88.3357299
40
0.3178077
50
74.6158941
51
91.0359534
0
ARC
8
DEFAULT_255_2_778
10
6.1782512
20
88.5098966
40
0.1359041
50
1.4467281
51
76.6900495
0
ARC
8
DEFAULT_255_2_778
10
6.0754533
20
88.4931529
40
0.2395098
50
359.9220359
51
4.8319855
0
ARC
8
DEFAULT_255_2_778
10
5.9831128
20
88.4948998
40
0.3318566
50
350.6290635
51
359.642125
0
ARC
8
DEFAULT_255_2_778
10
5.8034109
20
88.5235507
40
0.5138265
50
344.5407199
51
350.7396241
0
ARC
8
DEFAULT_255_2_778
10
5.6619369
20
88.5603638
40
0.6599985
50
343.5247864
51
344.7342426
0
ARC
8
DEFAULT_255_2_778
10
4.9408961
20
89.0674544
40
1.5215662
50
318.5407195
51
332.8524094
0
ARC
8
DEFAULT_255_2_778
10
4.3452872
20
89.5836337
40
2.3096993
50
309.7457673
51
318.7269374
0
ARC
8
DEFAULT_255_2_778
10
3.7708045
20
90.2568457
40
3.1946585
50
305.6099031
51
309.9479612
0
LINE
8
DEFAULT_255_2_778
10
5.6309376
20
87.6595878
11
5.6309376
21
87.3555878
0
LINE
8
DEFAULT_255_2_778
10
5.6309376
20
87.3555878
11
6.7927376
21
87.3555878
0
ARC
8
DEFAULT_255_2_778
10
6.8335759
20
87.3715133
40
0.0438337
50
175.9780277
51
201.3040729
0
ARC
8
DEFAULT_255_2_778
10
8.4058836
20
87.4627544
40
1.6184368
50
180.7565513
51
183.1228133
0
ARC
8
DEFAULT_255_2_778
10
14.3633691
20
87.5767611
40
7.5769908
50
180.3249639
51
181.0237458
0
ARC
8
DEFAULT_255_2_778
10
25.9576118
20
87.6519455
40
19.1714758
50
179.9771602
51
180.3531301
0
LINE
8
DEFAULT_255_2_778
10
6.7861376
20
87.6595878
11
6.1487376
21
87.6595878
0
ARC
8
DEFAULT_255_2_778
10
4.7864226
20
87.1720903
40
1.8272465
50
73.7892424
51
77.9956187
0
ARC
8
DEFAULT_255_2_778
10
4.8687952
20
87.5631803
40
1.4275768
50
77.9647069
51
83.4198754
0
ARC
8
DEFAULT_255_2_778
10
4.90514
20
87.880268
40
1.1084131
50
83.4079608
51
89.8659952
0
ARC
8
DEFAULT_255_2_778
10
4.8974403
20
88.2257423
40
0.7630052
50
89.2271167
51
109.1534762
0
ARC
8
DEFAULT_255_2_778
10
4.8595724
20
88.3669987
40
0.6172345
50
110.1351313
51
150.2377709
0
ARC
8
DEFAULT_255_2_778
10
5.1973677
20
88.1572597
40
1.014689
50
149.4251471
51
163.4197537
0
ARC
8
DEFAULT_255_2_778
10
5.6429806
20
88.0126977
40
1.4830695
50
162.9796369
51
168.2785968
0
ARC
8
DEFAULT_255_2_778
10
6.8220481
20
88.1015296
40
2.6397741
50
175.3836433
51
177.5445374
0
ARC
8
DEFAULT_255_2_778
10
6.4118099
20
88.1189894
40
2.2291645
50
177.5411448
51
179.9647788
0
ARC
8
DEFAULT_255_2_778
10
5.7564939
20
88.1098644
40
1.573883
50
179.6179261
51
188.7138788
0
ARC
8
DEFAULT_255_2_778
10
5.0831031
20
88.0016579
40
0.8918854
50
188.3966106
51
203.9144107
0
ARC
8
DEFAULT_255_2_778
10
4.7313155
20
87.8375172
40
0.5038151
50
203.0677216
51
263.1434887
0
ARC
8
DEFAULT_255_2_778
10
4.7932522
20
88.1406243
40
0.8125428
50
261.3586432
51
270.2246158
0
ARC
8
DEFAULT_255_2_778
10
4.7669837
20
88.243704
40
0.9160898
50
271.8424779
51
287.5242757
0
ARC
8
DEFAULT_255_2_778
10
4.9056274
20
87.8366081
40
0.4862358
50
286.3896162
51
349.2760711
0
ARC
8
DEFAULT_255_2_778
10
4.584504
20
87.9240612
40
0.8184423
50
347.4435557
51
357.4528062
0
ARC
8
DEFAULT_255_2_778
10
4.7491332
20
87.8599253
40
0.6535943
50
2.4344628
51
22.7660674
0
ARC
8
DEFAULT_255_2_778
10
4.966335
20
87.9422823
40
0.4215224
50
23.8684643
51
81.1988247
0
ARC
8
DEFAULT_255_2_778
10
4.8874698
20
87.671808
40
0.7018314
50
78.2134268
51
82.3467819
0
ARC
8
DEFAULT_255_2_778
10
4.8960399
20
87.8607021
40
0.513749
50
80.4881638
51
89.82172
0
ARC
8
DEFAULT_255_2_778
10
4.895514
20
87.9727581
40
0.4016963
50
89.6969738
51
141.8693991
0
ARC
8
DEFAULT_255_2_778
10
5.2742678
20
88.2434036
40
0.6950983
50
180.0113016
51
181.8645098
0
ARC
8
DEFAULT_255_2_778
10
5.0392206
20
88.2565369
40
0.4602423
50
152.1109673
51
181.6522699
0
ARC
8
DEFAULT_255_2_778
10
4.9800114
20
88.2671514
40
0.4033607
50
109.2283676
51
149.5086417
0
ARC
8
DEFAULT_255_2_778
10
5.0933169
20
88.014289
40
0.6798456
50
104.0529704
51
111.2268486
0
ARC
8
DEFAULT_255_2_778
10
5.0487205
20
88.0665593
40
0.619066
50
91.3172502
51
101.2225581
0
ARC
8
DEFAULT_255_2_778
10
5.0429495
20
88.187067
40
0.4984665
50
90.0040025
51
90.9725067
0
ARC
8
DEFAULT_255_2_778
10
5.053803
20
88.3434266
40
0.34228
50
56.122824
51
91.8229484
0
ARC
8
DEFAULT_255_2_778
10
5.0713888
20
88.3808995
40
0.3014318
50
48.6232433
51
54.9275966
0
ARC
8
DEFAULT_255_2_778
10
20.0702906
20
87.5659234
40
14.8362311
50
175.3052089
51
175.9758379
0
ARC
8
DEFAULT_255_2_778
10
14.2564847
20
88.0453247
40
9.0026937
50
174.3817481
51
175.3175875
0
ARC
8
DEFAULT_255_2_778
10
4.8252046
20
87.8690532
40
0.2397027
50
115.0610289
51
181.9282292
0
ARC
8
DEFAULT_255_2_778
10
4.7961803
20
87.9121176
40
0.1885703
50
89.9825859
51
112.6141824
0
ARC
8
DEFAULT_255_2_778
10
4.7836582
20
87.8790271
40
0.2220173
50
2.4681311
51
86.7519253
0
ARC
8
DEFAULT_255_2_778
10
4.728994
20
87.8610526
40
0.2778434
50
359.9866404
51
5.6875836
0
ARC
8
DEFAULT_255_2_778
10
4.7672706
20
87.8529224
40
0.2397027
50
295.0610289
51
1.9282292
0
ARC
8
DEFAULT_255_2_778
10
4.7962949
20
87.809858
40
0.1885703
50
269.9825859
51
292.6141824
0
ARC
8
DEFAULT_255_2_778
10
4.8088169
20
87.8429485
40
0.2220173
50
182.4681311
51
266.7519253
0
ARC
8
DEFAULT_255_2_778
10
4.8634811
20
87.860923
40
0.2778434
50
179.9866404
51
185.6875836
0
LINE
8
DEFAULT_255_2_778
10
5.6643376
20
88.8951878
11
5.6841376
21
88.5515878
0
LINE
8
DEFAULT_255_2_778
10
6.1487376
20
87.6595878
11
6.1487376
21
87.6595878
0
LINE
8
DEFAULT_255_2_778
10
2.2601376
20
87.6733878
11
2.2601376
21
87.3555878
0
LINE
8
DEFAULT_255_2_778
10
2.2601376
20
87.3555878
11
1.1698376
21
87.3555878
0
LINE
8
DEFAULT_255_2_778
10
1.1698376
20
87.3555878
11
1.1698376
21
88.9610878
0
LINE
8
DEFAULT_255_2_778
10
1.1698376
20
88.9610878
11
1.5974376
21
88.9610878
0
LINE
8
DEFAULT_255_2_778
10
1.5974376
20
88.9610878
11
1.5974376
21
87.6733878
0
LINE
8
DEFAULT_255_2_778
10
1.5974376
20
87.6733878
11
2.2601376
21
87.6733878
0
LINE
8
DEFAULT_255_2_778
10
5.2970376
20
88.9266878
11
5.2965376
21
88.9266878
0
LINE
8
DEFAULT_255_2_778
10
4.5856376
20
87.8609878
11
4.5856376
21
87.8609878
0
ARC
8
DEFAULT_255_2_778
10
2.8779256
20
88.1571342
40
0.660862
50
0.8175511
51
18.3030578
0
ARC
8
DEFAULT_255_2_778
10
3.1322387
20
88.2360681
40
0.3946569
50
19.0180462
51
81.1791898
0
ARC
8
DEFAULT_255_2_778
10
2.9942882
20
87.6889125
40
0.9579302
50
78.0425444
51
90.7123844
0
ARC
8
DEFAULT_255_2_778
10
2.983684
20
87.1186158
40
1.5281534
50
90.0489598
51
92.749623
0
ARC
8
DEFAULT_255_2_778
10
2.9946587
20
86.8653416
40
1.7816631
50
92.711424
51
93.811625
0
ARC
8
DEFAULT_255_2_778
10
3.00445
20
89.1255345
40
1.4562275
50
264.9482145
51
267.3523787
0
ARC
8
DEFAULT_255_2_778
10
2.9952844
20
88.9262898
40
1.2567722
50
267.3501911
51
269.9678554
0
ARC
8
DEFAULT_255_2_778
10
3.0032985
20
88.5508898
40
0.8814151
50
269.4332082
51
281.9964625
0
ARC
8
DEFAULT_255_2_778
10
3.0853624
20
88.181005
40
0.5025628
50
281.6098981
51
303.5699183
0
ARC
8
DEFAULT_255_2_778
10
3.100773
20
88.1144156
40
0.4392135
50
306.699764
51
4.1270557
0
ARC
8
DEFAULT_255_2_778
10
2.7716372
20
88.1459826
40
0.7672106
50
0.0031745
51
1.0441723
0
LINE
8
DEFAULT_255_2_778
10
3.0135203
20
87.3556637
11
3.0147183
21
87.355664
0
ARC
8
DEFAULT_255_2_778
10
3.0547213
20
88.7710685
40
1.4159697
50
268.3811037
51
290.5020973
0
ARC
8
DEFAULT_255_2_778
10
3.3191209
20
88.0507434
40
0.6486832
50
290.9115367
51
337.9732743
0
ARC
8
DEFAULT_255_2_778
10
3.1159841
20
88.1240778
40
0.8645351
50
338.5168967
51
355.2276497
0
ARC
8
DEFAULT_255_2_778
10
2.7656249
20
88.1645387
40
1.2170971
50
354.701718
51
0.0953268
0
ARC
8
DEFAULT_255_2_778
10
2.6875422
20
88.1830718
40
1.2952833
50
359.2697579
51
359.9990051
0
ARC
8
DEFAULT_255_2_778
10
2.9827761
20
88.192695
40
1.000096
50
359.4473883
51
13.6281441
0
ARC
8
DEFAULT_255_2_778
10
3.3207176
20
88.2772793
40
0.6517445
50
13.4015726
51
38.8367279
0
ARC
8
DEFAULT_255_2_778
10
3.2616629
20
88.1836024
40
0.7573423
50
41.5563636
51
81.1574735
0
ARC
8
DEFAULT_255_2_778
10
3.0718832
20
87.3455138
40
1.615709
50
79.0756382
51
90.4901189
0
ARC
8
DEFAULT_255_2_778
10
3.0582233
20
86.7780666
40
2.1830973
50
90.0042258
51
90.9501993
0
LINE
8
DEFAULT_255_2_778
10
2.8762203
20
88.6430637
11
2.8762203
21
87.6749637
0
LINE
8
DEFAULT_255_2_778
10
3.0220203
20
88.9608637
11
2.4486203
21
88.9608637
0
LINE
8
DEFAULT_255_2_778
10
2.4486203
20
88.9608637
11
2.4486203
21
87.3556637
0
LINE
8
DEFAULT_255_2_778
10
2.4486203
20
87.3556637
11
3.0135203
21
87.3556637
0
ARC
8
DEFAULT_255_2_778
10
18.4194237
20
71.2566799
40
0.5003195
50
270.0475192
51
299.6245297
0
ARC
8
DEFAULT_255_2_778
10
12.6699368
20
47.0065244
40
0.9999019
50
0.0077999
51
48.5652399
0
ARC
8
DEFAULT_255_2_778
10
13.6697396
20
48.1571917
40
0.4993688
50
59.3867161
51
90.0230537
0
LINE
8
DEFAULT_255_2_778
10
22.7746387
20
3.2564605
11
22.1695387
21
3.2564605
0
LINE
8
DEFAULT_255_2_778
10
13.3248387
20
48.6565605
11
13.6698387
21
48.6565605
0
LINE
8
DEFAULT_255_2_778
10
13.6698387
20
48.6565605
11
13.6698387
21
44.7864605
0
LINE
8
DEFAULT_255_2_778
10
18.4198387
20
70.7563605
11
17.3033387
21
70.7563605
0
LINE
8
DEFAULT_255_2_778
10
13.3245387
20
17.2116605
11
13.9195387
21
17.2116605
0
LINE
8
DEFAULT_255_2_778
10
13.9195387
20
16.7115605
11
13.3245387
21
16.7115605
0
LINE
8
DEFAULT_255_2_778
10
13.3245387
20
14.9266605
11
13.9195387
21
14.9266605
0
LINE
8
DEFAULT_255_2_778
10
13.3245387
20
14.7266605
11
13.9195387
21
14.7266605
0
LINE
8
DEFAULT_255_2_778
10
22.7746387
20
20.8565396
11
22.1695387
21
20.8565396
0
LINE
8
DEFAULT_255_2_778
10
22.7746387
20
19.2566396
11
22.1695387
21
19.2566396
0
LINE
8
DEFAULT_255_2_778
10
22.1695387
20
15.2566396
11
22.7746387
21
15.2566396
0
LINE
8
DEFAULT_255_2_778
10
22.7746387
20
13.6567396
11
22.1695387
21
13.6567396
0
LINE
8
DEFAULT_255_2_778
10
13.9195387
20
44.7865396
11
13.3245387
21
44.7865396
0
LINE
8
DEFAULT_255_2_778
10
13.9195387
20
44.5865396
11
13.3245387
21
44.5865396
0
LINE
8
DEFAULT_255_2_778
10
13.9195387
20
42.8016396
11
13.3245387
21
42.8016396
0
LINE
8
DEFAULT_255_2_778
10
13.3245387
20
42.3015396
11
13.9195387
21
42.3015396
0
LINE
8
DEFAULT_255_2_778
10
13.9195387
20
58.0066396
11
13.3245387
21
58.0066396
0
LINE
8
DEFAULT_255_2_778
10
13.3245387
20
56.2564396
11
13.9195387
21
56.2564396
0
LINE
8
DEFAULT_255_2_778
10
13.9195387
20
52.2565396
11
13.3245387
21
52.2565396
0
LINE
8
DEFAULT_255_2_778
10
13.3245387
20
50.5065396
11
13.9195387
21
50.5065396
0
LINE
8
DEFAULT_255_2_778
10
22.7746387
20
60.8565396
11
22.1695387
21
60.8565396
0
LINE
8
DEFAULT_255_2_778
10
22.7746387
20
59.2565396
11
22.1695387
21
59.2565396
0
LINE
8
DEFAULT_255_2_778
10
22.1695387
20
55.2566396
11
22.7746387
21
55.2566396
0
LINE
8
DEFAULT_255_2_778
10
22.7746387
20
53.6566396
11
22.1695387
21
53.6566396
0
LINE
8
DEFAULT_255_2_778
10
13.3245387
20
64.5567396
11
13.9195387
21
64.5567396
0
LINE
8
DEFAULT_255_2_778
10
13.3245387
20
62.9565396
11
13.9195387
21
62.9565396
0
LINE
8
DEFAULT_255_2_778
10
13.9195387
20
62.4567396
11
13.3245387
21
62.4567396
0
LINE
8
DEFAULT_255_2_778
10
13.3245387
20
60.0566396
11
13.9195387
21
60.0566396
0
LINE
8
DEFAULT_255_2_778
10
13.9195387
20
71.5065396
11
13.3245387
21
71.5065396
0
LINE
8
DEFAULT_255_2_778
10
13.9195387
20
70.7567396
11
13.3245387
21
70.7567396
0
LINE
8
DEFAULT_255_2_778
10
22.1695387
20
2.4563396
11
22.1695387
21
72.9564396
0
LINE
8
DEFAULT_255_2_778
10
22.1696137
20
72.4465553
11
13.9196137
21
72.4465553
0
LINE
8
DEFAULT_255_2_778
10
13.9196137
20
72.4465553
11
13.9196137
21
2.9664553
0
LINE
8
DEFAULT_255_2_778
10
13.9196137
20
2.9664553
11
22.1696137
21
2.9664553
0
LINE
8
DEFAULT_255_2_778
10
23.774746
20
1.4564323
11
23.774746
21
73.9565323
0
LINE
8
DEFAULT_255_2_778
10
23.774746
20
73.9565323
11
12.324646
21
73.9565323
0
LINE
8
DEFAULT_255_2_778
10
12.324646
20
73.9565323
11
12.324646
21
1.4564323
0
LINE
8
DEFAULT_255_2_778
10
12.324646
20
1.4564323
11
23.774746
21
1.4564323
0
LINE
8
DEFAULT_255_2_778
10
22.7749387
20
2.4563396
11
22.7749387
21
72.9564396
0
LINE
8
DEFAULT_255_2_778
10
22.7749387
20
72.9564396
11
13.3248387
21
72.9564396
0
LINE
8
DEFAULT_255_2_778
10
13.3248387
20
72.9564396
11
13.3248387
21
2.4563396
0
LINE
8
DEFAULT_255_2_778
10
13.3248387
20
2.4563396
11
22.7749387
21
2.4563396
0
LINE
8
DEFAULT_255_2_778
10
19.3472761
20
2.9664583
11
17.9446761
21
2.4563583
0
LINE
8
DEFAULT_255_2_778
10
22.0194761
20
2.4563583
11
22.0194761
21
2.9664583
0
ARC
8
DEFAULT_255_2_778
10
18.0419967
20
5.7197955
40
1.297198
50
148.2770855
51
180.1324007
0
ARC
8
DEFAULT_255_2_778
10
18.0411449
20
5.7203122
40
1.2962017
50
97.0226393
51
148.276717
0
ARC
8
DEFAULT_255_2_778
10
18.0443539
20
5.6925442
40
1.3241537
50
89.9849309
51
97.0135513
0
ARC
8
DEFAULT_255_2_778
10
18.0476997
20
5.7195033
40
1.297198
50
58.2770855
51
90.1324007
0
ARC
8
DEFAULT_255_2_778
10
18.0482165
20
5.7203551
40
1.2962017
50
7.0226393
51
58.276717
0
ARC
8
DEFAULT_255_2_778
10
18.0204484
20
5.7171461
40
1.3241537
50
359.9849309
51
7.0135513
0
ARC
8
DEFAULT_255_2_778
10
18.0474076
20
5.7138003
40
1.297198
50
328.2770855
51
0.1324007
0
ARC
8
DEFAULT_255_2_778
10
18.0482594
20
5.7132835
40
1.2962017
50
277.0226393
51
328.276717
0
ARC
8
DEFAULT_255_2_778
10
18.0450504
20
5.7410516
40
1.3241537
50
269.9849309
51
277.0135513
0
ARC
8
DEFAULT_255_2_778
10
18.0417045
20
5.7140924
40
1.297198
50
238.2770855
51
270.1324007
0
ARC
8
DEFAULT_255_2_778
10
18.0411878
20
5.7132406
40
1.2962017
50
187.0226393
51
238.276717
0
ARC
8
DEFAULT_255_2_778
10
18.0689558
20
5.7164496
40
1.3241537
50
179.9849309
51
187.0135513
0
LINE
8
DEFAULT_255_2_778
10
16.7448021
20
5.7167979
11
16.7448021
21
5.7167979
0
LINE
8
DEFAULT_255_2_778
10
22.1696137
20
8.4666
11
13.9196137
21
8.4666
0
ARC
8
DEFAULT_255_2_778
10
18.0419967
20
69.6997955
40
1.297198
50
148.2770855
51
180.1324007
0
ARC
8
DEFAULT_255_2_778
10
18.0411449
20
69.7003122
40
1.2962017
50
97.0226393
51
148.276717
0
ARC
8
DEFAULT_255_2_778
10
18.0443539
20
69.6725442
40
1.3241537
50
89.9849309
51
97.0135513
0
ARC
8
DEFAULT_255_2_778
10
18.0476997
20
69.6995033
40
1.297198
50
58.2770855
51
90.1324007
0
ARC
8
DEFAULT_255_2_778
10
18.0482165
20
69.7003551
40
1.2962017
50
7.0226393
51
58.276717
0
ARC
8
DEFAULT_255_2_778
10
18.0204484
20
69.6971461
40
1.3241537
50
359.9849309
51
7.0135513
0
ARC
8
DEFAULT_255_2_778
10
18.0474076
20
69.6938003
40
1.297198
50
328.2770855
51
0.1324007
0
ARC
8
DEFAULT_255_2_778
10
18.0482594
20
69.6932835
40
1.2962017
50
277.0226393
51
328.276717
0
ARC
8
DEFAULT_255_2_778
10
18.0450504
20
69.7210516
40
1.3241537
50
269.9849309
51
277.0135513
0
ARC
8
DEFAULT_255_2_778
10
18.0417045
20
69.6940924
40
1.297198
50
238.2770855
51
270.1324007
0
ARC
8
DEFAULT_255_2_778
10
18.0411878
20
69.6932406
40
1.2962017
50
187.0226393
51
238.276717
0
ARC
8
DEFAULT_255_2_778
10
18.0689558
20
69.6964496
40
1.3241537
50
179.9849309
51
187.0135513
0
LINE
8
DEFAULT_255_2_778
10
16.7448021
20
69.6967979
11
16.7448021
21
69.6967979
0
ARC
8
DEFAULT_255_2_778
10
19.6486049
20
63.0505938
40
1.4960091
50
359.9631899
51
34.3407809
0
ARC
8
DEFAULT_255_2_778
10
19.6451747
20
63.0505595
40
1.4988619
50
34.2678943
51
77.5938758
0
ARC
8
DEFAULT_255_2_778
10
19.6419397
20
63.034501
40
1.5152405
50
77.6048636
51
80.9870553
0
ARC
8
DEFAULT_255_2_778
10
16.4448738
20
63.553492
40
1.5028706
50
81.0177888
51
84.5842582
0
ARC
8
DEFAULT_255_2_778
10
16.4450895
20
63.5558326
40
1.5005201
50
84.5840227
51
89.9997252
0
ARC
8
DEFAULT_255_2_778
10
16.4449996
20
63.556407
40
1.4999457
50
89.9962936
51
130.5024685
0
ARC
8
DEFAULT_255_2_778
10
16.444695
20
63.556363
40
1.4997813
50
130.4925296
51
179.9935189
0
ARC
8
DEFAULT_255_2_778
10
16.4450568
20
11.8566692
40
1.5001432
50
180.0090338
51
229.5011
0
ARC
8
DEFAULT_255_2_778
10
16.4449978
20
11.8567173
40
1.5001414
50
229.5040066
51
269.9983575
0
ARC
8
DEFAULT_255_2_778
10
16.4449465
20
11.8560195
40
1.4994437
50
270.0003192
51
275.4253663
0
ARC
8
DEFAULT_255_2_778
10
16.4447463
20
11.8581103
40
1.5015441
50
275.4254254
51
278.9951349
0
ARC
8
DEFAULT_255_2_778
10
19.6462127
20
12.3598659
40
1.4962028
50
278.9629081
51
313.3367828
0
ARC
8
DEFAULT_255_2_778
10
19.6458796
20
12.363016
40
1.4987238
50
313.2633984
51
356.5927109
0
ARC
8
DEFAULT_255_2_778
10
19.6294521
20
12.3636809
40
1.5151616
50
356.6045318
51
359.9868308
0
LINE
8
DEFAULT_255_2_778
10
22.1696137
20
66.9466327
11
13.9196137
21
66.9466327
0
LINE
8
DEFAULT_255_2_778
10
19.8793137
20
64.5310327
11
16.6795137
21
65.0379327
0
LINE
8
DEFAULT_255_2_778
10
14.9449137
20
63.5565327
11
14.9449137
21
11.8564327
0
LINE
8
DEFAULT_255_2_778
10
16.6795137
20
10.3750327
11
19.8793137
21
10.8819327
0
LINE
8
DEFAULT_255_2_778
10
21.1446137
20
12.3633327
11
21.1446137
21
63.0496327
0
LINE
8
DEFAULT_255_2_778
10
19.5647688
20
53.5963504
11
19.5647688
21
54.8364504
0
LINE
8
DEFAULT_255_2_778
10
19.5647688
20
54.8364504
11
19.0646688
21
54.8364504
0
LINE
8
DEFAULT_255_2_778
10
19.0646688
20
54.8364504
11
19.0646688
21
53.5963504
0
LINE
8
DEFAULT_255_2_778
10
19.0646688
20
53.5963504
11
19.5647688
21
53.5963504
0
LINE
8
DEFAULT_255_2_778
10
19.5647688
20
56.1363504
11
19.5647688
21
57.3764504
0
LINE
8
DEFAULT_255_2_778
10
19.5647688
20
57.3764504
11
19.0646688
21
57.3764504
0
LINE
8
DEFAULT_255_2_778
10
19.0646688
20
57.3764504
11
19.0646688
21
56.1363504
0
LINE
8
DEFAULT_255_2_778
10
19.0646688
20
56.1363504
11
19.5647688
21
56.1363504
0
LINE
8
DEFAULT_255_2_778
10
19.5647688
20
58.6763504
11
19.5647688
21
59.9164504
0
LINE
8
DEFAULT_255_2_778
10
19.5647688
20
59.9164504
11
19.0646688
21
59.9164504
0
LINE
8
DEFAULT_255_2_778
10
19.0646688
20
59.9164504
11
19.0646688
21
58.6763504
0
LINE
8
DEFAULT_255_2_778
10
19.0646688
20
58.6763504
11
19.5647688
21
58.6763504
0
LINE
8
DEFAULT_255_2_778
10
19.5647688
20
61.2163504
11
19.5647688
21
62.4564504
0
LINE
8
DEFAULT_255_2_778
10
19.5647688
20
62.4564504
11
19.0646688
21
62.4564504
0
LINE
8
DEFAULT_255_2_778
10
19.0646688
20
62.4564504
11
19.0646688
21
61.2163504
0
LINE
8
DEFAULT_255_2_778
10
19.0646688
20
61.2163504
11
19.5647688
21
61.2163504
0
LINE
8
DEFAULT_255_2_778
10
17.0247688
20
53.5963504
11
17.0247688
21
54.8364504
0
LINE
8
DEFAULT_255_2_778
10
17.0247688
20
54.8364504
11
16.5246688
21
54.8364504
0
LINE
8
DEFAULT_255_2_778
10
16.5246688
20
54.8364504
11
16.5246688
21
53.5963504
0
LINE
8
DEFAULT_255_2_778
10
16.5246688
20
53.5963504
11
17.0247688
21
53.5963504
0
LINE
8
DEFAULT_255_2_778
10
17.0247688
20
56.1363504
11
17.0247688
21
57.3764504
0
LINE
8
DEFAULT_255_2_778
10
17.0247688
20
57.3764504
11
16.5246688
21
57.3764504
0
LINE
8
DEFAULT_255_2_778
10
16.5246688
20
57.3764504
11
16.5246688
21
56.1363504
0
LINE
8
DEFAULT_255_2_778
10
16.5246688
20
56.1363504
11
17.0247688
21
56.1363504
0
LINE
8
DEFAULT_255_2_778
10
17.0247688
20
58.6763504
11
17.0247688
21
59.9164504
0
LINE
8
DEFAULT_255_2_778
10
17.0247688
20
59.9164504
11
16.5246688
21
59.9164504
0
LINE
8
DEFAULT_255_2_778
10
16.5246688
20
59.9164504
11
16.5246688
21
58.6763504
0
LINE
8
DEFAULT_255_2_778
10
16.5246688
20
58.6763504
11
17.0247688
21
58.6763504
0
LINE
8
DEFAULT_255_2_778
10
17.0247688
20
61.2163504
11
17.0247688
21
62.4564504
0
LINE
8
DEFAULT_255_2_778
10
17.0247688
20
62.4564504
11
16.5246688
21
62.4564504
0
LINE
8
DEFAULT_255_2_778
10
16.5246688
20
62.4564504
11
16.5246688
21
61.2163504
0
LINE
8
DEFAULT_255_2_778
10
16.5246688
20
61.2163504
11
17.0247688
21
61.2163504
0
LINE
8
DEFAULT_255_2_778
10
19.5647688
20
43.4363504
11
19.5647688
21
44.6764504
0
LINE
8
DEFAULT_255_2_778
10
19.5647688
20
44.6764504
11
19.0646688
21
44.6764504
0
LINE
8
DEFAULT_255_2_778
10
19.0646688
20
44.6764504
11
19.0646688
21
43.4363504
0
LINE
8
DEFAULT_255_2_778
10
19.0646688
20
43.4363504
11
19.5647688
21
43.4363504
0
LINE
8
DEFAULT_255_2_778
10
19.5647688
20
45.9763504
11
19.5647688
21
47.2164504
0
LINE
8
DEFAULT_255_2_778
10
19.5647688
20
47.2164504
11
19.0646688
21
47.2164504
0
LINE
8
DEFAULT_255_2_778
10
19.0646688
20
47.2164504
11
19.0646688
21
45.9763504
0
LINE
8
DEFAULT_255_2_778
10
19.0646688
20
45.9763504
11
19.5647688
21
45.9763504
0
LINE
8
DEFAULT_255_2_778
10
19.5647688
20
48.5163504
11
19.5647688
21
49.7564504
0
LINE
8
DEFAULT_255_2_778
10
19.5647688
20
49.7564504
11
19.0646688
21
49.7564504
0
LINE
8
DEFAULT_255_2_778
10
19.0646688
20
49.7564504
11
19.0646688
21
48.5163504
0
LINE
8
DEFAULT_255_2_778
10
19.0646688
20
48.5163504
11
19.5647688
21
48.5163504
0
LINE
8
DEFAULT_255_2_778
10
19.5647688
20
51.0563504
11
19.5647688
21
52.2964504
0
LINE
8
DEFAULT_255_2_778
10
19.5647688
20
52.2964504
11
19.0646688
21
52.2964504
0
LINE
8
DEFAULT_255_2_778
10
19.0646688
20
52.2964504
11
19.0646688
21
51.0563504
0
LINE
8
DEFAULT_255_2_778
10
19.0646688
20
51.0563504
11
19.5647688
21
51.0563504
0
LINE
8
DEFAULT_255_2_778
10
17.0247688
20
43.4363504
11
17.0247688
21
44.6764504
0
LINE
8
DEFAULT_255_2_778
10
17.0247688
20
44.6764504
11
16.5246688
21
44.6764504
0
LINE
8
DEFAULT_255_2_778
10
16.5246688
20
44.6764504
11
16.5246688
21
43.4363504
0
LINE
8
DEFAULT_255_2_778
10
16.5246688
20
43.4363504
11
17.0247688
21
43.4363504
0
LINE
8
DEFAULT_255_2_778
10
17.0247688
20
45.9763504
11
17.0247688
21
47.2164504
0
LINE
8
DEFAULT_255_2_778
10
17.0247688
20
47.2164504
11
16.5246688
21
47.2164504
0
LINE
8
DEFAULT_255_2_778
10
16.5246688
20
47.2164504
11
16.5246688
21
45.9763504
0
LINE
8
DEFAULT_255_2_778
10
16.5246688
20
45.9763504
11
17.0247688
21
45.9763504
0
LINE
8
DEFAULT_255_2_778
10
17.0247688
20
48.5163504
11
17.0247688
21
49.7564504
0
LINE
8
DEFAULT_255_2_778
10
17.0247688
20
49.7564504
11
16.5246688
21
49.7564504
0
LINE
8
DEFAULT_255_2_778
10
16.5246688
20
49.7564504
11
16.5246688
21
48.5163504
0
LINE
8
DEFAULT_255_2_778
10
16.5246688
20
48.5163504
11
17.0247688
21
48.5163504
0
LINE
8
DEFAULT_255_2_778
10
17.0247688
20
51.0563504
11
17.0247688
21
52.2964504
0
LINE
8
DEFAULT_255_2_778
10
17.0247688
20
52.2964504
11
16.5246688
21
52.2964504
0
LINE
8
DEFAULT_255_2_778
10
16.5246688
20
52.2964504
11
16.5246688
21
51.0563504
0
LINE
8
DEFAULT_255_2_778
10
16.5246688
20
51.0563504
11
17.0247688
21
51.0563504
0
LINE
8
DEFAULT_255_2_778
10
19.5647688
20
33.2763504
11
19.5647688
21
34.5164504
0
LINE
8
DEFAULT_255_2_778
10
19.5647688
20
34.5164504
11
19.0646688
21
34.5164504
0
LINE
8
DEFAULT_255_2_778
10
19.0646688
20
34.5164504
11
19.0646688
21
33.2763504
0
LINE
8
DEFAULT_255_2_778
10
19.0646688
20
33.2763504
11
19.5647688
21
33.2763504
0
LINE
8
DEFAULT_255_2_778
10
19.5647688
20
35.8163504
11
19.5647688
21
37.0564504
0
LINE
8
DEFAULT_255_2_778
10
19.5647688
20
37.0564504
11
19.0646688
21
37.0564504
0
LINE
8
DEFAULT_255_2_778
10
19.0646688
20
37.0564504
11
19.0646688
21
35.8163504
0
LINE
8
DEFAULT_255_2_778
10
19.0646688
20
35.8163504
11
19.5647688
21
35.8163504
0
LINE
8
DEFAULT_255_2_778
10
19.5647688
20
38.3563504
11
19.5647688
21
39.5964504
0
LINE
8
DEFAULT_255_2_778
10
19.5647688
20
39.5964504
11
19.0646688
21
39.5964504
0
LINE
8
DEFAULT_255_2_778
10
19.0646688
20
39.5964504
11
19.0646688
21
38.3563504
0
LINE
8
DEFAULT_255_2_778
10
19.0646688
20
38.3563504
11
19.5647688
21
38.3563504
0
LINE
8
DEFAULT_255_2_778
10
19.5647688
20
40.8963504
11
19.5647688
21
42.1364504
0
LINE
8
DEFAULT_255_2_778
10
19.5647688
20
42.1364504
11
19.0646688
21
42.1364504
0
LINE
8
DEFAULT_255_2_778
10
19.0646688
20
42.1364504
11
19.0646688
21
40.8963504
0
LINE
8
DEFAULT_255_2_778
10
19.0646688
20
40.8963504
11
19.5647688
21
40.8963504
0
LINE
8
DEFAULT_255_2_778
10
17.0247688
20
33.2763504
11
17.0247688
21
34.5164504
0
LINE
8
DEFAULT_255_2_778
10
17.0247688
20
34.5164504
11
16.5246688
21
34.5164504
0
LINE
8
DEFAULT_255_2_778
10
16.5246688
20
34.5164504
11
16.5246688
21
33.2763504
0
LINE
8
DEFAULT_255_2_778
10
16.5246688
20
33.2763504
11
17.0247688
21
33.2763504
0
LINE
8
DEFAULT_255_2_778
10
17.0247688
20
35.8163504
11
17.0247688
21
37.0564504
0
LINE
8
DEFAULT_255_2_778
10
17.0247688
20
37.0564504
11
16.5246688
21
37.0564504
0
LINE
8
DEFAULT_255_2_778
10
16.5246688
20
37.0564504
11
16.5246688
21
35.8163504
0
LINE
8
DEFAULT_255_2_778
10
16.5246688
20
35.8163504
11
17.0247688
21
35.8163504
0
LINE
8
DEFAULT_255_2_778
10
17.0247688
20
38.3563504
11
17.0247688
21
39.5964504
0
LINE
8
DEFAULT_255_2_778
10
17.0247688
20
39.5964504
11
16.5246688
21
39.5964504
0
LINE
8
DEFAULT_255_2_778
10
16.5246688
20
39.5964504
11
16.5246688
21
38.3563504
0
LINE
8
DEFAULT_255_2_778
10
16.5246688
20
38.3563504
11
17.0247688
21
38.3563504
0
LINE
8
DEFAULT_255_2_778
10
17.0247688
20
40.8963504
11
17.0247688
21
42.1364504
0
LINE
8
DEFAULT_255_2_778
10
17.0247688
20
42.1364504
11
16.5246688
21
42.1364504
0
LINE
8
DEFAULT_255_2_778
10
16.5246688
20
42.1364504
11
16.5246688
21
40.8963504
0
LINE
8
DEFAULT_255_2_778
10
16.5246688
20
40.8963504
11
17.0247688
21
40.8963504
0
LINE
8
DEFAULT_255_2_778
10
19.5647688
20
23.1163504
11
19.5647688
21
24.3564504
0
LINE
8
DEFAULT_255_2_778
10
19.5647688
20
24.3564504
11
19.0646688
21
24.3564504
0
LINE
8
DEFAULT_255_2_778
10
19.0646688
20
24.3564504
11
19.0646688
21
23.1163504
0
LINE
8
DEFAULT_255_2_778
10
19.0646688
20
23.1163504
11
19.5647688
21
23.1163504
0
LINE
8
DEFAULT_255_2_778
10
19.5647688
20
25.6563504
11
19.5647688
21
26.8964504
0
LINE
8
DEFAULT_255_2_778
10
19.5647688
20
26.8964504
11
19.0646688
21
26.8964504
0
LINE
8
DEFAULT_255_2_778
10
19.0646688
20
26.8964504
11
19.0646688
21
25.6563504
0
LINE
8
DEFAULT_255_2_778
10
19.0646688
20
25.6563504
11
19.5647688
21
25.6563504
0
LINE
8
DEFAULT_255_2_778
10
19.5647688
20
28.1963504
11
19.5647688
21
29.4364504
0
LINE
8
DEFAULT_255_2_778
10
19.5647688
20
29.4364504
11
19.0646688
21
29.4364504
0
LINE
8
DEFAULT_255_2_778
10
19.0646688
20
29.4364504
11
19.0646688
21
28.1963504
0
LINE
8
DEFAULT_255_2_778
10
19.0646688
20
28.1963504
11
19.5647688
21
28.1963504
0
LINE
8
DEFAULT_255_2_778
10
19.5647688
20
30.7363504
11
19.5647688
21
31.9764504
0
LINE
8
DEFAULT_255_2_778
10
19.5647688
20
31.9764504
11
19.0646688
21
31.9764504
0
LINE
8
DEFAULT_255_2_778
10
19.0646688
20
31.9764504
11
19.0646688
21
30.7363504
0
LINE
8
DEFAULT_255_2_778
10
19.0646688
20
30.7363504
11
19.5647688
21
30.7363504
0
LINE
8
DEFAULT_255_2_778
10
17.0247688
20
23.1163504
11
17.0247688
21
24.3564504
0
LINE
8
DEFAULT_255_2_778
10
17.0247688
20
24.3564504
11
16.5246688
21
24.3564504
0
LINE
8
DEFAULT_255_2_778
10
16.5246688
20
24.3564504
11
16.5246688
21
23.1163504
0
LINE
8
DEFAULT_255_2_778
10
16.5246688
20
23.1163504
11
17.0247688
21
23.1163504
0
LINE
8
DEFAULT_255_2_778
10
17.0247688
20
25.6563504
11
17.0247688
21
26.8964504
0
LINE
8
DEFAULT_255_2_778
10
17.0247688
20
26.8964504
11
16.5246688
21
26.8964504
0
LINE
8
DEFAULT_255_2_778
10
16.5246688
20
26.8964504
11
16.5246688
21
25.6563504
0
LINE
8
DEFAULT_255_2_778
10
16.5246688
20
25.6563504
11
17.0247688
21
25.6563504
0
LINE
8
DEFAULT_255_2_778
10
17.0247688
20
28.1963504
11
17.0247688
21
29.4364504
0
LINE
8
DEFAULT_255_2_778
10
17.0247688
20
29.4364504
11
16.5246688
21
29.4364504
0
LINE
8
DEFAULT_255_2_778
10
16.5246688
20
29.4364504
11
16.5246688
21
28.1963504
0
LINE
8
DEFAULT_255_2_778
10
16.5246688
20
28.1963504
11
17.0247688
21
28.1963504
0
LINE
8
DEFAULT_255_2_778
10
17.0247688
20
30.7363504
11
17.0247688
21
31.9764504
0
LINE
8
DEFAULT_255_2_778
10
17.0247688
20
31.9764504
11
16.5246688
21
31.9764504
0
LINE
8
DEFAULT_255_2_778
10
16.5246688
20
31.9764504
11
16.5246688
21
30.7363504
0
LINE
8
DEFAULT_255_2_778
10
16.5246688
20
30.7363504
11
17.0247688
21
30.7363504
0
LINE
8
DEFAULT_255_2_778
10
19.5647688
20
12.9563504
11
19.5647688
21
14.1964504
0
LINE
8
DEFAULT_255_2_778
10
19.5647688
20
14.1964504
11
19.0646688
21
14.1964504
0
LINE
8
DEFAULT_255_2_778
10
19.0646688
20
14.1964504
11
19.0646688
21
12.9563504
0
LINE
8
DEFAULT_255_2_778
10
19.0646688
20
12.9563504
11
19.5647688
21
12.9563504
0
LINE
8
DEFAULT_255_2_778
10
19.5647688
20
15.4963504
11
19.5647688
21
16.7364504
0
LINE
8
DEFAULT_255_2_778
10
19.5647688
20
16.7364504
11
19.0646688
21
16.7364504
0
LINE
8
DEFAULT_255_2_778
10
19.0646688
20
16.7364504
11
19.0646688
21
15.4963504
0
LINE
8
DEFAULT_255_2_778
10
19.0646688
20
15.4963504
11
19.5647688
21
15.4963504
0
LINE
8
DEFAULT_255_2_778
10
19.5647688
20
18.0363504
11
19.5647688
21
19.2764504
0
LINE
8
DEFAULT_255_2_778
10
19.5647688
20
19.2764504
11
19.0646688
21
19.2764504
0
LINE
8
DEFAULT_255_2_778
10
19.0646688
20
19.2764504
11
19.0646688
21
18.0363504
0
LINE
8
DEFAULT_255_2_778
10
19.0646688
20
18.0363504
11
19.5647688
21
18.0363504
0
LINE
8
DEFAULT_255_2_778
10
19.5647688
20
20.5763504
11
19.5647688
21
21.8164504
0
LINE
8
DEFAULT_255_2_778
10
19.5647688
20
21.8164504
11
19.0646688
21
21.8164504
0
LINE
8
DEFAULT_255_2_778
10
19.0646688
20
21.8164504
11
19.0646688
21
20.5763504
0
LINE
8
DEFAULT_255_2_778
10
19.0646688
20
20.5763504
11
19.5647688
21
20.5763504
0
LINE
8
DEFAULT_255_2_778
10
17.0247688
20
12.9563504
11
17.0247688
21
14.1964504
0
LINE
8
DEFAULT_255_2_778
10
17.0247688
20
14.1964504
11
16.5246688
21
14.1964504
0
LINE
8
DEFAULT_255_2_778
10
16.5246688
20
14.1964504
11
16.5246688
21
12.9563504
0
LINE
8
DEFAULT_255_2_778
10
16.5246688
20
12.9563504
11
17.0247688
21
12.9563504
0
LINE
8
DEFAULT_255_2_778
10
17.0247688
20
15.4963504
11
17.0247688
21
16.7364504
0
LINE
8
DEFAULT_255_2_778
10
17.0247688
20
16.7364504
11
16.5246688
21
16.7364504
0
LINE
8
DEFAULT_255_2_778
10
16.5246688
20
16.7364504
11
16.5246688
21
15.4963504
0
LINE
8
DEFAULT_255_2_778
10
16.5246688
20
15.4963504
11
17.0247688
21
15.4963504
0
LINE
8
DEFAULT_255_2_778
10
17.0247688
20
18.0363504
11
17.0247688
21
19.2764504
0
LINE
8
DEFAULT_255_2_778
10
17.0247688
20
19.2764504
11
16.5246688
21
19.2764504
0
LINE
8
DEFAULT_255_2_778
10
16.5246688
20
19.2764504
11
16.5246688
21
18.0363504
0
LINE
8
DEFAULT_255_2_778
10
16.5246688
20
18.0363504
11
17.0247688
21
18.0363504
0
LINE
8
DEFAULT_255_2_778
10
17.0247688
20
20.5763504
11
17.0247688
21
21.8164504
0
LINE
8
DEFAULT_255_2_778
10
17.0247688
20
21.8164504
11
16.5246688
21
21.8164504
0
LINE
8
DEFAULT_255_2_778
10
16.5246688
20
21.8164504
11
16.5246688
21
20.5763504
0
LINE
8
DEFAULT_255_2_778
10
16.5246688
20
20.5763504
11
17.0247688
21
20.5763504
0
ENDSEC
0
EOF