0
SECTION
2
HEADER
9
$MEASUREMENT
70
1
0
ENDSEC
0
SECTION
2
TABLES
0
TABLE
2
LTYPE
0
LTYPE
72
65
70
64
2
CONTINUOUS
3
______
73
0
40
0
0
ENDTAB
0
TABLE
2
LAYER
0
LAYER
2
DEFAULT_255_2_778
70
0
62
255
6
CONTINUOUS
0
LAYER
2
DEFAULT_255_1_234
70
0
62
255
6
CONTINUOUS
0
ENDTAB
0
ENDSEC
0
SECTION
2
ENTITIES
0
ARC
8
DEFAULT_255_2_778
10
3.5700693
20
59.9302032
40
0.7914215
50
129.1312896
51
180.1450914
0
ARC
8
DEFAULT_255_2_778
10
3.5703345
20
59.9306904
40
0.7912112
50
89.854026
51
129.1684493
0
ARC
8
DEFAULT_255_2_778
10
25.7993937
20
59.9303769
40
0.7915249
50
39.4792447
51
90.147911
0
ARC
8
DEFAULT_255_2_778
10
25.7999935
20
59.9302236
40
0.7911595
50
359.8533901
51
39.5154338
0
ARC
8
DEFAULT_255_2_778
10
25.7996693
20
-1.986349
40
0.7914836
50
309.4761667
51
0.1482649
0
ARC
8
DEFAULT_255_2_778
10
25.799398
20
-1.9867801
40
0.7913235
50
269.8517415
51
309.511178
0
ARC
8
DEFAULT_255_2_778
10
3.570342
20
-1.9867219
40
0.7913815
50
219.1282118
51
270.1454017
0
ARC
8
DEFAULT_255_2_778
10
3.5700247
20
-1.9863394
40
0.7913769
50
179.8524075
51
219.1641908
0
LINE
8
DEFAULT_255_2_778
10
3.5723503
20
60.7218991
11
25.7973503
21
60.7218991
0
LINE
8
DEFAULT_255_2_778
10
26.5911503
20
59.9281991
11
26.5911503
21
-1.9843009
0
LINE
8
DEFAULT_255_2_778
10
25.7973503
20
-2.7781009
11
3.5723503
21
-2.7781009
0
LINE
8
DEFAULT_255_2_778
10
2.7786503
20
-1.9843009
11
2.7786503
21
59.9281991
0
LINE
8
DEFAULT_255_1_234
10
11.1681489
20
0.5181211
11
11.1681489
21
-0.5252017
0
LINE
8
DEFAULT_255_1_234
10
11.1681489
20
-0.5252017
11
11.7223389
21
-0.5252017
0
LINE
8
DEFAULT_255_1_234
10
11.7223389
20
-0.5252017
11
11.7223389
21
-0.6513
0
LINE
8
DEFAULT_255_1_234
10
11.7223389
20
-0.6513
11
11.0131364
21
-0.6513
0
LINE
8
DEFAULT_255_1_234
10
11.0131364
20
-0.6513
11
11.0131364
21
0.5181211
0
LINE
8
DEFAULT_255_1_234
10
11.0131364
20
0.5181211
11
11.1681489
21
0.5181211
0
LINE
8
DEFAULT_255_1_234
10
12.38817
20
-0.3123606
11
12.38817
21
0.5181211
0
LINE
8
DEFAULT_255_1_234
10
12.38817
20
0.5181211
11
12.5431825
21
0.5181211
0
LINE
8
DEFAULT_255_1_234
10
12.5431825
20
0.5181211
11
12.5431825
21
-0.3099511
0
LINE
8
DEFAULT_255_1_234
10
11.8050658
20
-0.3284241
11
11.9592751
21
-0.3284241
0
ARC
8
DEFAULT_255_1_234
10
12.0941011
20
-0.3137911
40
0.4490979
50
346.3129415
51
0.4899112
0
ARC
8
DEFAULT_255_1_234
10
12.2309359
20
-0.3488271
40
0.3078632
50
313.3793358
51
346.6225026
0
ARC
8
DEFAULT_255_1_234
10
12.2108546
20
-0.3235478
40
0.3400404
50
281.1587967
51
312.9131091
0
ARC
8
DEFAULT_255_1_234
10
12.176801
20
-0.1740815
40
0.4932916
50
269.6424364
51
281.6795951
0
ARC
8
DEFAULT_255_1_234
10
12.1699375
20
-0.1191618
40
0.5482147
50
258.9990078
51
270.3955952
0
ARC
8
DEFAULT_255_1_234
10
12.1324678
20
-0.3040254
40
0.359601
50
239.6256123
51
259.238693
0
ARC
8
DEFAULT_255_1_234
10
12.1035761
20
-0.3585331
40
0.2979777
50
227.4959765
51
239.1188186
0
ARC
8
DEFAULT_255_1_234
10
12.0998327
20
-0.3646311
40
0.2909561
50
191.339631
51
227.2280909
0
ARC
8
DEFAULT_255_1_234
10
12.2402968
20
-0.3313969
40
0.4352412
50
179.6086538
51
191.9934722
0
ARC
8
DEFAULT_255_1_234
10
12.2536991
20
-0.3306573
40
0.2944324
50
179.5654258
51
192.070398
0
ARC
8
DEFAULT_255_1_234
10
12.156548
20
-0.3524921
40
0.194866
50
191.7656467
51
215.6461951
0
ARC
8
DEFAULT_255_1_234
10
12.1386981
20
-0.3632454
40
0.1741017
50
216.1938368
51
224.3931108
0
ARC
8
DEFAULT_255_1_234
10
12.1393867
20
-0.3605527
40
0.1764834
50
224.8613677
51
254.362656
0
ARC
8
DEFAULT_255_1_234
10
12.1664581
20
-0.271099
40
0.2699302
50
253.9471729
51
267.3949949
0
ARC
8
DEFAULT_255_1_234
10
12.1735088
20
-0.1786933
40
0.362572
50
266.9456419
51
270.0337791
0
ARC
8
DEFAULT_255_1_234
10
12.1760469
20
-0.294877
40
0.2463991
50
269.4595111
51
286.1822844
0
ARC
8
DEFAULT_255_1_234
10
12.1901758
20
-0.3466953
40
0.1926982
50
286.4416479
51
315.8044008
0
ARC
8
DEFAULT_255_1_234
10
12.1847565
20
-0.3424793
40
0.1995241
50
316.0212565
51
345.4794351
0
ARC
8
DEFAULT_255_1_234
10
12.0877072
20
-0.3151425
40
0.3003349
50
345.0729543
51
358.325089
0
ARC
8
DEFAULT_255_1_234
10
12.0001043
20
-0.3095432
40
0.3880759
50
357.8767804
51
359.5840246
0
LINE
8
DEFAULT_255_1_234
10
13.5222514
20
0.5181211
11
13.5222514
21
0.434591
0
LINE
8
DEFAULT_255_1_234
10
13.5222514
20
0.434591
11
13.0379376
21
-0.6513
0
LINE
8
DEFAULT_255_1_234
10
13.0379376
20
-0.6513
11
12.8821219
21
-0.6513
0
LINE
8
DEFAULT_255_1_234
10
12.8821219
20
-0.6513
11
13.3648293
21
0.3960387
0
LINE
8
DEFAULT_255_1_234
10
13.3648293
20
0.3960387
11
12.7319284
21
0.3960387
0
LINE
8
DEFAULT_255_1_234
10
12.7319284
20
0.3960387
11
12.7319284
21
0.5181211
0
LINE
8
DEFAULT_255_1_234
10
12.7319284
20
0.5181211
11
13.5222514
21
0.5181211
0
LINE
8
DEFAULT_255_1_234
10
14.1792476
20
0.5237433
11
14.1792476
21
-0.6513
0
LINE
8
DEFAULT_255_1_234
10
14.1792476
20
-0.6513
11
14.0298573
21
-0.6513
0
LINE
8
DEFAULT_255_1_234
10
14.0298573
20
-0.6513
11
14.0298573
21
0.3390133
0
LINE
8
DEFAULT_255_1_234
10
14.0298573
20
0.3390133
11
13.7302734
21
0.2289785
0
LINE
8
DEFAULT_255_1_234
10
13.7302734
20
0.2289785
11
13.7302734
21
0.3639117
0
LINE
8
DEFAULT_255_1_234
10
13.7302734
20
0.3639117
11
14.1559556
21
0.5237433
0
LINE
8
DEFAULT_255_1_234
10
14.1559556
20
0.5237433
11
14.1792476
21
0.5237433
0
LINE
8
DEFAULT_255_1_234
10
15.3583068
20
-0.2802337
11
15.5133193
21
-0.2802337
0
LINE
8
DEFAULT_255_1_234
10
14.6129615
20
-0.1212053
11
14.6129615
21
-0.0087609
0
LINE
8
DEFAULT_255_1_234
10
15.5133193
20
0.1422357
11
15.3583068
21
0.1422357
0
LINE
8
DEFAULT_255_1_234
10
14.767974
20
-0.0127768
11
14.767974
21
-0.1260243
0
ARC
8
DEFAULT_255_1_234
10
14.965258
20
-0.2205154
40
0.5513052
50
340.1774281
51
353.7814284
0
ARC
8
DEFAULT_255_1_234
10
15.1223932
20
-0.2790418
40
0.3836379
50
311.4558989
51
340.4421614
0
ARC
8
DEFAULT_255_1_234
10
15.1190601
20
-0.2679472
40
0.3941894
50
282.4333181
51
310.7513653
0
ARC
8
DEFAULT_255_1_234
10
15.075134
20
-0.0864321
40
0.5809175
50
269.9358511
51
282.809604
0
ARC
8
DEFAULT_255_1_234
10
15.0699406
20
0.0593212
40
0.7266847
50
270.0021091
51
270.3581957
0
ARC
8
DEFAULT_255_1_234
10
15.0646823
20
-0.2007415
40
0.4666519
50
250.7884749
51
270.6489167
0
ARC
8
DEFAULT_255_1_234
10
15.0478658
20
-0.2644681
40
0.4009729
50
219.3627325
51
250.0611886
0
ARC
8
DEFAULT_255_1_234
10
15.1307869
20
-0.1939958
40
0.5097822
50
193.5479632
51
219.5756669
0
ARC
8
DEFAULT_255_1_234
10
15.3679489
20
-0.1324081
40
0.7547848
50
181.1218675
51
193.87563
0
ARC
8
DEFAULT_255_1_234
10
15.5749671
20
-0.121342
40
0.9620055
50
179.9918545
51
181.5394234
0
ARC
8
DEFAULT_255_1_234
10
15.3898773
20
-0.0050212
40
0.7769248
50
169.5837241
51
180.2757934
0
ARC
8
DEFAULT_255_1_234
10
15.2061711
20
0.0289229
40
0.590109
50
155.0365899
51
169.6003176
0
ARC
8
DEFAULT_255_1_234
10
15.0926175
20
0.0836677
40
0.4640625
50
136.783148
51
155.2472683
0
ARC
8
DEFAULT_255_1_234
10
15.0536652
20
0.1167562
40
0.4130255
50
121.7633186
51
136.428115
0
ARC
8
DEFAULT_255_1_234
10
15.0671614
20
0.0918227
40
0.4413323
50
95.6459699
51
121.5490577
0
ARC
8
DEFAULT_255_1_234
10
15.0828896
20
-0.0190051
40
0.55319
50
89.924208
51
96.1377933
0
ARC
8
DEFAULT_255_1_234
10
15.0879328
20
-0.0071458
40
0.5413475
50
76.6779277
51
90.4563316
0
ARC
8
DEFAULT_255_1_234
10
15.1272952
20
0.1519114
40
0.3775041
50
47.485847
51
76.9287264
0
ARC
8
DEFAULT_255_1_234
10
15.1125925
20
0.1419159
40
0.3948286
50
16.5424086
51
46.8933463
0
ARC
8
DEFAULT_255_1_234
10
14.9518082
20
0.0890861
40
0.564021
50
5.4072051
51
17.0365086
0
ARC
8
DEFAULT_255_1_234
10
14.8079099
20
0.0659679
40
0.5556559
50
7.8891745
51
15.9239216
0
ARC
8
DEFAULT_255_1_234
10
15.0066112
20
0.1236631
40
0.3487515
50
15.7653144
51
27.9410532
0
ARC
8
DEFAULT_255_1_234
10
15.117033
20
0.182779
40
0.2235026
50
27.8166557
51
46.4008329
0
ARC
8
DEFAULT_255_1_234
10
15.1219973
20
0.1822082
40
0.2205286
50
47.4371857
51
75.0698205
0
ARC
8
DEFAULT_255_1_234
10
15.0911367
20
0.0747765
40
0.3322915
50
74.7008593
51
87.8124495
0
ARC
8
DEFAULT_255_1_234
10
15.0838055
20
-0.0308156
40
0.4380987
50
87.3814673
51
90.0240855
0
ARC
8
DEFAULT_255_1_234
10
15.0799598
20
0.0869291
40
0.3203749
50
89.3451631
51
108.5745436
0
ARC
8
DEFAULT_255_1_234
10
15.0662703
20
0.1382908
40
0.2673494
50
109.2998449
51
143.3037509
0
ARC
8
DEFAULT_255_1_234
10
15.1424776
20
0.0796881
40
0.3634757
50
143.0753173
51
163.1916937
0
ARC
8
DEFAULT_255_1_234
10
15.3376503
20
0.0180967
40
0.5681262
50
162.9373603
51
174.6208611
0
ARC
8
DEFAULT_255_1_234
10
15.6002546
20
-0.010699
40
0.8322832
50
174.3419979
51
180.1430411
0
ARC
8
DEFAULT_255_1_234
10
15.5071702
20
-0.1301302
40
0.7392076
50
179.6817502
51
189.150529
0
ARC
8
DEFAULT_255_1_234
10
15.257095
20
-0.171781
40
0.4856932
50
188.9910863
51
203.5773039
0
ARC
8
DEFAULT_255_1_234
10
15.1491283
20
-0.2165789
40
0.3688271
50
203.9077269
51
215.1312379
0
ARC
8
DEFAULT_255_1_234
10
15.0568377
20
-0.2881059
40
0.2522457
50
213.9071664
51
263.8849284
0
ARC
8
DEFAULT_255_1_234
10
15.0693706
20
-0.2096482
40
0.3316174
50
263.1758525
51
270.1031083
0
ARC
8
DEFAULT_255_1_234
10
15.0725797
20
-0.0849635
40
0.4563091
50
269.6719807
51
279.0609165
0
ARC
8
DEFAULT_255_1_234
10
15.0992566
20
-0.2462093
40
0.2928759
50
278.8750225
51
293.6346586
0
ARC
8
DEFAULT_255_1_234
10
15.1312774
20
-0.32141
40
0.2111472
50
293.8553404
51
310.0518804
0
ARC
8
DEFAULT_255_1_234
10
15.1317628
20
-0.3276484
40
0.2060917
50
311.0646779
51
332.0108348
0
ARC
8
DEFAULT_255_1_234
10
15.0125354
20
-0.2619022
40
0.3422352
50
331.6588543
51
343.2878891
0
ARC
8
DEFAULT_255_1_234
10
14.8062869
20
-0.1985202
40
0.5580003
50
343.1446044
51
351.010618
0
ARC
8
DEFAULT_255_1_234
10
14.6521516
20
-0.1704129
40
0.7146438
50
350.7157277
51
351.1602153
0
LINE
8
DEFAULT_255_1_234
10
16.4514264
20
-0.5300208
11
16.4514264
21
-0.6513
0
LINE
8
DEFAULT_255_1_234
10
16.4514264
20
-0.6513
11
15.6851985
21
-0.6513
0
LINE
8
DEFAULT_255_1_234
10
15.6851985
20
-0.6513
11
15.6851985
21
-0.5444779
0
LINE
8
DEFAULT_255_1_234
10
15.6851985
20
-0.5444779
11
16.0899981
21
-0.0947005
0
LINE
8
DEFAULT_255_1_234
10
15.8112968
20
0.1735595
11
15.6627097
21
0.1735595
0
LINE
8
DEFAULT_255_1_234
10
16.1775441
20
-0.1902782
11
15.8643063
21
-0.5300208
0
LINE
8
DEFAULT_255_1_234
10
15.8643063
20
-0.5300208
11
16.4514264
21
-0.5300208
0
ARC
8
DEFAULT_255_1_234
10
14.7409815
20
1.0982527
40
1.8008286
50
318.5132453
51
320.7828378
0
ARC
8
DEFAULT_255_1_234
10
15.2696789
20
0.6679426
40
1.1191493
50
320.7372736
51
323.9737074
0
ARC
8
DEFAULT_255_1_234
10
15.6616646
20
0.3839361
40
0.6350923
50
323.8961724
51
328.6421089
0
ARC
8
DEFAULT_255_1_234
10
15.8663241
20
0.2577031
40
0.3946393
50
328.8299013
51
331.789948
0
ARC
8
DEFAULT_255_1_234
10
15.9660419
20
0.2062509
40
0.2824501
50
331.4255242
51
352.9364833
0
ARC
8
DEFAULT_255_1_234
10
15.979692
20
0.2031976
40
0.2685315
50
353.2248685
51
0.0169286
0
ARC
8
DEFAULT_255_1_234
10
16.0006797
20
0.205495
40
0.2475536
50
359.4866256
51
15.9339782
0
ARC
8
DEFAULT_255_1_234
10
16.0513782
20
0.2191286
40
0.1950618
50
16.1714718
51
43.5284424
0
ARC
8
DEFAULT_255_1_234
10
16.0591091
20
0.2268573
40
0.184134
50
43.4415429
51
83.1661404
0
ARC
8
DEFAULT_255_1_234
10
16.0457009
20
0.1531771
40
0.258926
50
82.160215
51
90.1505798
0
ARC
8
DEFAULT_255_1_234
10
16.0425436
20
0.0994865
40
0.3126255
50
89.5460705
51
102.5418777
0
ARC
8
DEFAULT_255_1_234
10
16.0182522
20
0.2025665
40
0.2067346
50
102.1739365
51
129.2061916
0
ARC
8
DEFAULT_255_1_234
10
16.0103594
20
0.2150094
40
0.1921118
50
129.7279328
51
135.7542026
0
ARC
8
DEFAULT_255_1_234
10
16.0225122
20
0.2053045
40
0.2075944
50
136.175737
51
166.3674722
0
ARC
8
DEFAULT_255_1_234
10
16.1232041
20
0.1783182
40
0.3118201
50
165.9092917
51
178.8683903
0
ARC
8
DEFAULT_255_1_234
10
16.2096902
20
0.1736179
40
0.3983935
50
178.438168
51
180.0083905
0
ARC
8
DEFAULT_255_1_234
10
16.0695505
20
0.1775231
40
0.4068601
50
163.2878735
51
180.5581814
0
ARC
8
DEFAULT_255_1_234
10
15.9893766
20
0.199584
40
0.3237344
50
133.454115
51
162.9470031
0
ARC
8
DEFAULT_255_1_234
10
16.0072307
20
0.1806
40
0.349795
50
100.7869394
51
133.4384016
0
ARC
8
DEFAULT_255_1_234
10
16.0420079
20
0.0257319
40
0.5084616
50
89.6605301
51
101.3704185
0
ARC
8
DEFAULT_255_1_234
10
16.0486418
20
0.0318496
40
0.502348
50
78.2171172
51
90.4130393
0
ARC
8
DEFAULT_255_1_234
10
16.0841496
20
0.1942637
40
0.3361092
50
55.9268222
51
78.4888551
0
ARC
8
DEFAULT_255_1_234
10
16.1037936
20
0.2281324
40
0.2970617
50
47.9292255
51
55.4054003
0
ARC
8
DEFAULT_255_1_234
10
16.1139497
20
0.2384502
40
0.2825983
50
4.3347696
51
48.0560701
0
ARC
8
DEFAULT_255_1_234
10
16.004389
20
0.2214601
40
0.393225
50
359.925209
51
5.5967654
0
ARC
8
DEFAULT_255_1_234
10
16.0472782
20
0.2270816
40
0.3503892
50
337.8914096
51
358.9967724
0
ARC
8
DEFAULT_255_1_234
10
15.7759194
20
0.3317706
40
0.6412172
50
326.9135351
51
338.3505194
0
ARC
8
DEFAULT_255_1_234
10
15.3773498
20
0.5872284
40
1.1146189
50
319.6472867
51
327.095818
0
ARC
8
DEFAULT_255_1_234
10
14.9940501
20
0.9034
40
1.6114559
50
317.2586784
51
319.9046139
0
LINE
8
DEFAULT_255_1_234
10
17.2361272
20
0.5181211
11
17.2361272
21
-0.258548
0
LINE
8
DEFAULT_255_1_234
10
17.2361272
20
-0.258548
11
17.3983683
21
-0.258548
0
LINE
8
DEFAULT_255_1_234
10
17.3983683
20
-0.258548
11
17.3983683
21
-0.3798272
0
LINE
8
DEFAULT_255_1_234
10
17.3983683
20
-0.3798272
11
17.2361272
21
-0.3798272
0
LINE
8
DEFAULT_255_1_234
10
17.2361272
20
-0.3798272
11
17.2361272
21
-0.6513
0
LINE
8
DEFAULT_255_1_234
10
17.2361272
20
-0.6513
11
17.0867369
21
-0.6513
0
LINE
8
DEFAULT_255_1_234
10
17.0867369
20
-0.6513
11
17.0867369
21
-0.3798272
0
LINE
8
DEFAULT_255_1_234
10
17.0867369
20
-0.3798272
11
16.5542326
21
-0.3798272
0
LINE
8
DEFAULT_255_1_234
10
16.5542326
20
-0.3798272
11
16.5542326
21
-0.2922813
0
LINE
8
DEFAULT_255_1_234
10
16.5542326
20
-0.2922813
11
17.077902
21
0.5181211
0
LINE
8
DEFAULT_255_1_234
10
17.077902
20
0.5181211
11
17.2361272
21
0.5181211
0
LINE
8
DEFAULT_255_1_234
10
17.069067
20
0.2827912
11
16.7228991
21
-0.258548
0
LINE
8
DEFAULT_255_1_234
10
16.7228991
20
-0.258548
11
17.0867369
21
-0.258548
0
LINE
8
DEFAULT_255_1_234
10
17.0867369
20
-0.258548
11
17.0867369
21
0.3149181
0
LINE
8
DEFAULT_255_1_234
10
17.0867369
20
0.3149181
11
17.069067
21
0.2827912
0
LINE
8
DEFAULT_255_2_778
10
10.5738396
20
56.7743073
11
9.3932396
21
56.7743073
0
LINE
8
DEFAULT_255_2_778
10
9.3932396
20
56.7743073
11
9.9837396
21
57.7969073
0
LINE
8
DEFAULT_255_2_778
10
9.9837396
20
57.7969073
11
11.1643396
21
57.7969073
0
LINE
8
DEFAULT_255_2_778
10
11.1643396
20
57.7969073
11
10.5738396
21
56.7743073
0
LINE
8
DEFAULT_255_2_778
10
10.5738396
20
56.7743073
11
10.5738396
21
56.7743073
0
LINE
8
DEFAULT_255_2_778
10
11.7546396
20
56.7743073
11
12.9354396
21
56.7743073
0
LINE
8
DEFAULT_255_2_778
10
12.9354396
20
56.7743073
11
12.3451396
21
57.7969073
0
LINE
8
DEFAULT_255_2_778
10
12.3451396
20
57.7969073
11
11.1643396
21
57.7969073
0
LINE
8
DEFAULT_255_2_778
10
11.1643396
20
57.7969073
11
11.7546396
21
56.7743073
0
LINE
8
DEFAULT_255_2_778
10
11.7546396
20
56.7743073
11
11.7546396
21
56.7743073
0
LINE
8
DEFAULT_255_2_778
10
11.7545823
20
58.8195146
11
11.1642823
21
59.8421146
0
LINE
8
DEFAULT_255_2_778
10
11.1642823
20
59.8421146
11
10.5737823
21
58.8195146
0
LINE
8
DEFAULT_255_2_778
10
10.5737823
20
58.8195146
11
11.1642823
21
57.7969146
0
LINE
8
DEFAULT_255_2_778
10
11.1642823
20
57.7969146
11
11.7545823
21
58.8195146
0
LINE
8
DEFAULT_255_2_778
10
11.7545823
20
58.8195146
11
11.7545823
21
58.8195146
0
ARC
8
DEFAULT_255_2_778
10
16.5183731
20
58.4657426
40
0.5650491
50
268.7543645
51
289.1417717
0
ARC
8
DEFAULT_255_2_778
10
16.606208
20
58.2105531
40
0.2951681
50
289.2776255
51
3.7648372
0
ARC
8
DEFAULT_255_2_778
10
16.3901618
20
58.2371085
40
0.5106278
50
359.1949826
51
0.0020862
0
ARC
8
DEFAULT_255_2_778
10
16.547449
20
58.2230832
40
0.1541914
50
280.2616216
51
358.5297855
0
ARC
8
DEFAULT_255_2_778
10
16.5080075
20
58.335655
40
0.2726346
50
269.5969454
51
284.2065679
0
ARC
8
DEFAULT_255_2_778
10
16.4981967
20
58.3200316
40
0.2571258
50
246.5290903
51
271.7590909
0
ARC
8
DEFAULT_255_2_778
10
16.4527148
20
58.2120009
40
0.1399248
50
188.1071678
51
245.9934684
0
ARC
8
DEFAULT_255_2_778
10
16.4829007
20
58.2189617
40
0.1708111
50
179.9445314
51
188.990814
0
ARC
8
DEFAULT_255_2_778
10
16.4924507
20
58.2257849
40
0.3763411
50
178.2272621
51
205.8283807
0
ARC
8
DEFAULT_255_2_778
10
16.4132476
20
58.2080833
40
0.2979176
50
209.4028057
51
263.0375728
0
ARC
8
DEFAULT_255_2_778
10
16.5005111
20
58.5827629
40
0.6816586
50
259.5722942
51
270.4689037
0
ARC
8
DEFAULT_255_2_778
10
17.411252
20
58.6389767
40
0.1217154
50
2.0482843
51
87.015299
0
ARC
8
DEFAULT_255_2_778
10
17.4060617
20
58.6433852
40
0.126828
50
353.0600847
51
359.9737428
0
ARC
8
DEFAULT_255_2_778
10
17.4110442
20
58.6402555
40
0.1215295
50
270.5739762
51
354.2410513
0
ARC
8
DEFAULT_255_2_778
10
17.4065059
20
58.6764297
40
0.1578027
50
269.9941256
51
272.0902921
0
ARC
8
DEFAULT_255_2_778
10
17.414084
20
58.2255295
40
0.1400686
50
358.2807293
51
95.6106825
0
ARC
8
DEFAULT_255_2_778
10
17.4103233
20
58.2216963
40
0.1437669
50
266.9962473
51
359.8528392
0
ARC
8
DEFAULT_255_2_778
10
17.4725249
20
58.2619988
40
0.3335288
50
268.2414507
51
302.0223478
0
ARC
8
DEFAULT_255_2_778
10
17.5091261
20
58.186683
40
0.2504234
50
304.0600275
51
2.0468005
0
ARC
8
DEFAULT_255_2_778
10
17.4832788
20
58.1933521
40
0.2761203
50
0.4720601
51
65.8403529
0
ARC
8
DEFAULT_255_2_778
10
17.5191655
20
58.2581061
40
0.2024466
50
67.606893
51
75.8693222
0
ARC
8
DEFAULT_255_2_778
10
17.5042026
20
58.665722
40
0.2208874
50
286.9473417
51
358.0074963
0
ARC
8
DEFAULT_255_2_778
10
17.4710866
20
58.6745045
40
0.2544031
50
356.2897886
51
0.0050857
0
ARC
8
DEFAULT_255_2_778
10
17.497262
20
58.6795946
40
0.2282839
50
358.7280137
51
81.8073164
0
ARC
8
DEFAULT_255_2_778
10
17.4216369
20
58.4281283
40
0.4895182
50
77.2355086
51
90.5088275
0
ARC
8
DEFAULT_255_2_778
10
17.5842747
20
57.4635989
40
0.1302704
50
89.9972707
51
92.6773048
0
ARC
8
DEFAULT_255_2_778
10
17.5844071
20
57.46437
40
0.1294993
50
45.0546048
51
90.0558451
0
ARC
8
DEFAULT_255_2_778
10
17.5844118
20
57.464219
40
0.1296029
50
0.001866
51
45.1031959
0
ARC
8
DEFAULT_255_2_778
10
17.5845123
20
57.4642202
40
0.1295026
50
357.4803735
51
0.0013544
0
ARC
8
DEFAULT_255_2_778
10
17.5901979
20
57.4603512
40
0.1237052
50
339.8672523
51
359.1550732
0
ARC
8
DEFAULT_255_2_778
10
17.5794513
20
57.4575079
40
0.1329691
50
272.0853006
51
342.6124646
0
ARC
8
DEFAULT_255_2_778
10
17.6596145
20
57.4957661
40
0.2575135
50
286.787355
51
290.6121696
0
ARC
8
DEFAULT_255_2_778
10
17.6689461
20
57.4814533
40
0.24086
50
289.7330405
51
342.3216972
0
ARC
8
DEFAULT_255_2_778
10
17.641261
20
57.4862954
40
0.268735
50
343.130572
51
0.3905272
0
ARC
8
DEFAULT_255_2_778
10
17.6578783
20
57.5036767
40
0.2525904
50
356.4706028
51
80.1788963
0
ARC
8
DEFAULT_255_2_778
10
17.5921649
20
57.2767163
40
0.4881286
50
77.1212301
51
90.4900821
0
ARC
8
DEFAULT_255_2_778
10
17.5166337
20
56.979036
40
0.1865405
50
50.1507009
51
92.9634648
0
ARC
8
DEFAULT_255_2_778
10
17.5301354
20
57.0073678
40
0.1563319
50
12.621233
51
47.2950617
0
ARC
8
DEFAULT_255_2_778
10
16.8485884
20
56.8744726
40
0.8506657
50
2.8173892
51
11.3253986
0
ARC
8
DEFAULT_255_2_778
10
-29.2295733
20
53.3781175
40
47.060992
50
4.3048394
51
4.3117143
0
ARC
8
DEFAULT_255_2_778
10
18.5500859
20
56.950584
40
0.8523717
50
182.6850102
51
191.2954256
0
ARC
8
DEFAULT_255_2_778
10
17.9656837
20
56.8442399
40
0.2586603
50
193.5512904
51
195.3825538
0
ARC
8
DEFAULT_255_2_778
10
19.3507425
20
57.1031408
40
1.4700994
50
182.6283124
51
192.8725697
0
ARC
8
DEFAULT_255_2_778
10
17.6207606
20
57.0302215
40
0.261487
50
1.2064311
51
30.4123358
0
ARC
8
DEFAULT_255_2_778
10
17.6663626
20
57.045276
40
0.2147766
50
33.1081154
51
71.7312197
0
LINE
8
DEFAULT_255_2_778
10
13.4657897
20
57.2098271
11
13.9385897
21
57.2098271
0
LINE
8
DEFAULT_255_2_778
10
13.9385897
20
57.2098271
11
13.9385897
21
57.3812271
0
LINE
8
DEFAULT_255_2_778
10
13.9385897
20
57.3812271
11
13.4657897
21
57.3812271
0
LINE
8
DEFAULT_255_2_778
10
13.4657897
20
57.3812271
11
13.4657897
21
57.5921271
0
LINE
8
DEFAULT_255_2_778
10
13.4657897
20
57.5921271
11
13.9977897
21
57.5921271
0
LINE
8
DEFAULT_255_2_778
10
13.9977897
20
57.5921271
11
13.9977897
21
57.7635271
0
LINE
8
DEFAULT_255_2_778
10
13.9977897
20
57.7635271
11
13.4657897
21
57.7635271
0
LINE
8
DEFAULT_255_2_778
10
13.4657897
20
57.7635271
11
13.2651897
21
57.7635271
0
LINE
8
DEFAULT_255_2_778
10
13.2651897
20
57.7635271
11
13.2651897
21
57.5921271
0
LINE
8
DEFAULT_255_2_778
10
13.2651897
20
57.5921271
11
13.2651897
21
56.9457271
0
LINE
8
DEFAULT_255_2_778
10
13.2651897
20
56.9457271
11
13.2651897
21
56.7742271
0
LINE
8
DEFAULT_255_2_778
10
13.2651897
20
56.7742271
11
13.4657897
21
56.7742271
0
LINE
8
DEFAULT_255_2_778
10
13.4657897
20
56.7742271
11
14.0118897
21
56.7742271
0
LINE
8
DEFAULT_255_2_778
10
14.0118897
20
56.7742271
11
14.0118897
21
56.9457271
0
LINE
8
DEFAULT_255_2_778
10
14.0118897
20
56.9457271
11
13.4657897
21
56.9457271
0
LINE
8
DEFAULT_255_2_778
10
13.4657897
20
56.9457271
11
13.4657897
21
57.2095271
0
LINE
8
DEFAULT_255_2_778
10
13.4657897
20
57.2095271
11
13.4657897
21
57.2098271
0
LINE
8
DEFAULT_255_2_778
10
13.4519897
20
58.6639271
11
13.6620897
21
57.9286271
0
LINE
8
DEFAULT_255_2_778
10
13.6620897
20
57.9286271
11
13.6704897
21
57.9286271
0
LINE
8
DEFAULT_255_2_778
10
13.6704897
20
57.9286271
11
13.8464897
21
57.9286271
0
LINE
8
DEFAULT_255_2_778
10
13.8464897
20
57.9286271
11
13.8546897
21
57.9286271
0
LINE
8
DEFAULT_255_2_778
10
13.8546897
20
57.9286271
11
14.0647897
21
58.6639271
0
LINE
8
DEFAULT_255_2_778
10
14.0647897
20
58.6639271
11
14.0647897
21
57.9286271
0
LINE
8
DEFAULT_255_2_778
10
14.0647897
20
57.9286271
11
14.2515897
21
57.9286271
0
LINE
8
DEFAULT_255_2_778
10
14.2515897
20
57.9286271
11
14.2515897
21
58.9179271
0
LINE
8
DEFAULT_255_2_778
10
14.2515897
20
58.9179271
11
14.1496897
21
58.9179271
0
LINE
8
DEFAULT_255_2_778
10
14.1496897
20
58.9179271
11
14.0615897
21
58.9179271
0
LINE
8
DEFAULT_255_2_778
10
14.0615897
20
58.9179271
11
13.9655897
21
58.9179271
0
LINE
8
DEFAULT_255_2_778
10
13.9655897
20
58.9179271
11
13.7583897
21
58.2236271
0
LINE
8
DEFAULT_255_2_778
10
13.7583897
20
58.2236271
11
13.5511897
21
58.9179271
0
LINE
8
DEFAULT_255_2_778
10
13.5511897
20
58.9179271
11
13.4551897
21
58.9179271
0
LINE
8
DEFAULT_255_2_778
10
13.4551897
20
58.9179271
11
13.3670897
21
58.9179271
0
LINE
8
DEFAULT_255_2_778
10
13.3670897
20
58.9179271
11
13.2651897
21
58.9179271
0
LINE
8
DEFAULT_255_2_778
10
13.2651897
20
58.9179271
11
13.2651897
21
57.9286271
0
LINE
8
DEFAULT_255_2_778
10
13.2651897
20
57.9286271
11
13.4519897
21
57.9286271
0
LINE
8
DEFAULT_255_2_778
10
13.4519897
20
57.9286271
11
13.4519897
21
58.6639271
0
LINE
8
DEFAULT_255_2_778
10
13.4519897
20
58.6639271
11
13.4519897
21
58.6639271
0
LINE
8
DEFAULT_255_2_778
10
18.0056897
20
58.9179271
11
17.8064897
21
58.9179271
0
LINE
8
DEFAULT_255_2_778
10
17.8064897
20
58.9179271
11
17.8064897
21
57.9286271
0
LINE
8
DEFAULT_255_2_778
10
17.8064897
20
57.9286271
11
18.0056897
21
57.9286271
0
LINE
8
DEFAULT_255_2_778
10
18.0056897
20
57.9286271
11
18.0056897
21
58.9179271
0
LINE
8
DEFAULT_255_2_778
10
18.0056897
20
58.9179271
11
18.0056897
21
58.9179271
0
LINE
8
DEFAULT_255_2_778
10
18.1681897
20
57.7638271
11
17.9689897
21
57.7638271
0
LINE
8
DEFAULT_255_2_778
10
17.9689897
20
57.7638271
11
17.9689897
21
56.7745271
0
LINE
8
DEFAULT_255_2_778
10
17.9689897
20
56.7745271
11
18.1681897
21
56.7745271
0
LINE
8
DEFAULT_255_2_778
10
18.1681897
20
56.7745271
11
18.1681897
21
57.7638271
0
LINE
8
DEFAULT_255_2_778
10
18.1681897
20
57.7638271
11
18.1681897
21
57.7638271
0
LINE
8
DEFAULT_255_2_778
10
19.9765897
20
58.9179271
11
19.7773897
21
58.9179271
0
LINE
8
DEFAULT_255_2_778
10
19.7773897
20
58.9179271
11
19.7773897
21
57.9286271
0
LINE
8
DEFAULT_255_2_778
10
19.7773897
20
57.9286271
11
19.9765897
21
57.9286271
0
LINE
8
DEFAULT_255_2_778
10
19.9765897
20
57.9286271
11
19.9765897
21
58.9179271
0
LINE
8
DEFAULT_255_2_778
10
19.9765897
20
58.9179271
11
19.9765897
21
58.9179271
0
LINE
8
DEFAULT_255_2_778
10
14.5298897
20
58.9179271
11
14.3306897
21
58.9179271
0
LINE
8
DEFAULT_255_2_778
10
14.3306897
20
58.9179271
11
14.3306897
21
57.9286271
0
LINE
8
DEFAULT_255_2_778
10
14.3306897
20
57.9286271
11
14.5298897
21
57.9286271
0
LINE
8
DEFAULT_255_2_778
10
14.5298897
20
57.9286271
11
14.5298897
21
58.9179271
0
LINE
8
DEFAULT_255_2_778
10
14.5298897
20
58.9179271
11
14.5298897
21
58.9179271
0
LINE
8
DEFAULT_255_2_778
10
19.4989897
20
58.5319271
11
19.1029897
21
58.5319271
0
LINE
8
DEFAULT_255_2_778
10
19.1029897
20
58.5319271
11
19.1029897
21
58.9176271
0
LINE
8
DEFAULT_255_2_778
10
19.1029897
20
58.9176271
11
18.9068897
21
58.9176271
0
LINE
8
DEFAULT_255_2_778
10
18.9068897
20
58.9176271
11
18.9068897
21
57.9286271
0
LINE
8
DEFAULT_255_2_778
10
18.9068897
20
57.9286271
11
19.1029897
21
57.9286271
0
LINE
8
DEFAULT_255_2_778
10
19.1029897
20
57.9286271
11
19.1029897
21
58.3604271
0
LINE
8
DEFAULT_255_2_778
10
19.1029897
20
58.3604271
11
19.4989897
21
58.3604271
0
LINE
8
DEFAULT_255_2_778
10
19.4989897
20
58.3604271
11
19.4989897
21
57.9286271
0
LINE
8
DEFAULT_255_2_778
10
19.4989897
20
57.9286271
11
19.6950897
21
57.9286271
0
LINE
8
DEFAULT_255_2_778
10
19.6950897
20
57.9286271
11
19.6950897
21
58.9176271
0
LINE
8
DEFAULT_255_2_778
10
19.6950897
20
58.9176271
11
19.4989897
21
58.9176271
0
LINE
8
DEFAULT_255_2_778
10
19.4989897
20
58.9176271
11
19.4989897
21
58.5319271
0
LINE
8
DEFAULT_255_2_778
10
19.4989897
20
58.5319271
11
19.4989897
21
58.5319271
0
LINE
8
DEFAULT_255_2_778
10
14.8246897
20
57.9286271
11
15.0280897
21
57.9286271
0
LINE
8
DEFAULT_255_2_778
10
15.0280897
20
57.9286271
11
15.0280897
21
58.7465271
0
LINE
8
DEFAULT_255_2_778
10
15.0280897
20
58.7465271
11
15.2696897
21
58.7465271
0
LINE
8
DEFAULT_255_2_778
10
15.2696897
20
58.7465271
11
15.2696897
21
58.9179271
0
LINE
8
DEFAULT_255_2_778
10
15.2696897
20
58.9179271
11
15.0280897
21
58.9179271
0
LINE
8
DEFAULT_255_2_778
10
15.0280897
20
58.9179271
11
14.8246897
21
58.9179271
0
LINE
8
DEFAULT_255_2_778
10
14.8246897
20
58.9179271
11
14.5830897
21
58.9179271
0
LINE
8
DEFAULT_255_2_778
10
14.5830897
20
58.9179271
11
14.5830897
21
58.7465271
0
LINE
8
DEFAULT_255_2_778
10
14.5830897
20
58.7465271
11
14.8246897
21
58.7465271
0
LINE
8
DEFAULT_255_2_778
10
14.8246897
20
58.7465271
11
14.8246897
21
57.9286271
0
LINE
8
DEFAULT_255_2_778
10
14.8246897
20
57.9286271
11
14.8246897
21
57.9286271
0
LINE
8
DEFAULT_255_2_778
10
16.6422897
20
56.7745271
11
16.8454897
21
56.7745271
0
LINE
8
DEFAULT_255_2_778
10
16.8454897
20
56.7745271
11
16.8454897
21
57.5923271
0
LINE
8
DEFAULT_255_2_778
10
16.8454897
20
57.5923271
11
17.0873897
21
57.5923271
0
LINE
8
DEFAULT_255_2_778
10
17.0873897
20
57.5923271
11
17.0873897
21
57.7641271
0
LINE
8
DEFAULT_255_2_778
10
17.0873897
20
57.7641271
11
16.8454897
21
57.7641271
0
LINE
8
DEFAULT_255_2_778
10
16.8454897
20
57.7641271
11
16.6422897
21
57.7641271
0
LINE
8
DEFAULT_255_2_778
10
16.6422897
20
57.7641271
11
16.4004897
21
57.7641271
0
LINE
8
DEFAULT_255_2_778
10
16.4004897
20
57.7641271
11
16.4004897
21
57.5923271
0
LINE
8
DEFAULT_255_2_778
10
16.4004897
20
57.5923271
11
16.6422897
21
57.5923271
0
LINE
8
DEFAULT_255_2_778
10
16.6422897
20
57.5923271
11
16.6422897
21
56.7745271
0
LINE
8
DEFAULT_255_2_778
10
16.6422897
20
56.7745271
11
16.6422897
21
56.7745271
0
LINE
8
DEFAULT_255_2_778
10
16.9007897
20
58.2371271
11
16.9007897
21
58.9176271
0
LINE
8
DEFAULT_255_2_778
10
16.9007897
20
58.9176271
11
16.7015897
21
58.9176271
0
LINE
8
DEFAULT_255_2_778
10
16.7015897
20
58.9176271
11
16.7015897
21
58.2191271
0
LINE
8
DEFAULT_255_2_778
10
16.3120897
20
58.2191271
11
16.3120897
21
58.9176271
0
LINE
8
DEFAULT_255_2_778
10
16.3120897
20
58.9176271
11
16.1162897
21
58.9176271
0
LINE
8
DEFAULT_255_2_778
10
16.1162897
20
58.9176271
11
16.1162897
21
58.2374271
0
LINE
8
DEFAULT_255_2_778
10
15.0000897
20
57.2098271
11
15.4730897
21
57.2098271
0
LINE
8
DEFAULT_255_2_778
10
15.4730897
20
57.2098271
11
15.4730897
21
57.3812271
0
LINE
8
DEFAULT_255_2_778
10
15.4730897
20
57.3812271
11
15.0000897
21
57.3812271
0
LINE
8
DEFAULT_255_2_778
10
15.0000897
20
57.3812271
11
15.0000897
21
57.5921271
0
LINE
8
DEFAULT_255_2_778
10
15.0000897
20
57.5921271
11
15.5320897
21
57.5921271
0
LINE
8
DEFAULT_255_2_778
10
15.5320897
20
57.5921271
11
15.5320897
21
57.7635271
0
LINE
8
DEFAULT_255_2_778
10
15.5320897
20
57.7635271
11
15.0000897
21
57.7635271
0
LINE
8
DEFAULT_255_2_778
10
15.0000897
20
57.7635271
11
14.7997897
21
57.7635271
0
LINE
8
DEFAULT_255_2_778
10
14.7997897
20
57.7635271
11
14.7997897
21
57.5921271
0
LINE
8
DEFAULT_255_2_778
10
14.7997897
20
57.5921271
11
14.7997897
21
56.9457271
0
LINE
8
DEFAULT_255_2_778
10
14.7997897
20
56.9457271
11
14.7997897
21
56.7742271
0
LINE
8
DEFAULT_255_2_778
10
14.7997897
20
56.7742271
11
15.0000897
21
56.7742271
0
LINE
8
DEFAULT_255_2_778
10
15.0000897
20
56.7742271
11
15.5461897
21
56.7742271
0
LINE
8
DEFAULT_255_2_778
10
15.5461897
20
56.7742271
11
15.5461897
21
56.9457271
0
LINE
8
DEFAULT_255_2_778
10
15.5461897
20
56.9457271
11
15.0000897
21
56.9457271
0
LINE
8
DEFAULT_255_2_778
10
15.0000897
20
56.9457271
11
15.0000897
21
57.2095271
0
LINE
8
DEFAULT_255_2_778
10
15.0000897
20
57.2095271
11
15.0000897
21
57.2098271
0
LINE
8
DEFAULT_255_2_778
10
17.4064897
20
58.5186271
11
17.1690897
21
58.5186271
0
LINE
8
DEFAULT_255_2_778
10
17.1690897
20
58.5186271
11
17.1690897
21
58.7602271
0
LINE
8
DEFAULT_255_2_778
10
17.1690897
20
58.7602271
11
17.4175897
21
58.7602271
0
LINE
8
DEFAULT_255_2_778
10
17.4175897
20
58.7602271
11
17.4175897
21
58.7605271
0
LINE
8
DEFAULT_255_2_778
10
17.4027897
20
58.0778271
11
17.1690897
21
58.0778271
0
LINE
8
DEFAULT_255_2_778
10
17.1690897
20
58.0778271
11
17.1690897
21
58.3649271
0
LINE
8
DEFAULT_255_2_778
10
17.1690897
20
58.3649271
11
17.4003897
21
58.3649271
0
LINE
8
DEFAULT_255_2_778
10
17.1767897
20
57.9286271
11
17.4622897
21
57.9286271
0
LINE
8
DEFAULT_255_2_778
10
17.4172897
20
58.9176271
11
17.1770897
21
58.9176271
0
LINE
8
DEFAULT_255_2_778
10
17.1770897
20
58.9176271
11
16.9722897
21
58.9176271
0
LINE
8
DEFAULT_255_2_778
10
16.9722897
20
58.9176271
11
16.9711897
21
58.9176271
0
LINE
8
DEFAULT_255_2_778
10
16.9711897
20
58.9176271
11
16.9711897
21
57.9286271
0
LINE
8
DEFAULT_255_2_778
10
16.9711897
20
57.9286271
11
16.9722897
21
57.9286271
0
LINE
8
DEFAULT_255_2_778
10
16.9722897
20
57.9286271
11
17.1770897
21
57.9286271
0
LINE
8
DEFAULT_255_2_778
10
17.1770897
20
57.9286271
11
17.1767897
21
57.9286271
0
LINE
8
DEFAULT_255_2_778
10
17.3368897
20
57.3243271
11
17.3368897
21
57.5937271
0
LINE
8
DEFAULT_255_2_778
10
17.3368897
20
57.5937271
11
17.5781897
21
57.5937271
0
LINE
8
DEFAULT_255_2_778
10
17.5842897
20
57.3246271
11
17.3370897
21
57.3246271
0
LINE
8
DEFAULT_255_2_778
10
17.3370897
20
57.3246271
11
17.3368897
21
57.3243271
0
LINE
8
DEFAULT_255_2_778
10
17.5879897
20
57.7648271
11
17.3368897
21
57.7648271
0
LINE
8
DEFAULT_255_2_778
10
17.3368897
20
57.7648271
11
17.1383897
21
57.7648271
0
LINE
8
DEFAULT_255_2_778
10
17.1383897
20
57.7648271
11
17.1362897
21
57.7648271
0
LINE
8
DEFAULT_255_2_778
10
17.1362897
20
57.7648271
11
17.1362897
21
56.7756271
0
LINE
8
DEFAULT_255_2_778
10
17.1362897
20
56.7756271
11
17.3368897
21
56.7756271
0
LINE
8
DEFAULT_255_2_778
10
17.3368897
20
56.7756271
11
17.3368897
21
57.1653271
0
LINE
8
DEFAULT_255_2_778
10
17.3368897
20
57.1653271
11
17.5069897
21
57.1653271
0
LINE
8
DEFAULT_255_2_778
10
17.7162897
20
56.7756271
11
17.9175897
21
56.7756271
0
LINE
8
DEFAULT_255_2_778
10
14.2763897
20
57.7638271
11
14.0760897
21
57.7638271
0
LINE
8
DEFAULT_255_2_778
10
14.0760897
20
57.7638271
11
14.0760897
21
56.9460271
0
LINE
8
DEFAULT_255_2_778
10
14.0760897
20
56.9460271
11
14.0760897
21
56.7745271
0
LINE
8
DEFAULT_255_2_778
10
14.0760897
20
56.7745271
11
14.2763897
21
56.7745271
0
LINE
8
DEFAULT_255_2_778
10
14.2763897
20
56.7745271
11
14.7428897
21
56.7745271
0
LINE
8
DEFAULT_255_2_778
10
14.7428897
20
56.7745271
11
14.7428897
21
56.9460271
0
LINE
8
DEFAULT_255_2_778
10
14.7428897
20
56.9460271
11
14.2763897
21
56.9460271
0
LINE
8
DEFAULT_255_2_778
10
14.2763897
20
56.9460271
11
14.2763897
21
57.7638271
0
LINE
8
DEFAULT_255_2_778
10
14.2763897
20
57.7638271
11
14.2763897
21
57.7638271
0
ARC
8
DEFAULT_255_2_778
10
15.4584271
20
57.3896969
40
0.9681224
50
72.4822103
51
81.3184214
0
ARC
8
DEFAULT_255_2_778
10
15.7160297
20
58.1663918
40
0.1503783
50
28.8883513
51
77.0092434
0
ARC
8
DEFAULT_255_2_778
10
15.7432379
20
58.1953196
40
0.113238
50
358.9917455
51
22.7117017
0
ARC
8
DEFAULT_255_2_778
10
15.7394861
20
58.1994918
40
0.1171346
50
289.2958104
51
356.9831562
0
ARC
8
DEFAULT_255_2_778
10
15.6668261
20
58.3569882
40
0.2902651
50
268.4665462
51
292.5613311
0
ARC
8
DEFAULT_255_2_778
10
15.6496856
20
58.2979179
40
0.2312808
50
236.4956947
51
272.3225735
0
ARC
8
DEFAULT_255_2_778
10
15.6106646
20
58.2296839
40
0.1529307
50
178.9722202
51
234.5742435
0
ARC
8
DEFAULT_255_2_778
10
15.5656113
20
58.2201079
40
0.3002058
50
177.6481608
51
245.5596397
0
ARC
8
DEFAULT_255_2_778
10
15.6409971
20
58.3923561
40
0.488217
50
245.8690375
51
267.169035
0
ARC
8
DEFAULT_255_2_778
10
15.6671503
20
58.6433916
40
0.7403648
50
266.1069867
51
270.0547972
0
ARC
8
DEFAULT_255_2_778
10
15.6772894
20
58.4746135
40
0.5716642
50
269.0547216
51
287.7147747
0
ARC
8
DEFAULT_255_2_778
10
15.7598889
20
58.2289091
40
0.3125017
50
286.995984
51
325.1221533
0
ARC
8
DEFAULT_255_2_778
10
15.7678294
20
58.212361
40
0.2966627
50
326.8673922
51
0.8625726
0
ARC
8
DEFAULT_255_2_778
10
15.7898286
20
58.2209409
40
0.2746606
50
359.1417932
51
76.9739731
0
ARC
8
DEFAULT_255_2_778
10
15.6705461
20
57.9400719
40
0.577616
50
71.7185727
51
79.1315439
0
ARC
8
DEFAULT_255_2_778
10
14.2492968
20
50.586467
40
8.0673056
50
79.0662148
51
79.6216572
0
ARC
8
DEFAULT_255_2_778
10
16.4356585
20
62.4641581
40
4.0099443
50
259.1227669
51
259.4665204
0
ARC
8
DEFAULT_255_2_778
10
15.7836732
20
59.1691142
40
0.6513291
50
249.9945768
51
260.7485895
0
ARC
8
DEFAULT_255_2_778
10
15.5880401
20
58.6580999
40
0.1046098
50
178.6705173
51
254.9333545
0
ARC
8
DEFAULT_255_2_778
10
15.6049957
20
58.6546688
40
0.1216785
50
93.288632
51
177.2403935
0
ARC
8
DEFAULT_255_2_778
10
15.6585677
20
58.4676752
40
0.3143588
50
89.6189463
51
101.1057977
0
ARC
8
DEFAULT_255_2_778
10
15.6722733
20
58.579516
40
0.2028439
50
53.5634072
51
93.2825843
0
ARC
8
DEFAULT_255_2_778
10
15.7018505
20
58.6377144
40
0.1388739
50
357.1985816
51
49.1152298
0
ARC
8
DEFAULT_255_2_778
10
15.7254907
20
58.6309274
40
0.3087677
50
359.9999335
51
2.3703878
0
ARC
8
DEFAULT_255_2_778
10
15.7353555
20
58.6324337
40
0.298851
50
2.1600756
51
60.1092229
0
ARC
8
DEFAULT_255_2_778
10
15.6766212
20
58.5258133
40
0.4205645
50
60.4106856
51
86.1444419
0
ARC
8
DEFAULT_255_2_778
10
15.6536151
20
58.3491228
40
0.5985046
50
85.0843314
51
90.0628677
0
ARC
8
DEFAULT_255_2_778
10
15.6529718
20
58.4725466
40
0.4750804
50
90.001616
51
92.2300394
0
ARC
8
DEFAULT_255_2_778
10
15.6281193
20
58.577687
40
0.3696351
50
89.0131319
51
149.6364996
0
ARC
8
DEFAULT_255_2_778
10
15.5505461
20
58.6499055
40
0.2671974
50
154.5962367
51
180.4885883
0
ARC
8
DEFAULT_255_2_778
10
15.5651524
20
58.648384
40
0.281795
50
180.1539064
51
255.1120325
0
ARC
8
DEFAULT_255_2_778
10
15.7094242
20
58.971232
40
0.6333958
50
249.9962237
51
260.4976723
0
ARC
8
DEFAULT_255_2_778
10
18.2470963
20
57.3908351
40
0.967002
50
72.4685023
51
81.3064395
0
ARC
8
DEFAULT_255_2_778
10
18.5045397
20
58.166427
40
0.1503535
50
28.8782248
51
76.9904304
0
ARC
8
DEFAULT_255_2_778
10
18.5317197
20
58.1953189
40
0.1132561
50
358.9922779
51
22.7082666
0
ARC
8
DEFAULT_255_2_778
10
18.5280402
20
58.1994088
40
0.1170763
50
289.2761556
51
357.0223042
0
ARC
8
DEFAULT_255_2_778
10
18.4553612
20
58.3572836
40
0.2905613
50
268.4611814
51
292.5289055
0
ARC
8
DEFAULT_255_2_778
10
18.4381801
20
58.2988175
40
0.2321799
50
236.6698634
51
272.3149402
0
ARC
8
DEFAULT_255_2_778
10
18.39878
20
58.2296762
40
0.1528464
50
178.9687581
51
234.7686008
0
ARC
8
DEFAULT_255_2_778
10
18.3540113
20
58.2201079
40
0.3002058
50
177.6481608
51
245.5596397
0
ARC
8
DEFAULT_255_2_778
10
18.4293971
20
58.3923561
40
0.488217
50
245.8690375
51
267.169035
0
ARC
8
DEFAULT_255_2_778
10
18.4555503
20
58.6433916
40
0.7403648
50
266.1069867
51
270.0547972
0
ARC
8
DEFAULT_255_2_778
10
18.4656836
20
58.4752451
40
0.5722957
50
269.0563423
51
287.7048702
0
ARC
8
DEFAULT_255_2_778
10
18.548344
20
58.2292682
40
0.312856
50
286.9832601
51
325.0871916
0
ARC
8
DEFAULT_255_2_778
10
18.5567708
20
58.2123856
40
0.2964208
50
326.8311942
51
0.8585267
0
ARC
8
DEFAULT_255_2_778
10
18.5785756
20
58.2210282
40
0.2746149
50
359.1234265
51
76.9343785
0
ARC
8
DEFAULT_255_2_778
10
18.4596421
20
57.9411965
40
0.5764934
50
71.6999697
51
79.1198353
0
ARC
8
DEFAULT_255_2_778
10
17.0173657
20
50.4644392
40
8.1910887
50
79.0843627
51
79.6321368
0
ARC
8
DEFAULT_255_2_778
10
19.2200266
20
62.4439177
40
3.9892176
50
259.1314419
51
259.4772924
0
ARC
8
DEFAULT_255_2_778
10
18.5723251
20
59.1685131
40
0.6507003
50
249.9919323
51
260.7592458
0
ARC
8
DEFAULT_255_2_778
10
18.376901
20
58.6580546
40
0.1045718
50
178.6452075
51
254.9151907
0
ARC
8
DEFAULT_255_2_778
10
18.3939581
20
58.6546016
40
0.121744
50
93.2745253
51
177.21023
0
ARC
8
DEFAULT_255_2_778
10
18.4475726
20
58.4675052
40
0.3145287
50
89.6200387
51
101.1027534
0
ARC
8
DEFAULT_255_2_778
10
18.4613489
20
58.5808453
40
0.2015212
50
53.1490002
51
93.3256649
0
ARC
8
DEFAULT_255_2_778
10
18.4902753
20
58.6376519
40
0.1391457
50
357.2298288
51
48.6469881
0
ARC
8
DEFAULT_255_2_778
10
18.5137232
20
58.6309226
40
0.3092351
50
0.0008291
51
2.3676985
0
ARC
8
DEFAULT_255_2_778
10
18.5240744
20
58.6324868
40
0.2988304
50
2.1500394
51
60.0956838
0
ARC
8
DEFAULT_255_2_778
10
18.4654399
20
58.5259909
40
0.4203859
50
60.40452
51
86.1455285
0
ARC
8
DEFAULT_255_2_778
10
18.4424157
20
58.3491686
40
0.5984588
50
85.0841409
51
90.0629301
0
ARC
8
DEFAULT_255_2_778
10
18.4417778
20
58.4721392
40
0.4754878
50
90.0023409
51
92.3231329
0
ARC
8
DEFAULT_255_2_778
10
18.4167555
20
58.5774604
40
0.3698206
50
89.1093915
51
149.6400816
0
ARC
8
DEFAULT_255_2_778
10
18.338761
20
58.6498917
40
0.2669122
50
154.6001925
51
180.486137
0
ARC
8
DEFAULT_255_2_778
10
18.3537607
20
58.6485152
40
0.2819037
50
180.1805176
51
255.132702
0
ARC
8
DEFAULT_255_2_778
10
18.4982264
20
58.9717784
40
0.6339516
50
250.0026216
51
260.4967164
0
ARC
8
DEFAULT_255_2_778
10
16.008917
20
57.1789283
40
0.2519711
50
190.2626864
51
267.3480013
0
ARC
8
DEFAULT_255_2_778
10
16.2443543
20
57.2702548
40
0.5022041
50
179.6723028
51
195.7380858
0
ARC
8
DEFAULT_255_2_778
10
16.1790511
20
57.2857671
40
0.4370755
50
148.7005643
51
181.6572045
0
ARC
8
DEFAULT_255_2_778
10
15.9957576
20
57.3958723
40
0.2232598
50
89.6148479
51
148.4074796
0
ARC
8
DEFAULT_255_2_778
10
16.0060936
20
57.417949
40
0.201372
50
41.9769772
51
92.5146611
0
ARC
8
DEFAULT_255_2_778
10
15.9522078
20
57.3802523
40
0.2667646
50
15.1848537
51
40.2549591
0
ARC
8
DEFAULT_255_2_778
10
16.028123
20
57.3905326
40
0.3935735
50
8.7091682
51
82.0550801
0
ARC
8
DEFAULT_255_2_778
10
15.9931241
20
57.2440871
40
0.543642
50
80.5350289
51
90.1544743
0
ARC
8
DEFAULT_255_2_778
10
15.9818804
20
57.3327192
40
0.4551129
50
88.7689246
51
119.6437418
0
ARC
8
DEFAULT_255_2_778
10
16.0077717
20
57.3364647
40
0.4653013
50
122.644121
51
173.3997839
0
ARC
8
DEFAULT_255_2_778
10
16.2711934
20
57.2721568
40
0.7351371
50
170.7798304
51
180.1348114
0
ARC
8
DEFAULT_255_2_778
10
16.1377257
20
57.2567615
40
0.6018225
50
178.6988735
51
210.5289552
0
ARC
8
DEFAULT_255_2_778
10
15.970325
20
57.1659953
40
0.4115783
50
211.4828222
51
265.8686737
0
ARC
8
DEFAULT_255_2_778
10
15.9909864
20
57.2907011
40
0.5375742
50
264.6297133
51
270.0503073
0
ARC
8
DEFAULT_255_2_778
10
16.0020995
20
57.2225749
40
0.4695684
50
268.7014824
51
300.1403067
0
ARC
8
DEFAULT_255_2_778
10
16.0350333
20
57.1441852
40
0.385394
50
301.7580058
51
353.77968
0
ARC
8
DEFAULT_255_2_778
10
16.0012256
20
57.1385219
40
0.2113379
50
268.8430278
51
350.1661143
0
ARC
8
DEFAULT_255_2_778
10
18.6896799
20
57.1788824
40
0.2519281
50
190.2538303
51
267.3332171
0
ARC
8
DEFAULT_255_2_778
10
18.9252249
20
57.2702581
40
0.5022746
50
179.672724
51
195.7362088
0
ARC
8
DEFAULT_255_2_778
10
18.8600432
20
57.2857917
40
0.4372682
50
148.7196987
51
181.6596982
0
ARC
8
DEFAULT_255_2_778
10
18.676443
20
57.3959906
40
0.2231415
50
89.6108896
51
148.4244661
0
ARC
8
DEFAULT_255_2_778
10
18.686876
20
57.417967
40
0.2013576
50
42.5913083
51
92.5383066
0
ARC
8
DEFAULT_255_2_778
10
18.6345542
20
57.3815973
40
0.2646316
50
15.0085433
51
40.7215892
0
ARC
8
DEFAULT_255_2_778
10
18.708623
20
57.3905326
40
0.3935735
50
8.7091682
51
82.0550801
0
ARC
8
DEFAULT_255_2_778
10
18.6736241
20
57.2440871
40
0.543642
50
80.5350289
51
90.1544743
0
ARC
8
DEFAULT_255_2_778
10
18.6623804
20
57.3327192
40
0.4551129
50
88.7689246
51
119.6437418
0
ARC
8
DEFAULT_255_2_778
10
18.6882717
20
57.3364647
40
0.4653013
50
122.644121
51
173.3997839
0
ARC
8
DEFAULT_255_2_778
10
18.9516934
20
57.2721568
40
0.7351371
50
170.7798304
51
180.1348114
0
ARC
8
DEFAULT_255_2_778
10
18.8177822
20
57.25682
40
0.6013778
50
178.7034849
51
210.5604279
0
ARC
8
DEFAULT_255_2_778
10
18.6511312
20
57.1663377
40
0.4119265
50
211.5090145
51
265.8592607
0
ARC
8
DEFAULT_255_2_778
10
18.6716883
20
57.2904521
40
0.5373252
50
264.628472
51
270.0501277
0
ARC
8
DEFAULT_255_2_778
10
18.682837
20
57.2223685
40
0.4693629
50
268.6963312
51
300.2191972
0
ARC
8
DEFAULT_255_2_778
10
18.7155684
20
57.1444124
40
0.3856821
50
301.8465101
51
353.7503927
0
ARC
8
DEFAULT_255_2_778
10
18.6820648
20
57.1383604
40
0.2111733
50
268.8857714
51
350.2028431
0
LINE
8
DEFAULT_255_2_778
10
15.4577584
20
58.2324271
11
15.2656584
21
58.2324271
0
LINE
8
DEFAULT_255_2_778
10
15.8405584
20
58.6309271
11
16.0342584
21
58.6309271
0
LINE
8
DEFAULT_255_2_778
10
18.2459584
20
58.2324271
11
18.0540584
21
58.2324271
0
LINE
8
DEFAULT_255_2_778
10
18.6292584
20
58.6309271
11
18.8229584
21
58.6309271
0
LINE
8
DEFAULT_255_2_778
10
16.2096584
20
57.4501271
11
16.4171584
21
57.4501271
0
LINE
8
DEFAULT_255_2_778
10
16.4181584
20
57.1024271
11
16.2094584
21
57.1024271
0
LINE
8
DEFAULT_255_2_778
10
18.8901584
20
57.4501271
11
19.0976584
21
57.4501271
0
LINE
8
DEFAULT_255_2_778
10
19.0989584
20
57.1024271
11
18.8901584
21
57.1024271
0
LINE
8
DEFAULT_255_1_234
10
11.1092489
20
55.4191211
11
11.1092489
21
54.3757983
0
LINE
8
DEFAULT_255_1_234
10
11.1092489
20
54.3757983
11
11.6634389
21
54.3757983
0
LINE
8
DEFAULT_255_1_234
10
11.6634389
20
54.3757983
11
11.6634389
21
54.2497
0
LINE
8
DEFAULT_255_1_234
10
11.6634389
20
54.2497
11
10.9542364
21
54.2497
0
LINE
8
DEFAULT_255_1_234
10
10.9542364
20
54.2497
11
10.9542364
21
55.4191211
0
LINE
8
DEFAULT_255_1_234
10
10.9542364
20
55.4191211
11
11.1092489
21
55.4191211
0
LINE
8
DEFAULT_255_1_234
10
12.5324729
20
54.8071026
11
12.5324729
21
54.6858234
0
LINE
8
DEFAULT_255_1_234
10
12.5324729
20
54.6858234
11
12.1405241
21
54.6858234
0
LINE
8
DEFAULT_255_1_234
10
12.1405241
20
54.6858234
11
12.1405241
21
54.8071026
0
LINE
8
DEFAULT_255_1_234
10
12.1405241
20
54.8071026
11
12.5324729
21
54.8071026
0
LINE
8
DEFAULT_255_1_234
10
13.8834113
20
55.0809849
11
13.7283988
21
55.0809849
0
LINE
8
DEFAULT_255_1_234
10
13.0360629
20
54.5886394
11
13.1910755
21
54.5886394
0
ARC
8
DEFAULT_255_1_234
10
13.7942801
20
55.9756768
40
1.252368
50
248.9199003
51
254.1439814
0
ARC
8
DEFAULT_255_1_234
10
13.6262296
20
55.5430234
40
0.788226
50
241.633709
51
249.0064503
0
ARC
8
DEFAULT_255_1_234
10
13.473369
20
55.2629317
40
0.4691427
50
230.498225
51
241.8087113
0
ARC
8
DEFAULT_255_1_234
10
13.3949264
20
55.1629906
40
0.3421437
50
227.4064532
51
229.9881192
0
ARC
8
DEFAULT_255_1_234
10
13.3461785
20
55.1154088
40
0.2741476
50
200.6781896
51
228.1763934
0
ARC
8
DEFAULT_255_1_234
10
13.3534095
20
55.1139077
40
0.2804109
50
179.5061581
51
199.8694617
0
ARC
8
DEFAULT_255_1_234
10
13.3524847
20
55.121321
40
0.2795204
50
132.4834203
51
181.0242172
0
ARC
8
DEFAULT_255_1_234
10
13.4120429
20
55.0650704
40
0.3612768
50
129.2532479
51
133.4242687
0
ARC
8
DEFAULT_255_1_234
10
13.4266879
20
55.0430965
40
0.3875675
50
101.98776
51
128.8742646
0
ARC
8
DEFAULT_255_1_234
10
13.466549
20
54.8709741
40
0.5642249
50
89.5906553
51
102.3169264
0
ARC
8
DEFAULT_255_1_234
10
13.4735982
20
54.9028148
40
0.5323783
50
77.2360837
51
90.3248275
0
ARC
8
DEFAULT_255_1_234
10
13.4943061
20
54.99954
40
0.4334697
50
63.837784
51
77.0809408
0
ARC
8
DEFAULT_255_1_234
10
13.5220823
20
55.0512911
40
0.3747796
50
45.9864267
51
64.1607727
0
ARC
8
DEFAULT_255_1_234
10
13.5481704
20
55.0810866
40
0.3352302
50
32.2747395
51
45.6547121
0
ARC
8
DEFAULT_255_1_234
10
13.5548145
20
55.082988
40
0.328603
50
359.6507365
51
32.6130309
0
ARC
8
DEFAULT_255_1_234
10
13.460524
20
55.083466
40
0.2678863
50
359.469343
51
14.9832209
0
ARC
8
DEFAULT_255_1_234
10
13.5310302
20
55.1023539
40
0.1948938
50
14.9781179
51
48.2004265
0
ARC
8
DEFAULT_255_1_234
10
13.5145947
20
55.0816983
40
0.2212521
50
48.5927837
51
74.1241538
0
ARC
8
DEFAULT_255_1_234
10
13.4812436
20
54.9716248
40
0.3362561
50
73.7888341
51
86.6652678
0
ARC
8
DEFAULT_255_1_234
10
13.4710002
20
54.8508881
40
0.4573953
50
86.2640471
51
90.0526343
0
ARC
8
DEFAULT_255_1_234
10
13.4681714
20
54.8904192
40
0.4178709
50
89.6697524
51
99.2309573
0
ARC
8
DEFAULT_255_1_234
10
13.4439165
20
55.0348964
40
0.2713749
50
99.069534
51
113.7658566
0
ARC
8
DEFAULT_255_1_234
10
13.4165356
20
55.0994677
40
0.2012469
50
114.0401004
51
127.9850673
0
ARC
8
DEFAULT_255_1_234
10
13.392492
20
55.129073
40
0.1631167
50
127.7287463
51
176.7105154
0
ARC
8
DEFAULT_255_1_234
10
13.4603638
20
55.1189693
40
0.2315392
50
175.1779447
51
180.0581938
0
ARC
8
DEFAULT_255_1_234
10
13.3760484
20
55.1177428
40
0.1472271
50
179.6142195
51
228.1246017
0
ARC
8
DEFAULT_255_1_234
10
13.4202153
20
55.1586308
40
0.2072299
50
226.5779593
51
230.8800004
0
ARC
8
DEFAULT_255_1_234
10
13.4673232
20
55.2211636
40
0.2854818
50
231.4635071
51
241.9260842
0
ARC
8
DEFAULT_255_1_234
10
13.587041
20
55.44148
40
0.53622
50
241.7178533
51
248.3259551
0
ARC
8
DEFAULT_255_1_234
10
13.7255781
20
55.7847064
40
0.9063478
50
248.2007737
51
252.4528373
0
ARC
8
DEFAULT_255_1_234
10
13.8459506
20
56.1568441
40
1.2974635
50
252.3391078
51
254.3469452
0
ARC
8
DEFAULT_255_1_234
10
13.0917209
20
53.4591148
40
1.5037162
50
71.0197183
51
74.4087047
0
ARC
8
DEFAULT_255_1_234
10
13.2611894
20
53.9483111
40
0.9859993
50
66.1847285
51
71.086374
0
ARC
8
DEFAULT_255_1_234
10
13.4168207
20
54.29872
40
0.6025855
50
59.3536294
51
66.2691831
0
ARC
8
DEFAULT_255_1_234
10
13.5056859
20
54.4490609
40
0.4279449
50
49.1020879
51
59.3293958
0
ARC
8
DEFAULT_255_1_234
10
13.5875599
20
54.5423834
40
0.3038015
50
32.7919921
51
49.2505539
0
ARC
8
DEFAULT_255_1_234
10
13.6196689
20
54.5652191
40
0.264448
50
31.1181161
51
32.4005348
0
ARC
8
DEFAULT_255_1_234
10
13.6108227
20
54.5616779
40
0.2738556
50
8.1116974
51
30.7958831
0
ARC
8
DEFAULT_255_1_234
10
13.5297895
20
54.5478753
40
0.3560327
50
359.8389159
51
8.4706516
0
ARC
8
DEFAULT_255_1_234
10
13.5923686
20
54.5430137
40
0.2934776
50
337.4731098
51
0.7537279
0
ARC
8
DEFAULT_255_1_234
10
13.6102381
20
54.5410387
40
0.2762607
50
307.5917067
51
336.4315538
0
ARC
8
DEFAULT_255_1_234
10
13.5642209
20
54.5923102
40
0.3449979
50
307.6551545
51
308.4529766
0
ARC
8
DEFAULT_255_1_234
10
13.5411928
20
54.627825
40
0.3871988
50
284.3734338
51
307.1424381
0
ARC
8
DEFAULT_255_1_234
10
13.4916758
20
54.8099932
40
0.5759636
50
272.4382747
51
284.646547
0
ARC
8
DEFAULT_255_1_234
10
13.4789967
20
54.9899893
40
0.7563528
50
269.9708387
51
272.8178037
0
ARC
8
DEFAULT_255_1_234
10
13.4747006
20
54.7861716
40
0.5525489
50
248.2707594
51
270.4055579
0
ARC
8
DEFAULT_255_1_234
10
13.4692748
20
54.7671192
40
0.5328452
50
246.1383403
51
248.0542782
0
ARC
8
DEFAULT_255_1_234
10
13.4274126
20
54.6791843
40
0.4355005
50
233.1670131
51
246.4950969
0
ARC
8
DEFAULT_255_1_234
10
13.3720031
20
54.6043812
40
0.3424126
50
215.3403242
51
233.0843104
0
ARC
8
DEFAULT_255_1_234
10
13.3447463
20
54.5845549
40
0.3087104
50
179.2419209
51
215.2648451
0
ARC
8
DEFAULT_255_1_234
10
13.4215057
20
54.5859666
40
0.2304457
50
179.335461
51
199.1045811
0
ARC
8
DEFAULT_255_1_234
10
13.3882733
20
54.5772766
40
0.1962176
50
199.8828939
51
232.7063202
0
ARC
8
DEFAULT_255_1_234
10
13.4355001
20
54.6366788
40
0.2720938
50
232.3738199
51
255.5136649
0
ARC
8
DEFAULT_255_1_234
10
13.4695868
20
54.7610835
40
0.4010747
50
255.2446292
51
267.5320849
0
ARC
8
DEFAULT_255_1_234
10
13.4783491
20
54.8843702
40
0.5246356
50
267.1557994
51
270.0286766
0
ARC
8
DEFAULT_255_1_234
10
13.4811264
20
54.839995
40
0.4802668
50
269.7000017
51
278.1660162
0
ARC
8
DEFAULT_255_1_234
10
13.5067268
20
54.6669515
40
0.3053425
50
278.0231263
51
290.625471
0
ARC
8
DEFAULT_255_1_234
10
13.5414955
20
54.5742025
40
0.206291
50
290.6619762
51
307.0370976
0
ARC
8
DEFAULT_255_1_234
10
13.5715345
20
54.5373504
40
0.1587906
50
306.3943566
51
355.3030547
0
ARC
8
DEFAULT_255_1_234
10
13.5203276
20
54.5450113
40
0.2104809
50
354.3660432
51
0.0698737
0
ARC
8
DEFAULT_255_1_234
10
13.5345621
20
54.5472617
40
0.1962563
50
359.417946
51
16.1971788
0
ARC
8
DEFAULT_255_1_234
10
13.5800932
20
54.5597418
40
0.149053
50
16.4723299
51
52.6262157
0
ARC
8
DEFAULT_255_1_234
10
13.4979986
20
54.4513433
40
0.2850296
50
52.7386432
51
62.4979148
0
ARC
8
DEFAULT_255_1_234
10
13.3595063
20
54.1907283
40
0.5801521
50
62.2515216
51
68.1220564
0
ARC
8
DEFAULT_255_1_234
10
13.1874973
20
53.7679872
40
1.0365451
50
68.0062803
51
71.8053402
0
ARC
8
DEFAULT_255_1_234
10
13.0079345
20
53.2294758
40
1.6042013
50
71.7183119
51
73.9258742
0
LINE
8
DEFAULT_255_1_234
10
14.0223604
20
54.6601218
11
14.0223604
21
54.6874297
0
LINE
8
DEFAULT_255_1_234
10
14.759674
20
54.7034932
11
14.759674
21
54.6416488
0
LINE
8
DEFAULT_255_1_234
10
14.759674
20
54.6416488
11
14.1709476
21
54.6416488
0
LINE
8
DEFAULT_255_1_234
10
14.6576709
20
54.4721792
11
14.7484295
21
54.4014999
0
LINE
8
DEFAULT_255_1_234
10
14.1757666
20
54.7637313
11
14.6110868
21
54.7637313
0
LINE
8
DEFAULT_255_1_234
10
14.6110868
20
54.7637313
11
14.6110868
21
54.7749757
0
ARC
8
DEFAULT_255_1_234
10
14.4162969
20
54.6712332
40
0.4376191
50
252.3266134
51
270.5810217
0
ARC
8
DEFAULT_255_1_234
10
14.3958058
20
54.5971644
40
0.3608374
50
223.3000567
51
251.8561855
0
ARC
8
DEFAULT_255_1_234
10
14.4169419
20
54.6176937
40
0.3902993
50
190.9374509
51
223.3654032
0
ARC
8
DEFAULT_255_1_234
10
14.5894391
20
54.6566885
40
0.5670891
50
179.6531105
51
191.4989439
0
ARC
8
DEFAULT_255_1_234
10
14.6016403
20
54.6906417
40
0.5792888
50
167.4007466
51
180.3176909
0
ARC
8
DEFAULT_255_1_234
10
14.4964465
20
54.7128885
40
0.471777
50
154.1835823
51
167.250763
0
ARC
8
DEFAULT_255_1_234
10
14.4332932
20
54.7461417
40
0.4004528
50
134.3149965
51
154.5315275
0
ARC
8
DEFAULT_255_1_234
10
14.4115427
20
54.7652228
40
0.371612
50
122.8616532
51
133.9707695
0
ARC
8
DEFAULT_255_1_234
10
14.4012002
20
54.7874703
40
0.3473289
50
89.8249009
51
123.4199222
0
ARC
8
DEFAULT_255_1_234
10
14.4062043
20
54.7227967
40
0.4120197
50
74.7876118
51
90.5482747
0
ARC
8
DEFAULT_255_1_234
10
14.4355786
20
54.831303
40
0.2996077
50
39.8178249
51
74.7633718
0
ARC
8
DEFAULT_255_1_234
10
14.3843106
20
54.7913351
40
0.3645855
50
16.8990863
51
39.4829761
0
ARC
8
DEFAULT_255_1_234
10
14.1948402
20
54.7306526
40
0.5635218
50
4.9636328
51
17.2026414
0
ARC
8
DEFAULT_255_1_234
10
13.9530473
20
54.705134
40
0.8066286
50
359.8834553
51
5.2834307
0
ARC
8
DEFAULT_255_1_234
10
14.5567997
20
54.6482803
40
0.3859091
50
180.9846213
51
194.9401313
0
ARC
8
DEFAULT_255_1_234
10
14.4518275
20
54.6195849
40
0.2770883
50
194.80314
51
222.0412631
0
ARC
8
DEFAULT_255_1_234
10
14.4214157
20
54.5894116
40
0.2343055
50
221.5417084
51
268.8614402
0
ARC
8
DEFAULT_255_1_234
10
14.4287151
20
54.6570686
40
0.3021528
50
267.732405
51
270.0097136
0
ARC
8
DEFAULT_255_1_234
10
14.4304962
20
54.6772105
40
0.3222994
50
269.6924892
51
280.4117579
0
ARC
8
DEFAULT_255_1_234
10
14.4481368
20
54.5853193
40
0.2287344
50
280.2255091
51
298.6338936
0
ARC
8
DEFAULT_255_1_234
10
14.459816
20
54.5609223
40
0.2017294
50
299.0430333
51
300.4643464
0
ARC
8
DEFAULT_255_1_234
10
14.3918166
20
54.6743038
40
0.3339357
50
300.6577328
51
322.0378878
0
ARC
8
DEFAULT_255_1_234
10
14.3567705
20
54.7047021
40
0.3802736
50
321.6750233
51
322.3046845
0
ARC
8
DEFAULT_255_1_234
10
14.4498666
20
54.588037
40
0.3520454
50
276.9728461
51
328.0035423
0
ARC
8
DEFAULT_255_1_234
10
14.4221719
20
54.7360841
40
0.5024498
50
269.8361028
51
278.0581756
0
ARC
8
DEFAULT_255_1_234
10
14.3994456
20
54.8105757
40
0.202159
50
89.2018686
51
117.2851756
0
ARC
8
DEFAULT_255_1_234
10
14.4047625
20
54.8063752
40
0.2083484
50
118.0551165
51
137.4540413
0
ARC
8
DEFAULT_255_1_234
10
14.4422365
20
54.7723304
40
0.2589774
50
137.5109581
51
158.8516286
0
ARC
8
DEFAULT_255_1_234
10
14.5560201
20
54.7264074
40
0.38167
50
158.5845963
51
170.1721436
0
ARC
8
DEFAULT_255_1_234
10
14.672959
20
54.7031823
40
0.5008657
50
169.8376422
51
173.0566086
0
ARC
8
DEFAULT_255_1_234
10
14.2032664
20
54.7542509
40
0.4083467
50
2.9091802
51
12.8847116
0
ARC
8
DEFAULT_255_1_234
10
14.3403341
20
54.7865101
40
0.2675383
50
12.6957781
51
28.6404489
0
ARC
8
DEFAULT_255_1_234
10
14.3945011
20
54.8145458
40
0.2065654
50
29.0169854
51
41.1487595
0
ARC
8
DEFAULT_255_1_234
10
14.4147797
20
54.8322003
40
0.1796786
50
41.1646065
51
85.0013516
0
ARC
8
DEFAULT_255_1_234
10
14.4026893
20
54.7587431
40
0.2539726
50
83.7280015
51
90.0964893
0
LINE
8
DEFAULT_255_1_234
10
15.3516131
20
55.1235531
11
15.3516131
21
54.9854072
0
LINE
8
DEFAULT_255_1_234
10
15.0801403
20
54.8665375
11
15.0801403
21
54.2497
0
LINE
8
DEFAULT_255_1_234
10
15.0801403
20
54.2497
11
14.9315532
21
54.2497
0
LINE
8
DEFAULT_255_1_234
10
14.9315532
20
54.2497
11
14.9315532
21
55.1187341
0
LINE
8
DEFAULT_255_1_234
10
14.9315532
20
55.1187341
11
15.0761245
21
55.1187341
0
LINE
8
DEFAULT_255_1_234
10
15.0761245
20
55.1187341
11
15.078534
21
55.0183374
0
ARC
8
DEFAULT_255_1_234
10
15.2849536
20
54.5794342
40
0.4114092
50
80.6754243
51
86.8932892
0
ARC
8
DEFAULT_255_1_234
10
15.2789071
20
54.48267
40
0.5083596
50
86.8038578
51
90.0431435
0
ARC
8
DEFAULT_255_1_234
10
15.2752051
20
54.7283866
40
0.2626638
50
89.2759698
51
106.6213787
0
ARC
8
DEFAULT_255_1_234
10
15.2547615
20
54.802683
40
0.1856317
50
107.1346045
51
157.6458115
0
ARC
8
DEFAULT_255_1_234
10
15.3239217
20
54.7643311
40
0.2643398
50
155.6586782
51
157.2539184
0
ARC
8
DEFAULT_255_1_234
10
15.3034419
20
54.8812157
40
0.2634121
50
127.8165941
51
148.6302098
0
ARC
8
DEFAULT_255_1_234
10
15.2780888
20
54.9072218
40
0.2273596
50
91.3329982
51
126.7875809
0
ARC
8
DEFAULT_255_1_234
10
15.2856829
20
54.8357195
40
0.299078
50
89.986594
51
92.4688449
0
ARC
8
DEFAULT_255_1_234
10
15.2865223
20
54.8632078
40
0.2715908
50
85.3589899
51
90.1623399
0
ARC
8
DEFAULT_255_1_234
10
15.2949739
20
54.9636164
40
0.1708278
50
78.401942
51
85.4594656
0
ARC
8
DEFAULT_255_1_234
10
15.3094623
20
55.0327236
40
0.1002194
50
67.7858312
51
78.5728455
0
ARC
8
DEFAULT_255_1_234
10
15.3202476
20
55.0606887
40
0.0702548
50
63.4835954
51
67.3062642
0
LINE
8
DEFAULT_255_1_234
10
15.6495906
20
55.1187341
11
15.6495906
21
54.2497
0
LINE
8
DEFAULT_255_1_234
10
15.6495906
20
54.2497
11
15.5010034
21
54.2497
0
LINE
8
DEFAULT_255_1_234
10
15.5010034
20
54.2497
11
15.5010034
21
55.1187341
0
LINE
8
DEFAULT_255_1_234
10
15.5010034
20
55.1187341
11
15.6495906
21
55.1187341
0
ARC
8
DEFAULT_255_1_234
10
15.5868183
20
55.3501889
40
0.097867
50
161.415052
51
180.5526306
0
ARC
8
DEFAULT_255_1_234
10
15.5743961
20
55.3536077
40
0.0850062
50
138.1827368
51
160.9307106
0
ARC
8
DEFAULT_255_1_234
10
15.5633907
20
55.3631588
40
0.0704362
50
104.6368899
51
138.0039868
0
ARC
8
DEFAULT_255_1_234
10
15.5741061
20
55.3264963
40
0.1086221
50
92.0600725
51
105.2189128
0
ARC
8
DEFAULT_255_1_234
10
15.576441
20
55.2922117
40
0.1429728
50
89.9756393
51
92.5012496
0
ARC
8
DEFAULT_255_1_234
10
15.5774429
20
55.3147731
40
0.1204151
50
78.0235316
51
90.4478182
0
ARC
8
DEFAULT_255_1_234
10
15.5866521
20
55.3561295
40
0.0780493
50
55.051506
51
78.3369085
0
ARC
8
DEFAULT_255_1_234
10
15.5916795
20
55.3645711
40
0.0682538
50
42.0501187
51
54.4513741
0
ARC
8
DEFAULT_255_1_234
10
15.5781663
20
55.3521798
40
0.0865878
50
1.7497075
51
42.1496013
0
ARC
8
DEFAULT_255_1_234
10
15.5526995
20
55.3492738
40
0.1121515
50
359.9852656
51
2.8364544
0
ARC
8
DEFAULT_255_1_234
10
15.5692988
20
55.3483229
40
0.0955566
50
342.1070653
51
0.552888
0
ARC
8
DEFAULT_255_1_234
10
15.5835685
20
55.3443904
40
0.0807713
50
316.7107116
51
341.6516965
0
ARC
8
DEFAULT_255_1_234
10
15.5902722
20
55.3383823
40
0.0717724
50
285.4397031
51
316.5324284
0
ARC
8
DEFAULT_255_1_234
10
15.5792639
20
55.3749554
40
0.1099597
50
272.3547054
51
285.8953117
0
ARC
8
DEFAULT_255_1_234
10
15.5765797
20
55.4115048
40
0.1465932
50
269.9695369
51
272.8160237
0
ARC
8
DEFAULT_255_1_234
10
15.5755979
20
55.3895863
40
0.1246779
50
258.8431134
51
270.4153935
0
ARC
8
DEFAULT_255_1_234
10
15.5666021
20
55.3460414
40
0.0802162
50
238.5431189
51
259.1288175
0
ARC
8
DEFAULT_255_1_234
10
15.5597906
20
55.3336856
40
0.0661247
50
222.5062634
51
237.9906969
0
ARC
8
DEFAULT_255_1_234
10
15.5725493
20
55.3452889
40
0.0833707
50
184.1069131
51
222.460413
0
ARC
8
DEFAULT_255_1_234
10
15.5994734
20
55.3491349
40
0.1105176
50
179.9429482
51
185.0960898
0
LINE
8
DEFAULT_255_1_234
10
15.8495809
20
54.6601218
11
15.8495809
21
54.6874297
0
LINE
8
DEFAULT_255_1_234
10
16.5868944
20
54.7034932
11
16.5868944
21
54.6416488
0
LINE
8
DEFAULT_255_1_234
10
16.5868944
20
54.6416488
11
15.998168
21
54.6416488
0
LINE
8
DEFAULT_255_1_234
10
16.4848914
20
54.4721792
11
16.57565
21
54.4014999
0
LINE
8
DEFAULT_255_1_234
10
16.0029871
20
54.7637313
11
16.4383073
21
54.7637313
0
LINE
8
DEFAULT_255_1_234
10
16.4383073
20
54.7637313
11
16.4383073
21
54.7749757
0
ARC
8
DEFAULT_255_1_234
10
16.2435174
20
54.6712332
40
0.4376191
50
252.3266134
51
270.5810217
0
ARC
8
DEFAULT_255_1_234
10
16.2230263
20
54.5971644
40
0.3608374
50
223.3000567
51
251.8561855
0
ARC
8
DEFAULT_255_1_234
10
16.2441623
20
54.6176937
40
0.3902993
50
190.9374509
51
223.3654032
0
ARC
8
DEFAULT_255_1_234
10
16.4166596
20
54.6566885
40
0.5670891
50
179.6531105
51
191.4989439
0
ARC
8
DEFAULT_255_1_234
10
16.4288608
20
54.6906417
40
0.5792888
50
167.4007466
51
180.3176909
0
ARC
8
DEFAULT_255_1_234
10
16.3236669
20
54.7128885
40
0.471777
50
154.1835823
51
167.250763
0
ARC
8
DEFAULT_255_1_234
10
16.2605137
20
54.7461417
40
0.4004528
50
134.3149965
51
154.5315275
0
ARC
8
DEFAULT_255_1_234
10
16.2387632
20
54.7652228
40
0.371612
50
122.8616532
51
133.9707695
0
ARC
8
DEFAULT_255_1_234
10
16.2284206
20
54.7874703
40
0.3473289
50
89.8249009
51
123.4199222
0
ARC
8
DEFAULT_255_1_234
10
16.2334247
20
54.7227967
40
0.4120197
50
74.7876118
51
90.5482747
0
ARC
8
DEFAULT_255_1_234
10
16.2627991
20
54.831303
40
0.2996077
50
39.8178249
51
74.7633718
0
ARC
8
DEFAULT_255_1_234
10
16.2115311
20
54.7913351
40
0.3645855
50
16.8990863
51
39.4829761
0
ARC
8
DEFAULT_255_1_234
10
16.0220607
20
54.7306526
40
0.5635218
50
4.9636328
51
17.2026414
0
ARC
8
DEFAULT_255_1_234
10
15.7802677
20
54.705134
40
0.8066286
50
359.8834553
51
5.2834307
0
ARC
8
DEFAULT_255_1_234
10
16.3840202
20
54.6482803
40
0.3859091
50
180.9846213
51
194.9401313
0
ARC
8
DEFAULT_255_1_234
10
16.279048
20
54.6195849
40
0.2770883
50
194.80314
51
222.0412631
0
ARC
8
DEFAULT_255_1_234
10
16.2486361
20
54.5894116
40
0.2343055
50
221.5417084
51
268.8614402
0
ARC
8
DEFAULT_255_1_234
10
16.2559356
20
54.6570686
40
0.3021528
50
267.732405
51
270.0097136
0
ARC
8
DEFAULT_255_1_234
10
16.2577166
20
54.6772105
40
0.3222994
50
269.6924892
51
280.4117579
0
ARC
8
DEFAULT_255_1_234
10
16.2753573
20
54.5853193
40
0.2287344
50
280.2255091
51
298.6338936
0
ARC
8
DEFAULT_255_1_234
10
16.2870365
20
54.5609223
40
0.2017294
50
299.0430333
51
300.4643464
0
ARC
8
DEFAULT_255_1_234
10
16.219037
20
54.6743038
40
0.3339357
50
300.6577328
51
322.0378878
0
ARC
8
DEFAULT_255_1_234
10
16.1839909
20
54.7047021
40
0.3802736
50
321.6750233
51
322.3046845
0
ARC
8
DEFAULT_255_1_234
10
16.2770871
20
54.588037
40
0.3520454
50
276.9728461
51
328.0035423
0
ARC
8
DEFAULT_255_1_234
10
16.2493924
20
54.7360841
40
0.5024498
50
269.8361028
51
278.0581756
0
ARC
8
DEFAULT_255_1_234
10
16.2266661
20
54.8105757
40
0.202159
50
89.2018686
51
117.2851756
0
ARC
8
DEFAULT_255_1_234
10
16.231983
20
54.8063752
40
0.2083484
50
118.0551165
51
137.4540413
0
ARC
8
DEFAULT_255_1_234
10
16.269457
20
54.7723304
40
0.2589774
50
137.5109581
51
158.8516286
0
ARC
8
DEFAULT_255_1_234
10
16.3832405
20
54.7264074
40
0.38167
50
158.5845963
51
170.1721436
0
ARC
8
DEFAULT_255_1_234
10
16.5001795
20
54.7031823
40
0.5008657
50
169.8376422
51
173.0566086
0
ARC
8
DEFAULT_255_1_234
10
16.0304869
20
54.7542509
40
0.4083467
50
2.9091802
51
12.8847116
0
ARC
8
DEFAULT_255_1_234
10
16.1675545
20
54.7865101
40
0.2675383
50
12.6957781
51
28.6404489
0
ARC
8
DEFAULT_255_1_234
10
16.2217216
20
54.8145458
40
0.2065654
50
29.0169854
51
41.1487595
0
ARC
8
DEFAULT_255_1_234
10
16.2420001
20
54.8322003
40
0.1796786
50
41.1646065
51
85.0013516
0
ARC
8
DEFAULT_255_1_234
10
16.2299098
20
54.7587431
40
0.2539726
50
83.7280015
51
90.0964893
0
LINE
8
DEFAULT_255_1_234
10
17.4053286
20
54.8633248
11
17.2559382
21
54.8633248
0
LINE
8
DEFAULT_255_1_234
10
16.7226308
20
54.5171569
11
16.871218
21
54.5171569
0
ARC
8
DEFAULT_255_1_234
10
17.1371201
20
54.4816959
40
0.1276617
50
359.3334982
51
18.5871358
0
ARC
8
DEFAULT_255_1_234
10
17.1579838
20
54.4872133
40
0.1061371
50
19.3540742
51
54.6485071
0
ARC
8
DEFAULT_255_1_234
10
17.107574
20
54.4176919
40
0.1920087
50
54.3827097
51
65.0622807
0
ARC
8
DEFAULT_255_1_234
10
17.0307137
20
54.25599
40
0.3710447
50
64.8282493
51
71.4200025
0
ARC
8
DEFAULT_255_1_234
10
16.9405012
20
53.9913107
40
0.6506741
50
71.3164301
51
75.8006402
0
ARC
8
DEFAULT_255_1_234
10
16.8563832
20
53.6672561
40
0.9854641
50
75.6809531
51
78.0061883
0
ARC
8
DEFAULT_255_1_234
10
17.3012365
20
55.765177
40
1.1591028
50
254.6901892
51
258.0466452
0
ARC
8
DEFAULT_255_1_234
10
17.1974273
20
55.3892781
40
0.7691345
50
249.9010773
51
254.755261
0
ARC
8
DEFAULT_255_1_234
10
17.0970616
20
55.1166982
40
0.478665
50
243.3097214
51
249.9709442
0
ARC
8
DEFAULT_255_1_234
10
17.0341637
20
54.9912778
40
0.3383568
50
234.4047477
51
243.2862168
0
ARC
8
DEFAULT_255_1_234
10
16.971916
20
54.9053232
40
0.2322322
50
220.8667099
51
234.5493881
0
ARC
8
DEFAULT_255_1_234
10
16.9377101
20
54.8741817
40
0.1859923
50
214.3062465
51
220.5065136
0
ARC
8
DEFAULT_255_1_234
10
16.935118
20
54.871088
40
0.1821108
50
186.912965
51
213.9618616
0
ARC
8
DEFAULT_255_1_234
10
16.9883275
20
54.8797009
40
0.2359799
50
179.8808832
51
187.4339886
0
ARC
8
DEFAULT_255_1_234
10
16.9728409
20
54.8817088
40
0.2204978
50
132.005434
51
180.3942919
0
ARC
8
DEFAULT_255_1_234
10
17.0385022
20
54.8211083
40
0.3095791
50
129.2319861
51
133.5302299
0
ARC
8
DEFAULT_255_1_234
10
17.043853
20
54.8116928
40
0.3202615
50
100.4410011
51
128.9081242
0
ARC
8
DEFAULT_255_1_234
10
17.0712414
20
54.6831455
40
0.4516583
50
89.6985377
51
100.9026564
0
ARC
8
DEFAULT_255_1_234
10
17.0769456
20
54.6671166
40
0.4676928
50
77.6965325
51
90.4076836
0
ARC
8
DEFAULT_255_1_234
10
17.110044
20
54.8098413
40
0.3211988
50
50.7276602
51
78.0399361
0
ARC
8
DEFAULT_255_1_234
10
17.1544898
20
54.8616296
40
0.2529778
50
25.7545084
51
51.0957453
0
ARC
8
DEFAULT_255_1_234
10
17.1546123
20
54.8666206
40
0.250738
50
359.2468627
51
24.7394243
0
ARC
8
DEFAULT_255_1_234
10
17.1261575
20
54.8637664
40
0.1297815
50
359.8050318
51
45.1544908
0
ARC
8
DEFAULT_255_1_234
10
17.0854717
20
54.8289794
40
0.1831883
50
43.8047702
51
49.6271585
0
ARC
8
DEFAULT_255_1_234
10
17.0862618
20
54.8290678
40
0.18261
50
49.7980766
51
82.1218353
0
ARC
8
DEFAULT_255_1_234
10
17.074359
20
54.7643998
40
0.2483163
50
81.4465357
51
90.1710293
0
ARC
8
DEFAULT_255_1_234
10
17.0719193
20
54.711788
40
0.300932
50
89.6766211
51
99.1264602
0
ARC
8
DEFAULT_255_1_234
10
17.0547655
20
54.8151537
40
0.1961547
50
98.968313
51
113.4570237
0
ARC
8
DEFAULT_255_1_234
10
17.035174
20
54.8619965
40
0.1453859
50
113.722589
51
127.4763106
0
ARC
8
DEFAULT_255_1_234
10
17.0183386
20
54.8820124
40
0.1192639
50
126.9083309
51
150.3165862
0
ARC
8
DEFAULT_255_1_234
10
17.0135719
20
54.8870981
40
0.112623
50
151.3635175
51
180.0701457
0
ARC
8
DEFAULT_255_1_234
10
17.0444504
20
54.884999
40
0.1435149
50
179.2169974
51
179.9954013
0
ARC
8
DEFAULT_255_1_234
10
17.0083561
20
54.8837056
40
0.1074286
50
179.3040112
51
198.4225446
0
ARC
8
DEFAULT_255_1_234
10
16.9891694
20
54.8787127
40
0.0876573
50
199.2895851
51
238.6034594
0
ARC
8
DEFAULT_255_1_234
10
17.0494541
20
54.973345
40
0.1998512
50
237.9846301
51
246.8744712
0
ARC
8
DEFAULT_255_1_234
10
17.1352486
20
55.1696205
40
0.4140547
50
246.6234531
51
251.8168941
0
ARC
8
DEFAULT_255_1_234
10
17.2383029
20
55.4790905
40
0.7402308
50
251.713434
51
255.0778414
0
ARC
8
DEFAULT_255_1_234
10
17.3582292
20
55.9257563
40
1.2027155
50
255.0367487
51
257.4705983
0
ARC
8
DEFAULT_255_1_234
10
16.8474302
20
53.6243863
40
1.1546601
50
73.6837552
51
77.5016755
0
ARC
8
DEFAULT_255_1_234
10
16.9563077
20
53.9943581
40
0.7690009
50
68.7044154
51
73.7249639
0
ARC
8
DEFAULT_255_1_234
10
17.0466098
20
54.2270654
40
0.5193873
50
63.590599
51
68.6626804
0
ARC
8
DEFAULT_255_1_234
10
17.1237116
20
54.3808123
40
0.3473927
50
54.7106439
51
63.7013633
0
ARC
8
DEFAULT_255_1_234
10
17.1861571
20
54.46804
40
0.2401192
50
41.0622434
51
54.8487496
0
ARC
8
DEFAULT_255_1_234
10
17.2202957
20
54.4993592
40
0.1938094
50
34.4950568
51
40.7105546
0
ARC
8
DEFAULT_255_1_234
10
17.2249765
20
54.5042078
40
0.1872106
50
9.3763373
51
34.0833615
0
ARC
8
DEFAULT_255_1_234
10
17.1596635
20
54.4916728
40
0.2536988
50
359.7694872
51
9.7663171
0
ARC
8
DEFAULT_255_1_234
10
17.1794136
20
54.4873764
40
0.2339696
50
335.8654732
51
0.8022045
0
ARC
8
DEFAULT_255_1_234
10
17.186918
20
54.4887197
40
0.2277108
50
307.7357725
51
334.7849066
0
ARC
8
DEFAULT_255_1_234
10
17.1468356
20
54.5337645
40
0.2878951
50
307.0241536
51
308.5578354
0
ARC
8
DEFAULT_255_1_234
10
17.1210687
20
54.5723801
40
0.3342515
50
282.9362969
51
306.5646424
0
ARC
8
DEFAULT_255_1_234
10
17.0848985
20
54.7191108
40
0.4853615
50
271.1026298
51
283.2200835
0
ARC
8
DEFAULT_255_1_234
10
17.0785229
20
54.8432418
40
0.6096052
50
269.9919117
51
271.4772449
0
ARC
8
DEFAULT_255_1_234
10
17.0758984
20
54.7354436
40
0.5018135
50
259.0723564
51
270.289833
0
ARC
8
DEFAULT_255_1_234
10
17.0546716
20
54.6237271
40
0.388099
50
245.4963068
51
259.0227342
0
ARC
8
DEFAULT_255_1_234
10
17.0268672
20
54.5655615
40
0.3236422
50
228.9684658
51
245.7044727
0
ARC
8
DEFAULT_255_1_234
10
17.0003116
20
54.5328575
40
0.2815426
50
214.4011705
51
228.6759915
0
ARC
8
DEFAULT_255_1_234
10
16.9713857
20
54.517029
40
0.2487548
50
179.9705531
51
215.1572795
0
ARC
8
DEFAULT_255_1_234
10
17.0414456
20
54.5243806
40
0.1703809
50
182.4299387
51
203.0329699
0
ARC
8
DEFAULT_255_1_234
10
17.0230114
20
54.5187396
40
0.1512226
50
203.798802
51
232.548466
0
ARC
8
DEFAULT_255_1_234
10
17.0506635
20
54.5538826
40
0.1959374
50
232.3782728
51
256.3934612
0
ARC
8
DEFAULT_255_1_234
10
17.0736997
20
54.6428842
40
0.2878639
50
256.104506
51
268.4626716
0
ARC
8
DEFAULT_255_1_234
10
17.0783481
20
54.7225487
40
0.3676329
50
268.0715632
51
270.0138206
0
ARC
8
DEFAULT_255_1_234
10
17.0802006
20
54.6953083
40
0.3403971
50
269.7031147
51
278.8341955
0
ARC
8
DEFAULT_255_1_234
10
17.0984099
20
54.5822876
40
0.2259217
50
278.6728789
51
292.8232582
0
ARC
8
DEFAULT_255_1_234
10
17.1184638
20
54.5321449
40
0.171929
50
293.1452328
51
303.6655899
0
ARC
8
DEFAULT_255_1_234
10
17.1449516
20
54.4945204
40
0.1259367
50
303.1248165
51
321.742847
0
ARC
8
DEFAULT_255_1_234
10
17.1635397
20
54.4782156
40
0.1012531
50
322.4748573
51
1.1291126
0
LINE
8
DEFAULT_255_1_234
10
4.9274119
20
52.3866792
11
4.9274119
21
52.2654
0
LINE
8
DEFAULT_255_1_234
10
4.9274119
20
52.2654
11
4.161184
21
52.2654
0
LINE
8
DEFAULT_255_1_234
10
4.161184
20
52.2654
11
4.161184
21
52.3722221
0
LINE
8
DEFAULT_255_1_234
10
4.161184
20
52.3722221
11
4.5659836
21
52.8219995
0
LINE
8
DEFAULT_255_1_234
10
4.2872823
20
53.0902595
11
4.1386952
21
53.0902595
0
LINE
8
DEFAULT_255_1_234
10
4.6535296
20
52.7264218
11
4.3402918
21
52.3866792
0
LINE
8
DEFAULT_255_1_234
10
4.3402918
20
52.3866792
11
4.9274119
21
52.3866792
0
ARC
8
DEFAULT_255_1_234
10
3.216967
20
54.0149527
40
1.8008286
50
318.5132453
51
320.7828378
0
ARC
8
DEFAULT_255_1_234
10
3.7456644
20
53.5846426
40
1.1191493
50
320.7372736
51
323.9737074
0
ARC
8
DEFAULT_255_1_234
10
4.1376501
20
53.3006361
40
0.6350923
50
323.8961724
51
328.6421089
0
ARC
8
DEFAULT_255_1_234
10
4.3423096
20
53.1744031
40
0.3946393
50
328.8299013
51
331.789948
0
ARC
8
DEFAULT_255_1_234
10
4.4420274
20
53.1229509
40
0.2824501
50
331.4255242
51
352.9364833
0
ARC
8
DEFAULT_255_1_234
10
4.4556775
20
53.1198976
40
0.2685315
50
353.2248685
51
0.0169286
0
ARC
8
DEFAULT_255_1_234
10
4.4766652
20
53.122195
40
0.2475536
50
359.4866256
51
15.9339782
0
ARC
8
DEFAULT_255_1_234
10
4.5273637
20
53.1358286
40
0.1950618
50
16.1714718
51
43.5284424
0
ARC
8
DEFAULT_255_1_234
10
4.5350946
20
53.1435573
40
0.184134
50
43.4415429
51
83.1661404
0
ARC
8
DEFAULT_255_1_234
10
4.5216864
20
53.0698771
40
0.258926
50
82.160215
51
90.1505798
0
ARC
8
DEFAULT_255_1_234
10
4.5185291
20
53.0161865
40
0.3126255
50
89.5460705
51
102.5418777
0
ARC
8
DEFAULT_255_1_234
10
4.4942377
20
53.1192665
40
0.2067346
50
102.1739365
51
129.2061916
0
ARC
8
DEFAULT_255_1_234
10
4.4863449
20
53.1317094
40
0.1921118
50
129.7279328
51
135.7542026
0
ARC
8
DEFAULT_255_1_234
10
4.4984977
20
53.1220045
40
0.2075944
50
136.175737
51
166.3674722
0
ARC
8
DEFAULT_255_1_234
10
4.5991896
20
53.0950182
40
0.3118201
50
165.9092917
51
178.8683903
0
ARC
8
DEFAULT_255_1_234
10
4.6856757
20
53.0903179
40
0.3983935
50
178.438168
51
180.0083905
0
ARC
8
DEFAULT_255_1_234
10
4.5455359
20
53.0942231
40
0.4068601
50
163.2878735
51
180.5581814
0
ARC
8
DEFAULT_255_1_234
10
4.4653621
20
53.116284
40
0.3237344
50
133.454115
51
162.9470031
0
ARC
8
DEFAULT_255_1_234
10
4.4832162
20
53.0973
40
0.349795
50
100.7869394
51
133.4384016
0
ARC
8
DEFAULT_255_1_234
10
4.5179934
20
52.9424319
40
0.5084616
50
89.6605301
51
101.3704185
0
ARC
8
DEFAULT_255_1_234
10
4.5246273
20
52.9485496
40
0.502348
50
78.2171172
51
90.4130393
0
ARC
8
DEFAULT_255_1_234
10
4.5601351
20
53.1109637
40
0.3361092
50
55.9268222
51
78.4888551
0
ARC
8
DEFAULT_255_1_234
10
4.5797791
20
53.1448324
40
0.2970617
50
47.9292255
51
55.4054003
0
ARC
8
DEFAULT_255_1_234
10
4.5899352
20
53.1551502
40
0.2825983
50
4.3347696
51
48.0560701
0
ARC
8
DEFAULT_255_1_234
10
4.4803745
20
53.1381601
40
0.393225
50
359.925209
51
5.5967654
0
ARC
8
DEFAULT_255_1_234
10
4.5232637
20
53.1437816
40
0.3503892
50
337.8914096
51
358.9967724
0
ARC
8
DEFAULT_255_1_234
10
4.2519049
20
53.2484706
40
0.6412172
50
326.9135351
51
338.3505194
0
ARC
8
DEFAULT_255_1_234
10
3.8533353
20
53.5039284
40
1.1146189
50
319.6472867
51
327.095818
0
ARC
8
DEFAULT_255_1_234
10
3.4700356
20
53.8201
40
1.6114559
50
317.2586784
51
319.9046139
0
LINE
8
DEFAULT_255_1_234
10
5.7121127
20
53.4348211
11
5.7121127
21
52.658152
0
LINE
8
DEFAULT_255_1_234
10
5.7121127
20
52.658152
11
5.8743538
21
52.658152
0
LINE
8
DEFAULT_255_1_234
10
5.8743538
20
52.658152
11
5.8743538
21
52.5368728
0
LINE
8
DEFAULT_255_1_234
10
5.8743538
20
52.5368728
11
5.7121127
21
52.5368728
0
LINE
8
DEFAULT_255_1_234
10
5.7121127
20
52.5368728
11
5.7121127
21
52.2654
0
LINE
8
DEFAULT_255_1_234
10
5.7121127
20
52.2654
11
5.5627224
21
52.2654
0
LINE
8
DEFAULT_255_1_234
10
5.5627224
20
52.2654
11
5.5627224
21
52.5368728
0
LINE
8
DEFAULT_255_1_234
10
5.5627224
20
52.5368728
11
5.0302181
21
52.5368728
0
LINE
8
DEFAULT_255_1_234
10
5.0302181
20
52.5368728
11
5.0302181
21
52.6244187
0
LINE
8
DEFAULT_255_1_234
10
5.0302181
20
52.6244187
11
5.5538875
21
53.4348211
0
LINE
8
DEFAULT_255_1_234
10
5.5538875
20
53.4348211
11
5.7121127
21
53.4348211
0
LINE
8
DEFAULT_255_1_234
10
5.5450525
20
53.1994912
11
5.1988846
21
52.658152
0
LINE
8
DEFAULT_255_1_234
10
5.1988846
20
52.658152
11
5.5627224
21
52.658152
0
LINE
8
DEFAULT_255_1_234
10
5.5627224
20
52.658152
11
5.5627224
21
53.2316181
0
LINE
8
DEFAULT_255_1_234
10
5.5627224
20
53.2316181
11
5.5450525
21
53.1994912
0
LINE
8
DEFAULT_255_1_234
10
6.101652
20
53.4348211
11
6.434166
21
52.4702093
0
LINE
8
DEFAULT_255_1_234
10
6.434166
20
52.4702093
11
6.7682863
21
53.4348211
0
LINE
8
DEFAULT_255_1_234
10
6.7682863
20
53.4348211
11
6.9369528
21
53.4348211
0
LINE
8
DEFAULT_255_1_234
10
6.9369528
20
53.4348211
11
6.5032389
21
52.2654
0
LINE
8
DEFAULT_255_1_234
10
6.5032389
20
52.2654
11
6.3666994
21
52.2654
0
LINE
8
DEFAULT_255_1_234
10
6.3666994
20
52.2654
11
5.9337887
21
53.4348211
0
LINE
8
DEFAULT_255_1_234
10
5.9337887
20
53.4348211
11
6.101652
21
53.4348211
0
LINE
8
DEFAULT_255_1_234
10
4.748585
20
5.2829391
11
4.748585
21
5.1568408
0
LINE
8
DEFAULT_255_1_234
10
4.748585
20
5.1568408
11
4.2578458
21
5.1568408
0
LINE
8
DEFAULT_255_1_234
10
4.2578458
20
5.1568408
11
4.2578458
21
4.6404
0
LINE
8
DEFAULT_255_1_234
10
4.2578458
20
4.6404
11
4.1036364
21
4.6404
0
LINE
8
DEFAULT_255_1_234
10
4.1036364
20
4.6404
11
4.1036364
21
5.8098211
0
LINE
8
DEFAULT_255_1_234
10
4.1036364
20
5.8098211
11
4.8280992
21
5.8098211
0
LINE
8
DEFAULT_255_1_234
10
4.8280992
20
5.8098211
11
4.8280992
21
5.6829196
0
LINE
8
DEFAULT_255_1_234
10
4.8280992
20
5.6829196
11
4.2578458
21
5.6829196
0
LINE
8
DEFAULT_255_1_234
10
4.2578458
20
5.6829196
11
4.2578458
21
5.2829391
0
LINE
8
DEFAULT_255_1_234
10
4.2578458
20
5.2829391
11
4.748585
21
5.2829391
0
LINE
8
DEFAULT_255_1_234
10
5.876241
20
5.222701
11
5.876241
21
4.7938062
0
LINE
8
DEFAULT_255_1_234
10
4.97508
20
5.1688884
11
4.97508
21
5.2708915
0
LINE
8
DEFAULT_255_1_234
10
5.876241
20
5.4668659
11
5.7220316
21
5.4668659
0
LINE
8
DEFAULT_255_1_234
10
5.1300925
20
5.2749073
11
5.1300925
21
5.1793296
0
LINE
8
DEFAULT_255_1_234
10
5.7228348
20
4.8347681
11
5.7228348
21
5.0974059
0
LINE
8
DEFAULT_255_1_234
10
5.7228348
20
5.0974059
11
5.4521652
21
5.0974059
0
LINE
8
DEFAULT_255_1_234
10
5.4521652
20
5.0974059
11
5.4521652
21
5.222701
0
LINE
8
DEFAULT_255_1_234
10
5.4521652
20
5.222701
11
5.876241
21
5.222701
0
ARC
8
DEFAULT_255_1_234
10
5.5930916
20
4.9931396
40
0.3462765
50
295.8437914
51
324.8549609
0
ARC
8
DEFAULT_255_1_234
10
5.5514883
20
5.0684567
40
0.4322211
50
291.5695085
51
296.4549398
0
ARC
8
DEFAULT_255_1_234
10
5.5004135
20
5.2049275
40
0.5779178
50
278.6622409
51
291.3045483
0
ARC
8
DEFAULT_255_1_234
10
5.4664626
20
5.4197408
40
0.7953952
50
270.020006
51
278.7494541
0
ARC
8
DEFAULT_255_1_234
10
5.462655
20
5.5514036
40
0.927067
50
269.9969998
51
270.2524872
0
ARC
8
DEFAULT_255_1_234
10
5.4588264
20
5.1430589
40
0.5187361
50
253.5786322
51
270.4175299
0
ARC
8
DEFAULT_255_1_234
10
5.441492
20
5.0759236
40
0.4494451
50
238.8203306
51
253.2788235
0
ARC
8
DEFAULT_255_1_234
10
5.4395293
20
5.0708231
40
0.4440665
50
206.7883783
51
238.6962764
0
ARC
8
DEFAULT_255_1_234
10
5.5169203
20
5.1172405
40
0.5341121
50
206.1129412
51
207.4916643
0
ARC
8
DEFAULT_255_1_234
10
5.5766118
20
5.1426488
40
0.5989041
50
188.6921119
51
205.7821245
0
ARC
8
DEFAULT_255_1_234
10
5.762248
20
5.174223
40
0.7871862
50
180.3882829
51
188.9219216
0
ARC
8
DEFAULT_255_1_234
10
5.8850294
20
5.2765464
40
0.909967
50
170.2024264
51
180.3560651
0
ARC
8
DEFAULT_255_1_234
10
5.5686812
20
5.3331237
40
0.5886083
50
154.2857445
51
170.3893044
0
ARC
8
DEFAULT_255_1_234
10
5.4405015
20
5.391795
40
0.4476743
50
139.8401567
51
153.9332699
0
ARC
8
DEFAULT_255_1_234
10
5.4045751
20
5.4205577
40
0.4016697
50
98.4190291
51
139.6707122
0
ARC
8
DEFAULT_255_1_234
10
5.4425268
20
5.2360328
40
0.5898566
50
89.7659205
51
99.4415478
0
ARC
8
DEFAULT_255_1_234
10
5.4490518
20
5.2425844
40
0.5833147
50
78.0551672
51
90.4042112
0
ARC
8
DEFAULT_255_1_234
10
5.4895028
20
5.4244644
40
0.3970055
50
54.6380464
51
78.3339173
0
ARC
8
DEFAULT_255_1_234
10
5.5085084
20
5.4564795
40
0.3599102
50
50.031736
51
54.1558201
0
ARC
8
DEFAULT_255_1_234
10
5.4977871
20
5.4468766
40
0.3741624
50
18.1092409
51
49.7180913
0
ARC
8
DEFAULT_255_1_234
10
5.3521071
20
5.3935089
40
0.5292424
50
7.9672797
51
18.6984571
0
ARC
8
DEFAULT_255_1_234
10
5.367155
20
5.4058504
40
0.3600838
50
9.7557294
51
27.3215714
0
ARC
8
DEFAULT_255_1_234
10
5.4799021
20
5.4621912
40
0.2340608
50
27.7361077
51
84.5257964
0
ARC
8
DEFAULT_255_1_234
10
5.4471408
20
5.297864
40
0.4011215
50
82.106034
51
90.2001166
0
ARC
8
DEFAULT_255_1_234
10
5.4421625
20
5.3486215
40
0.3503799
50
89.4150119
51
105.5823402
0
ARC
8
DEFAULT_255_1_234
10
5.4164623
20
5.4421867
40
0.2533503
50
105.6678618
51
144.2648758
0
ARC
8
DEFAULT_255_1_234
10
5.5057879
20
5.3786289
40
0.3629787
50
144.3561283
51
162.8564086
0
ARC
8
DEFAULT_255_1_234
10
5.7141788
20
5.3117017
40
0.5818441
50
162.6076014
51
173.6780284
0
ARC
8
DEFAULT_255_1_234
10
6.0202931
20
5.274489
40
0.8902007
50
173.4670142
51
179.9730753
0
ARC
8
DEFAULT_255_1_234
10
5.8294603
20
5.175126
40
0.6993804
50
179.6556203
51
190.0080463
0
ARC
8
DEFAULT_255_1_234
10
5.5978432
20
5.1326375
40
0.4639066
50
189.8116607
51
206.6796816
0
ARC
8
DEFAULT_255_1_234
10
5.5133584
20
5.0932503
40
0.3707421
50
207.1031645
51
217.7074368
0
ARC
8
DEFAULT_255_1_234
10
5.4499273
20
5.0380559
40
0.2868417
50
216.7345547
51
265.6812148
0
ARC
8
DEFAULT_255_1_234
10
5.4630064
20
5.1284855
40
0.3780509
50
264.7366618
51
270.0611241
0
ARC
8
DEFAULT_255_1_234
10
5.4653327
20
5.4125111
40
0.662079
50
269.8335834
51
276.0539546
0
ARC
8
DEFAULT_255_1_234
10
5.4860331
20
5.222356
40
0.4708016
50
275.9894168
51
284.4615085
0
ARC
8
DEFAULT_255_1_234
10
5.5058338
20
5.1390663
40
0.3852094
50
284.7034461
51
286.4953897
0
ARC
8
DEFAULT_255_1_234
10
5.5465352
20
5.0079965
40
0.2479842
50
286.0770838
51
304.2625829
0
ARC
8
DEFAULT_255_1_234
10
5.5598766
20
4.9861594
40
0.2224291
50
304.5891602
51
317.1073298
0
LINE
8
DEFAULT_255_1_234
10
4.8839023
20
13.4091849
11
4.7288897
21
13.4091849
0
LINE
8
DEFAULT_255_1_234
10
4.0365539
20
12.9168394
11
4.1915665
21
12.9168394
0
ARC
8
DEFAULT_255_1_234
10
4.794771
20
14.3038768
40
1.252368
50
248.9199003
51
254.1439814
0
ARC
8
DEFAULT_255_1_234
10
4.6267205
20
13.8712234
40
0.788226
50
241.633709
51
249.0064503
0
ARC
8
DEFAULT_255_1_234
10
4.47386
20
13.5911317
40
0.4691427
50
230.498225
51
241.8087113
0
ARC
8
DEFAULT_255_1_234
10
4.3954174
20
13.4911906
40
0.3421437
50
227.4064532
51
229.9881192
0
ARC
8
DEFAULT_255_1_234
10
4.3466694
20
13.4436088
40
0.2741476
50
200.6781896
51
228.1763934
0
ARC
8
DEFAULT_255_1_234
10
4.3539005
20
13.4421077
40
0.2804109
50
179.5061581
51
199.8694617
0
ARC
8
DEFAULT_255_1_234
10
4.3529757
20
13.449521
40
0.2795204
50
132.4834203
51
181.0242172
0
ARC
8
DEFAULT_255_1_234
10
4.4125339
20
13.3932704
40
0.3612768
50
129.2532479
51
133.4242687
0
ARC
8
DEFAULT_255_1_234
10
4.4271789
20
13.3712965
40
0.3875675
50
101.98776
51
128.8742646
0
ARC
8
DEFAULT_255_1_234
10
4.4670399
20
13.1991741
40
0.5642249
50
89.5906553
51
102.3169264
0
ARC
8
DEFAULT_255_1_234
10
4.4740891
20
13.2310148
40
0.5323783
50
77.2360837
51
90.3248275
0
ARC
8
DEFAULT_255_1_234
10
4.4947971
20
13.32774
40
0.4334697
50
63.837784
51
77.0809408
0
ARC
8
DEFAULT_255_1_234
10
4.5225732
20
13.3794911
40
0.3747796
50
45.9864267
51
64.1607727
0
ARC
8
DEFAULT_255_1_234
10
4.5486614
20
13.4092866
40
0.3352302
50
32.2747395
51
45.6547121
0
ARC
8
DEFAULT_255_1_234
10
4.5553054
20
13.411188
40
0.328603
50
359.6507365
51
32.6130309
0
ARC
8
DEFAULT_255_1_234
10
4.461015
20
13.411666
40
0.2678863
50
359.469343
51
14.9832209
0
ARC
8
DEFAULT_255_1_234
10
4.5315212
20
13.4305539
40
0.1948938
50
14.9781179
51
48.2004265
0
ARC
8
DEFAULT_255_1_234
10
4.5150856
20
13.4098983
40
0.2212521
50
48.5927837
51
74.1241538
0
ARC
8
DEFAULT_255_1_234
10
4.4817346
20
13.2998248
40
0.3362561
50
73.7888341
51
86.6652678
0
ARC
8
DEFAULT_255_1_234
10
4.4714911
20
13.1790881
40
0.4573953
50
86.2640471
51
90.0526343
0
ARC
8
DEFAULT_255_1_234
10
4.4686624
20
13.2186192
40
0.4178709
50
89.6697524
51
99.2309573
0
ARC
8
DEFAULT_255_1_234
10
4.4444075
20
13.3630964
40
0.2713749
50
99.069534
51
113.7658566
0
ARC
8
DEFAULT_255_1_234
10
4.4170266
20
13.4276677
40
0.2012469
50
114.0401004
51
127.9850673
0
ARC
8
DEFAULT_255_1_234
10
4.392983
20
13.457273
40
0.1631167
50
127.7287463
51
176.7105154
0
ARC
8
DEFAULT_255_1_234
10
4.4608547
20
13.4471693
40
0.2315392
50
175.1779447
51
180.0581938
0
ARC
8
DEFAULT_255_1_234
10
4.3765394
20
13.4459428
40
0.1472271
50
179.6142195
51
228.1246017
0
ARC
8
DEFAULT_255_1_234
10
4.4207063
20
13.4868308
40
0.2072299
50
226.5779593
51
230.8800004
0
ARC
8
DEFAULT_255_1_234
10
4.4678141
20
13.5493636
40
0.2854818
50
231.4635071
51
241.9260842
0
ARC
8
DEFAULT_255_1_234
10
4.5875319
20
13.76968
40
0.53622
50
241.7178533
51
248.3259551
0
ARC
8
DEFAULT_255_1_234
10
4.7260691
20
14.1129064
40
0.9063478
50
248.2007737
51
252.4528373
0
ARC
8
DEFAULT_255_1_234
10
4.8464416
20
14.4850441
40
1.2974635
50
252.3391078
51
254.3469452
0
ARC
8
DEFAULT_255_1_234
10
4.0922119
20
11.7873148
40
1.5037162
50
71.0197183
51
74.4087047
0
ARC
8
DEFAULT_255_1_234
10
4.2616804
20
12.2765111
40
0.9859993
50
66.1847285
51
71.086374
0
ARC
8
DEFAULT_255_1_234
10
4.4173116
20
12.62692
40
0.6025855
50
59.3536294
51
66.2691831
0
ARC
8
DEFAULT_255_1_234
10
4.5061769
20
12.7772609
40
0.4279449
50
49.1020879
51
59.3293958
0
ARC
8
DEFAULT_255_1_234
10
4.5880509
20
12.8705834
40
0.3038015
50
32.7919921
51
49.2505539
0
ARC
8
DEFAULT_255_1_234
10
4.6201599
20
12.8934191
40
0.264448
50
31.1181161
51
32.4005348
0
ARC
8
DEFAULT_255_1_234
10
4.6113136
20
12.8898779
40
0.2738556
50
8.1116974
51
30.7958831
0
ARC
8
DEFAULT_255_1_234
10
4.5302804
20
12.8760753
40
0.3560327
50
359.8389159
51
8.4706516
0
ARC
8
DEFAULT_255_1_234
10
4.5928596
20
12.8712137
40
0.2934776
50
337.4731098
51
0.7537279
0
ARC
8
DEFAULT_255_1_234
10
4.6107291
20
12.8692387
40
0.2762607
50
307.5917067
51
336.4315538
0
ARC
8
DEFAULT_255_1_234
10
4.5647119
20
12.9205102
40
0.3449979
50
307.6551545
51
308.4529766
0
ARC
8
DEFAULT_255_1_234
10
4.5416838
20
12.956025
40
0.3871988
50
284.3734338
51
307.1424381
0
ARC
8
DEFAULT_255_1_234
10
4.4921668
20
13.1381932
40
0.5759636
50
272.4382747
51
284.646547
0
ARC
8
DEFAULT_255_1_234
10
4.4794876
20
13.3181893
40
0.7563528
50
269.9708387
51
272.8178037
0
ARC
8
DEFAULT_255_1_234
10
4.4751916
20
13.1143716
40
0.5525489
50
248.2707594
51
270.4055579
0
ARC
8
DEFAULT_255_1_234
10
4.4697657
20
13.0953192
40
0.5328452
50
246.1383403
51
248.0542782
0
ARC
8
DEFAULT_255_1_234
10
4.4279036
20
13.0073843
40
0.4355005
50
233.1670131
51
246.4950969
0
ARC
8
DEFAULT_255_1_234
10
4.3724941
20
12.9325812
40
0.3424126
50
215.3403242
51
233.0843104
0
ARC
8
DEFAULT_255_1_234
10
4.3452372
20
12.9127549
40
0.3087104
50
179.2419209
51
215.2648451
0
ARC
8
DEFAULT_255_1_234
10
4.4219966
20
12.9141666
40
0.2304457
50
179.335461
51
199.1045811
0
ARC
8
DEFAULT_255_1_234
10
4.3887643
20
12.9054766
40
0.1962176
50
199.8828939
51
232.7063202
0
ARC
8
DEFAULT_255_1_234
10
4.4359911
20
12.9648788
40
0.2720938
50
232.3738199
51
255.5136649
0
ARC
8
DEFAULT_255_1_234
10
4.4700778
20
13.0892835
40
0.4010747
50
255.2446292
51
267.5320849
0
ARC
8
DEFAULT_255_1_234
10
4.4788401
20
13.2125702
40
0.5246356
50
267.1557994
51
270.0286766
0
ARC
8
DEFAULT_255_1_234
10
4.4816173
20
13.168195
40
0.4802668
50
269.7000017
51
278.1660162
0
ARC
8
DEFAULT_255_1_234
10
4.5072178
20
12.9951515
40
0.3053425
50
278.0231263
51
290.625471
0
ARC
8
DEFAULT_255_1_234
10
4.5419865
20
12.9024025
40
0.206291
50
290.6619762
51
307.0370976
0
ARC
8
DEFAULT_255_1_234
10
4.5720254
20
12.8655504
40
0.1587906
50
306.3943566
51
355.3030547
0
ARC
8
DEFAULT_255_1_234
10
4.5208186
20
12.8732113
40
0.2104809
50
354.3660432
51
0.0698737
0
ARC
8
DEFAULT_255_1_234
10
4.5350531
20
12.8754617
40
0.1962563
50
359.417946
51
16.1971788
0
ARC
8
DEFAULT_255_1_234
10
4.5805841
20
12.8879418
40
0.149053
50
16.4723299
51
52.6262157
0
ARC
8
DEFAULT_255_1_234
10
4.4984895
20
12.7795433
40
0.2850296
50
52.7386432
51
62.4979148
0
ARC
8
DEFAULT_255_1_234
10
4.3599972
20
12.5189283
40
0.5801521
50
62.2515216
51
68.1220564
0
ARC
8
DEFAULT_255_1_234
10
4.1879883
20
12.0961872
40
1.0365451
50
68.0062803
51
71.8053402
0
ARC
8
DEFAULT_255_1_234
10
4.0084255
20
11.5576758
40
1.6042013
50
71.7183119
51
73.9258742
0
LINE
8
DEFAULT_255_1_234
10
5.9473044
20
13.160201
11
5.9473044
21
12.7313062
0
LINE
8
DEFAULT_255_1_234
10
5.0461434
20
13.1063884
11
5.0461434
21
13.2083915
0
LINE
8
DEFAULT_255_1_234
10
5.9473044
20
13.4043659
11
5.7930951
21
13.4043659
0
LINE
8
DEFAULT_255_1_234
10
5.201156
20
13.2124073
11
5.201156
21
13.1168296
0
LINE
8
DEFAULT_255_1_234
10
5.7938982
20
12.7722681
11
5.7938982
21
13.0349059
0
LINE
8
DEFAULT_255_1_234
10
5.7938982
20
13.0349059
11
5.5232287
21
13.0349059
0
LINE
8
DEFAULT_255_1_234
10
5.5232287
20
13.0349059
11
5.5232287
21
13.160201
0
LINE
8
DEFAULT_255_1_234
10
5.5232287
20
13.160201
11
5.9473044
21
13.160201
0
ARC
8
DEFAULT_255_1_234
10
5.6641551
20
12.9306396
40
0.3462765
50
295.8437914
51
324.8549609
0
ARC
8
DEFAULT_255_1_234
10
5.6225518
20
13.0059567
40
0.4322211
50
291.5695085
51
296.4549398
0
ARC
8
DEFAULT_255_1_234
10
5.5714769
20
13.1424275
40
0.5779178
50
278.6622409
51
291.3045483
0
ARC
8
DEFAULT_255_1_234
10
5.5375261
20
13.3572408
40
0.7953952
50
270.020006
51
278.7494541
0
ARC
8
DEFAULT_255_1_234
10
5.5337185
20
13.4889036
40
0.927067
50
269.9969998
51
270.2524872
0
ARC
8
DEFAULT_255_1_234
10
5.5298898
20
13.0805589
40
0.5187361
50
253.5786322
51
270.4175299
0
ARC
8
DEFAULT_255_1_234
10
5.5125554
20
13.0134236
40
0.4494451
50
238.8203306
51
253.2788235
0
ARC
8
DEFAULT_255_1_234
10
5.5105927
20
13.0083231
40
0.4440665
50
206.7883783
51
238.6962764
0
ARC
8
DEFAULT_255_1_234
10
5.5879837
20
13.0547405
40
0.5341121
50
206.1129412
51
207.4916643
0
ARC
8
DEFAULT_255_1_234
10
5.6476752
20
13.0801488
40
0.5989041
50
188.6921119
51
205.7821245
0
ARC
8
DEFAULT_255_1_234
10
5.8333114
20
13.111723
40
0.7871862
50
180.3882829
51
188.9219216
0
ARC
8
DEFAULT_255_1_234
10
5.9560928
20
13.2140464
40
0.909967
50
170.2024264
51
180.3560651
0
ARC
8
DEFAULT_255_1_234
10
5.6397446
20
13.2706237
40
0.5886083
50
154.2857445
51
170.3893044
0
ARC
8
DEFAULT_255_1_234
10
5.5115649
20
13.329295
40
0.4476743
50
139.8401567
51
153.9332699
0
ARC
8
DEFAULT_255_1_234
10
5.4756385
20
13.3580577
40
0.4016697
50
98.4190291
51
139.6707122
0
ARC
8
DEFAULT_255_1_234
10
5.5135903
20
13.1735328
40
0.5898566
50
89.7659205
51
99.4415478
0
ARC
8
DEFAULT_255_1_234
10
5.5201152
20
13.1800844
40
0.5833147
50
78.0551672
51
90.4042112
0
ARC
8
DEFAULT_255_1_234
10
5.5605662
20
13.3619644
40
0.3970055
50
54.6380464
51
78.3339173
0
ARC
8
DEFAULT_255_1_234
10
5.5795718
20
13.3939795
40
0.3599102
50
50.031736
51
54.1558201
0
ARC
8
DEFAULT_255_1_234
10
5.5688506
20
13.3843766
40
0.3741624
50
18.1092409
51
49.7180913
0
ARC
8
DEFAULT_255_1_234
10
5.4231706
20
13.3310089
40
0.5292424
50
7.9672797
51
18.6984571
0
ARC
8
DEFAULT_255_1_234
10
5.4382184
20
13.3433504
40
0.3600838
50
9.7557294
51
27.3215714
0
ARC
8
DEFAULT_255_1_234
10
5.5509656
20
13.3996912
40
0.2340608
50
27.7361077
51
84.5257964
0
ARC
8
DEFAULT_255_1_234
10
5.5182043
20
13.235364
40
0.4011215
50
82.106034
51
90.2001166
0
ARC
8
DEFAULT_255_1_234
10
5.513226
20
13.2861215
40
0.3503799
50
89.4150119
51
105.5823402
0
ARC
8
DEFAULT_255_1_234
10
5.4875258
20
13.3796867
40
0.2533503
50
105.6678618
51
144.2648758
0
ARC
8
DEFAULT_255_1_234
10
5.5768513
20
13.3161289
40
0.3629787
50
144.3561283
51
162.8564086
0
ARC
8
DEFAULT_255_1_234
10
5.7852422
20
13.2492017
40
0.5818441
50
162.6076014
51
173.6780284
0
ARC
8
DEFAULT_255_1_234
10
6.0913566
20
13.211989
40
0.8902007
50
173.4670142
51
179.9730753
0
ARC
8
DEFAULT_255_1_234
10
5.9005237
20
13.112626
40
0.6993804
50
179.6556203
51
190.0080463
0
ARC
8
DEFAULT_255_1_234
10
5.6689066
20
13.0701375
40
0.4639066
50
189.8116607
51
206.6796816
0
ARC
8
DEFAULT_255_1_234
10
5.5844218
20
13.0307503
40
0.3707421
50
207.1031645
51
217.7074368
0
ARC
8
DEFAULT_255_1_234
10
5.5209907
20
12.9755559
40
0.2868417
50
216.7345547
51
265.6812148
0
ARC
8
DEFAULT_255_1_234
10
5.5340698
20
13.0659855
40
0.3780509
50
264.7366618
51
270.0611241
0
ARC
8
DEFAULT_255_1_234
10
5.5363961
20
13.3500111
40
0.662079
50
269.8335834
51
276.0539546
0
ARC
8
DEFAULT_255_1_234
10
5.5570966
20
13.159856
40
0.4708016
50
275.9894168
51
284.4615085
0
ARC
8
DEFAULT_255_1_234
10
5.5768973
20
13.0765663
40
0.3852094
50
284.7034461
51
286.4953897
0
ARC
8
DEFAULT_255_1_234
10
5.6175986
20
12.9454965
40
0.2479842
50
286.0770838
51
304.2625829
0
ARC
8
DEFAULT_255_1_234
10
5.63094
20
12.9236594
40
0.2224291
50
304.5891602
51
317.1073298
0
LINE
8
DEFAULT_255_1_234
10
4.9093341
20
20.5154
11
4.6555312
21
20.9884694
0
LINE
8
DEFAULT_255_1_234
10
4.6555312
20
20.9884694
11
4.3808458
21
20.9884694
0
LINE
8
DEFAULT_255_1_234
10
4.3808458
20
20.9884694
11
4.3808458
21
20.5154
0
LINE
8
DEFAULT_255_1_234
10
4.3808458
20
20.5154
11
4.2258332
21
20.5154
0
LINE
8
DEFAULT_255_1_234
10
4.2258332
20
20.5154
11
4.2258332
21
21.6848211
0
LINE
8
DEFAULT_255_1_234
10
4.2258332
20
21.6848211
11
4.612963
21
21.6848211
0
LINE
8
DEFAULT_255_1_234
10
4.8001025
20
21.0213995
11
5.0747879
21
20.5250381
0
LINE
8
DEFAULT_255_1_234
10
5.0747879
20
20.5250381
11
5.0747879
21
20.5154
0
LINE
8
DEFAULT_255_1_234
10
5.0747879
20
20.5154
11
4.9093341
21
20.5154
0
LINE
8
DEFAULT_255_1_234
10
4.3808458
20
21.5579196
11
4.3808458
21
21.1145677
0
LINE
8
DEFAULT_255_1_234
10
4.3808458
20
21.1145677
11
4.617782
21
21.1145677
0
LINE
8
DEFAULT_255_1_234
10
4.6169789
20
21.5579196
11
4.3808458
21
21.5579196
0
ARC
8
DEFAULT_255_1_234
10
4.6171269
20
20.9886761
40
0.6961575
50
80.653586
51
90.3427061
0
ARC
8
DEFAULT_255_1_234
10
4.6590744
20
21.2349348
40
0.4463577
50
65.6987447
51
80.8329603
0
ARC
8
DEFAULT_255_1_234
10
4.7068385
20
21.3444322
40
0.3269094
50
50.0017161
51
65.4305835
0
ARC
8
DEFAULT_255_1_234
10
4.7286849
20
21.3739482
40
0.2902647
50
11.628416
51
49.5603263
0
ARC
8
DEFAULT_255_1_234
10
4.5751185
20
21.3364299
40
0.4482792
50
359.5655735
51
12.3691
0
ARC
8
DEFAULT_255_1_234
10
4.6828045
20
21.3301644
40
0.3405924
50
341.9983148
51
0.4822259
0
ARC
8
DEFAULT_255_1_234
10
4.7222885
20
21.3194471
40
0.2997359
50
323.8609373
51
341.61416
0
ARC
8
DEFAULT_255_1_234
10
4.6921129
20
21.3427484
40
0.3378487
50
296.7018614
51
323.6876402
0
ARC
8
DEFAULT_255_1_234
10
4.6480024
20
21.4216235
40
0.4281516
50
290.8086567
51
297.2323311
0
ARC
8
DEFAULT_255_1_234
10
4.6203554
20
21.4739351
40
0.3593766
50
269.589728
51
281.8058135
0
ARC
8
DEFAULT_255_1_234
10
4.6454453
20
21.3591743
40
0.2419125
50
281.5501019
51
303.9357432
0
ARC
8
DEFAULT_255_1_234
10
4.6591641
20
21.3353936
40
0.2145323
50
304.4415616
51
311.2106213
0
ARC
8
DEFAULT_255_1_234
10
4.6723746
20
21.3214632
40
0.1953505
50
310.9875673
51
356.2715578
0
ARC
8
DEFAULT_255_1_234
10
4.5967395
20
21.3327422
40
0.2716331
50
354.9348262
51
0.0609027
0
ARC
8
DEFAULT_255_1_234
10
4.5780269
20
21.3354435
40
0.2903554
50
359.5239371
51
12.8808918
0
ARC
8
DEFAULT_255_1_234
10
4.6757824
20
21.3593728
40
0.1897315
50
12.4173452
51
43.1022135
0
ARC
8
DEFAULT_255_1_234
10
4.6819429
20
21.3630724
40
0.1827118
50
43.5751728
51
48.203944
0
ARC
8
DEFAULT_255_1_234
10
4.6649921
20
21.3409302
40
0.2105272
50
48.7809703
51
72.6969569
0
ARC
8
DEFAULT_255_1_234
10
4.6295546
20
21.233382
40
0.3237537
50
72.3702241
51
84.8791103
0
ARC
8
DEFAULT_255_1_234
10
4.6148022
20
21.0991769
40
0.4587478
50
84.5400526
51
89.7281406
0
LINE
8
DEFAULT_255_1_234
10
5.5631176
20
20.5154
11
5.2394386
21
20.5154
0
LINE
8
DEFAULT_255_1_234
10
5.2394386
20
20.5154
11
5.2394386
21
21.6848211
0
LINE
8
DEFAULT_255_1_234
10
5.2394386
20
21.6848211
11
5.569543
21
21.6848211
0
LINE
8
DEFAULT_255_1_234
10
6.0851806
20
21.1394661
11
6.0851806
21
21.0647709
0
LINE
8
DEFAULT_255_1_234
10
5.5735589
20
21.5579196
11
5.3936479
21
21.5579196
0
LINE
8
DEFAULT_255_1_234
10
5.3936479
20
21.5579196
11
5.3936479
21
20.6414983
0
LINE
8
DEFAULT_255_1_234
10
5.3936479
20
20.6414983
11
5.5558891
21
20.6414983
0
LINE
8
DEFAULT_255_1_234
10
5.9325776
20
21.0679836
11
5.9325776
21
21.1362534
0
ARC
8
DEFAULT_255_1_234
10
5.5734373
20
21.0982894
40
0.5865446
50
75.4101064
51
90.3804066
0
ARC
8
DEFAULT_255_1_234
10
5.5963886
20
21.1939492
40
0.4881916
50
60.145586
51
75.1888407
0
ARC
8
DEFAULT_255_1_234
10
5.6122662
20
21.2216199
40
0.4562893
50
26.5253612
51
60.1450928
0
ARC
8
DEFAULT_255_1_234
10
5.5002411
20
21.1622158
40
0.5830602
50
7.4030428
51
26.8320788
0
ARC
8
DEFAULT_255_1_234
10
5.3408168
20
21.1373804
40
0.7443669
50
0.1605367
51
7.7176192
0
ARC
8
DEFAULT_255_1_234
10
5.3572072
20
21.0609434
40
0.7279835
50
348.7289388
51
0.3012466
0
ARC
8
DEFAULT_255_1_234
10
5.5228503
20
21.0280386
40
0.559104
50
333.0706509
51
348.7181832
0
ARC
8
DEFAULT_255_1_234
10
5.619526
20
20.9755319
40
0.4491417
50
299.2531685
51
333.4571258
0
ARC
8
DEFAULT_255_1_234
10
5.58344
20
21.0440828
40
0.5265881
50
278.107187
51
299.0339503
0
ARC
8
DEFAULT_255_1_234
10
5.5578479
20
21.1948216
40
0.679442
50
270.4443897
51
278.4511052
0
ARC
8
DEFAULT_255_1_234
10
5.5599309
20
21.1019213
40
0.4604407
50
269.4970433
51
284.0205042
0
ARC
8
DEFAULT_255_1_234
10
5.595461
20
20.9653978
40
0.3193797
50
283.7700273
51
318.1555492
0
ARC
8
DEFAULT_255_1_234
10
5.5617368
20
20.9906367
40
0.3613588
50
318.7415601
51
343.6873628
0
ARC
8
DEFAULT_255_1_234
10
5.3813391
20
21.0469832
40
0.5503313
50
343.3325091
51
355.8548958
0
ARC
8
DEFAULT_255_1_234
10
5.1715076
20
21.0669319
40
0.7610708
50
355.4988528
51
0.0791727
0
ARC
8
DEFAULT_255_1_234
10
5.2497698
20
21.140478
40
0.6828208
50
359.6455037
51
9.8607896
0
ARC
8
DEFAULT_255_1_234
10
5.4858396
20
21.1831099
40
0.4429406
50
9.6571907
51
26.1932807
0
ARC
8
DEFAULT_255_1_234
10
5.5786385
20
21.2262118
40
0.3406537
50
26.5777228
51
40.1532208
0
ARC
8
DEFAULT_255_1_234
10
5.6042111
20
21.2461619
40
0.308246
50
40.3840491
51
80.1431104
0
ARC
8
DEFAULT_255_1_234
10
5.5715229
20
21.1012333
40
0.4566909
50
79.2152159
51
89.7445637
0
LINE
8
DEFAULT_255_1_234
10
6.7237038
20
20.5154
11
6.318101
21
20.5154
0
LINE
8
DEFAULT_255_1_234
10
6.318101
20
20.5154
11
6.318101
21
21.6848211
0
LINE
8
DEFAULT_255_1_234
10
6.318101
20
21.6848211
11
6.7004118
21
21.6848211
0
LINE
8
DEFAULT_255_1_234
10
6.729326
20
21.0623614
11
6.4723104
21
21.0623614
0
LINE
8
DEFAULT_255_1_234
10
6.4723104
20
21.0623614
11
6.4723104
21
20.6414983
0
LINE
8
DEFAULT_255_1_234
10
6.4723104
20
20.6414983
11
6.7269165
21
20.6414983
0
LINE
8
DEFAULT_255_1_234
10
6.4723104
20
21.5579196
11
6.4723104
21
21.1860501
0
LINE
8
DEFAULT_255_1_234
10
6.4723104
20
21.1860501
11
6.7052308
21
21.1860501
0
LINE
8
DEFAULT_255_1_234
10
6.7004118
20
21.5579196
11
6.4723104
21
21.5579196
0
ARC
8
DEFAULT_255_1_234
10
6.7041826
20
20.9480901
40
0.7367406
50
82.1257326
51
90.2932599
0
ARC
8
DEFAULT_255_1_234
10
6.7430781
20
21.2199013
40
0.4621653
50
69.9044149
51
82.2857423
0
ARC
8
DEFAULT_255_1_234
10
6.8001459
20
21.3741637
40
0.2976871
50
51.1838526
51
70.0181538
0
ARC
8
DEFAULT_255_1_234
10
6.8256425
20
21.411224
40
0.2528517
50
12.1017251
51
50.4214761
0
ARC
8
DEFAULT_255_1_234
10
6.6872299
20
21.3764676
40
0.3955061
50
359.5251267
51
12.8211707
0
ARC
8
DEFAULT_255_1_234
10
6.8452226
20
21.3695344
40
0.2375281
50
323.4908128
51
0.8817314
0
ARC
8
DEFAULT_255_1_234
10
6.8033912
20
21.401855
40
0.2903817
50
298.6825083
51
323.2756573
0
ARC
8
DEFAULT_255_1_234
10
6.7672275
20
21.4619649
40
0.3604842
50
293.1999386
51
299.1396394
0
ARC
8
DEFAULT_255_1_234
10
6.8345248
20
20.8534126
40
0.2871098
50
54.0011765
51
74.9167975
0
ARC
8
DEFAULT_255_1_234
10
6.8461607
20
20.8731332
40
0.2643248
50
36.3580696
51
53.5291921
0
ARC
8
DEFAULT_255_1_234
10
6.833485
20
20.8640998
40
0.2798884
50
4.8189881
51
36.3089977
0
ARC
8
DEFAULT_255_1_234
10
6.7555685
20
20.853127
40
0.358478
50
359.9370252
51
5.5204067
0
ARC
8
DEFAULT_255_1_234
10
6.7231206
20
20.8490667
40
0.3909429
50
344.7478609
51
0.5373281
0
ARC
8
DEFAULT_255_1_234
10
6.8222178
20
20.8223544
40
0.2883093
50
311.1786488
51
344.6886812
0
ARC
8
DEFAULT_255_1_234
10
6.7930225
20
20.8586987
40
0.3348923
50
286.0418249
51
310.8441291
0
ARC
8
DEFAULT_255_1_234
10
6.7423057
20
21.0233807
40
0.5071869
50
274.1042341
51
286.4071509
0
ARC
8
DEFAULT_255_1_234
10
6.7246312
20
21.2117229
40
0.6963234
50
269.9236873
51
274.445647
0
ARC
8
DEFAULT_255_1_234
10
6.7292313
20
20.9777537
40
0.3362634
50
269.6055768
51
281.3740047
0
ARC
8
DEFAULT_255_1_234
10
6.7522951
20
20.8684353
40
0.224546
50
281.1055983
51
302.5132223
0
ARC
8
DEFAULT_255_1_234
10
6.7669851
20
20.8420823
40
0.1944357
50
303.0368945
51
311.8811219
0
ARC
8
DEFAULT_255_1_234
10
6.7741257
20
20.833589
40
0.1833454
50
311.9916004
51
351.7143462
0
ARC
8
DEFAULT_255_1_234
10
6.6924487
20
20.850093
40
0.2665871
50
350.7339597
51
0.2221581
0
ARC
8
DEFAULT_255_1_234
10
6.6816933
20
20.8557467
40
0.2773789
50
359.0456241
51
17.2296242
0
ARC
8
DEFAULT_255_1_234
10
6.785605
20
20.8866163
40
0.1689915
50
17.6685481
51
78.9940892
0
ARC
8
DEFAULT_255_1_234
10
6.7339214
20
20.7011224
40
0.3612658
50
76.5635957
51
90.6980921
0
LINE
8
DEFAULT_255_1_234
10
6.7295199
20
21.0623613
11
6.729326
21
21.0623614
0
ARC
8
DEFAULT_255_1_234
10
6.7074875
20
21.5146036
40
0.3285612
50
269.6064736
51
281.4533503
0
ARC
8
DEFAULT_255_1_234
10
6.7297694
20
21.4094688
40
0.2210975
50
281.2041486
51
302.5148063
0
ARC
8
DEFAULT_255_1_234
10
6.7434544
20
21.3848241
40
0.1929674
50
303.021671
51
309.8369575
0
ARC
8
DEFAULT_255_1_234
10
6.7618006
20
21.3642488
40
0.1654181
50
309.5228395
51
356.9509836
0
ARC
8
DEFAULT_255_1_234
10
6.6954588
20
21.3737932
40
0.2322512
50
355.4701227
51
0.0492546
0
ARC
8
DEFAULT_255_1_234
10
6.6675679
20
21.3760094
40
0.2601498
50
359.5558597
51
11.2096359
0
ARC
8
DEFAULT_255_1_234
10
6.7632969
20
21.395823
40
0.1623975
50
10.9182341
51
31.3230275
0
ARC
8
DEFAULT_255_1_234
10
6.7918703
20
21.4117214
40
0.1297302
50
31.8852677
51
52.1412565
0
ARC
8
DEFAULT_255_1_234
10
6.7644435
20
21.372975
40
0.1771663
50
52.8285564
51
71.9850297
0
ARC
8
DEFAULT_255_1_234
10
6.7268612
20
21.2623664
40
0.2939794
50
71.6863486
51
82.8455995
0
ARC
8
DEFAULT_255_1_234
10
6.7029148
20
21.0814149
40
0.476506
50
82.6984714
51
90.1729175
0
ARC
8
DEFAULT_255_1_234
10
6.7006783
20
21.2037623
40
0.3541573
50
89.8708275
51
90.0431131
0
LINE
8
DEFAULT_255_1_234
10
4.9890341
20
28.4529
11
4.7352312
21
28.9259694
0
LINE
8
DEFAULT_255_1_234
10
4.7352312
20
28.9259694
11
4.4605458
21
28.9259694
0
LINE
8
DEFAULT_255_1_234
10
4.4605458
20
28.9259694
11
4.4605458
21
28.4529
0
LINE
8
DEFAULT_255_1_234
10
4.4605458
20
28.4529
11
4.3055332
21
28.4529
0
LINE
8
DEFAULT_255_1_234
10
4.3055332
20
28.4529
11
4.3055332
21
29.6223211
0
LINE
8
DEFAULT_255_1_234
10
4.3055332
20
29.6223211
11
4.692663
21
29.6223211
0
LINE
8
DEFAULT_255_1_234
10
4.8798025
20
28.9588995
11
5.1544879
21
28.4625381
0
LINE
8
DEFAULT_255_1_234
10
5.1544879
20
28.4625381
11
5.1544879
21
28.4529
0
LINE
8
DEFAULT_255_1_234
10
5.1544879
20
28.4529
11
4.9890341
21
28.4529
0
LINE
8
DEFAULT_255_1_234
10
4.4605458
20
29.4954196
11
4.4605458
21
29.0520677
0
LINE
8
DEFAULT_255_1_234
10
4.4605458
20
29.0520677
11
4.697482
21
29.0520677
0
LINE
8
DEFAULT_255_1_234
10
4.6966789
20
29.4954196
11
4.4605458
21
29.4954196
0
ARC
8
DEFAULT_255_1_234
10
4.6968269
20
28.9261761
40
0.6961575
50
80.653586
51
90.3427061
0
ARC
8
DEFAULT_255_1_234
10
4.7387744
20
29.1724348
40
0.4463577
50
65.6987447
51
80.8329603
0
ARC
8
DEFAULT_255_1_234
10
4.7865385
20
29.2819322
40
0.3269094
50
50.0017161
51
65.4305835
0
ARC
8
DEFAULT_255_1_234
10
4.8083849
20
29.3114482
40
0.2902647
50
11.628416
51
49.5603263
0
ARC
8
DEFAULT_255_1_234
10
4.6548185
20
29.2739299
40
0.4482792
50
359.5655735
51
12.3691
0
ARC
8
DEFAULT_255_1_234
10
4.7625045
20
29.2676644
40
0.3405924
50
341.9983148
51
0.4822259
0
ARC
8
DEFAULT_255_1_234
10
4.8019885
20
29.2569471
40
0.2997359
50
323.8609373
51
341.61416
0
ARC
8
DEFAULT_255_1_234
10
4.7718129
20
29.2802484
40
0.3378487
50
296.7018614
51
323.6876402
0
ARC
8
DEFAULT_255_1_234
10
4.7277024
20
29.3591235
40
0.4281516
50
290.8086567
51
297.2323311
0
ARC
8
DEFAULT_255_1_234
10
4.7000554
20
29.4114351
40
0.3593766
50
269.589728
51
281.8058135
0
ARC
8
DEFAULT_255_1_234
10
4.7251453
20
29.2966743
40
0.2419125
50
281.5501019
51
303.9357432
0
ARC
8
DEFAULT_255_1_234
10
4.7388641
20
29.2728936
40
0.2145323
50
304.4415616
51
311.2106213
0
ARC
8
DEFAULT_255_1_234
10
4.7520746
20
29.2589632
40
0.1953505
50
310.9875673
51
356.2715578
0
ARC
8
DEFAULT_255_1_234
10
4.6764395
20
29.2702422
40
0.2716331
50
354.9348262
51
0.0609027
0
ARC
8
DEFAULT_255_1_234
10
4.6577269
20
29.2729435
40
0.2903554
50
359.5239371
51
12.8808918
0
ARC
8
DEFAULT_255_1_234
10
4.7554824
20
29.2968728
40
0.1897315
50
12.4173452
51
43.1022135
0
ARC
8
DEFAULT_255_1_234
10
4.7616429
20
29.3005724
40
0.1827118
50
43.5751728
51
48.203944
0
ARC
8
DEFAULT_255_1_234
10
4.7446921
20
29.2784302
40
0.2105272
50
48.7809703
51
72.6969569
0
ARC
8
DEFAULT_255_1_234
10
4.7092546
20
29.170882
40
0.3237537
50
72.3702241
51
84.8791103
0
ARC
8
DEFAULT_255_1_234
10
4.6945022
20
29.0366769
40
0.4587478
50
84.5400526
51
89.7281406
0
LINE
8
DEFAULT_255_1_234
10
5.6428176
20
28.4529
11
5.3191386
21
28.4529
0
LINE
8
DEFAULT_255_1_234
10
5.3191386
20
28.4529
11
5.3191386
21
29.6223211
0
LINE
8
DEFAULT_255_1_234
10
5.3191386
20
29.6223211
11
5.649243
21
29.6223211
0
LINE
8
DEFAULT_255_1_234
10
6.1648806
20
29.0769661
11
6.1648806
21
29.0022709
0
LINE
8
DEFAULT_255_1_234
10
5.6532589
20
29.4954196
11
5.4733479
21
29.4954196
0
LINE
8
DEFAULT_255_1_234
10
5.4733479
20
29.4954196
11
5.4733479
21
28.5789983
0
LINE
8
DEFAULT_255_1_234
10
5.4733479
20
28.5789983
11
5.6355891
21
28.5789983
0
LINE
8
DEFAULT_255_1_234
10
6.0122776
20
29.0054836
11
6.0122776
21
29.0737534
0
ARC
8
DEFAULT_255_1_234
10
5.6531373
20
29.0357894
40
0.5865446
50
75.4101064
51
90.3804066
0
ARC
8
DEFAULT_255_1_234
10
5.6760886
20
29.1314492
40
0.4881916
50
60.145586
51
75.1888407
0
ARC
8
DEFAULT_255_1_234
10
5.6919662
20
29.1591199
40
0.4562893
50
26.5253612
51
60.1450928
0
ARC
8
DEFAULT_255_1_234
10
5.5799411
20
29.0997158
40
0.5830602
50
7.4030428
51
26.8320788
0
ARC
8
DEFAULT_255_1_234
10
5.4205168
20
29.0748804
40
0.7443669
50
0.1605367
51
7.7176192
0
ARC
8
DEFAULT_255_1_234
10
5.4369072
20
28.9984434
40
0.7279835
50
348.7289388
51
0.3012466
0
ARC
8
DEFAULT_255_1_234
10
5.6025503
20
28.9655386
40
0.559104
50
333.0706509
51
348.7181832
0
ARC
8
DEFAULT_255_1_234
10
5.699226
20
28.9130319
40
0.4491417
50
299.2531685
51
333.4571258
0
ARC
8
DEFAULT_255_1_234
10
5.66314
20
28.9815828
40
0.5265881
50
278.107187
51
299.0339503
0
ARC
8
DEFAULT_255_1_234
10
5.6375479
20
29.1323216
40
0.679442
50
270.4443897
51
278.4511052
0
ARC
8
DEFAULT_255_1_234
10
5.6396309
20
29.0394213
40
0.4604407
50
269.4970433
51
284.0205042
0
ARC
8
DEFAULT_255_1_234
10
5.675161
20
28.9028978
40
0.3193797
50
283.7700273
51
318.1555492
0
ARC
8
DEFAULT_255_1_234
10
5.6414368
20
28.9281367
40
0.3613588
50
318.7415601
51
343.6873628
0
ARC
8
DEFAULT_255_1_234
10
5.4610391
20
28.9844832
40
0.5503313
50
343.3325091
51
355.8548958
0
ARC
8
DEFAULT_255_1_234
10
5.2512076
20
29.0044319
40
0.7610708
50
355.4988528
51
0.0791727
0
ARC
8
DEFAULT_255_1_234
10
5.3294698
20
29.077978
40
0.6828208
50
359.6455037
51
9.8607896
0
ARC
8
DEFAULT_255_1_234
10
5.5655396
20
29.1206099
40
0.4429406
50
9.6571907
51
26.1932807
0
ARC
8
DEFAULT_255_1_234
10
5.6583385
20
29.1637118
40
0.3406537
50
26.5777228
51
40.1532208
0
ARC
8
DEFAULT_255_1_234
10
5.6839111
20
29.1836619
40
0.308246
50
40.3840491
51
80.1431104
0
ARC
8
DEFAULT_255_1_234
10
5.6512229
20
29.0387333
40
0.4566909
50
79.2152159
51
89.7445637
0
LINE
8
DEFAULT_255_1_234
10
7.1383273
20
28.4529
11
7.0266861
21
28.7581061
0
LINE
8
DEFAULT_255_1_234
10
7.0266861
20
28.7581061
11
6.5367501
21
28.7581061
0
LINE
8
DEFAULT_255_1_234
10
6.5367501
20
28.7581061
11
6.4267153
21
28.4529
0
LINE
8
DEFAULT_255_1_234
10
6.4267153
20
28.4529
11
6.2676869
21
28.4529
0
LINE
8
DEFAULT_255_1_234
10
6.2676869
20
28.4529
11
6.7142515
21
29.6223211
0
LINE
8
DEFAULT_255_1_234
10
6.7142515
20
29.6223211
11
6.8491847
21
29.6223211
0
LINE
8
DEFAULT_255_1_234
10
6.8491847
20
29.6223211
11
7.2965525
21
28.4529
0
LINE
8
DEFAULT_255_1_234
10
7.2965525
20
28.4529
11
7.1383273
21
28.4529
0
LINE
8
DEFAULT_255_1_234
10
6.7817181
20
29.4319689
11
6.5833342
21
28.8850075
0
LINE
8
DEFAULT_255_1_234
10
6.5833342
20
28.8850075
11
6.9809052
21
28.8850075
0
LINE
8
DEFAULT_255_1_234
10
6.9809052
20
28.8850075
11
6.7817181
21
29.4319689
0
LINE
8
DEFAULT_255_1_234
10
5.0003023
20
37.2216849
11
4.8452897
21
37.2216849
0
LINE
8
DEFAULT_255_1_234
10
4.1529539
20
36.7293394
11
4.3079665
21
36.7293394
0
ARC
8
DEFAULT_255_1_234
10
4.911171
20
38.1163768
40
1.252368
50
248.9199003
51
254.1439814
0
ARC
8
DEFAULT_255_1_234
10
4.7431205
20
37.6837234
40
0.788226
50
241.633709
51
249.0064503
0
ARC
8
DEFAULT_255_1_234
10
4.59026
20
37.4036317
40
0.4691427
50
230.498225
51
241.8087113
0
ARC
8
DEFAULT_255_1_234
10
4.5118174
20
37.3036906
40
0.3421437
50
227.4064532
51
229.9881192
0
ARC
8
DEFAULT_255_1_234
10
4.4630694
20
37.2561088
40
0.2741476
50
200.6781896
51
228.1763934
0
ARC
8
DEFAULT_255_1_234
10
4.4703005
20
37.2546077
40
0.2804109
50
179.5061581
51
199.8694617
0
ARC
8
DEFAULT_255_1_234
10
4.4693757
20
37.262021
40
0.2795204
50
132.4834203
51
181.0242172
0
ARC
8
DEFAULT_255_1_234
10
4.5289339
20
37.2057704
40
0.3612768
50
129.2532479
51
133.4242687
0
ARC
8
DEFAULT_255_1_234
10
4.5435789
20
37.1837965
40
0.3875675
50
101.98776
51
128.8742646
0
ARC
8
DEFAULT_255_1_234
10
4.5834399
20
37.0116741
40
0.5642249
50
89.5906553
51
102.3169264
0
ARC
8
DEFAULT_255_1_234
10
4.5904891
20
37.0435148
40
0.5323783
50
77.2360837
51
90.3248275
0
ARC
8
DEFAULT_255_1_234
10
4.6111971
20
37.14024
40
0.4334697
50
63.837784
51
77.0809408
0
ARC
8
DEFAULT_255_1_234
10
4.6389732
20
37.1919911
40
0.3747796
50
45.9864267
51
64.1607727
0
ARC
8
DEFAULT_255_1_234
10
4.6650614
20
37.2217866
40
0.3352302
50
32.2747395
51
45.6547121
0
ARC
8
DEFAULT_255_1_234
10
4.6717054
20
37.223688
40
0.328603
50
359.6507365
51
32.6130309
0
ARC
8
DEFAULT_255_1_234
10
4.577415
20
37.224166
40
0.2678863
50
359.469343
51
14.9832209
0
ARC
8
DEFAULT_255_1_234
10
4.6479212
20
37.2430539
40
0.1948938
50
14.9781179
51
48.2004265
0
ARC
8
DEFAULT_255_1_234
10
4.6314856
20
37.2223983
40
0.2212521
50
48.5927837
51
74.1241538
0
ARC
8
DEFAULT_255_1_234
10
4.5981346
20
37.1123248
40
0.3362561
50
73.7888341
51
86.6652678
0
ARC
8
DEFAULT_255_1_234
10
4.5878911
20
36.9915881
40
0.4573953
50
86.2640471
51
90.0526343
0
ARC
8
DEFAULT_255_1_234
10
4.5850624
20
37.0311192
40
0.4178709
50
89.6697524
51
99.2309573
0
ARC
8
DEFAULT_255_1_234
10
4.5608075
20
37.1755964
40
0.2713749
50
99.069534
51
113.7658566
0
ARC
8
DEFAULT_255_1_234
10
4.5334266
20
37.2401677
40
0.2012469
50
114.0401004
51
127.9850673
0
ARC
8
DEFAULT_255_1_234
10
4.509383
20
37.269773
40
0.1631167
50
127.7287463
51
176.7105154
0
ARC
8
DEFAULT_255_1_234
10
4.5772547
20
37.2596693
40
0.2315392
50
175.1779447
51
180.0581938
0
ARC
8
DEFAULT_255_1_234
10
4.4929394
20
37.2584428
40
0.1472271
50
179.6142195
51
228.1246017
0
ARC
8
DEFAULT_255_1_234
10
4.5371063
20
37.2993308
40
0.2072299
50
226.5779593
51
230.8800004
0
ARC
8
DEFAULT_255_1_234
10
4.5842141
20
37.3618636
40
0.2854818
50
231.4635071
51
241.9260842
0
ARC
8
DEFAULT_255_1_234
10
4.7039319
20
37.58218
40
0.53622
50
241.7178533
51
248.3259551
0
ARC
8
DEFAULT_255_1_234
10
4.8424691
20
37.9254064
40
0.9063478
50
248.2007737
51
252.4528373
0
ARC
8
DEFAULT_255_1_234
10
4.9628416
20
38.2975441
40
1.2974635
50
252.3391078
51
254.3469452
0
ARC
8
DEFAULT_255_1_234
10
4.2086119
20
35.5998148
40
1.5037162
50
71.0197183
51
74.4087047
0
ARC
8
DEFAULT_255_1_234
10
4.3780804
20
36.0890111
40
0.9859993
50
66.1847285
51
71.086374
0
ARC
8
DEFAULT_255_1_234
10
4.5337116
20
36.43942
40
0.6025855
50
59.3536294
51
66.2691831
0
ARC
8
DEFAULT_255_1_234
10
4.6225769
20
36.5897609
40
0.4279449
50
49.1020879
51
59.3293958
0
ARC
8
DEFAULT_255_1_234
10
4.7044509
20
36.6830834
40
0.3038015
50
32.7919921
51
49.2505539
0
ARC
8
DEFAULT_255_1_234
10
4.7365599
20
36.7059191
40
0.264448
50
31.1181161
51
32.4005348
0
ARC
8
DEFAULT_255_1_234
10
4.7277136
20
36.7023779
40
0.2738556
50
8.1116974
51
30.7958831
0
ARC
8
DEFAULT_255_1_234
10
4.6466804
20
36.6885753
40
0.3560327
50
359.8389159
51
8.4706516
0
ARC
8
DEFAULT_255_1_234
10
4.7092596
20
36.6837137
40
0.2934776
50
337.4731098
51
0.7537279
0
ARC
8
DEFAULT_255_1_234
10
4.7271291
20
36.6817387
40
0.2762607
50
307.5917067
51
336.4315538
0
ARC
8
DEFAULT_255_1_234
10
4.6811119
20
36.7330102
40
0.3449979
50
307.6551545
51
308.4529766
0
ARC
8
DEFAULT_255_1_234
10
4.6580838
20
36.768525
40
0.3871988
50
284.3734338
51
307.1424381
0
ARC
8
DEFAULT_255_1_234
10
4.6085668
20
36.9506932
40
0.5759636
50
272.4382747
51
284.646547
0
ARC
8
DEFAULT_255_1_234
10
4.5958876
20
37.1306893
40
0.7563528
50
269.9708387
51
272.8178037
0
ARC
8
DEFAULT_255_1_234
10
4.5915916
20
36.9268716
40
0.5525489
50
248.2707594
51
270.4055579
0
ARC
8
DEFAULT_255_1_234
10
4.5861657
20
36.9078192
40
0.5328452
50
246.1383403
51
248.0542782
0
ARC
8
DEFAULT_255_1_234
10
4.5443036
20
36.8198843
40
0.4355005
50
233.1670131
51
246.4950969
0
ARC
8
DEFAULT_255_1_234
10
4.4888941
20
36.7450812
40
0.3424126
50
215.3403242
51
233.0843104
0
ARC
8
DEFAULT_255_1_234
10
4.4616372
20
36.7252549
40
0.3087104
50
179.2419209
51
215.2648451
0
ARC
8
DEFAULT_255_1_234
10
4.5383966
20
36.7266666
40
0.2304457
50
179.335461
51
199.1045811
0
ARC
8
DEFAULT_255_1_234
10
4.5051643
20
36.7179766
40
0.1962176
50
199.8828939
51
232.7063202
0
ARC
8
DEFAULT_255_1_234
10
4.5523911
20
36.7773788
40
0.2720938
50
232.3738199
51
255.5136649
0
ARC
8
DEFAULT_255_1_234
10
4.5864778
20
36.9017835
40
0.4010747
50
255.2446292
51
267.5320849
0
ARC
8
DEFAULT_255_1_234
10
4.5952401
20
37.0250702
40
0.5246356
50
267.1557994
51
270.0286766
0
ARC
8
DEFAULT_255_1_234
10
4.5980173
20
36.980695
40
0.4802668
50
269.7000017
51
278.1660162
0
ARC
8
DEFAULT_255_1_234
10
4.6236178
20
36.8076515
40
0.3053425
50
278.0231263
51
290.625471
0
ARC
8
DEFAULT_255_1_234
10
4.6583865
20
36.7149025
40
0.206291
50
290.6619762
51
307.0370976
0
ARC
8
DEFAULT_255_1_234
10
4.6884254
20
36.6780504
40
0.1587906
50
306.3943566
51
355.3030547
0
ARC
8
DEFAULT_255_1_234
10
4.6372186
20
36.6857113
40
0.2104809
50
354.3660432
51
0.0698737
0
ARC
8
DEFAULT_255_1_234
10
4.6514531
20
36.6879617
40
0.1962563
50
359.417946
51
16.1971788
0
ARC
8
DEFAULT_255_1_234
10
4.6969841
20
36.7004418
40
0.149053
50
16.4723299
51
52.6262157
0
ARC
8
DEFAULT_255_1_234
10
4.6148895
20
36.5920433
40
0.2850296
50
52.7386432
51
62.4979148
0
ARC
8
DEFAULT_255_1_234
10
4.4763972
20
36.3314283
40
0.5801521
50
62.2515216
51
68.1220564
0
ARC
8
DEFAULT_255_1_234
10
4.3043883
20
35.9086872
40
1.0365451
50
68.0062803
51
71.8053402
0
ARC
8
DEFAULT_255_1_234
10
4.1248255
20
35.3701758
40
1.6042013
50
71.7183119
51
73.9258742
0
LINE
8
DEFAULT_255_1_234
10
5.5239716
20
36.3904
11
5.2002926
21
36.3904
0
LINE
8
DEFAULT_255_1_234
10
5.2002926
20
36.3904
11
5.2002926
21
37.5598211
0
LINE
8
DEFAULT_255_1_234
10
5.2002926
20
37.5598211
11
5.530397
21
37.5598211
0
LINE
8
DEFAULT_255_1_234
10
6.0460346
20
37.0144661
11
6.0460346
21
36.9397709
0
LINE
8
DEFAULT_255_1_234
10
5.5344129
20
37.4329196
11
5.354502
21
37.4329196
0
LINE
8
DEFAULT_255_1_234
10
5.354502
20
37.4329196
11
5.354502
21
36.5164983
0
LINE
8
DEFAULT_255_1_234
10
5.354502
20
36.5164983
11
5.5167431
21
36.5164983
0
LINE
8
DEFAULT_255_1_234
10
5.8934316
20
36.9429836
11
5.8934316
21
37.0112534
0
ARC
8
DEFAULT_255_1_234
10
5.5342913
20
36.9732894
40
0.5865446
50
75.4101064
51
90.3804066
0
ARC
8
DEFAULT_255_1_234
10
5.5572426
20
37.0689492
40
0.4881916
50
60.145586
51
75.1888407
0
ARC
8
DEFAULT_255_1_234
10
5.5731202
20
37.0966199
40
0.4562893
50
26.5253612
51
60.1450928
0
ARC
8
DEFAULT_255_1_234
10
5.4610951
20
37.0372158
40
0.5830602
50
7.4030428
51
26.8320788
0
ARC
8
DEFAULT_255_1_234
10
5.3016708
20
37.0123804
40
0.7443669
50
0.1605367
51
7.7176192
0
ARC
8
DEFAULT_255_1_234
10
5.3180612
20
36.9359434
40
0.7279835
50
348.7289388
51
0.3012466
0
ARC
8
DEFAULT_255_1_234
10
5.4837043
20
36.9030386
40
0.559104
50
333.0706509
51
348.7181832
0
ARC
8
DEFAULT_255_1_234
10
5.58038
20
36.8505319
40
0.4491417
50
299.2531685
51
333.4571258
0
ARC
8
DEFAULT_255_1_234
10
5.544294
20
36.9190828
40
0.5265881
50
278.107187
51
299.0339503
0
ARC
8
DEFAULT_255_1_234
10
5.5187019
20
37.0698216
40
0.679442
50
270.4443897
51
278.4511052
0
ARC
8
DEFAULT_255_1_234
10
5.5207849
20
36.9769213
40
0.4604407
50
269.4970433
51
284.0205042
0
ARC
8
DEFAULT_255_1_234
10
5.556315
20
36.8403978
40
0.3193797
50
283.7700273
51
318.1555492
0
ARC
8
DEFAULT_255_1_234
10
5.5225908
20
36.8656367
40
0.3613588
50
318.7415601
51
343.6873628
0
ARC
8
DEFAULT_255_1_234
10
5.3421931
20
36.9219832
40
0.5503313
50
343.3325091
51
355.8548958
0
ARC
8
DEFAULT_255_1_234
10
5.1323616
20
36.9419319
40
0.7610708
50
355.4988528
51
0.0791727
0
ARC
8
DEFAULT_255_1_234
10
5.2106238
20
37.015478
40
0.6828208
50
359.6455037
51
9.8607896
0
ARC
8
DEFAULT_255_1_234
10
5.4466936
20
37.0581099
40
0.4429406
50
9.6571907
51
26.1932807
0
ARC
8
DEFAULT_255_1_234
10
5.5394925
20
37.1012118
40
0.3406537
50
26.5777228
51
40.1532208
0
ARC
8
DEFAULT_255_1_234
10
5.5650651
20
37.1211619
40
0.308246
50
40.3840491
51
80.1431104
0
ARC
8
DEFAULT_255_1_234
10
5.5323769
20
36.9762333
40
0.4566909
50
79.2152159
51
89.7445637
0
LINE
8
DEFAULT_255_1_234
10
6.6845578
20
36.3904
11
6.278955
21
36.3904
0
LINE
8
DEFAULT_255_1_234
10
6.278955
20
36.3904
11
6.278955
21
37.5598211
0
LINE
8
DEFAULT_255_1_234
10
6.278955
20
37.5598211
11
6.6612658
21
37.5598211
0
LINE
8
DEFAULT_255_1_234
10
6.69018
20
36.9373614
11
6.4331644
21
36.9373614
0
LINE
8
DEFAULT_255_1_234
10
6.4331644
20
36.9373614
11
6.4331644
21
36.5164983
0
LINE
8
DEFAULT_255_1_234
10
6.4331644
20
36.5164983
11
6.6877705
21
36.5164983
0
LINE
8
DEFAULT_255_1_234
10
6.4331644
20
37.4329196
11
6.4331644
21
37.0610501
0
LINE
8
DEFAULT_255_1_234
10
6.4331644
20
37.0610501
11
6.6660848
21
37.0610501
0
LINE
8
DEFAULT_255_1_234
10
6.6612658
20
37.4329196
11
6.4331644
21
37.4329196
0
ARC
8
DEFAULT_255_1_234
10
6.6650367
20
36.8230901
40
0.7367406
50
82.1257326
51
90.2932599
0
ARC
8
DEFAULT_255_1_234
10
6.7039321
20
37.0949013
40
0.4621653
50
69.9044149
51
82.2857423
0
ARC
8
DEFAULT_255_1_234
10
6.7609999
20
37.2491637
40
0.2976871
50
51.1838526
51
70.0181538
0
ARC
8
DEFAULT_255_1_234
10
6.7864965
20
37.286224
40
0.2528517
50
12.1017251
51
50.4214761
0
ARC
8
DEFAULT_255_1_234
10
6.6480839
20
37.2514676
40
0.3955061
50
359.5251267
51
12.8211707
0
ARC
8
DEFAULT_255_1_234
10
6.8060766
20
37.2445344
40
0.2375281
50
323.4908128
51
0.8817314
0
ARC
8
DEFAULT_255_1_234
10
6.7642452
20
37.276855
40
0.2903817
50
298.6825083
51
323.2756573
0
ARC
8
DEFAULT_255_1_234
10
6.7280815
20
37.3369649
40
0.3604842
50
293.1999386
51
299.1396394
0
ARC
8
DEFAULT_255_1_234
10
6.7953788
20
36.7284126
40
0.2871098
50
54.0011765
51
74.9167975
0
ARC
8
DEFAULT_255_1_234
10
6.8070148
20
36.7481332
40
0.2643248
50
36.3580696
51
53.5291921
0
ARC
8
DEFAULT_255_1_234
10
6.794339
20
36.7390998
40
0.2798884
50
4.8189881
51
36.3089977
0
ARC
8
DEFAULT_255_1_234
10
6.7164225
20
36.728127
40
0.358478
50
359.9370252
51
5.5204067
0
ARC
8
DEFAULT_255_1_234
10
6.6839746
20
36.7240667
40
0.3909429
50
344.7478609
51
0.5373281
0
ARC
8
DEFAULT_255_1_234
10
6.7830718
20
36.6973544
40
0.2883093
50
311.1786488
51
344.6886812
0
ARC
8
DEFAULT_255_1_234
10
6.7538765
20
36.7336987
40
0.3348923
50
286.0418249
51
310.8441291
0
ARC
8
DEFAULT_255_1_234
10
6.7031597
20
36.8983807
40
0.5071869
50
274.1042341
51
286.4071509
0
ARC
8
DEFAULT_255_1_234
10
6.6854853
20
37.0867229
40
0.6963234
50
269.9236873
51
274.445647
0
ARC
8
DEFAULT_255_1_234
10
6.6900853
20
36.8527537
40
0.3362634
50
269.6055768
51
281.3740047
0
ARC
8
DEFAULT_255_1_234
10
6.7131491
20
36.7434353
40
0.224546
50
281.1055983
51
302.5132223
0
ARC
8
DEFAULT_255_1_234
10
6.7278391
20
36.7170823
40
0.1944357
50
303.0368945
51
311.8811219
0
ARC
8
DEFAULT_255_1_234
10
6.7349797
20
36.708589
40
0.1833454
50
311.9916004
51
351.7143462
0
ARC
8
DEFAULT_255_1_234
10
6.6533027
20
36.725093
40
0.2665871
50
350.7339597
51
0.2221581
0
ARC
8
DEFAULT_255_1_234
10
6.6425473
20
36.7307467
40
0.2773789
50
359.0456241
51
17.2296242
0
ARC
8
DEFAULT_255_1_234
10
6.746459
20
36.7616163
40
0.1689915
50
17.6685481
51
78.9940892
0
ARC
8
DEFAULT_255_1_234
10
6.6947754
20
36.5761224
40
0.3612658
50
76.5635957
51
90.6980921
0
LINE
8
DEFAULT_255_1_234
10
6.6903739
20
36.9373613
11
6.69018
21
36.9373614
0
ARC
8
DEFAULT_255_1_234
10
6.6683415
20
37.3896036
40
0.3285612
50
269.6064736
51
281.4533503
0
ARC
8
DEFAULT_255_1_234
10
6.6906234
20
37.2844688
40
0.2210975
50
281.2041486
51
302.5148063
0
ARC
8
DEFAULT_255_1_234
10
6.7043084
20
37.2598241
40
0.1929674
50
303.021671
51
309.8369575
0
ARC
8
DEFAULT_255_1_234
10
6.7226546
20
37.2392488
40
0.1654181
50
309.5228395
51
356.9509836
0
ARC
8
DEFAULT_255_1_234
10
6.6563128
20
37.2487932
40
0.2322512
50
355.4701227
51
0.0492546
0
ARC
8
DEFAULT_255_1_234
10
6.628422
20
37.2510094
40
0.2601498
50
359.5558597
51
11.2096359
0
ARC
8
DEFAULT_255_1_234
10
6.7241509
20
37.270823
40
0.1623975
50
10.9182341
51
31.3230275
0
ARC
8
DEFAULT_255_1_234
10
6.7527243
20
37.2867214
40
0.1297302
50
31.8852677
51
52.1412565
0
ARC
8
DEFAULT_255_1_234
10
6.7252976
20
37.247975
40
0.1771663
50
52.8285564
51
71.9850297
0
ARC
8
DEFAULT_255_1_234
10
6.6877152
20
37.1373664
40
0.2939794
50
71.6863486
51
82.8455995
0
ARC
8
DEFAULT_255_1_234
10
6.6637688
20
36.9564149
40
0.476506
50
82.6984714
51
90.1729175
0
ARC
8
DEFAULT_255_1_234
10
6.6615323
20
37.0787623
40
0.3541573
50
89.8708275
51
90.0431131
0
LINE
8
DEFAULT_255_1_234
10
5.0801023
20
45.1591849
11
4.9250897
21
45.1591849
0
LINE
8
DEFAULT_255_1_234
10
4.2327539
20
44.6668394
11
4.3877665
21
44.6668394
0
ARC
8
DEFAULT_255_1_234
10
4.990971
20
46.0538768
40
1.252368
50
248.9199003
51
254.1439814
0
ARC
8
DEFAULT_255_1_234
10
4.8229205
20
45.6212234
40
0.788226
50
241.633709
51
249.0064503
0
ARC
8
DEFAULT_255_1_234
10
4.67006
20
45.3411317
40
0.4691427
50
230.498225
51
241.8087113
0
ARC
8
DEFAULT_255_1_234
10
4.5916174
20
45.2411906
40
0.3421437
50
227.4064532
51
229.9881192
0
ARC
8
DEFAULT_255_1_234
10
4.5428694
20
45.1936088
40
0.2741476
50
200.6781896
51
228.1763934
0
ARC
8
DEFAULT_255_1_234
10
4.5501005
20
45.1921077
40
0.2804109
50
179.5061581
51
199.8694617
0
ARC
8
DEFAULT_255_1_234
10
4.5491757
20
45.199521
40
0.2795204
50
132.4834203
51
181.0242172
0
ARC
8
DEFAULT_255_1_234
10
4.6087339
20
45.1432704
40
0.3612768
50
129.2532479
51
133.4242687
0
ARC
8
DEFAULT_255_1_234
10
4.6233789
20
45.1212965
40
0.3875675
50
101.98776
51
128.8742646
0
ARC
8
DEFAULT_255_1_234
10
4.6632399
20
44.9491741
40
0.5642249
50
89.5906553
51
102.3169264
0
ARC
8
DEFAULT_255_1_234
10
4.6702891
20
44.9810148
40
0.5323783
50
77.2360837
51
90.3248275
0
ARC
8
DEFAULT_255_1_234
10
4.6909971
20
45.07774
40
0.4334697
50
63.837784
51
77.0809408
0
ARC
8
DEFAULT_255_1_234
10
4.7187732
20
45.1294911
40
0.3747796
50
45.9864267
51
64.1607727
0
ARC
8
DEFAULT_255_1_234
10
4.7448614
20
45.1592866
40
0.3352302
50
32.2747395
51
45.6547121
0
ARC
8
DEFAULT_255_1_234
10
4.7515054
20
45.161188
40
0.328603
50
359.6507365
51
32.6130309
0
ARC
8
DEFAULT_255_1_234
10
4.657215
20
45.161666
40
0.2678863
50
359.469343
51
14.9832209
0
ARC
8
DEFAULT_255_1_234
10
4.7277212
20
45.1805539
40
0.1948938
50
14.9781179
51
48.2004265
0
ARC
8
DEFAULT_255_1_234
10
4.7112856
20
45.1598983
40
0.2212521
50
48.5927837
51
74.1241538
0
ARC
8
DEFAULT_255_1_234
10
4.6779346
20
45.0498248
40
0.3362561
50
73.7888341
51
86.6652678
0
ARC
8
DEFAULT_255_1_234
10
4.6676911
20
44.9290881
40
0.4573953
50
86.2640471
51
90.0526343
0
ARC
8
DEFAULT_255_1_234
10
4.6648624
20
44.9686192
40
0.4178709
50
89.6697524
51
99.2309573
0
ARC
8
DEFAULT_255_1_234
10
4.6406075
20
45.1130964
40
0.2713749
50
99.069534
51
113.7658566
0
ARC
8
DEFAULT_255_1_234
10
4.6132266
20
45.1776677
40
0.2012469
50
114.0401004
51
127.9850673
0
ARC
8
DEFAULT_255_1_234
10
4.589183
20
45.207273
40
0.1631167
50
127.7287463
51
176.7105154
0
ARC
8
DEFAULT_255_1_234
10
4.6570547
20
45.1971693
40
0.2315392
50
175.1779447
51
180.0581938
0
ARC
8
DEFAULT_255_1_234
10
4.5727394
20
45.1959428
40
0.1472271
50
179.6142195
51
228.1246017
0
ARC
8
DEFAULT_255_1_234
10
4.6169063
20
45.2368308
40
0.2072299
50
226.5779593
51
230.8800004
0
ARC
8
DEFAULT_255_1_234
10
4.6640141
20
45.2993636
40
0.2854818
50
231.4635071
51
241.9260842
0
ARC
8
DEFAULT_255_1_234
10
4.7837319
20
45.51968
40
0.53622
50
241.7178533
51
248.3259551
0
ARC
8
DEFAULT_255_1_234
10
4.9222691
20
45.8629064
40
0.9063478
50
248.2007737
51
252.4528373
0
ARC
8
DEFAULT_255_1_234
10
5.0426416
20
46.2350441
40
1.2974635
50
252.3391078
51
254.3469452
0
ARC
8
DEFAULT_255_1_234
10
4.2884119
20
43.5373148
40
1.5037162
50
71.0197183
51
74.4087047
0
ARC
8
DEFAULT_255_1_234
10
4.4578804
20
44.0265111
40
0.9859993
50
66.1847285
51
71.086374
0
ARC
8
DEFAULT_255_1_234
10
4.6135116
20
44.37692
40
0.6025855
50
59.3536294
51
66.2691831
0
ARC
8
DEFAULT_255_1_234
10
4.7023769
20
44.5272609
40
0.4279449
50
49.1020879
51
59.3293958
0
ARC
8
DEFAULT_255_1_234
10
4.7842509
20
44.6205834
40
0.3038015
50
32.7919921
51
49.2505539
0
ARC
8
DEFAULT_255_1_234
10
4.8163599
20
44.6434191
40
0.264448
50
31.1181161
51
32.4005348
0
ARC
8
DEFAULT_255_1_234
10
4.8075136
20
44.6398779
40
0.2738556
50
8.1116974
51
30.7958831
0
ARC
8
DEFAULT_255_1_234
10
4.7264804
20
44.6260753
40
0.3560327
50
359.8389159
51
8.4706516
0
ARC
8
DEFAULT_255_1_234
10
4.7890596
20
44.6212137
40
0.2934776
50
337.4731098
51
0.7537279
0
ARC
8
DEFAULT_255_1_234
10
4.8069291
20
44.6192387
40
0.2762607
50
307.5917067
51
336.4315538
0
ARC
8
DEFAULT_255_1_234
10
4.7609119
20
44.6705102
40
0.3449979
50
307.6551545
51
308.4529766
0
ARC
8
DEFAULT_255_1_234
10
4.7378838
20
44.706025
40
0.3871988
50
284.3734338
51
307.1424381
0
ARC
8
DEFAULT_255_1_234
10
4.6883668
20
44.8881932
40
0.5759636
50
272.4382747
51
284.646547
0
ARC
8
DEFAULT_255_1_234
10
4.6756876
20
45.0681893
40
0.7563528
50
269.9708387
51
272.8178037
0
ARC
8
DEFAULT_255_1_234
10
4.6713916
20
44.8643716
40
0.5525489
50
248.2707594
51
270.4055579
0
ARC
8
DEFAULT_255_1_234
10
4.6659657
20
44.8453192
40
0.5328452
50
246.1383403
51
248.0542782
0
ARC
8
DEFAULT_255_1_234
10
4.6241036
20
44.7573843
40
0.4355005
50
233.1670131
51
246.4950969
0
ARC
8
DEFAULT_255_1_234
10
4.5686941
20
44.6825812
40
0.3424126
50
215.3403242
51
233.0843104
0
ARC
8
DEFAULT_255_1_234
10
4.5414372
20
44.6627549
40
0.3087104
50
179.2419209
51
215.2648451
0
ARC
8
DEFAULT_255_1_234
10
4.6181966
20
44.6641666
40
0.2304457
50
179.335461
51
199.1045811
0
ARC
8
DEFAULT_255_1_234
10
4.5849643
20
44.6554766
40
0.1962176
50
199.8828939
51
232.7063202
0
ARC
8
DEFAULT_255_1_234
10
4.6321911
20
44.7148788
40
0.2720938
50
232.3738199
51
255.5136649
0
ARC
8
DEFAULT_255_1_234
10
4.6662778
20
44.8392835
40
0.4010747
50
255.2446292
51
267.5320849
0
ARC
8
DEFAULT_255_1_234
10
4.6750401
20
44.9625702
40
0.5246356
50
267.1557994
51
270.0286766
0
ARC
8
DEFAULT_255_1_234
10
4.6778173
20
44.918195
40
0.4802668
50
269.7000017
51
278.1660162
0
ARC
8
DEFAULT_255_1_234
10
4.7034178
20
44.7451515
40
0.3053425
50
278.0231263
51
290.625471
0
ARC
8
DEFAULT_255_1_234
10
4.7381865
20
44.6524025
40
0.206291
50
290.6619762
51
307.0370976
0
ARC
8
DEFAULT_255_1_234
10
4.7682254
20
44.6155504
40
0.1587906
50
306.3943566
51
355.3030547
0
ARC
8
DEFAULT_255_1_234
10
4.7170186
20
44.6232113
40
0.2104809
50
354.3660432
51
0.0698737
0
ARC
8
DEFAULT_255_1_234
10
4.7312531
20
44.6254617
40
0.1962563
50
359.417946
51
16.1971788
0
ARC
8
DEFAULT_255_1_234
10
4.7767841
20
44.6379418
40
0.149053
50
16.4723299
51
52.6262157
0
ARC
8
DEFAULT_255_1_234
10
4.6946895
20
44.5295433
40
0.2850296
50
52.7386432
51
62.4979148
0
ARC
8
DEFAULT_255_1_234
10
4.5561972
20
44.2689283
40
0.5801521
50
62.2515216
51
68.1220564
0
ARC
8
DEFAULT_255_1_234
10
4.3841883
20
43.8461872
40
1.0365451
50
68.0062803
51
71.8053402
0
ARC
8
DEFAULT_255_1_234
10
4.2046255
20
43.3076758
40
1.6042013
50
71.7183119
51
73.9258742
0
LINE
8
DEFAULT_255_1_234
10
5.6037716
20
44.3279
11
5.2800926
21
44.3279
0
LINE
8
DEFAULT_255_1_234
10
5.2800926
20
44.3279
11
5.2800926
21
45.4973211
0
LINE
8
DEFAULT_255_1_234
10
5.2800926
20
45.4973211
11
5.610197
21
45.4973211
0
LINE
8
DEFAULT_255_1_234
10
6.1258346
20
44.9519661
11
6.1258346
21
44.8772709
0
LINE
8
DEFAULT_255_1_234
10
5.6142129
20
45.3704196
11
5.434302
21
45.3704196
0
LINE
8
DEFAULT_255_1_234
10
5.434302
20
45.3704196
11
5.434302
21
44.4539983
0
LINE
8
DEFAULT_255_1_234
10
5.434302
20
44.4539983
11
5.5965431
21
44.4539983
0
LINE
8
DEFAULT_255_1_234
10
5.9732316
20
44.8804836
11
5.9732316
21
44.9487534
0
ARC
8
DEFAULT_255_1_234
10
5.6140913
20
44.9107894
40
0.5865446
50
75.4101064
51
90.3804066
0
ARC
8
DEFAULT_255_1_234
10
5.6370426
20
45.0064492
40
0.4881916
50
60.145586
51
75.1888407
0
ARC
8
DEFAULT_255_1_234
10
5.6529202
20
45.0341199
40
0.4562893
50
26.5253612
51
60.1450928
0
ARC
8
DEFAULT_255_1_234
10
5.5408951
20
44.9747158
40
0.5830602
50
7.4030428
51
26.8320788
0
ARC
8
DEFAULT_255_1_234
10
5.3814708
20
44.9498804
40
0.7443669
50
0.1605367
51
7.7176192
0
ARC
8
DEFAULT_255_1_234
10
5.3978612
20
44.8734434
40
0.7279835
50
348.7289388
51
0.3012466
0
ARC
8
DEFAULT_255_1_234
10
5.5635043
20
44.8405386
40
0.559104
50
333.0706509
51
348.7181832
0
ARC
8
DEFAULT_255_1_234
10
5.66018
20
44.7880319
40
0.4491417
50
299.2531685
51
333.4571258
0
ARC
8
DEFAULT_255_1_234
10
5.624094
20
44.8565828
40
0.5265881
50
278.107187
51
299.0339503
0
ARC
8
DEFAULT_255_1_234
10
5.5985019
20
45.0073216
40
0.679442
50
270.4443897
51
278.4511052
0
ARC
8
DEFAULT_255_1_234
10
5.6005849
20
44.9144213
40
0.4604407
50
269.4970433
51
284.0205042
0
ARC
8
DEFAULT_255_1_234
10
5.636115
20
44.7778978
40
0.3193797
50
283.7700273
51
318.1555492
0
ARC
8
DEFAULT_255_1_234
10
5.6023908
20
44.8031367
40
0.3613588
50
318.7415601
51
343.6873628
0
ARC
8
DEFAULT_255_1_234
10
5.4219931
20
44.8594832
40
0.5503313
50
343.3325091
51
355.8548958
0
ARC
8
DEFAULT_255_1_234
10
5.2121616
20
44.8794319
40
0.7610708
50
355.4988528
51
0.0791727
0
ARC
8
DEFAULT_255_1_234
10
5.2904238
20
44.952978
40
0.6828208
50
359.6455037
51
9.8607896
0
ARC
8
DEFAULT_255_1_234
10
5.5264936
20
44.9956099
40
0.4429406
50
9.6571907
51
26.1932807
0
ARC
8
DEFAULT_255_1_234
10
5.6192925
20
45.0387118
40
0.3406537
50
26.5777228
51
40.1532208
0
ARC
8
DEFAULT_255_1_234
10
5.6448651
20
45.0586619
40
0.308246
50
40.3840491
51
80.1431104
0
ARC
8
DEFAULT_255_1_234
10
5.6121769
20
44.9137333
40
0.4566909
50
79.2152159
51
89.7445637
0
LINE
8
DEFAULT_255_1_234
10
7.0992813
20
44.3279
11
6.9876401
21
44.6331061
0
LINE
8
DEFAULT_255_1_234
10
6.9876401
20
44.6331061
11
6.4977041
21
44.6331061
0
LINE
8
DEFAULT_255_1_234
10
6.4977041
20
44.6331061
11
6.3876693
21
44.3279
0
LINE
8
DEFAULT_255_1_234
10
6.3876693
20
44.3279
11
6.2286409
21
44.3279
0
LINE
8
DEFAULT_255_1_234
10
6.2286409
20
44.3279
11
6.6752055
21
45.4973211
0
LINE
8
DEFAULT_255_1_234
10
6.6752055
20
45.4973211
11
6.8101387
21
45.4973211
0
LINE
8
DEFAULT_255_1_234
10
6.8101387
20
45.4973211
11
7.2575065
21
44.3279
0
LINE
8
DEFAULT_255_1_234
10
7.2575065
20
44.3279
11
7.0992813
21
44.3279
0
LINE
8
DEFAULT_255_1_234
10
6.7426721
20
45.3069689
11
6.5442882
21
44.7600075
0
LINE
8
DEFAULT_255_1_234
10
6.5442882
20
44.7600075
11
6.9418592
21
44.7600075
0
LINE
8
DEFAULT_255_1_234
10
6.9418592
20
44.7600075
11
6.7426721
21
45.3069689
0
LINE
8
DEFAULT_255_1_234
10
22.1798119
20
52.3866792
11
22.1798119
21
52.2654
0
LINE
8
DEFAULT_255_1_234
10
22.1798119
20
52.2654
11
21.413584
21
52.2654
0
LINE
8
DEFAULT_255_1_234
10
21.413584
20
52.2654
11
21.413584
21
52.3722221
0
LINE
8
DEFAULT_255_1_234
10
21.413584
20
52.3722221
11
21.8183836
21
52.8219995
0
LINE
8
DEFAULT_255_1_234
10
21.5396823
20
53.0902595
11
21.3910952
21
53.0902595
0
LINE
8
DEFAULT_255_1_234
10
21.9059296
20
52.7264218
11
21.5926918
21
52.3866792
0
LINE
8
DEFAULT_255_1_234
10
21.5926918
20
52.3866792
11
22.1798119
21
52.3866792
0
ARC
8
DEFAULT_255_1_234
10
20.469367
20
54.0149527
40
1.8008286
50
318.5132453
51
320.7828378
0
ARC
8
DEFAULT_255_1_234
10
20.9980644
20
53.5846426
40
1.1191493
50
320.7372736
51
323.9737074
0
ARC
8
DEFAULT_255_1_234
10
21.3900501
20
53.3006361
40
0.6350923
50
323.8961724
51
328.6421089
0
ARC
8
DEFAULT_255_1_234
10
21.5947096
20
53.1744031
40
0.3946393
50
328.8299013
51
331.789948
0
ARC
8
DEFAULT_255_1_234
10
21.6944274
20
53.1229509
40
0.2824501
50
331.4255242
51
352.9364833
0
ARC
8
DEFAULT_255_1_234
10
21.7080775
20
53.1198976
40
0.2685315
50
353.2248685
51
0.0169286
0
ARC
8
DEFAULT_255_1_234
10
21.7290652
20
53.122195
40
0.2475536
50
359.4866256
51
15.9339782
0
ARC
8
DEFAULT_255_1_234
10
21.7797637
20
53.1358286
40
0.1950618
50
16.1714718
51
43.5284424
0
ARC
8
DEFAULT_255_1_234
10
21.7874946
20
53.1435573
40
0.184134
50
43.4415429
51
83.1661404
0
ARC
8
DEFAULT_255_1_234
10
21.7740864
20
53.0698771
40
0.258926
50
82.160215
51
90.1505798
0
ARC
8
DEFAULT_255_1_234
10
21.7709291
20
53.0161865
40
0.3126255
50
89.5460705
51
102.5418777
0
ARC
8
DEFAULT_255_1_234
10
21.7466377
20
53.1192665
40
0.2067346
50
102.1739365
51
129.2061916
0
ARC
8
DEFAULT_255_1_234
10
21.7387449
20
53.1317094
40
0.1921118
50
129.7279328
51
135.7542026
0
ARC
8
DEFAULT_255_1_234
10
21.7508977
20
53.1220045
40
0.2075944
50
136.175737
51
166.3674722
0
ARC
8
DEFAULT_255_1_234
10
21.8515896
20
53.0950182
40
0.3118201
50
165.9092917
51
178.8683903
0
ARC
8
DEFAULT_255_1_234
10
21.9380757
20
53.0903179
40
0.3983935
50
178.438168
51
180.0083905
0
ARC
8
DEFAULT_255_1_234
10
21.7979359
20
53.0942231
40
0.4068601
50
163.2878735
51
180.5581814
0
ARC
8
DEFAULT_255_1_234
10
21.7177621
20
53.116284
40
0.3237344
50
133.454115
51
162.9470031
0
ARC
8
DEFAULT_255_1_234
10
21.7356162
20
53.0973
40
0.349795
50
100.7869394
51
133.4384016
0
ARC
8
DEFAULT_255_1_234
10
21.7703934
20
52.9424319
40
0.5084616
50
89.6605301
51
101.3704185
0
ARC
8
DEFAULT_255_1_234
10
21.7770273
20
52.9485496
40
0.502348
50
78.2171172
51
90.4130393
0
ARC
8
DEFAULT_255_1_234
10
21.8125351
20
53.1109637
40
0.3361092
50
55.9268222
51
78.4888551
0
ARC
8
DEFAULT_255_1_234
10
21.8321791
20
53.1448324
40
0.2970617
50
47.9292255
51
55.4054003
0
ARC
8
DEFAULT_255_1_234
10
21.8423352
20
53.1551502
40
0.2825983
50
4.3347696
51
48.0560701
0
ARC
8
DEFAULT_255_1_234
10
21.7327745
20
53.1381601
40
0.393225
50
359.925209
51
5.5967654
0
ARC
8
DEFAULT_255_1_234
10
21.7756637
20
53.1437816
40
0.3503892
50
337.8914096
51
358.9967724
0
ARC
8
DEFAULT_255_1_234
10
21.5043049
20
53.2484706
40
0.6412172
50
326.9135351
51
338.3505194
0
ARC
8
DEFAULT_255_1_234
10
21.1057353
20
53.5039284
40
1.1146189
50
319.6472867
51
327.095818
0
ARC
8
DEFAULT_255_1_234
10
20.7224356
20
53.8201
40
1.6114559
50
317.2586784
51
319.9046139
0
LINE
8
DEFAULT_255_1_234
10
22.9645127
20
53.4348211
11
22.9645127
21
52.658152
0
LINE
8
DEFAULT_255_1_234
10
22.9645127
20
52.658152
11
23.1267538
21
52.658152
0
LINE
8
DEFAULT_255_1_234
10
23.1267538
20
52.658152
11
23.1267538
21
52.5368728
0
LINE
8
DEFAULT_255_1_234
10
23.1267538
20
52.5368728
11
22.9645127
21
52.5368728
0
LINE
8
DEFAULT_255_1_234
10
22.9645127
20
52.5368728
11
22.9645127
21
52.2654
0
LINE
8
DEFAULT_255_1_234
10
22.9645127
20
52.2654
11
22.8151224
21
52.2654
0
LINE
8
DEFAULT_255_1_234
10
22.8151224
20
52.2654
11
22.8151224
21
52.5368728
0
LINE
8
DEFAULT_255_1_234
10
22.8151224
20
52.5368728
11
22.2826181
21
52.5368728
0
LINE
8
DEFAULT_255_1_234
10
22.2826181
20
52.5368728
11
22.2826181
21
52.6244187
0
LINE
8
DEFAULT_255_1_234
10
22.2826181
20
52.6244187
11
22.8062875
21
53.4348211
0
LINE
8
DEFAULT_255_1_234
10
22.8062875
20
53.4348211
11
22.9645127
21
53.4348211
0
LINE
8
DEFAULT_255_1_234
10
22.7974525
20
53.1994912
11
22.4512846
21
52.658152
0
LINE
8
DEFAULT_255_1_234
10
22.4512846
20
52.658152
11
22.8151224
21
52.658152
0
LINE
8
DEFAULT_255_1_234
10
22.8151224
20
52.658152
11
22.8151224
21
53.2316181
0
LINE
8
DEFAULT_255_1_234
10
22.8151224
20
53.2316181
11
22.7974525
21
53.1994912
0
LINE
8
DEFAULT_255_1_234
10
24.162848
20
52.847701
11
24.162848
21
52.4188062
0
LINE
8
DEFAULT_255_1_234
10
23.261687
20
52.7938884
11
23.261687
21
52.8958915
0
LINE
8
DEFAULT_255_1_234
10
24.162848
20
53.0918659
11
24.0086387
21
53.0918659
0
LINE
8
DEFAULT_255_1_234
10
23.4166996
20
52.8999073
11
23.4166996
21
52.8043296
0
LINE
8
DEFAULT_255_1_234
10
24.0094418
20
52.4597681
11
24.0094418
21
52.7224059
0
LINE
8
DEFAULT_255_1_234
10
24.0094418
20
52.7224059
11
23.7387723
21
52.7224059
0
LINE
8
DEFAULT_255_1_234
10
23.7387723
20
52.7224059
11
23.7387723
21
52.847701
0
LINE
8
DEFAULT_255_1_234
10
23.7387723
20
52.847701
11
24.162848
21
52.847701
0
ARC
8
DEFAULT_255_1_234
10
23.8796987
20
52.6181396
40
0.3462765
50
295.8437914
51
324.8549609
0
ARC
8
DEFAULT_255_1_234
10
23.8380954
20
52.6934567
40
0.4322211
50
291.5695085
51
296.4549398
0
ARC
8
DEFAULT_255_1_234
10
23.7870205
20
52.8299275
40
0.5779178
50
278.6622409
51
291.3045483
0
ARC
8
DEFAULT_255_1_234
10
23.7530697
20
53.0447408
40
0.7953952
50
270.020006
51
278.7494541
0
ARC
8
DEFAULT_255_1_234
10
23.7492621
20
53.1764036
40
0.927067
50
269.9969998
51
270.2524872
0
ARC
8
DEFAULT_255_1_234
10
23.7454334
20
52.7680589
40
0.5187361
50
253.5786322
51
270.4175299
0
ARC
8
DEFAULT_255_1_234
10
23.728099
20
52.7009236
40
0.4494451
50
238.8203306
51
253.2788235
0
ARC
8
DEFAULT_255_1_234
10
23.7261363
20
52.6958231
40
0.4440665
50
206.7883783
51
238.6962764
0
ARC
8
DEFAULT_255_1_234
10
23.8035273
20
52.7422405
40
0.5341121
50
206.1129412
51
207.4916643
0
ARC
8
DEFAULT_255_1_234
10
23.8632188
20
52.7676488
40
0.5989041
50
188.6921119
51
205.7821245
0
ARC
8
DEFAULT_255_1_234
10
24.048855
20
52.799223
40
0.7871862
50
180.3882829
51
188.9219216
0
ARC
8
DEFAULT_255_1_234
10
24.1716364
20
52.9015464
40
0.909967
50
170.2024264
51
180.3560651
0
ARC
8
DEFAULT_255_1_234
10
23.8552882
20
52.9581237
40
0.5886083
50
154.2857445
51
170.3893044
0
ARC
8
DEFAULT_255_1_234
10
23.7271085
20
53.016795
40
0.4476743
50
139.8401567
51
153.9332699
0
ARC
8
DEFAULT_255_1_234
10
23.6911821
20
53.0455577
40
0.4016697
50
98.4190291
51
139.6707122
0
ARC
8
DEFAULT_255_1_234
10
23.7291339
20
52.8610328
40
0.5898566
50
89.7659205
51
99.4415478
0
ARC
8
DEFAULT_255_1_234
10
23.7356588
20
52.8675844
40
0.5833147
50
78.0551672
51
90.4042112
0
ARC
8
DEFAULT_255_1_234
10
23.7761098
20
53.0494644
40
0.3970055
50
54.6380464
51
78.3339173
0
ARC
8
DEFAULT_255_1_234
10
23.7951154
20
53.0814795
40
0.3599102
50
50.031736
51
54.1558201
0
ARC
8
DEFAULT_255_1_234
10
23.7843942
20
53.0718766
40
0.3741624
50
18.1092409
51
49.7180913
0
ARC
8
DEFAULT_255_1_234
10
23.6387142
20
53.0185089
40
0.5292424
50
7.9672797
51
18.6984571
0
ARC
8
DEFAULT_255_1_234
10
23.653762
20
53.0308504
40
0.3600838
50
9.7557294
51
27.3215714
0
ARC
8
DEFAULT_255_1_234
10
23.7665092
20
53.0871912
40
0.2340608
50
27.7361077
51
84.5257964
0
ARC
8
DEFAULT_255_1_234
10
23.7337479
20
52.922864
40
0.4011215
50
82.106034
51
90.2001166
0
ARC
8
DEFAULT_255_1_234
10
23.7287696
20
52.9736215
40
0.3503799
50
89.4150119
51
105.5823402
0
ARC
8
DEFAULT_255_1_234
10
23.7030694
20
53.0671867
40
0.2533503
50
105.6678618
51
144.2648758
0
ARC
8
DEFAULT_255_1_234
10
23.7923949
20
53.0036289
40
0.3629787
50
144.3561283
51
162.8564086
0
ARC
8
DEFAULT_255_1_234
10
24.0007858
20
52.9367017
40
0.5818441
50
162.6076014
51
173.6780284
0
ARC
8
DEFAULT_255_1_234
10
24.3069002
20
52.899489
40
0.8902007
50
173.4670142
51
179.9730753
0
ARC
8
DEFAULT_255_1_234
10
24.1160673
20
52.800126
40
0.6993804
50
179.6556203
51
190.0080463
0
ARC
8
DEFAULT_255_1_234
10
23.8844502
20
52.7576375
40
0.4639066
50
189.8116607
51
206.6796816
0
ARC
8
DEFAULT_255_1_234
10
23.7999654
20
52.7182503
40
0.3707421
50
207.1031645
51
217.7074368
0
ARC
8
DEFAULT_255_1_234
10
23.7365343
20
52.6630559
40
0.2868417
50
216.7345547
51
265.6812148
0
ARC
8
DEFAULT_255_1_234
10
23.7496134
20
52.7534855
40
0.3780509
50
264.7366618
51
270.0611241
0
ARC
8
DEFAULT_255_1_234
10
23.7519397
20
53.0375111
40
0.662079
50
269.8335834
51
276.0539546
0
ARC
8
DEFAULT_255_1_234
10
23.7726402
20
52.847356
40
0.4708016
50
275.9894168
51
284.4615085
0
ARC
8
DEFAULT_255_1_234
10
23.7924409
20
52.7640663
40
0.3852094
50
284.7034461
51
286.4953897
0
ARC
8
DEFAULT_255_1_234
10
23.8331422
20
52.6329965
40
0.2479842
50
286.0770838
51
304.2625829
0
ARC
8
DEFAULT_255_1_234
10
23.8464836
20
52.6111594
40
0.2224291
50
304.5891602
51
317.1073298
0
ENDSEC
0
EOF