0
SECTION
2
HEADER
9
$MEASUREMENT
70
1
0
ENDSEC
0
SECTION
2
TABLES
0
TABLE
2
LTYPE
0
LTYPE
72
65
70
64
2
CONTINUOUS
3
______
73
0
40
0
0
ENDTAB
0
TABLE
2
LAYER
0
LAYER
2
DEFAULT_255_2_778
70
0
62
255
6
CONTINUOUS
0
ENDTAB
0
ENDSEC
0
SECTION
2
ENTITIES
0
LINE
8
DEFAULT_255_2_778
10
95.1012042
20
0.0783
11
95.0832042
21
0.0783
0
ARC
8
DEFAULT_255_2_778
10
94.65112
20
0.3283523
40
0.5000969
50
269.9996485
51
0.0003515
0
LINE
8
DEFAULT_255_2_778
10
94.6511169
20
-0.1717446
11
0.1552169
21
-0.1717446
0
LINE
8
DEFAULT_255_2_778
10
1.6511169
20
27.0281554
11
0.1512169
21
25.5282554
0
LINE
8
DEFAULT_255_2_778
10
0.1512169
20
25.5282554
11
0.6513169
21
25.3211554
0
LINE
8
DEFAULT_255_2_778
10
4.6512169
20
26.5281554
11
4.1512169
21
27.0281554
0
LINE
8
DEFAULT_255_2_778
10
4.1512169
20
27.0281554
11
4.1512169
21
62.6281554
0
LINE
8
DEFAULT_255_2_778
10
0.1511615
20
88.8279804
11
0.1511614
21
88.8283582
0
ARC
8
DEFAULT_255_2_778
10
1.0506421
20
88.8285031
40
0.8994807
50
134.9956406
51
180.0092286
0
ARC
8
DEFAULT_255_2_778
10
1.0507389
20
88.8285998
40
0.8994808
50
89.9907714
51
135.0043594
0
LINE
8
DEFAULT_255_2_778
10
1.0508838
20
89.7280805
11
1.0512615
21
89.7280804
0
ARC
8
DEFAULT_255_2_778
10
1.0512584
20
88.8279835
40
0.5000969
50
89.9996485
51
180.0003515
0
ARC
8
DEFAULT_255_2_778
10
8.2505422
20
89.7806111
40
0.3008853
50
280.0911063
51
339.2235907
0
ARC
8
DEFAULT_255_2_778
10
2.4490061
20
87.7349375
40
1.4930445
50
89.9172873
51
119.8171141
0
ARC
8
DEFAULT_255_2_778
10
2.4522149
20
87.7274104
40
1.5011709
50
119.7805207
51
172.1113798
0
ARC
8
DEFAULT_255_2_778
10
2.465022
20
87.7281271
40
1.5137604
50
172.2047816
51
180.0017668
0
LINE
8
DEFAULT_255_2_778
10
4.1511615
20
27.0281804
11
1.6510615
21
27.0281804
0
LINE
8
DEFAULT_255_2_778
10
1.6510615
20
27.0281804
11
1.8582615
21
26.5280804
0
LINE
8
DEFAULT_255_2_778
10
1.0512615
20
89.7280804
11
8.1513615
21
89.7280804
0
LINE
8
DEFAULT_255_2_778
10
8.1513615
20
89.7280804
11
8.1513615
21
89.5280804
0
LINE
8
DEFAULT_255_2_778
10
8.1513615
20
89.5280804
11
7.0170615
21
89.3280804
0
LINE
8
DEFAULT_255_2_778
10
7.0170615
20
89.3280804
11
1.0512615
21
89.3280804
0
LINE
8
DEFAULT_255_2_778
10
0.5511615
20
88.8279804
11
0.5511615
21
85.0779804
0
LINE
8
DEFAULT_255_2_778
10
8.3032615
20
89.4843804
11
6.8498615
21
89.2279804
0
LINE
8
DEFAULT_255_2_778
10
6.8498615
20
89.2279804
11
2.4511615
21
89.2279804
0
LINE
8
DEFAULT_255_2_778
10
0.9512615
20
87.7280804
11
0.9512615
21
85.0779804
0
ARC
8
DEFAULT_255_2_778
10
0.6512621
20
89.3280768
40
0.5000969
50
89.9996485
51
180.0003515
0
ARC
8
DEFAULT_255_2_778
10
94.6512894
20
89.328098
40
0.5000758
50
359.9972237
51
89.991324
0
ARC
8
DEFAULT_255_2_778
10
116.6511896
20
76.1279981
40
0.5000756
50
0.0086621
51
90.0028016
0
LINE
8
DEFAULT_255_2_778
10
4.1511652
20
28.3281737
11
2.1511652
21
28.3281737
0
LINE
8
DEFAULT_255_2_778
10
2.1511652
20
28.3281737
11
2.1511652
21
27.0282737
0
LINE
8
DEFAULT_255_2_778
10
4.6511652
20
62.6281737
11
3.0512652
21
62.6281737
0
LINE
8
DEFAULT_255_2_778
10
3.0512652
20
62.6281737
11
3.0512652
21
61.6283737
0
LINE
8
DEFAULT_255_2_778
10
3.0512652
20
61.6283737
11
1.7513652
21
60.6284737
0
LINE
8
DEFAULT_255_2_778
10
1.7513652
20
60.6284737
11
1.2512652
21
60.6284737
0
LINE
8
DEFAULT_255_2_778
10
1.2512652
20
60.6284737
11
0.1511652
21
61.6280737
0
LINE
8
DEFAULT_255_2_778
10
0.1511652
20
61.6280737
11
0.1511652
21
89.3280737
0
LINE
8
DEFAULT_255_2_778
10
0.6512652
20
89.8281737
11
4.1511652
21
89.8281737
0
LINE
8
DEFAULT_255_2_778
10
4.1511652
20
89.8281737
11
4.1511652
21
89.7281737
0
LINE
8
DEFAULT_255_2_778
10
0.1511652
20
-0.1703263
11
0.1511652
21
26.6784737
0
LINE
8
DEFAULT_255_2_778
10
0.1511652
20
26.6784737
11
2.1969652
21
29.8283737
0
LINE
8
DEFAULT_255_2_778
10
2.1969652
20
29.8283737
11
2.7512652
21
29.8283737
0
LINE
8
DEFAULT_255_2_778
10
2.7512652
20
29.8283737
11
2.9512652
21
29.3282737
0
LINE
8
DEFAULT_255_2_778
10
2.9512652
20
29.3282737
11
2.9512652
21
28.3284737
0
LINE
8
DEFAULT_255_2_778
10
7.1512652
20
89.2812737
11
7.1512652
21
89.3519737
0
LINE
8
DEFAULT_255_2_778
10
7.1512652
20
89.7281737
11
7.1512652
21
89.8281737
0
LINE
8
DEFAULT_255_2_778
10
7.1512652
20
89.8281737
11
94.6513652
21
89.8281737
0
LINE
8
DEFAULT_255_2_778
10
95.1513652
20
89.3280737
11
95.1513652
21
75.8279737
0
LINE
8
DEFAULT_255_2_778
10
95.1513652
20
75.8279737
11
91.1514652
21
75.8279737
0
LINE
8
DEFAULT_255_2_778
10
95.1511652
20
74.9281737
11
96.1327652
21
76.6280737
0
LINE
8
DEFAULT_255_2_778
10
96.1327652
20
76.6280737
11
116.6511652
21
76.6280737
0
LINE
8
DEFAULT_255_2_778
10
117.1512652
20
76.1280737
11
117.1512652
21
74.9630737
0
LINE
8
DEFAULT_255_2_778
10
2.4221367
20
89.2280675
11
2.4160367
21
89.2278675
0
LINE
8
DEFAULT_255_2_778
10
91.1512367
20
87.5283675
11
89.6512367
21
89.0283675
0
LINE
8
DEFAULT_255_2_778
10
89.6512367
20
89.0283675
11
89.7513367
21
89.0283675
0
LINE
8
DEFAULT_255_2_778
10
83.1512367
20
89.8281675
11
83.1512367
21
-0.1719325
0
LINE
8
DEFAULT_255_2_778
10
94.3513367
20
75.7282675
11
94.3513367
21
75.8282675
0
LINE
8
DEFAULT_255_2_778
10
95.1011367
20
0.0780675
11
95.1011367
21
0.1119675
0
LINE
8
DEFAULT_255_2_778
10
2.8213367
20
89.3280675
11
2.5269367
21
89.2484675
0
ARC
8
DEFAULT_255_2_778
10
116.6512527
20
0.3283353
40
0.5000116
50
269.9898688
51
359.9986732
0
ARC
8
DEFAULT_255_2_778
10
65.1492635
20
10.8314865
40
1.4981026
50
151.5802751
51
180.1209614
0
ARC
8
DEFAULT_255_2_778
10
65.1473193
20
10.8318216
40
1.4962333
50
98.4320341
51
151.5561276
0
ARC
8
DEFAULT_255_2_778
10
65.1505139
20
10.8040926
40
1.5241313
50
89.9793083
51
98.3979756
0
ARC
8
DEFAULT_255_2_778
10
65.1536996
20
10.8814553
40
1.4467708
50
90.0000012
51
90.104365
0
ARC
8
DEFAULT_255_2_778
10
65.15356
20
10.8309258
40
1.4973002
50
44.9971221
51
89.9946594
0
ARC
8
DEFAULT_255_2_778
10
65.1540883
20
10.830994
40
1.4968784
50
359.9987245
51
45.009574
0
ARC
8
DEFAULT_255_2_778
10
65.2020697
20
10.8309609
40
1.4488969
50
359.8957161
51
359.9999929
0
ARC
8
DEFAULT_255_2_778
10
65.1528157
20
10.8251947
40
1.4981519
50
331.5856128
51
0.11967
0
ARC
8
DEFAULT_255_2_778
10
65.1548565
20
10.8247326
40
1.4961372
50
278.4333789
51
331.563985
0
ARC
8
DEFAULT_255_2_778
10
65.1516187
20
10.8527984
40
1.5243748
50
269.9791601
51
278.3990496
0
ARC
8
DEFAULT_255_2_778
10
65.1479239
20
10.826437
40
1.4980165
50
241.5794485
51
270.1201144
0
ARC
8
DEFAULT_255_2_778
10
65.1476386
20
10.8246549
40
1.4963136
50
188.4345278
51
241.556579
0
ARC
8
DEFAULT_255_2_778
10
65.1751102
20
10.8277746
40
1.523946
50
179.9793545
51
188.3990533
0
LINE
8
DEFAULT_255_2_778
10
117.1512643
20
1.6282238
11
117.1512643
21
0.3283238
0
LINE
8
DEFAULT_255_2_778
10
116.6511643
20
-0.1716762
11
95.1511643
21
-0.1716762
0
LINE
8
DEFAULT_255_2_778
10
95.1511643
20
-0.1716762
11
95.1511643
21
75.7282238
0
LINE
8
DEFAULT_255_2_778
10
95.1511643
20
75.7282238
11
91.1511643
21
75.7282238
0
LINE
8
DEFAULT_255_2_778
10
91.1511643
20
75.7282238
11
91.1511643
21
87.6284238
0
LINE
8
DEFAULT_255_2_778
10
91.1511643
20
87.6284238
11
89.6512643
21
89.1283238
0
LINE
8
DEFAULT_255_2_778
10
63.6511643
20
10.8283238
11
63.6511643
21
10.8283238
0
ARC
8
DEFAULT_255_2_778
10
34.1663413
20
20.8316876
40
3.0152539
50
162.1238259
51
180.0698758
0
ARC
8
DEFAULT_255_2_778
10
34.1451001
20
20.8339584
40
2.9943443
50
105.6411039
51
162.0404171
0
ARC
8
DEFAULT_255_2_778
10
34.1481747
20
20.8063281
40
3.0217837
50
89.9428337
51
105.5559944
0
ARC
8
DEFAULT_255_2_778
10
34.154867
20
20.8128587
40
3.0152539
50
72.1238259
51
90.0698758
0
ARC
8
DEFAULT_255_2_778
10
34.1571378
20
20.8340999
40
2.9943443
50
15.6411039
51
72.0404171
0
ARC
8
DEFAULT_255_2_778
10
34.1295075
20
20.8310253
40
3.0217837
50
359.9428337
51
15.5559944
0
ARC
8
DEFAULT_255_2_778
10
34.136038
20
20.824333
40
3.0152539
50
342.1238259
51
0.0698758
0
ARC
8
DEFAULT_255_2_778
10
34.1572792
20
20.8220622
40
2.9943443
50
285.6411039
51
342.0404171
0
ARC
8
DEFAULT_255_2_778
10
34.1542046
20
20.8496925
40
3.0217837
50
269.9428337
51
285.5559944
0
ARC
8
DEFAULT_255_2_778
10
34.1475124
20
20.843162
40
3.0152539
50
252.1238259
51
270.0698758
0
ARC
8
DEFAULT_255_2_778
10
34.1452416
20
20.8219208
40
2.9943443
50
195.6411039
51
252.0404171
0
ARC
8
DEFAULT_255_2_778
10
34.1728719
20
20.8249954
40
3.0217837
50
179.9428337
51
195.5559944
0
LINE
8
DEFAULT_255_2_778
10
31.1510897
20
20.8280103
11
31.1510897
21
20.8280103
0
ARC
8
DEFAULT_255_2_778
10
65.1665413
20
44.8317876
40
3.0152539
50
162.1238259
51
180.0698758
0
ARC
8
DEFAULT_255_2_778
10
65.1453001
20
44.8340584
40
2.9943443
50
105.6411039
51
162.0404171
0
ARC
8
DEFAULT_255_2_778
10
65.1483747
20
44.8064281
40
3.0217837
50
89.9428337
51
105.5559944
0
ARC
8
DEFAULT_255_2_778
10
65.155067
20
44.8129587
40
3.0152539
50
72.1238259
51
90.0698758
0
ARC
8
DEFAULT_255_2_778
10
65.1573378
20
44.8341999
40
2.9943443
50
15.6411039
51
72.0404171
0
ARC
8
DEFAULT_255_2_778
10
65.1297075
20
44.8311253
40
3.0217837
50
359.9428337
51
15.5559944
0
ARC
8
DEFAULT_255_2_778
10
65.136238
20
44.824433
40
3.0152539
50
342.1238259
51
0.0698758
0
ARC
8
DEFAULT_255_2_778
10
65.1574792
20
44.8221622
40
2.9943443
50
285.6411039
51
342.0404171
0
ARC
8
DEFAULT_255_2_778
10
65.1544046
20
44.8497925
40
3.0217837
50
269.9428337
51
285.5559944
0
ARC
8
DEFAULT_255_2_778
10
65.1477124
20
44.843262
40
3.0152539
50
252.1238259
51
270.0698758
0
ARC
8
DEFAULT_255_2_778
10
65.1454416
20
44.8220208
40
2.9943443
50
195.6411039
51
252.0404171
0
ARC
8
DEFAULT_255_2_778
10
65.1730719
20
44.8250954
40
3.0217837
50
179.9428337
51
195.5559944
0
LINE
8
DEFAULT_255_2_778
10
62.1512897
20
44.8281103
11
62.1512897
21
44.8281103
0
ARC
8
DEFAULT_255_2_778
10
24.1664245
20
69.3316478
40
3.0152539
50
162.1238259
51
180.0698758
0
ARC
8
DEFAULT_255_2_778
10
24.1451832
20
69.3339186
40
2.9943443
50
105.6411039
51
162.0404171
0
ARC
8
DEFAULT_255_2_778
10
24.1482578
20
69.3062883
40
3.0217837
50
89.9428337
51
105.5559944
0
ARC
8
DEFAULT_255_2_778
10
24.1549501
20
69.3128189
40
3.0152539
50
72.1238259
51
90.0698758
0
ARC
8
DEFAULT_255_2_778
10
24.1572209
20
69.3340601
40
2.9943443
50
15.6411039
51
72.0404171
0
ARC
8
DEFAULT_255_2_778
10
24.1295906
20
69.3309855
40
3.0217837
50
359.9428337
51
15.5559944
0
ARC
8
DEFAULT_255_2_778
10
24.1361212
20
69.3242932
40
3.0152539
50
342.1238259
51
0.0698758
0
ARC
8
DEFAULT_255_2_778
10
24.1573624
20
69.3220224
40
2.9943443
50
285.6411039
51
342.0404171
0
ARC
8
DEFAULT_255_2_778
10
24.1542878
20
69.3496527
40
3.0217837
50
269.9428337
51
285.5559944
0
ARC
8
DEFAULT_255_2_778
10
24.1476037
20
69.3428115
40
3.0149432
50
252.1217587
51
270.0697282
0
ARC
8
DEFAULT_255_2_778
10
24.1455385
20
69.3220842
40
2.994586
50
195.6424528
51
252.0376162
0
ARC
8
DEFAULT_255_2_778
10
24.1725491
20
69.3249703
40
3.0213778
50
179.9431063
51
195.557046
0
ARC
8
DEFAULT_255_2_778
10
6.1912849
20
89.9237917
40
0.3043789
50
90.039927
51
104.947984
0
ARC
8
DEFAULT_255_2_778
10
65.149186
20
78.8315109
40
1.4980165
50
151.5794485
51
180.1201144
0
ARC
8
DEFAULT_255_2_778
10
65.147404
20
78.8317962
40
1.4963136
50
98.4345278
51
151.556579
0
ARC
8
DEFAULT_255_2_778
10
65.1505237
20
78.8043246
40
1.523946
50
89.9793545
51
98.3990533
0
ARC
8
DEFAULT_255_2_778
10
65.1527692
20
79.2624826
40
1.0657893
50
89.9696163
51
90.0911988
0
ARC
8
DEFAULT_255_2_778
10
65.1533966
20
78.830556
40
1.4977162
50
45.0037427
51
90.0023795
0
ARC
8
DEFAULT_255_2_778
10
65.1533332
20
78.8305839
40
1.4977414
50
0.0018223
51
45.0012694
0
ARC
8
DEFAULT_255_2_778
10
65.053215
20
78.8306317
40
1.5978595
50
359.9189173
51
359.9999938
0
ARC
8
DEFAULT_255_2_778
10
65.1529281
20
78.8252599
40
1.4981479
50
331.5837175
51
0.1189636
0
ARC
8
DEFAULT_255_2_778
10
65.1547719
20
78.8248763
40
1.4963439
50
278.4359039
51
331.5630393
0
ARC
8
DEFAULT_255_2_778
10
65.1516249
20
78.8526047
40
1.5242342
50
269.9792461
51
278.4000078
0
ARC
8
DEFAULT_255_2_778
10
65.1479079
20
78.826558
40
1.4981908
50
241.5841225
51
270.121038
0
ARC
8
DEFAULT_255_2_778
10
65.1474939
20
78.8244438
40
1.4961345
50
188.4282795
51
241.5595389
0
ARC
8
DEFAULT_255_2_778
10
65.1759997
20
78.8278159
40
1.524827
50
179.9791589
51
188.3966224
0
LINE
8
DEFAULT_255_2_778
10
21.1511728
20
69.3279705
11
21.1511728
21
69.3279705
0
LINE
8
DEFAULT_255_2_778
10
63.6511728
20
78.8283705
11
63.6511728
21
78.8283705
0
ARC
8
DEFAULT_255_2_778
10
8.2511288
20
89.0281993
40
0.3001306
50
270.005844
51
359.9750701
0
ARC
8
DEFAULT_255_2_778
10
3.4514689
20
89.0281782
40
0.3001094
50
180.0208901
51
269.9791099
0
LINE
8
DEFAULT_255_2_778
10
8.5512595
20
89.8281687
11
8.5512595
21
89.0280687
0
LINE
8
DEFAULT_255_2_778
10
8.2511595
20
88.7280687
11
3.4513595
21
88.7280687
0
LINE
8
DEFAULT_255_2_778
10
3.1513595
20
89.0280687
11
3.1513595
21
89.2280687
0
ARC
8
DEFAULT_255_2_778
10
60.8507068
20
86.6279794
40
0.8001809
50
273.1386179
51
359.9960242
0
ARC
8
DEFAULT_255_2_778
10
60.8508289
20
86.6406441
40
0.8128202
50
269.9970947
51
273.0811476
0
ARC
8
DEFAULT_255_2_778
10
64.6007766
20
84.1279346
40
0.8001107
50
183.1338642
51
270.0007971
0
ARC
8
DEFAULT_255_2_778
10
64.6137844
20
84.1278864
40
0.8130969
50
179.9973578
51
183.0803607
0
ARC
8
DEFAULT_255_2_778
10
87.6504392
20
70.5780386
40
1.0009486
50
359.9991575
51
30.3981094
0
ARC
8
DEFAULT_255_2_778
10
87.6504404
20
63.0782086
40
1.0009473
50
329.6018801
51
0.0008733
0
ARC
8
DEFAULT_255_2_778
10
87.6504387
20
15.5780385
40
1.000949
50
359.9991612
51
30.3980987
0
ARC
8
DEFAULT_255_2_778
10
87.6510726
20
8.0781368
40
1.0003151
50
329.5920475
51
0.0049895
0
LINE
8
DEFAULT_255_2_778
10
6.6511877
20
89.3280239
11
6.6511877
21
89.2280239
0
LINE
8
DEFAULT_255_2_778
10
3.0512877
20
62.5281239
11
4.1511877
21
62.5281239
0
LINE
8
DEFAULT_255_2_778
10
3.0512877
20
62.1280239
11
4.1511877
21
62.1280239
0
LINE
8
DEFAULT_255_2_778
10
0.1511877
20
88.6282239
11
0.5511877
21
88.6282239
0
LINE
8
DEFAULT_255_2_778
10
24.4012877
20
81.5281239
11
16.9011877
21
81.5281239
0
LINE
8
DEFAULT_255_2_778
10
16.9011877
20
81.5281239
11
16.9011877
21
88.3281239
0
LINE
8
DEFAULT_255_2_778
10
16.9011877
20
88.3281239
11
17.4011877
21
87.8281239
0
LINE
8
DEFAULT_255_2_778
10
17.4011877
20
87.8281239
11
17.4011877
21
82.0281239
0
LINE
8
DEFAULT_255_2_778
10
17.4011877
20
82.0281239
11
23.9012877
21
82.0281239
0
LINE
8
DEFAULT_255_2_778
10
17.4011877
20
87.3280239
11
23.9012877
21
87.3280239
0
LINE
8
DEFAULT_255_2_778
10
16.9011877
20
88.3281239
11
24.4010877
21
88.3281239
0
LINE
8
DEFAULT_255_2_778
10
17.4011877
20
82.0281239
11
16.9011877
21
81.5281239
0
LINE
8
DEFAULT_255_2_778
10
17.4011877
20
87.8281239
11
23.9012877
21
87.8281239
0
LINE
8
DEFAULT_255_2_778
10
23.9012877
20
87.8281239
11
24.4012877
21
88.3281239
0
LINE
8
DEFAULT_255_2_778
10
24.4012877
20
88.3281239
11
24.4012877
21
81.5281239
0
LINE
8
DEFAULT_255_2_778
10
24.4012877
20
81.5281239
11
23.9012877
21
82.0281239
0
LINE
8
DEFAULT_255_2_778
10
23.9012877
20
82.0281239
11
23.9012877
21
87.8281239
0
LINE
8
DEFAULT_255_2_778
10
17.6512877
20
87.8281239
11
17.6512877
21
87.5280239
0
LINE
8
DEFAULT_255_2_778
10
17.6512877
20
87.5280239
11
17.4011877
21
87.5280239
0
LINE
8
DEFAULT_255_2_778
10
58.9013877
20
87.8281239
11
65.4013877
21
87.8281239
0
LINE
8
DEFAULT_255_2_778
10
65.4013877
20
87.8281239
11
65.4013877
21
82.0281239
0
LINE
8
DEFAULT_255_2_778
10
65.4013877
20
82.0281239
11
58.9013877
21
82.0281239
0
LINE
8
DEFAULT_255_2_778
10
58.9013877
20
82.0281239
11
58.9013877
21
87.8281239
0
LINE
8
DEFAULT_255_2_778
10
58.9013877
20
87.8281239
11
58.4012877
21
88.3281239
0
LINE
8
DEFAULT_255_2_778
10
58.4012877
20
88.3281239
11
58.4012877
21
81.5281239
0
LINE
8
DEFAULT_255_2_778
10
58.4012877
20
81.5281239
11
65.9011877
21
81.5281239
0
LINE
8
DEFAULT_255_2_778
10
65.9011877
20
81.5281239
11
65.4011877
21
82.0281239
0
LINE
8
DEFAULT_255_2_778
10
58.4012877
20
88.3281239
11
65.9011877
21
88.3281239
0
LINE
8
DEFAULT_255_2_778
10
65.9011877
20
88.3281239
11
65.9011877
21
81.5281239
0
LINE
8
DEFAULT_255_2_778
10
58.9010877
20
82.0281239
11
58.4010877
21
81.5281239
0
LINE
8
DEFAULT_255_2_778
10
61.6508877
20
87.3280239
11
61.6508877
21
86.6279239
0
LINE
8
DEFAULT_255_2_778
10
60.8507877
20
85.8278239
11
58.9008877
21
85.8278239
0
LINE
8
DEFAULT_255_2_778
10
65.4008877
20
83.3278239
11
64.6007877
21
83.3278239
0
LINE
8
DEFAULT_255_2_778
10
63.8006877
20
84.1279239
11
63.8006877
21
87.3280239
0
LINE
8
DEFAULT_255_2_778
10
88.7513877
20
71.0781239
11
88.7513877
21
62.5781239
0
LINE
8
DEFAULT_255_2_778
10
88.7513877
20
62.5781239
11
86.0513877
21
62.5781239
0
LINE
8
DEFAULT_255_2_778
10
86.0513877
20
62.5781239
11
86.0513877
21
71.0781239
0
LINE
8
DEFAULT_255_2_778
10
86.0513877
20
71.0781239
11
88.7513877
21
71.0781239
0
LINE
8
DEFAULT_255_2_778
10
88.6013877
20
70.8902239
11
88.6013877
21
70.5780239
0
LINE
8
DEFAULT_255_2_778
10
88.6013877
20
70.5780239
11
86.1513877
21
70.5780239
0
LINE
8
DEFAULT_255_2_778
10
86.1513877
20
70.5780239
11
86.1513877
21
63.0782239
0
LINE
8
DEFAULT_255_2_778
10
86.1513877
20
63.0782239
11
88.6013877
21
63.0782239
0
LINE
8
DEFAULT_255_2_778
10
88.6013877
20
63.0782239
11
88.6013877
21
62.7660239
0
LINE
8
DEFAULT_255_2_778
10
86.6513877
20
63.0782239
11
86.6513877
21
70.5780239
0
LINE
8
DEFAULT_255_2_778
10
88.6513877
20
70.5780239
11
88.6513877
21
63.0782239
0
LINE
8
DEFAULT_255_2_778
10
88.7513877
20
67.4782239
11
88.6513877
21
67.4782239
0
LINE
8
DEFAULT_255_2_778
10
88.7513877
20
68.8781239
11
88.6513877
21
68.8781239
0
LINE
8
DEFAULT_255_2_778
10
88.6013877
20
66.3280239
11
88.6013877
21
64.0780239
0
LINE
8
DEFAULT_255_2_778
10
88.6013877
20
64.0780239
11
87.1514877
21
64.0780239
0
LINE
8
DEFAULT_255_2_778
10
87.1514877
20
64.0780239
11
87.1514877
21
66.3280239
0
LINE
8
DEFAULT_255_2_778
10
87.1514877
20
66.3280239
11
88.6013877
21
66.3280239
0
LINE
8
DEFAULT_255_2_778
10
88.6013877
20
69.5782239
11
88.6013877
21
67.3282239
0
LINE
8
DEFAULT_255_2_778
10
88.6013877
20
67.3282239
11
87.1514877
21
67.3282239
0
LINE
8
DEFAULT_255_2_778
10
87.1514877
20
67.3282239
11
87.1514877
21
69.5782239
0
LINE
8
DEFAULT_255_2_778
10
87.1514877
20
69.5782239
11
88.6013877
21
69.5782239
0
LINE
8
DEFAULT_255_2_778
10
88.7513877
20
16.0781239
11
88.7513877
21
7.5781239
0
LINE
8
DEFAULT_255_2_778
10
88.7513877
20
7.5781239
11
86.0513877
21
7.5781239
0
LINE
8
DEFAULT_255_2_778
10
86.0513877
20
7.5781239
11
86.0513877
21
16.0781239
0
LINE
8
DEFAULT_255_2_778
10
86.0513877
20
16.0781239
11
88.7513877
21
16.0781239
0
LINE
8
DEFAULT_255_2_778
10
88.6013877
20
15.8903239
11
88.6013877
21
15.5780239
0
LINE
8
DEFAULT_255_2_778
10
88.6013877
20
15.5780239
11
86.1513877
21
15.5780239
0
LINE
8
DEFAULT_255_2_778
10
86.1513877
20
15.5780239
11
86.1513877
21
8.0782239
0
LINE
8
DEFAULT_255_2_778
10
86.1513877
20
8.0782239
11
88.6013877
21
8.0782239
0
LINE
8
DEFAULT_255_2_778
10
88.6013877
20
8.0782239
11
88.6013877
21
7.7660239
0
LINE
8
DEFAULT_255_2_778
10
86.6513877
20
8.0782239
11
86.6513877
21
15.5780239
0
LINE
8
DEFAULT_255_2_778
10
88.6513877
20
15.5780239
11
88.6513877
21
8.0782239
0
LINE
8
DEFAULT_255_2_778
10
88.7513877
20
14.1382239
11
88.6513877
21
14.1382239
0
LINE
8
DEFAULT_255_2_778
10
88.7513877
20
15.5381239
11
88.6513877
21
15.5381239
0
LINE
8
DEFAULT_255_2_778
10
88.6013877
20
11.3280239
11
88.6013877
21
9.0780239
0
LINE
8
DEFAULT_255_2_778
10
88.6013877
20
9.0780239
11
87.1514877
21
9.0780239
0
LINE
8
DEFAULT_255_2_778
10
87.1514877
20
9.0780239
11
87.1514877
21
11.3280239
0
LINE
8
DEFAULT_255_2_778
10
87.1514877
20
11.3280239
11
88.6013877
21
11.3280239
0
LINE
8
DEFAULT_255_2_778
10
88.6013877
20
14.5782239
11
88.6013877
21
12.3282239
0
LINE
8
DEFAULT_255_2_778
10
88.6013877
20
12.3282239
11
87.1514877
21
12.3282239
0
LINE
8
DEFAULT_255_2_778
10
87.1514877
20
12.3282239
11
87.1514877
21
14.5782239
0
LINE
8
DEFAULT_255_2_778
10
87.1514877
20
14.5782239
11
88.6013877
21
14.5782239
0
LINE
8
DEFAULT_255_2_778
10
88.5714877
20
7.7075239
11
88.5714877
21
7.5781239
0
LINE
8
DEFAULT_255_2_778
10
88.7513877
20
7.9181239
11
88.6383877
21
7.9181239
0
ARC
8
DEFAULT_255_2_778
10
64.6013935
20
5.5284028
40
0.8001107
50
93.1338642
51
180.0007971
0
ARC
8
DEFAULT_255_2_778
10
64.6013452
20
5.5153949
40
0.8130969
50
89.9973578
51
93.0803607
0
ARC
8
DEFAULT_255_2_778
10
60.8513626
20
3.028245
40
0.8002466
50
3.0049991
51
89.991403
0
ARC
8
DEFAULT_255_2_778
10
60.8388695
20
3.0284285
40
0.8127132
50
359.997398
51
2.9459083
0
ARC
8
DEFAULT_255_2_778
10
102.2509362
20
67.5786143
40
2.0004263
50
271.1023317
51
334.1753448
0
ARC
8
DEFAULT_255_2_778
10
102.2510261
20
67.588836
40
2.0106443
50
270.0073123
51
271.0941668
0
ARC
8
DEFAULT_255_2_778
10
102.8853911
20
67.7343532
40
1.3379547
50
345.943454
51
354.2795026
0
ARC
8
DEFAULT_255_2_778
10
102.3589173
20
67.7940221
40
1.8677669
50
354.0679905
51
359.9285121
0
ARC
8
DEFAULT_255_2_778
10
103.2473494
20
67.8101641
40
0.9795075
50
358.9194009
51
359.9992012
0
ARC
8
DEFAULT_255_2_778
10
103.2653671
20
67.8104862
40
0.9614899
50
359.9799901
51
8.3426621
0
ARC
8
DEFAULT_255_2_778
10
103.8222895
20
67.889583
40
0.3989928
50
8.7082356
51
17.3238057
0
ARC
8
DEFAULT_255_2_778
10
104.0578884
20
67.9648574
40
0.1516762
50
16.679694
51
34.2363543
0
ARC
8
DEFAULT_255_2_778
10
103.7554597
20
67.7449948
40
0.5255261
50
35.5029842
51
48.2375956
0
ARC
8
DEFAULT_255_2_778
10
102.251302
20
52.338152
40
2.0001628
50
271.1005909
51
334.1800377
0
ARC
8
DEFAULT_255_2_778
10
102.2513261
20
52.348636
40
2.0106443
50
270.0073123
51
271.0941668
0
ARC
8
DEFAULT_255_2_778
10
102.9030867
20
52.4905029
40
1.3201935
50
345.9137685
51
354.3571345
0
ARC
8
DEFAULT_255_2_778
10
102.3838282
20
52.5533918
40
1.8431555
50
353.9988139
51
359.9409322
0
ARC
8
DEFAULT_255_2_778
10
103.2724832
20
52.569539
40
0.9546701
50
358.9168017
51
0.0005631
0
ARC
8
DEFAULT_255_2_778
10
103.2632502
20
52.5693553
40
0.9639031
50
0.0114754
51
8.3715478
0
ARC
8
DEFAULT_255_2_778
10
103.8182117
20
52.6484986
40
0.4033401
50
8.7263632
51
17.2627792
0
ARC
8
DEFAULT_255_2_778
10
104.0596196
20
52.7256827
40
0.1499161
50
16.4722894
51
34.2201428
0
ARC
8
DEFAULT_255_2_778
10
103.7505763
20
52.5010608
40
0.5319143
50
35.5061706
51
48.1033679
0
ARC
8
DEFAULT_255_2_778
10
102.2515305
20
59.9579643
40
2.0002761
50
271.0462912
51
334.1780348
0
ARC
8
DEFAULT_255_2_778
10
102.2516302
20
59.9668929
40
2.0092013
50
270.0071999
51
271.0387985
0
ARC
8
DEFAULT_255_2_778
10
102.8995456
20
60.111473
40
1.3241313
50
345.8998638
51
354.3230935
0
ARC
8
DEFAULT_255_2_778
10
102.3875136
20
60.1720487
40
1.8396693
50
354.0231961
51
359.9733064
0
ARC
8
DEFAULT_255_2_778
10
103.2925187
20
60.1906247
40
0.934866
50
358.8089075
51
0.0012025
0
LINE
8
DEFAULT_255_2_778
10
104.2273848
20
60.1906443
11
104.2273847
21
60.1910323
0
ARC
8
DEFAULT_255_2_778
10
103.2741666
20
60.1903021
40
0.9532184
50
0.0438887
51
8.3903095
0
ARC
8
DEFAULT_255_2_778
10
103.8243879
20
60.2695551
40
0.3973263
50
8.6615756
51
17.3274405
0
ARC
8
DEFAULT_255_2_778
10
104.0571322
20
60.3437592
40
0.1530514
50
16.7592222
51
34.1569047
0
ARC
8
DEFAULT_255_2_778
10
103.7507175
20
60.1215705
40
0.5314923
50
35.4314338
51
48.0395363
0
ARC
8
DEFAULT_255_2_778
10
102.2516352
20
44.7179803
40
2.0005895
50
271.1692928
51
334.1723263
0
ARC
8
DEFAULT_255_2_778
10
102.2515568
20
44.7282134
40
2.010822
50
270.0149846
51
271.1655758
0
ARC
8
DEFAULT_255_2_778
10
102.8861911
20
44.8735532
40
1.3379547
50
345.943454
51
354.2795026
0
ARC
8
DEFAULT_255_2_778
10
102.3858899
20
44.9318491
40
1.8415931
50
354.0263214
51
359.9733218
0
ARC
8
DEFAULT_255_2_778
10
103.2516238
20
44.9494313
40
0.9760331
50
358.9174793
51
359.9993068
0
ARC
8
DEFAULT_255_2_778
10
103.2664055
20
44.9497037
40
0.9612515
50
359.9830558
51
8.3436901
0
ARC
8
DEFAULT_255_2_778
10
103.810049
20
45.0257678
40
0.4123406
50
8.8480238
51
17.1841978
0
ARC
8
DEFAULT_255_2_778
10
104.0580919
20
45.1039779
40
0.1522704
50
16.6439323
51
34.1659252
0
ARC
8
DEFAULT_255_2_778
10
103.754871
20
44.8839547
40
0.5268544
50
35.4453903
51
48.1640693
0
ARC
8
DEFAULT_255_2_778
10
102.252102
20
29.477352
40
2.0001628
50
271.1005909
51
334.1800377
0
ARC
8
DEFAULT_255_2_778
10
102.2521261
20
29.487836
40
2.0106443
50
270.0073123
51
271.0941668
0
ARC
8
DEFAULT_255_2_778
10
102.8903358
20
29.6320594
40
1.3339109
50
345.9572564
51
354.3136392
0
ARC
8
DEFAULT_255_2_778
10
102.3846272
20
29.6925919
40
1.8431565
50
353.9988147
51
359.9409299
0
ARC
8
DEFAULT_255_2_778
10
103.2732832
20
29.708739
40
0.9546701
50
358.9168017
51
0.0005631
0
ARC
8
DEFAULT_255_2_778
10
103.2640502
20
29.7085553
40
0.9639031
50
0.0114754
51
8.3715478
0
ARC
8
DEFAULT_255_2_778
10
103.8219853
20
29.7883852
40
0.4002967
50
8.6938011
51
17.2952388
0
ARC
8
DEFAULT_255_2_778
10
104.0604179
20
29.8648823
40
0.1499179
50
16.4722471
51
34.2198958
0
ARC
8
DEFAULT_255_2_778
10
103.7581662
20
29.6463332
40
0.5228611
50
35.3966227
51
48.2128441
0
ARC
8
DEFAULT_255_2_778
10
102.2523263
20
37.09717
40
2.0002823
50
271.166861
51
334.1779426
0
ARC
8
DEFAULT_255_2_778
10
102.2524154
20
37.1077426
40
2.0108511
50
270.0076167
51
271.1581872
0
ARC
8
DEFAULT_255_2_778
10
102.9026871
20
37.2502646
40
1.3217609
50
345.8923034
51
354.3306664
0
ARC
8
DEFAULT_255_2_778
10
102.3883136
20
37.3112487
40
1.8396693
50
354.0231961
51
359.9733064
0
ARC
8
DEFAULT_255_2_778
10
103.2933187
20
37.3298247
40
0.934866
50
358.8089075
51
0.0012025
0
LINE
8
DEFAULT_255_2_778
10
104.2281848
20
37.3298443
11
104.2281847
21
37.3302323
0
ARC
8
DEFAULT_255_2_778
10
103.2749666
20
37.3295021
40
0.9532184
50
0.0438887
51
8.3903095
0
ARC
8
DEFAULT_255_2_778
10
103.8251632
20
37.4087502
40
0.3973514
50
8.6617473
51
17.3270648
0
ARC
8
DEFAULT_255_2_778
10
104.0579322
20
37.4829592
40
0.1530514
50
16.7592222
51
34.1569047
0
ARC
8
DEFAULT_255_2_778
10
103.7515175
20
37.2607705
40
0.5314923
50
35.4314338
51
48.0395363
0
ARC
8
DEFAULT_255_2_778
10
102.252715
20
21.8567525
40
2.0000613
50
271.1615856
51
334.1786169
0
ARC
8
DEFAULT_255_2_778
10
102.2526154
20
21.8675471
40
2.0108556
50
270.007617
51
271.1581875
0
ARC
8
DEFAULT_255_2_778
10
102.9007131
20
22.0096736
40
1.3238956
50
345.9285093
51
354.352497
0
ARC
8
DEFAULT_255_2_778
10
102.3865968
20
22.072014
40
1.8416868
50
353.9964448
51
359.9433061
0
ARC
8
DEFAULT_255_2_778
10
103.2550462
20
22.0886065
40
0.9734107
50
358.9160208
51
359.9993058
0
ARC
8
DEFAULT_255_2_778
10
103.2791663
20
22.0891052
40
0.9492906
50
359.9691885
51
8.4372919
0
ARC
8
DEFAULT_255_2_778
10
103.8197004
20
22.1678994
40
0.4030478
50
8.6319716
51
17.1713943
0
ARC
8
DEFAULT_255_2_778
10
104.0582303
20
22.2427585
40
0.1530534
50
16.7592791
51
34.1567357
0
ARC
8
DEFAULT_255_2_778
10
103.7556705
20
22.0231543
40
0.526855
50
35.4453941
51
48.1640578
0
ARC
8
DEFAULT_255_2_778
10
102.252902
20
14.236552
40
2.0001628
50
271.1005909
51
334.1800377
0
ARC
8
DEFAULT_255_2_778
10
102.2529261
20
14.247036
40
2.0106443
50
270.0073123
51
271.0941668
0
ARC
8
DEFAULT_255_2_778
10
102.8911722
20
14.3912531
40
1.333874
50
345.9571388
51
354.3137533
0
ARC
8
DEFAULT_255_2_778
10
102.3571739
20
14.4532854
40
1.8714117
50
354.0437767
51
359.8960968
0
ARC
8
DEFAULT_255_2_778
10
103.27388
20
14.4679408
40
0.9548734
50
358.9169218
51
0.000659
0
ARC
8
DEFAULT_255_2_778
10
103.2381384
20
14.4679518
40
0.9906149
50
0
51
0.1029805
0
ARC
8
DEFAULT_255_2_778
10
103.2659593
20
14.4678349
40
0.9627943
50
0.1129145
51
8.3764722
0
ARC
8
DEFAULT_255_2_778
10
103.8228028
20
14.5475886
40
0.4002789
50
8.6937053
51
17.295525
0
ARC
8
DEFAULT_255_2_778
10
104.0612176
20
14.6240822
40
0.1499182
50
16.4722567
51
34.2198675
0
ARC
8
DEFAULT_255_2_778
10
103.7521898
20
14.3994724
40
0.5318966
50
35.5059931
51
48.1036114
0
ARC
8
DEFAULT_255_2_778
10
102.2530362
20
6.6165143
40
2.0004263
50
271.1023317
51
334.1753448
0
ARC
8
DEFAULT_255_2_778
10
102.2531261
20
6.626736
40
2.0106443
50
270.0073123
51
271.0941668
0
ARC
8
DEFAULT_255_2_778
10
102.8875264
20
6.7722471
40
1.3379189
50
345.9433428
51
354.2796145
0
ARC
8
DEFAULT_255_2_778
10
102.3891136
20
6.8304487
40
1.8396693
50
354.0231961
51
359.9733064
0
ARC
8
DEFAULT_255_2_778
10
103.2941098
20
6.8490248
40
0.9348749
50
358.8089096
51
0.0012046
0
ARC
8
DEFAULT_255_2_778
10
103.3016627
20
6.8490445
40
0.927322
50
3e-7
51
0.1991162
0
ARC
8
DEFAULT_255_2_778
10
103.2731653
20
6.8486036
40
0.955821
50
0.2196089
51
8.3793285
0
ARC
8
DEFAULT_255_2_778
10
103.824372
20
6.9274796
40
0.3990105
50
8.7083316
51
17.323519
0
ARC
8
DEFAULT_255_2_778
10
104.0587344
20
7.00216
40
0.1530491
50
16.759156
51
34.1571014
0
ARC
8
DEFAULT_255_2_778
10
103.755469
20
6.782378
40
0.5275288
50
35.4168052
51
48.1273045
0
ARC
8
DEFAULT_255_2_778
10
115.6975369
20
76.1251093
40
0.4596544
50
166.0793834
51
179.9398707
0
ARC
8
DEFAULT_255_2_778
10
115.7063924
20
76.1233519
40
0.4686726
50
152.5508773
51
166.1313068
0
ARC
8
DEFAULT_255_2_778
10
115.7208042
20
76.1135926
40
0.4859648
50
139.1907178
51
152.3130309
0
ARC
8
DEFAULT_255_2_778
10
115.7378391
20
76.098154
40
0.5089484
50
126.6292702
51
139.1285451
0
ARC
8
DEFAULT_255_2_778
10
115.7843604
20
76.0147184
40
0.6047178
50
104.3795089
51
114.9072985
0
ARC
8
DEFAULT_255_2_778
10
115.8240561
20
75.8562068
40
0.7681223
50
96.0212029
51
104.3113855
0
ARC
8
DEFAULT_255_2_778
10
115.8207559
20
0.5760654
40
0.749468
50
255.5851542
51
264.082055
0
ARC
8
DEFAULT_255_2_778
10
115.7843632
20
0.4359727
40
0.6047261
50
245.0927785
51
255.6204234
0
ARC
8
DEFAULT_255_2_778
10
115.7378318
20
0.3525213
40
0.5089377
50
220.8713187
51
233.3708582
0
ARC
8
DEFAULT_255_2_778
10
115.7208042
20
0.3370907
40
0.4859648
50
207.6869691
51
220.8092822
0
ARC
8
DEFAULT_255_2_778
10
115.7063915
20
0.3273313
40
0.4686718
50
193.8687193
51
207.449173
0
ARC
8
DEFAULT_255_2_778
10
115.6975369
20
0.325574
40
0.4596543
50
180.0601293
51
193.9206166
0
ARC
8
DEFAULT_255_2_778
10
110.2508497
20
71.3890326
40
2.000541
50
270.012403
51
299.9987614
0
ARC
8
DEFAULT_255_2_778
10
110.2465491
20
71.4104519
40
1.9743184
50
300.5839479
51
312.3821643
0
ARC
8
DEFAULT_255_2_778
10
110.2247772
20
71.4336574
40
2.0061353
50
312.3947295
51
324.0003879
0
ARC
8
DEFAULT_255_2_778
10
110.2293775
20
71.4292667
40
1.999833
50
324.0246905
51
335.6617996
0
ARC
8
DEFAULT_255_2_778
10
110.0999448
20
71.4884275
40
2.1421444
50
335.6467907
51
346.5092915
0
ARC
8
DEFAULT_255_2_778
10
111.9812272
20
71.3883101
40
0.2433212
50
3.907559
51
14.9769483
0
ARC
8
DEFAULT_255_2_778
10
111.9812272
20
72.5890732
40
0.2433212
50
345.0230517
51
356.092441
0
ARC
8
DEFAULT_255_2_778
10
110.1203453
20
72.4970875
40
2.1204818
50
13.4135269
51
23.0812144
0
ARC
8
DEFAULT_255_2_778
10
110.1173191
20
72.4952107
40
2.1238611
50
13.443836
51
24.4001315
0
ARC
8
DEFAULT_255_2_778
10
110.2046955
20
72.5326714
40
2.0288147
50
24.4560765
51
35.9306681
0
ARC
8
DEFAULT_255_2_778
10
110.2321605
20
72.55223
40
1.9950982
50
35.9386942
51
47.6030075
0
ARC
8
DEFAULT_255_2_778
10
110.2465491
20
72.5672314
40
1.9743184
50
47.6178357
51
59.4160521
0
ARC
8
DEFAULT_255_2_778
10
110.2509247
20
72.589577
40
1.9996147
50
59.9883983
51
89.9897426
0
ARC
8
DEFAULT_255_2_778
10
110.2508497
20
63.7690326
40
2.000541
50
270.012403
51
299.9987614
0
ARC
8
DEFAULT_255_2_778
10
110.2465491
20
63.7904519
40
1.9743184
50
300.5839479
51
312.3821643
0
ARC
8
DEFAULT_255_2_778
10
110.2247772
20
63.8136574
40
2.0061353
50
312.3947295
51
324.0003879
0
ARC
8
DEFAULT_255_2_778
10
110.2293734
20
63.8092687
40
1.9998375
50
324.0247117
51
335.6617943
0
ARC
8
DEFAULT_255_2_778
10
110.0999448
20
63.8684275
40
2.1421444
50
335.6467907
51
346.5092915
0
ARC
8
DEFAULT_255_2_778
10
111.9812272
20
63.7686101
40
0.2433212
50
3.907559
51
14.9769483
0
ARC
8
DEFAULT_255_2_778
10
111.9812272
20
64.9695732
40
0.2433212
50
345.0230517
51
356.092441
0
ARC
8
DEFAULT_255_2_778
10
110.1192199
20
64.877161
40
2.1216059
50
13.4097986
51
23.0749258
0
ARC
8
DEFAULT_255_2_778
10
110.1188523
20
64.8761648
40
2.1221946
50
13.4336587
51
24.4011498
0
ARC
8
DEFAULT_255_2_778
10
110.2088136
20
64.915028
40
2.0242147
50
24.4513437
51
35.9496398
0
ARC
8
DEFAULT_255_2_778
10
110.2318218
20
64.9326142
40
1.9952644
50
35.928704
51
47.5941955
0
ARC
8
DEFAULT_255_2_778
10
110.2431491
20
64.9429345
40
1.9800058
50
47.634828
51
59.3990354
0
ARC
8
DEFAULT_255_2_778
10
110.2511257
20
64.9698806
40
1.999511
50
59.9933334
51
89.9955018
0
ARC
8
DEFAULT_255_2_778
10
110.2511249
20
56.1491055
40
1.9995138
50
270.0045212
51
300.0066459
0
ARC
8
DEFAULT_255_2_778
10
110.2431577
20
56.1760372
40
1.9799913
50
300.6009209
51
312.3652141
0
ARC
8
DEFAULT_255_2_778
10
110.2247772
20
56.1946574
40
2.0061353
50
312.3947295
51
324.0003879
0
ARC
8
DEFAULT_255_2_778
10
110.223026
20
56.1939566
40
2.0071408
50
324.0459562
51
335.6405501
0
ARC
8
DEFAULT_255_2_778
10
110.0989469
20
56.2496393
40
2.1431409
50
335.6526342
51
346.5126095
0
ARC
8
DEFAULT_255_2_778
10
111.9812272
20
56.1494101
40
0.2433212
50
3.907559
51
14.9769483
0
ARC
8
DEFAULT_255_2_778
10
111.9838028
20
57.3497449
40
0.2407225
50
344.9631133
51
356.1523794
0
ARC
8
DEFAULT_255_2_778
10
110.1172098
20
57.2568535
40
2.1237717
50
13.4210384
51
23.0737144
0
ARC
8
DEFAULT_255_2_778
10
110.1173247
20
57.256013
40
2.1238551
50
13.4438125
51
24.4001394
0
ARC
8
DEFAULT_255_2_778
10
110.2079445
20
57.2953613
40
2.0250748
50
24.4454596
51
35.9413133
0
ARC
8
DEFAULT_255_2_778
10
110.2289699
20
57.3101797
40
1.9993545
50
35.9511623
51
47.5905585
0
ARC
8
DEFAULT_255_2_778
10
110.2465491
20
57.3280314
40
1.9743184
50
47.6178357
51
59.4160521
0
ARC
8
DEFAULT_255_2_778
10
110.2509247
20
57.350377
40
1.9996147
50
59.9883983
51
89.9897426
0
ARC
8
DEFAULT_255_2_778
10
110.2511256
20
48.5296039
40
1.9995123
50
270.0045032
51
300.0066521
0
ARC
8
DEFAULT_255_2_778
10
110.2465491
20
48.5520519
40
1.9743184
50
300.5839479
51
312.3821643
0
ARC
8
DEFAULT_255_2_778
10
110.2320146
20
48.5687859
40
1.9964765
50
312.3665587
51
324.0285587
0
ARC
8
DEFAULT_255_2_778
10
110.2270665
20
48.5724446
40
2.0026301
50
324.0269967
51
335.6453092
0
ARC
8
DEFAULT_255_2_778
10
110.0989469
20
48.6301393
40
2.1431409
50
335.6526342
51
346.5126095
0
ARC
8
DEFAULT_255_2_778
10
111.9812272
20
48.5299101
40
0.2433212
50
3.907559
51
14.9769483
0
ARC
8
DEFAULT_255_2_778
10
111.9825203
20
49.7304582
40
0.2420165
50
344.9931063
51
356.1223558
0
ARC
8
DEFAULT_255_2_778
10
110.120345
20
49.6383873
40
2.1204822
50
13.413528
51
23.081214
0
ARC
8
DEFAULT_255_2_778
10
110.1223504
20
49.6382355
40
2.1185667
50
13.4301047
51
24.4138645
0
ARC
8
DEFAULT_255_2_778
10
110.2079445
20
49.6758613
40
2.0250748
50
24.4454596
51
35.9413133
0
ARC
8
DEFAULT_255_2_778
10
110.2325855
20
49.6939092
40
1.9945316
50
35.9370422
51
47.6046807
0
ARC
8
DEFAULT_255_2_778
10
110.2465491
20
49.7085314
40
1.9743184
50
47.6178357
51
59.4160521
0
ARC
8
DEFAULT_255_2_778
10
110.2508497
20
49.7299508
40
2.0005409
50
60.0012369
51
89.9875975
0
ARC
8
DEFAULT_255_2_778
10
110.2511257
20
40.9099028
40
1.9995111
50
270.0044988
51
300.006665
0
ARC
8
DEFAULT_255_2_778
10
110.243163
20
40.9368307
40
1.9799831
50
300.600884
51
312.3652264
0
ARC
8
DEFAULT_255_2_778
10
110.2247772
20
40.9554574
40
2.0061353
50
312.3947295
51
324.0003879
0
ARC
8
DEFAULT_255_2_778
10
110.223026
20
40.9547566
40
2.0071408
50
324.0459562
51
335.6405501
0
ARC
8
DEFAULT_255_2_778
10
110.0989469
20
41.0104393
40
2.1431409
50
335.6526342
51
346.5126095
0
ARC
8
DEFAULT_255_2_778
10
111.9812272
20
40.9099101
40
0.2433212
50
3.907559
51
14.9769483
0
ARC
8
DEFAULT_255_2_778
10
111.9825214
20
42.110458
40
0.2420153
50
344.9930928
51
356.122396
0
ARC
8
DEFAULT_255_2_778
10
110.1203453
20
42.0183875
40
2.1204818
50
13.4135269
51
23.0812144
0
ARC
8
DEFAULT_255_2_778
10
110.1223505
20
42.0182355
40
2.1185666
50
13.4301053
51
24.4138656
0
ARC
8
DEFAULT_255_2_778
10
110.2079445
20
42.0558613
40
2.0250748
50
24.4454596
51
35.9413133
0
ARC
8
DEFAULT_255_2_778
10
110.2325855
20
42.0739092
40
1.9945316
50
35.9370422
51
47.6046807
0
ARC
8
DEFAULT_255_2_778
10
110.2465491
20
42.0885314
40
1.9743184
50
47.6178357
51
59.4160521
0
ARC
8
DEFAULT_255_2_778
10
110.2508497
20
42.1099508
40
2.0005409
50
60.0012369
51
89.9875975
0
ARC
8
DEFAULT_255_2_778
10
110.2508497
20
33.2911326
40
2.000541
50
270.012403
51
299.9987614
0
ARC
8
DEFAULT_255_2_778
10
110.2465491
20
33.3125519
40
1.9743184
50
300.5839479
51
312.3821643
0
ARC
8
DEFAULT_255_2_778
10
110.2247772
20
33.3357574
40
2.0061353
50
312.3947295
51
324.0003879
0
ARC
8
DEFAULT_255_2_778
10
110.2293725
20
33.3313692
40
1.9998385
50
324.0247147
51
335.6617915
0
ARC
8
DEFAULT_255_2_778
10
110.0999448
20
33.3905275
40
2.1421444
50
335.6467907
51
346.5092915
0
ARC
8
DEFAULT_255_2_778
10
111.9815018
20
33.2902913
40
0.2430349
50
3.8693404
51
14.975175
0
ARC
8
DEFAULT_255_2_778
10
111.9838028
20
34.4905449
40
0.2407225
50
344.9631133
51
356.1523794
0
ARC
8
DEFAULT_255_2_778
10
110.1192229
20
34.3984622
40
2.1216027
50
13.4097866
51
23.0749286
0
ARC
8
DEFAULT_255_2_778
10
110.1188523
20
34.3974648
40
2.1221946
50
13.4336587
51
24.4011498
0
ARC
8
DEFAULT_255_2_778
10
110.2079445
20
34.4361613
40
2.0250748
50
24.4454596
51
35.9413133
0
ARC
8
DEFAULT_255_2_778
10
110.2289794
20
34.4509883
40
1.9993417
50
35.9511251
51
47.5905959
0
ARC
8
DEFAULT_255_2_778
10
110.2465491
20
34.4688314
40
1.9743184
50
47.6178357
51
59.4160521
0
ARC
8
DEFAULT_255_2_778
10
110.251125
20
34.491178
40
1.9995137
50
59.9933525
51
89.9954793
0
ARC
8
DEFAULT_255_2_778
10
110.2511244
20
25.670407
40
1.9995154
50
270.0045364
51
300.0066373
0
ARC
8
DEFAULT_255_2_778
10
110.2465491
20
25.6928519
40
1.9743184
50
300.5839479
51
312.3821643
0
ARC
8
DEFAULT_255_2_778
10
110.2320146
20
25.7095859
40
1.9964765
50
312.3665587
51
324.0285587
0
ARC
8
DEFAULT_255_2_778
10
110.2270665
20
25.7132446
40
2.0026301
50
324.0269967
51
335.6453092
0
ARC
8
DEFAULT_255_2_778
10
110.0989469
20
25.7709393
40
2.1431409
50
335.6526342
51
346.5126095
0
ARC
8
DEFAULT_255_2_778
10
111.9838028
20
25.6708384
40
0.2407225
50
3.8476206
51
15.0368867
0
ARC
8
DEFAULT_255_2_778
10
111.9838028
20
26.8710449
40
0.2407225
50
344.9631133
51
356.1523794
0
ARC
8
DEFAULT_255_2_778
10
110.1192232
20
26.7787623
40
2.1216024
50
13.4097855
51
23.0749289
0
ARC
8
DEFAULT_255_2_778
10
110.1188523
20
26.7777648
40
2.1221946
50
13.4336587
51
24.4011498
0
ARC
8
DEFAULT_255_2_778
10
110.2088136
20
26.816628
40
2.0242147
50
24.4513437
51
35.9496398
0
ARC
8
DEFAULT_255_2_778
10
110.2361839
20
26.8376231
40
1.989732
50
35.9229221
51
47.618803
0
ARC
8
DEFAULT_255_2_778
10
110.2499337
20
26.8536082
40
1.9686562
50
47.6008094
51
59.4330802
0
ARC
8
DEFAULT_255_2_778
10
110.2511246
20
26.871478
40
1.9995139
50
59.9933443
51
89.9954699
0
ARC
8
DEFAULT_255_2_778
10
110.2511244
20
18.050707
40
1.9995154
50
270.0045364
51
300.0066373
0
ARC
8
DEFAULT_255_2_778
10
110.2465491
20
18.0730519
40
1.9743184
50
300.5839479
51
312.3821643
0
ARC
8
DEFAULT_255_2_778
10
110.2247772
20
18.0962574
40
2.0061353
50
312.3947295
51
324.0003879
0
ARC
8
DEFAULT_255_2_778
10
110.2230349
20
18.0955514
40
2.0071305
50
324.0459252
51
335.6405785
0
ARC
8
DEFAULT_255_2_778
10
110.0989469
20
18.1512393
40
2.1431409
50
335.6526342
51
346.5126095
0
ARC
8
DEFAULT_255_2_778
10
111.9838028
20
18.0513384
40
0.2407225
50
3.8476206
51
15.0368867
0
ARC
8
DEFAULT_255_2_778
10
111.9812272
20
19.2519732
40
0.2433212
50
345.0230517
51
356.092441
0
ARC
8
DEFAULT_255_2_778
10
110.1192245
20
19.1592623
40
2.1216012
50
13.4097932
51
23.074942
0
ARC
8
DEFAULT_255_2_778
10
110.1188523
20
19.1582648
40
2.1221946
50
13.4336587
51
24.4011498
0
ARC
8
DEFAULT_255_2_778
10
110.2079445
20
19.1969613
40
2.0250748
50
24.4454596
51
35.9413133
0
ARC
8
DEFAULT_255_2_778
10
110.2289805
20
19.2117883
40
1.9993409
50
35.9511424
51
47.5906178
0
ARC
8
DEFAULT_255_2_778
10
110.243153
20
19.2250403
40
1.9799989
50
47.6347971
51
59.3990458
0
ARC
8
DEFAULT_255_2_778
10
110.2511243
20
19.2519753
40
1.9995164
50
59.993374
51
89.9954597
0
ARC
8
DEFAULT_255_2_778
10
110.2511244
20
10.431207
40
1.9995154
50
270.0045364
51
300.0066373
0
ARC
8
DEFAULT_255_2_778
10
110.2397392
20
10.4627606
40
1.9857111
50
300.6179123
51
312.3481999
0
ARC
8
DEFAULT_255_2_778
10
110.2276357
20
10.4738129
40
2.0020335
50
312.3911306
51
324.0227939
0
ARC
8
DEFAULT_255_2_778
10
110.2270665
20
10.4740446
40
2.0026301
50
324.0269967
51
335.6453092
0
ARC
8
DEFAULT_255_2_778
10
110.0989469
20
10.5317393
40
2.1431409
50
335.6526342
51
346.5126095
0
ARC
8
DEFAULT_255_2_778
10
111.9812272
20
10.4315101
40
0.2433212
50
3.907559
51
14.9769483
0
ARC
8
DEFAULT_255_2_778
10
111.9812272
20
11.6324732
40
0.2433212
50
345.0230517
51
356.092441
0
ARC
8
DEFAULT_255_2_778
10
110.1203583
20
11.5399915
40
2.1204683
50
13.413503
51
23.0812524
0
ARC
8
DEFAULT_255_2_778
10
110.1198412
20
11.5389753
40
2.1212071
50
13.4369622
51
24.4070079
0
ARC
8
DEFAULT_255_2_778
10
110.2079445
20
11.5774613
40
2.0250748
50
24.4454596
51
35.9413133
0
ARC
8
DEFAULT_255_2_778
10
110.2289805
20
11.5922883
40
1.9993409
50
35.9511424
51
47.5906178
0
ARC
8
DEFAULT_255_2_778
10
110.2465491
20
11.6101314
40
1.9743184
50
47.6178357
51
59.4160521
0
ARC
8
DEFAULT_255_2_778
10
110.2509259
20
11.6324797
40
1.9996118
50
59.9883874
51
89.9897745
0
ARC
8
DEFAULT_255_2_778
10
105.8852981
20
64.3551232
40
1.468833
50
282.622728
51
288.7682783
0
ARC
8
DEFAULT_255_2_778
10
106.5050929
20
63.2137159
40
0.1467812
50
329.6687749
51
343.8513986
0
ARC
8
DEFAULT_255_2_778
10
106.5279729
20
63.2065413
40
0.1228098
50
344.0976609
51
359.9768198
0
ARC
8
DEFAULT_255_2_778
10
106.1507071
20
76.1282161
40
0.5000756
50
359.9971984
51
89.9913379
0
ARC
8
DEFAULT_255_2_778
10
106.4607973
20
69.5728376
40
0.1904058
50
306.7692231
51
356.1918628
0
ARC
8
DEFAULT_255_2_778
10
106.1963958
20
69.8745264
40
0.591168
50
292.8332357
51
309.7955524
0
ARC
8
DEFAULT_255_2_778
10
105.9108851
20
70.5196213
40
1.2965679
50
283.1357242
51
293.3992483
0
ARC
8
DEFAULT_255_2_778
10
105.7066299
20
71.3673414
40
2.1685347
50
274.6850694
51
283.3010996
0
ARC
8
DEFAULT_255_2_778
10
105.6524894
20
71.9129086
40
2.7167175
50
269.9618975
51
274.8832825
0
ARC
8
DEFAULT_255_2_778
10
104.1858413
20
68.9811506
40
0.0381377
50
342.3665902
51
345.0184215
0
ARC
8
DEFAULT_255_2_778
10
104.2101874
20
68.9711097
40
0.0120948
50
284.3389286
51
352.8183321
0
ARC
8
DEFAULT_255_2_778
10
102.347198
20
67.5314034
40
1.8926963
50
334.2386114
51
345.7900264
0
ARC
8
DEFAULT_255_2_778
10
103.7010245
20
67.7160496
40
0.5951569
50
305.9564306
51
323.9126642
0
ARC
8
DEFAULT_255_2_778
10
103.3702166
20
68.1582139
40
1.1473424
50
294.5258527
51
306.3634985
0
ARC
8
DEFAULT_255_2_778
10
102.9606116
20
69.023975
40
2.1050596
50
287.0088582
51
294.8869652
0
ARC
8
DEFAULT_255_2_778
10
102.6162829
20
70.1171694
40
3.251174
50
281.2433021
51
287.1760469
0
ARC
8
DEFAULT_255_2_778
10
102.9416525
20
70.0156242
40
2.1604756
50
287.0851068
51
294.7682815
0
ARC
8
DEFAULT_255_2_778
10
103.3648066
20
69.105713
40
1.1569914
50
294.6186714
51
306.3443729
0
ARC
8
DEFAULT_255_2_778
10
103.6963989
20
68.6601855
40
0.6016264
50
306.0537819
51
323.8153561
0
ARC
8
DEFAULT_255_2_778
10
104.0407219
20
68.3974941
40
0.168853
50
326.7818371
51
342.5258274
0
ARC
8
DEFAULT_255_2_778
10
103.8909074
20
68.4481412
40
0.3269789
50
341.9433265
51
350.1500102
0
ARC
8
DEFAULT_255_2_778
10
103.6477078
20
68.4946962
40
0.5745734
50
349.7247306
51
351.0483073
0
ARC
8
DEFAULT_255_2_778
10
103.2762663
20
68.5445781
40
0.9492905
50
351.5627081
51
0.0308115
0
ARC
8
DEFAULT_255_2_778
10
103.2521462
20
68.5450768
40
0.9734106
50
0.0006942
51
1.0839792
0
ARC
8
DEFAULT_255_2_778
10
102.7356112
20
68.6003895
40
1.4876538
50
5.9380424
51
9.3275757
0
ARC
8
DEFAULT_255_2_778
10
102.9609856
20
68.6386627
40
1.2590566
50
9.2712037
51
14.1236433
0
ARC
8
DEFAULT_255_2_778
10
102.3122352
20
68.4682555
40
1.9297907
50
14.3300223
51
22.1834078
0
ARC
8
DEFAULT_255_2_778
10
102.3494736
20
52.2894911
40
1.8898529
50
334.2445533
51
345.8123659
0
ARC
8
DEFAULT_255_2_778
10
103.7017744
20
52.4741308
40
0.593473
50
305.9491397
51
323.9636521
0
ARC
8
DEFAULT_255_2_778
10
103.3692649
20
52.9195945
40
1.1493238
50
294.5164946
51
306.3311205
0
ARC
8
DEFAULT_255_2_778
10
102.9453305
20
53.8206263
40
2.1450666
50
287.1004503
51
294.8323573
0
ARC
8
DEFAULT_255_2_778
10
102.605231
20
54.9229508
40
3.2986637
50
281.2697351
51
287.1165668
0
ARC
8
DEFAULT_255_2_778
10
102.9404902
20
54.7756835
40
2.1610725
50
287.1041613
51
294.7861605
0
ARC
8
DEFAULT_255_2_778
10
103.3682335
20
53.859954
40
1.1503856
50
294.565262
51
306.3559936
0
ARC
8
DEFAULT_255_2_778
10
103.6971723
20
53.4185397
40
0.5999066
50
306.0465468
51
323.8662809
0
ARC
8
DEFAULT_255_2_778
10
104.0524557
20
53.1519503
40
0.1558726
50
326.0018705
51
343.0822904
0
ARC
8
DEFAULT_255_2_778
10
103.8815275
20
53.2097469
40
0.3362682
50
342.1356363
51
349.8268806
0
ARC
8
DEFAULT_255_2_778
10
103.5931756
20
53.2660923
40
0.6300551
50
349.4149279
51
350.7754334
0
ARC
8
DEFAULT_255_2_778
10
103.2720666
20
53.3041812
40
0.9532184
50
351.6096905
51
359.9561113
0
LINE
8
DEFAULT_255_2_778
10
104.2252847
20
53.303451
11
104.2252848
21
53.303839
0
ARC
8
DEFAULT_255_2_778
10
103.2904187
20
53.3038586
40
0.9348661
50
359.9987975
51
1.1910925
0
ARC
8
DEFAULT_255_2_778
10
102.8412154
20
53.3732082
40
1.3810617
50
5.8508126
51
13.9262301
0
ARC
8
DEFAULT_255_2_778
10
102.3258611
20
53.232425
40
1.915192
50
14.303585
51
27.2314998
0
ARC
8
DEFAULT_255_2_778
10
102.3401528
20
59.9129837
40
1.8996256
50
334.259754
51
345.7688901
0
ARC
8
DEFAULT_255_2_778
10
103.7005239
20
60.0952496
40
0.5951573
50
305.9564761
51
323.9126977
0
ARC
8
DEFAULT_255_2_778
10
103.3648097
20
60.5457626
40
1.1569751
50
294.5753062
51
306.3140468
0
ARC
8
DEFAULT_255_2_778
10
102.9511421
20
61.42721
40
2.1306383
50
287.0478741
51
294.8337735
0
ARC
8
DEFAULT_255_2_778
10
102.6056008
20
62.5361814
40
3.2921884
50
281.280306
51
287.1390753
0
ARC
8
DEFAULT_255_2_778
10
102.9431677
20
62.3895994
40
2.1545732
50
287.0745045
51
294.7787593
0
ARC
8
DEFAULT_255_2_778
10
103.367161
20
61.4807632
40
1.1517156
50
294.5772736
51
306.3611877
0
ARC
8
DEFAULT_255_2_778
10
103.6990066
20
61.0365703
40
0.5972792
50
305.9886377
51
323.8805428
0
ARC
8
DEFAULT_255_2_778
10
104.0495258
20
60.7725871
40
0.1586614
50
326.2726195
51
343.0349811
0
ARC
8
DEFAULT_255_2_778
10
103.88765
20
60.8280373
40
0.3297236
50
342.0264029
51
350.1629651
0
ARC
8
DEFAULT_255_2_778
10
103.5408256
20
60.8942786
40
0.6827925
50
349.6583316
51
350.7726912
0
ARC
8
DEFAULT_255_2_778
10
103.2611502
20
60.925128
40
0.9639031
50
351.6284522
51
359.9885246
0
ARC
8
DEFAULT_255_2_778
10
103.2703832
20
60.9249443
40
0.9546701
50
359.9994369
51
1.0831983
0
ARC
8
DEFAULT_255_2_778
10
102.7495154
20
60.9811416
40
1.4731973
50
5.9475619
51
9.3558352
0
ARC
8
DEFAULT_255_2_778
10
102.9301867
20
61.0120817
40
1.2898999
50
9.3044144
51
14.0528753
0
ARC
8
DEFAULT_255_2_778
10
102.322679
20
60.8507887
40
1.9184119
50
14.3202537
51
27.2302541
0
ARC
8
DEFAULT_255_2_778
10
102.3374532
20
44.6735564
40
1.9021661
50
334.2674672
51
345.7611798
0
ARC
8
DEFAULT_255_2_778
10
103.6986867
20
44.8564906
40
0.5973073
50
305.9890407
51
323.8800973
0
ARC
8
DEFAULT_255_2_778
10
103.3669458
20
45.3021926
40
1.1528974
50
294.5348575
51
306.3127323
0
ARC
8
DEFAULT_255_2_778
10
102.9556944
20
46.1717734
40
2.1147737
50
287.0450055
51
294.8878398
0
ARC
8
DEFAULT_255_2_778
10
102.6112402
20
47.2774795
40
3.2728829
50
281.2416959
51
287.1363237
0
ARC
8
DEFAULT_255_2_778
10
102.9455386
20
47.140688
40
2.1455865
50
287.0763961
51
294.8139248
0
ARC
8
DEFAULT_255_2_778
10
103.3677335
20
46.239454
40
1.1503856
50
294.565262
51
306.3559936
0
ARC
8
DEFAULT_255_2_778
10
103.6971518
20
45.7978287
40
0.5994539
50
306.0213568
51
323.8478242
0
ARC
8
DEFAULT_255_2_778
10
104.0492235
20
45.532288
40
0.1586638
50
326.2728141
51
343.0349158
0
ARC
8
DEFAULT_255_2_778
10
103.8901074
20
45.5873412
40
0.3269789
50
341.9433265
51
350.1500102
0
ARC
8
DEFAULT_255_2_778
10
103.6469078
20
45.6338962
40
0.5745734
50
349.7247306
51
351.0483073
0
ARC
8
DEFAULT_255_2_778
10
103.2754663
20
45.6837781
40
0.9492905
50
351.5627081
51
0.0308115
0
ARC
8
DEFAULT_255_2_778
10
103.2513462
20
45.6842768
40
0.9734106
50
0.0006942
51
1.0839792
0
ARC
8
DEFAULT_255_2_778
10
102.8552895
20
45.7559582
40
1.3661338
50
5.7779517
51
13.9410378
0
ARC
8
DEFAULT_255_2_778
10
102.3253611
20
45.611925
40
1.915192
50
14.303585
51
27.2314998
0
ARC
8
DEFAULT_255_2_778
10
104.2092309
20
46.1095436
40
0.0119231
50
284.3338746
51
351.7369999
0
ARC
8
DEFAULT_255_2_778
10
104.1788712
20
46.1223054
40
0.0445748
50
341.0499953
51
343.829806
0
ARC
8
DEFAULT_255_2_778
10
103.4419035
20
46.135617
40
0.7827342
50
0.6789162
51
9.2393169
0
ARC
8
DEFAULT_255_2_778
10
102.6137542
20
46.0262804
40
1.6178881
50
8.3522229
51
14.3473149
0
ARC
8
DEFAULT_255_2_778
10
104.2091164
20
53.7300435
40
0.0121453
50
284.6238459
51
352.6876364
0
ARC
8
DEFAULT_255_2_778
10
104.1792366
20
53.7422894
40
0.0441365
50
341.7912726
51
344.091693
0
ARC
8
DEFAULT_255_2_778
10
103.4419035
20
53.755817
40
0.7827342
50
0.6789162
51
9.2393169
0
ARC
8
DEFAULT_255_2_778
10
102.6242752
20
53.6485921
40
1.6071721
50
8.3322199
51
14.367322
0
ARC
8
DEFAULT_255_2_778
10
104.2091164
20
61.3503435
40
0.0121453
50
284.6238459
51
352.6876364
0
ARC
8
DEFAULT_255_2_778
10
104.1792366
20
61.3625894
40
0.0441365
50
341.7912726
51
344.091693
0
ARC
8
DEFAULT_255_2_778
10
103.4419035
20
61.376117
40
0.7827342
50
0.6789162
51
9.2393169
0
ARC
8
DEFAULT_255_2_778
10
102.6190327
20
61.2678396
40
1.6125118
50
8.3422272
51
14.3573259
0
ARC
8
DEFAULT_255_2_778
10
102.3422334
20
29.4324178
40
1.8971052
50
334.2520843
51
345.7765626
0
ARC
8
DEFAULT_255_2_778
10
103.6982145
20
29.6171954
40
0.5977507
50
306.0141291
51
323.8986628
0
ARC
8
DEFAULT_255_2_778
10
103.3669458
20
30.0626926
40
1.1528974
50
294.5348575
51
306.3127323
0
ARC
8
DEFAULT_255_2_778
10
102.9448305
20
30.9606263
40
2.1450666
50
287.1004503
51
294.8323573
0
ARC
8
DEFAULT_255_2_778
10
102.6044456
20
32.0648533
40
3.300566
50
281.2664377
51
287.111582
0
ARC
8
DEFAULT_255_2_778
10
102.9400036
20
31.9156447
40
2.1610315
50
287.1041249
51
294.7862697
0
ARC
8
DEFAULT_255_2_778
10
103.3677335
20
30.999954
40
1.1503856
50
294.565262
51
306.3559936
0
ARC
8
DEFAULT_255_2_778
10
103.6966726
20
30.5585393
40
0.5999061
50
306.0465431
51
323.8662918
0
ARC
8
DEFAULT_255_2_778
10
104.0505681
20
30.2922512
40
0.1571921
50
326.1937264
51
343.1139063
0
ARC
8
DEFAULT_255_2_778
10
103.8975982
20
30.3459897
40
0.3192524
50
341.8596194
51
349.9639248
0
ARC
8
DEFAULT_255_2_778
10
103.6522268
20
30.3935419
40
0.5691706
50
349.5548005
51
351.0598843
0
ARC
8
DEFAULT_255_2_778
10
103.2768031
20
30.4442741
40
0.947953
50
351.5570682
51
359.9502499
0
ARC
8
DEFAULT_255_2_778
10
103.3679491
20
30.4447655
40
0.8568076
50
359.9120986
51
0.007991
0
ARC
8
DEFAULT_255_2_778
10
103.2511366
20
30.4448748
40
0.9736202
50
0.0005988
51
1.0838605
0
ARC
8
DEFAULT_255_2_778
10
102.8552895
20
30.5164582
40
1.3661338
50
5.7779517
51
13.9410378
0
ARC
8
DEFAULT_255_2_778
10
102.3253611
20
30.372425
40
1.915192
50
14.303585
51
27.2314998
0
ARC
8
DEFAULT_255_2_778
10
102.3462876
20
37.0500582
40
1.8923787
50
334.2522993
51
345.8046198
0
ARC
8
DEFAULT_255_2_778
10
103.7029572
20
37.2322094
40
0.5909157
50
305.8914925
51
323.9776813
0
ARC
8
DEFAULT_255_2_778
10
103.3662984
20
37.6818093
40
1.1525528
50
294.5671319
51
306.3467641
0
ARC
8
DEFAULT_255_2_778
10
102.9485632
20
38.5726432
40
2.1364423
50
287.0584599
51
294.8231753
0
ARC
8
DEFAULT_255_2_778
10
102.6016608
20
39.6897703
40
3.3061877
50
281.2927051
51
287.1266451
0
ARC
8
DEFAULT_255_2_778
10
102.9426731
20
39.5295851
40
2.154558
50
287.0744784
51
294.7787877
0
ARC
8
DEFAULT_255_2_778
10
103.3668236
20
38.6199175
40
1.1508789
50
294.5874232
51
306.3756213
0
ARC
8
DEFAULT_255_2_778
10
103.6984007
20
38.1765766
40
0.5972878
50
305.9887392
51
323.8803853
0
ARC
8
DEFAULT_255_2_778
10
104.0516579
20
37.9116494
40
0.1558702
50
326.0016749
51
343.082356
0
ARC
8
DEFAULT_255_2_778
10
103.8724206
20
37.9715987
40
0.3448351
50
342.218751
51
349.9977282
0
ARC
8
DEFAULT_255_2_778
10
103.5860021
20
38.0269565
40
0.636533
50
349.5684357
51
350.76396
0
ARC
8
DEFAULT_255_2_778
10
103.2712666
20
38.0638812
40
0.9532184
50
351.6096905
51
359.9561113
0
LINE
8
DEFAULT_255_2_778
10
104.2244847
20
38.063151
11
104.2244848
21
38.063539
0
ARC
8
DEFAULT_255_2_778
10
103.2896187
20
38.0635586
40
0.9348661
50
359.9987975
51
1.1910925
0
ARC
8
DEFAULT_255_2_778
10
102.8538074
20
38.1351703
40
1.3675193
50
5.8178931
51
13.9692771
0
ARC
8
DEFAULT_255_2_778
10
102.3274354
20
37.9932427
40
1.9126153
50
14.288712
51
27.2369371
0
ARC
8
DEFAULT_255_2_778
10
104.2088164
20
30.8700435
40
0.0121453
50
284.6238459
51
352.6876364
0
ARC
8
DEFAULT_255_2_778
10
104.1789366
20
30.8822894
40
0.0441365
50
341.7912726
51
344.091693
0
ARC
8
DEFAULT_255_2_778
10
103.441714
20
30.8964902
40
0.782616
50
0.6297286
51
9.1907932
0
ARC
8
DEFAULT_255_2_778
10
102.6442816
20
30.7917216
40
1.5867255
50
8.3261437
51
14.4397999
0
ARC
8
DEFAULT_255_2_778
10
104.2088164
20
38.4903435
40
0.0121453
50
284.6238459
51
352.6876364
0
ARC
8
DEFAULT_255_2_778
10
104.1789366
20
38.5025894
40
0.0441365
50
341.7912726
51
344.091693
0
ARC
8
DEFAULT_255_2_778
10
103.441714
20
38.5167902
40
0.782616
50
0.6297286
51
9.1907932
0
ARC
8
DEFAULT_255_2_778
10
102.6442816
20
38.4120216
40
1.5867255
50
8.3261437
51
14.4397999
0
ARC
8
DEFAULT_255_2_778
10
102.3486554
20
21.8094977
40
1.8898722
50
334.2446119
51
345.8123062
0
ARC
8
DEFAULT_255_2_778
10
103.7009744
20
21.9941308
40
0.593473
50
305.9491397
51
323.9636521
0
ARC
8
DEFAULT_255_2_778
10
103.3669084
20
22.4418459
40
1.1520597
50
294.5449844
51
306.3271428
0
ARC
8
DEFAULT_255_2_778
10
102.9422186
20
23.3475331
40
2.1523478
50
287.1052108
51
294.8134133
0
ARC
8
DEFAULT_255_2_778
10
102.6027113
20
24.4497428
40
3.3056611
50
281.2759613
51
287.1104059
0
ARC
8
DEFAULT_255_2_778
10
102.9418205
20
24.2901188
40
2.1551274
50
287.093543
51
294.7967654
0
ARC
8
DEFAULT_255_2_778
10
103.3674335
20
23.379954
40
1.1503856
50
294.565262
51
306.3559936
0
ARC
8
DEFAULT_255_2_778
10
103.6963723
20
22.9385397
40
0.5999066
50
306.0465468
51
323.8662809
0
ARC
8
DEFAULT_255_2_778
10
104.0516598
20
22.6719486
40
0.1558682
50
326.0015065
51
343.0824124
0
ARC
8
DEFAULT_255_2_778
10
103.8807275
20
22.7297469
40
0.3362682
50
342.1356363
51
349.8268806
0
ARC
8
DEFAULT_255_2_778
10
103.5923756
20
22.7860923
40
0.6300551
50
349.4149279
51
350.7754334
0
ARC
8
DEFAULT_255_2_778
10
103.2721787
20
22.8241126
40
0.9523061
50
351.6057626
51
359.9818311
0
ARC
8
DEFAULT_255_2_778
10
103.2864979
20
22.8238262
40
0.9379869
50
359.9990537
51
1.1891108
0
ARC
8
DEFAULT_255_2_778
10
102.7559323
20
22.8823584
40
1.4662123
50
5.9360471
51
9.283443
0
ARC
8
DEFAULT_255_2_778
10
102.9461235
20
22.914712
40
1.2732936
50
9.2272678
51
14.1318422
0
ARC
8
DEFAULT_255_2_778
10
102.3302109
20
22.7543783
40
1.9097194
50
14.2849702
51
27.2500908
0
ARC
8
DEFAULT_255_2_778
10
104.2088164
20
23.2503435
40
0.0121453
50
284.6238459
51
352.6876364
0
ARC
8
DEFAULT_255_2_778
10
104.1789366
20
23.2625894
40
0.0441365
50
341.7912726
51
344.091693
0
ARC
8
DEFAULT_255_2_778
10
103.4417171
20
23.2767904
40
0.7826129
50
0.6297155
51
9.1908142
0
ARC
8
DEFAULT_255_2_778
10
102.6391653
20
23.1709915
40
1.591937
50
8.3361601
51
14.4297834
0
ARC
8
DEFAULT_255_2_778
10
102.3486554
20
14.1894977
40
1.8898722
50
334.2446119
51
345.8123062
0
ARC
8
DEFAULT_255_2_778
10
103.7009744
20
14.3741308
40
0.593473
50
305.9491397
51
323.9636521
0
ARC
8
DEFAULT_255_2_778
10
103.3669084
20
14.8218459
40
1.1520597
50
294.5449844
51
306.3271428
0
ARC
8
DEFAULT_255_2_778
10
102.9422319
20
15.7274945
40
2.1523072
50
287.1051744
51
294.8135226
0
ARC
8
DEFAULT_255_2_778
10
102.6027113
20
16.8297428
40
3.3056611
50
281.2759613
51
287.1104059
0
ARC
8
DEFAULT_255_2_778
10
102.9418368
20
16.6700802
40
2.1550858
50
287.093431
51
294.7968028
0
ARC
8
DEFAULT_255_2_778
10
103.3674335
20
15.759954
40
1.1503856
50
294.565262
51
306.3559936
0
ARC
8
DEFAULT_255_2_778
10
103.6963723
20
15.3185397
40
0.5999066
50
306.0465468
51
323.8662809
0
ARC
8
DEFAULT_255_2_778
10
104.0516528
20
15.0519519
40
0.1558758
50
326.00196
51
343.0820246
0
ARC
8
DEFAULT_255_2_778
10
103.8807275
20
15.1097469
40
0.3362682
50
342.1356363
51
349.8268806
0
ARC
8
DEFAULT_255_2_778
10
103.5923756
20
15.1660923
40
0.6300551
50
349.4149279
51
350.7754334
0
ARC
8
DEFAULT_255_2_778
10
103.2712666
20
15.2041812
40
0.9532184
50
351.6096905
51
359.9561113
0
LINE
8
DEFAULT_255_2_778
10
104.2244847
20
15.203451
11
104.2244848
21
15.203839
0
ARC
8
DEFAULT_255_2_778
10
103.2896187
20
15.2038586
40
0.9348661
50
359.9987975
51
1.1910925
0
ARC
8
DEFAULT_255_2_778
10
102.7559323
20
15.2623584
40
1.4662123
50
5.9360471
51
9.283443
0
ARC
8
DEFAULT_255_2_778
10
102.9461235
20
15.294712
40
1.2732936
50
9.2272678
51
14.1318422
0
ARC
8
DEFAULT_255_2_778
10
102.3302109
20
15.1343783
40
1.9097194
50
14.2849702
51
27.2500908
0
ARC
8
DEFAULT_255_2_778
10
102.3459055
20
6.5706005
40
1.8926883
50
334.2385934
51
345.7900574
0
ARC
8
DEFAULT_255_2_778
10
103.6997226
20
6.7552518
40
0.5951597
50
305.9564523
51
323.9126
0
ARC
8
DEFAULT_255_2_778
10
103.3658357
20
7.2026559
40
1.1533904
50
294.5569982
51
306.3323505
0
ARC
8
DEFAULT_255_2_778
10
102.9503421
20
8.08721
40
2.1306383
50
287.0478741
51
294.8337735
0
ARC
8
DEFAULT_255_2_778
10
102.6048008
20
9.1961814
40
3.2921884
50
281.280306
51
287.1390753
0
ARC
8
DEFAULT_255_2_778
10
102.9400453
20
9.0565397
40
2.1618896
50
287.0793352
51
294.7599582
0
ARC
8
DEFAULT_255_2_778
10
103.3666236
20
8.1399175
40
1.1508789
50
294.5874232
51
306.3756213
0
ARC
8
DEFAULT_255_2_778
10
103.6966566
20
7.6981236
40
0.599447
50
306.0212755
51
323.8479483
0
ARC
8
DEFAULT_255_2_778
10
104.0487256
20
7.4325871
40
0.1586615
50
326.2726679
51
343.0350114
0
ARC
8
DEFAULT_255_2_778
10
103.88685
20
7.4880373
40
0.3297236
50
342.0264029
51
350.1629651
0
ARC
8
DEFAULT_255_2_778
10
103.5400256
20
7.5542786
40
0.6827925
50
349.6583316
51
350.7726912
0
ARC
8
DEFAULT_255_2_778
10
103.2614593
20
7.5850484
40
0.9627943
50
351.6235278
51
359.8870855
0
ARC
8
DEFAULT_255_2_778
10
103.2336384
20
7.5849315
40
0.9906149
50
359.8970195
51
360
0
ARC
8
DEFAULT_255_2_778
10
103.26938
20
7.5849425
40
0.9548734
50
359.999341
51
1.0830782
0
ARC
8
DEFAULT_255_2_778
10
102.7487154
20
7.6411416
40
1.4731973
50
5.9475619
51
9.3558352
0
ARC
8
DEFAULT_255_2_778
10
102.9293867
20
7.6720817
40
1.2898999
50
9.3044144
51
14.0528753
0
ARC
8
DEFAULT_255_2_778
10
102.3270346
20
7.5127445
40
1.9129329
50
14.3016864
51
27.2488214
0
ARC
8
DEFAULT_255_2_778
10
104.2086395
20
15.6300524
40
0.0121235
50
284.0502003
51
352.6316482
0
ARC
8
DEFAULT_255_2_778
10
104.1787359
20
15.6422896
40
0.0441371
50
341.7912641
51
344.0916855
0
ARC
8
DEFAULT_255_2_778
10
103.4414066
20
15.6558172
40
0.7827311
50
0.6789029
51
9.239338
0
ARC
8
DEFAULT_255_2_778
10
102.6185327
20
15.5475396
40
1.6125118
50
8.3422272
51
14.3573259
0
ARC
8
DEFAULT_255_2_778
10
104.2086395
20
8.0103524
40
0.0121235
50
284.0502003
51
352.6316482
0
ARC
8
DEFAULT_255_2_778
10
104.1787359
20
8.0225896
40
0.0441371
50
341.7912641
51
344.0916855
0
ARC
8
DEFAULT_255_2_778
10
103.4414066
20
8.0361172
40
0.7827311
50
0.6789029
51
9.239338
0
ARC
8
DEFAULT_255_2_778
10
102.6185327
20
7.9278396
40
1.6125118
50
8.3422272
51
14.3573259
0
ARC
8
DEFAULT_255_2_778
10
106.5287727
20
62.0696413
40
0.12281
50
344.0976753
51
359.9768149
0
ARC
8
DEFAULT_255_2_778
10
106.4977202
20
62.0803259
40
0.1556117
50
330.0728953
51
343.44692
0
ARC
8
DEFAULT_255_2_778
10
105.8791791
20
63.2428493
40
1.4943765
50
282.6752647
51
288.7156703
0
ARC
8
DEFAULT_255_2_778
10
106.5055838
20
47.9745969
40
0.1472405
50
329.6015512
51
343.6676884
0
ARC
8
DEFAULT_255_2_778
10
106.5287841
20
47.9668399
40
0.1227986
50
344.0968823
51
359.9774947
0
ARC
8
DEFAULT_255_2_778
10
106.5287717
20
46.8296414
40
0.122811
50
344.0977721
51
359.9767824
0
ARC
8
DEFAULT_255_2_778
10
106.5031652
20
46.838442
40
0.1498558
50
329.7248223
51
343.5442706
0
ARC
8
DEFAULT_255_2_778
10
105.8860981
20
47.9785232
40
1.468833
50
282.622728
51
288.7682783
0
ARC
8
DEFAULT_255_2_778
10
106.5033201
20
32.7356955
40
0.1494972
50
329.8426673
51
343.8018266
0
ARC
8
DEFAULT_255_2_778
10
106.5287829
20
32.72764
40
0.1227997
50
344.0969935
51
359.9774574
0
ARC
8
DEFAULT_255_2_778
10
106.5327027
20
31.5905745
40
0.1191801
50
343.6835061
51
0.0563363
0
ARC
8
DEFAULT_255_2_778
10
106.509332
20
31.5969639
40
0.1434053
50
329.4124744
51
343.8567812
0
ARC
8
DEFAULT_255_2_778
10
105.8681982
20
32.8042911
40
1.536017
50
282.757249
51
288.6337572
0
ARC
8
DEFAULT_255_2_778
10
106.5136947
20
17.4924799
40
0.1386921
50
329.1653697
51
344.1032929
0
ARC
8
DEFAULT_255_2_778
10
106.5327027
20
17.4879745
40
0.1191801
50
343.6835061
51
0.0563363
0
ARC
8
DEFAULT_255_2_778
10
106.529271
20
16.3512416
40
0.1228117
50
344.0977954
51
359.9767128
0
ARC
8
DEFAULT_255_2_778
10
106.5055201
20
16.3592408
40
0.1478501
50
329.6305641
51
343.6384129
0
ARC
8
DEFAULT_255_2_778
10
105.8844835
20
17.5087638
40
1.4777269
50
282.6295228
51
288.7417884
0
ARC
8
DEFAULT_255_2_778
10
97.4020711
20
0.3296032
40
0.5000116
50
269.9898688
51
359.9986732
0
ARC
8
DEFAULT_255_2_778
10
106.9082303
20
-0.3507139
40
5.3502094
50
83.7988108
51
90.0679764
0
ARC
8
DEFAULT_255_2_778
10
107.0235874
20
0.6831374
40
4.3099475
50
77.7417218
51
83.8387658
0
ARC
8
DEFAULT_255_2_778
10
107.2925436
20
1.906873
40
3.0570096
50
70.9881626
51
77.7979857
0
ARC
8
DEFAULT_255_2_778
10
107.6738907
20
3.0012114
40
1.8981413
50
62.24144
51
71.1104011
0
ARC
8
DEFAULT_255_2_778
10
108.091056
20
3.7827775
40
1.0122391
50
48.9812994
51
62.5326792
0
ARC
8
DEFAULT_255_2_778
10
108.4595605
20
4.1955789
40
0.4589858
50
22.9624372
51
49.8690325
0
ARC
8
DEFAULT_255_2_778
10
108.6174686
20
4.2706127
40
0.2844159
50
0.1972101
51
21.4546326
0
ARC
8
DEFAULT_255_2_778
10
109.4018943
20
0.3296032
40
0.5000116
50
180.0013268
51
270.0101312
0
ARC
8
DEFAULT_255_2_778
10
109.1673898
20
4.2841916
40
0.2658059
50
182.7169937
51
227.9920567
0
ARC
8
DEFAULT_255_2_778
10
109.4771236
20
4.5883335
40
0.6995895
50
225.8124972
51
242.5435985
0
ARC
8
DEFAULT_255_2_778
10
109.8376636
20
5.2552228
40
1.4576503
50
242.0544395
51
252.0942933
0
ARC
8
DEFAULT_255_2_778
10
110.1582842
20
6.224298
40
2.4783726
50
251.9290567
51
259.5469006
0
ARC
8
DEFAULT_255_2_778
10
110.3540853
20
7.2573254
40
3.5297837
50
259.4636496
51
266.3122128
0
ARC
8
DEFAULT_255_2_778
10
110.4002597
20
7.8500141
40
4.1242227
50
266.2016666
51
270.0211592
0
LINE
8
DEFAULT_255_2_778
10
58.9014827
20
7.6280916
11
58.9014827
21
1.8281916
0
LINE
8
DEFAULT_255_2_778
10
58.9014827
20
1.8281916
11
65.4014827
21
1.8281916
0
LINE
8
DEFAULT_255_2_778
10
65.4014827
20
1.8281916
11
65.9015827
21
1.3281916
0
LINE
8
DEFAULT_255_2_778
10
65.9015827
20
1.3281916
11
58.4016827
21
1.3281916
0
LINE
8
DEFAULT_255_2_778
10
58.4016827
20
1.3281916
11
58.4016827
21
8.1281916
0
LINE
8
DEFAULT_255_2_778
10
65.4017827
20
2.0281916
11
58.9016827
21
2.0281916
0
LINE
8
DEFAULT_255_2_778
10
65.4017827
20
2.3282916
11
58.9016827
21
2.3282916
0
LINE
8
DEFAULT_255_2_778
10
65.4017827
20
1.8281916
11
65.4017827
21
7.6280916
0
LINE
8
DEFAULT_255_2_778
10
65.4017827
20
7.6280916
11
58.9016827
21
7.6280916
0
LINE
8
DEFAULT_255_2_778
10
58.9016827
20
7.6280916
11
58.4016827
21
8.1281916
0
LINE
8
DEFAULT_255_2_778
10
58.4016827
20
8.1281916
11
65.9015827
21
8.1281916
0
LINE
8
DEFAULT_255_2_778
10
65.9015827
20
8.1281916
11
65.9015827
21
1.3281916
0
LINE
8
DEFAULT_255_2_778
10
65.4014827
20
7.6280916
11
65.9015827
21
8.1281916
0
LINE
8
DEFAULT_255_2_778
10
58.9014827
20
1.8281916
11
58.4013827
21
1.3281916
0
LINE
8
DEFAULT_255_2_778
10
63.8012827
20
2.3282916
11
63.8012827
21
5.5283916
0
LINE
8
DEFAULT_255_2_778
10
64.6013827
20
6.3284916
11
65.4014827
21
6.3284916
0
LINE
8
DEFAULT_255_2_778
10
58.9014827
20
3.8284916
11
60.8514827
21
3.8284916
0
LINE
8
DEFAULT_255_2_778
10
61.6515827
20
3.0283916
11
61.6515827
21
2.3282916
0
LINE
8
DEFAULT_255_2_778
10
102.2512827
20
65.5781916
11
102.1512827
21
65.5781916
0
LINE
8
DEFAULT_255_2_778
10
104.2129827
20
67.3964916
11
103.2514827
21
67.3964916
0
LINE
8
DEFAULT_255_2_778
10
104.2129827
20
68.9598916
11
104.1832827
21
68.9598916
0
LINE
8
DEFAULT_255_2_778
10
104.1054827
20
68.1369916
11
104.0724827
21
68.1652916
0
LINE
8
DEFAULT_255_2_778
10
104.0724827
20
68.1652916
11
104.0554827
21
68.1785916
0
LINE
8
DEFAULT_255_2_778
10
102.2515827
20
50.3379916
11
102.1515827
21
50.3379916
0
LINE
8
DEFAULT_255_2_778
10
104.2131827
20
52.1561916
11
103.2516827
21
52.1561916
0
LINE
8
DEFAULT_255_2_778
10
104.2131827
20
53.7195916
11
104.1835827
21
53.7195916
0
LINE
8
DEFAULT_255_2_778
10
104.1057827
20
52.8969916
11
104.0726827
21
52.9250916
0
LINE
8
DEFAULT_255_2_778
10
104.0726827
20
52.9250916
11
104.0557827
21
52.9382916
0
LINE
8
DEFAULT_255_2_778
10
102.2518827
20
57.9576916
11
102.1518827
21
57.9576916
0
LINE
8
DEFAULT_255_2_778
10
104.2134827
20
59.7758916
11
103.2519827
21
59.7758916
0
LINE
8
DEFAULT_255_2_778
10
104.2134827
20
61.3393916
11
104.1837827
21
61.3393916
0
LINE
8
DEFAULT_255_2_778
10
104.1060827
20
60.5167916
11
104.0729827
21
60.5447916
0
LINE
8
DEFAULT_255_2_778
10
104.0729827
20
60.5447916
11
104.0560827
21
60.5579916
0
LINE
8
DEFAULT_255_2_778
10
102.2520827
20
42.7173916
11
102.1520827
21
42.7173916
0
LINE
8
DEFAULT_255_2_778
10
104.2136827
20
44.5356916
11
103.2522827
21
44.5356916
0
LINE
8
DEFAULT_255_2_778
10
104.2136827
20
46.0990916
11
104.1840827
21
46.0990916
0
LINE
8
DEFAULT_255_2_778
10
104.1062827
20
45.2764916
11
104.0732827
21
45.3044916
0
LINE
8
DEFAULT_255_2_778
10
104.0732827
20
45.3044916
11
104.0562827
21
45.3177916
0
LINE
8
DEFAULT_255_2_778
10
102.2523827
20
27.4771916
11
102.1523827
21
27.4771916
0
LINE
8
DEFAULT_255_2_778
10
104.2139827
20
29.2953916
11
103.2524827
21
29.2953916
0
LINE
8
DEFAULT_255_2_778
10
104.2139827
20
30.8587916
11
104.1843827
21
30.8587916
0
LINE
8
DEFAULT_255_2_778
10
104.1065827
20
30.0361916
11
104.0734827
21
30.0642916
0
LINE
8
DEFAULT_255_2_778
10
104.0734827
20
30.0642916
11
104.0565827
21
30.0774916
0
LINE
8
DEFAULT_255_2_778
10
102.2526827
20
35.0968916
11
102.1525827
21
35.0968916
0
LINE
8
DEFAULT_255_2_778
10
104.2142827
20
36.9150916
11
103.2527827
21
36.9150916
0
LINE
8
DEFAULT_255_2_778
10
104.2142827
20
38.4785916
11
104.1845827
21
38.4785916
0
LINE
8
DEFAULT_255_2_778
10
104.1068827
20
37.6559916
11
104.0737827
21
37.6839916
0
LINE
8
DEFAULT_255_2_778
10
104.0737827
20
37.6839916
11
104.0567827
21
37.6971916
0
LINE
8
DEFAULT_255_2_778
10
102.2528827
20
19.8566916
11
102.1528827
21
19.8566916
0
LINE
8
DEFAULT_255_2_778
10
104.2144827
20
21.6748916
11
103.2529827
21
21.6748916
0
LINE
8
DEFAULT_255_2_778
10
104.2144827
20
23.2382916
11
104.1848827
21
23.2382916
0
LINE
8
DEFAULT_255_2_778
10
104.1070827
20
22.4156916
11
104.0739827
21
22.4437916
0
LINE
8
DEFAULT_255_2_778
10
104.0739827
20
22.4437916
11
104.0570827
21
22.4569916
0
LINE
8
DEFAULT_255_2_778
10
102.2531827
20
12.2363916
11
102.1531827
21
12.2363916
0
LINE
8
DEFAULT_255_2_778
10
104.2147827
20
14.0545916
11
103.2532827
21
14.0545916
0
LINE
8
DEFAULT_255_2_778
10
104.2147827
20
15.6179916
11
104.1851827
21
15.6179916
0
LINE
8
DEFAULT_255_2_778
10
104.1073827
20
14.7953916
11
104.0742827
21
14.8234916
0
LINE
8
DEFAULT_255_2_778
10
104.0742827
20
14.8234916
11
104.0573827
21
14.8366916
0
LINE
8
DEFAULT_255_2_778
10
102.2533827
20
4.6160916
11
102.1533827
21
4.6160916
0
LINE
8
DEFAULT_255_2_778
10
104.2150827
20
6.4342916
11
103.2535827
21
6.4342916
0
LINE
8
DEFAULT_255_2_778
10
104.2150827
20
7.9977916
11
104.1853827
21
7.9977916
0
LINE
8
DEFAULT_255_2_778
10
104.1075827
20
7.1751916
11
104.0745827
21
7.2031916
0
LINE
8
DEFAULT_255_2_778
10
104.0745827
20
7.2031916
11
104.0576827
21
7.2164916
0
LINE
8
DEFAULT_255_2_778
10
103.9192827
20
13.1618916
11
106.6536827
21
13.1618916
0
LINE
8
DEFAULT_255_2_778
10
106.6536827
20
13.1618916
11
106.6536827
21
8.8980916
0
LINE
8
DEFAULT_255_2_778
10
106.6536827
20
8.8980916
11
105.1537827
21
8.3850916
0
LINE
8
DEFAULT_255_2_778
10
105.1537827
20
9.5219916
11
106.6536827
21
10.0350916
0
LINE
8
DEFAULT_255_2_778
10
103.9192827
20
28.4015916
11
106.6536827
21
28.4015916
0
LINE
8
DEFAULT_255_2_778
10
106.6536827
20
28.4015916
11
106.6536827
21
24.1378916
0
LINE
8
DEFAULT_255_2_778
10
106.6536827
20
24.1378916
11
105.1537827
21
23.6248916
0
LINE
8
DEFAULT_255_2_778
10
105.1537827
20
24.7619916
11
106.6536827
21
25.2750916
0
LINE
8
DEFAULT_255_2_778
10
102.1536827
20
8.3850916
11
102.1536827
21
3.6270916
0
LINE
8
DEFAULT_255_2_778
10
102.1536827
20
3.6270916
11
101.1537827
21
3.6270916
0
LINE
8
DEFAULT_255_2_778
10
103.9194827
20
43.6415916
11
106.6539827
21
43.6415916
0
LINE
8
DEFAULT_255_2_778
10
106.6539827
20
43.6415916
11
106.6539827
21
39.3778916
0
LINE
8
DEFAULT_255_2_778
10
106.6539827
20
39.3778916
11
105.1540827
21
38.8648916
0
LINE
8
DEFAULT_255_2_778
10
105.1540827
20
40.0019916
11
106.6539827
21
40.5150916
0
LINE
8
DEFAULT_255_2_778
10
102.1539827
20
16.0050916
11
102.1539827
21
11.2470916
0
LINE
8
DEFAULT_255_2_778
10
102.1539827
20
11.2470916
11
101.1540827
21
11.2470916
0
LINE
8
DEFAULT_255_2_778
10
102.1539827
20
23.6250916
11
102.1539827
21
18.8670916
0
LINE
8
DEFAULT_255_2_778
10
102.1539827
20
18.8670916
11
101.1540827
21
18.8670916
0
LINE
8
DEFAULT_255_2_778
10
103.9197827
20
58.8815916
11
106.6542827
21
58.8815916
0
LINE
8
DEFAULT_255_2_778
10
106.6542827
20
58.8815916
11
106.6542827
21
54.6178916
0
LINE
8
DEFAULT_255_2_778
10
106.6542827
20
54.6178916
11
105.1542827
21
54.1048916
0
LINE
8
DEFAULT_255_2_778
10
105.1542827
20
55.2417916
11
106.6542827
21
55.7547916
0
LINE
8
DEFAULT_255_2_778
10
102.1541827
20
31.2448916
11
102.1541827
21
26.4867916
0
LINE
8
DEFAULT_255_2_778
10
102.1541827
20
26.4867916
11
101.1543827
21
26.4867916
0
LINE
8
DEFAULT_255_2_778
10
102.1541827
20
38.8648916
11
102.1541827
21
34.1067916
0
LINE
8
DEFAULT_255_2_778
10
102.1541827
20
34.1067916
11
101.1543827
21
34.1067916
0
LINE
8
DEFAULT_255_2_778
10
102.1541827
20
46.4848916
11
102.1541827
21
41.7267916
0
LINE
8
DEFAULT_255_2_778
10
102.1541827
20
41.7267916
11
101.1543827
21
41.7267916
0
LINE
8
DEFAULT_255_2_778
10
102.1541827
20
54.1048916
11
102.1541827
21
49.3467916
0
LINE
8
DEFAULT_255_2_778
10
102.1541827
20
49.3467916
11
101.1543827
21
49.3467916
0
LINE
8
DEFAULT_255_2_778
10
102.1541827
20
61.7248916
11
102.1541827
21
56.9667916
0
LINE
8
DEFAULT_255_2_778
10
102.1541827
20
56.9667916
11
101.1543827
21
56.9667916
0
LINE
8
DEFAULT_255_2_778
10
114.4853827
20
74.9605916
11
114.4853827
21
1.6254916
0
LINE
8
DEFAULT_255_2_778
10
114.7544827
20
74.9605916
11
114.7544827
21
76.6256916
0
LINE
8
DEFAULT_255_2_778
10
115.2378827
20
74.9605916
11
115.2378827
21
76.1255916
0
LINE
8
DEFAULT_255_2_778
10
115.4341827
20
76.5065916
11
115.4804827
21
76.5372916
0
LINE
8
DEFAULT_255_2_778
10
115.4804827
20
76.5372916
11
115.5296827
21
76.5631916
0
LINE
8
DEFAULT_255_2_778
10
115.7434827
20
76.6200916
11
115.8543827
21
76.6253916
0
LINE
8
DEFAULT_255_2_778
10
114.7544827
20
-0.1747084
11
114.7544827
21
1.6252916
0
LINE
8
DEFAULT_255_2_778
10
115.8543827
20
-0.1747084
11
115.7434827
21
-0.1694084
0
LINE
8
DEFAULT_255_2_778
10
115.5296827
20
-0.1125084
11
115.4804827
21
-0.0866084
0
LINE
8
DEFAULT_255_2_778
10
115.4804827
20
-0.0866084
11
115.4341827
21
-0.0559084
0
LINE
8
DEFAULT_255_2_778
10
115.2378827
20
0.3250916
11
115.2378827
21
1.6249916
0
LINE
8
DEFAULT_255_2_778
10
114.4853827
20
59.7200916
11
107.5953827
21
59.7200916
0
LINE
8
DEFAULT_255_2_778
10
107.5953827
20
59.7200916
11
107.5953827
21
61.3901916
0
LINE
8
DEFAULT_255_2_778
10
107.5953827
20
61.3901916
11
114.4853827
21
61.3901916
0
LINE
8
DEFAULT_255_2_778
10
114.1543827
20
53.7701916
11
114.1543827
21
67.3432916
0
LINE
8
DEFAULT_255_2_778
10
114.4853827
20
44.4832916
11
107.5953827
21
44.4832916
0
LINE
8
DEFAULT_255_2_778
10
107.5953827
20
44.4832916
11
107.5953827
21
46.1532916
0
LINE
8
DEFAULT_255_2_778
10
107.5953827
20
46.1532916
11
114.4853827
21
46.1532916
0
LINE
8
DEFAULT_255_2_778
10
114.1543827
20
38.5332916
11
114.1543827
21
52.1032916
0
LINE
8
DEFAULT_255_2_778
10
114.4853827
20
29.2432916
11
107.5953827
21
29.2432916
0
LINE
8
DEFAULT_255_2_778
10
107.5953827
20
29.2432916
11
107.5953827
21
30.9132916
0
LINE
8
DEFAULT_255_2_778
10
107.5953827
20
30.9132916
11
114.4853827
21
30.9132916
0
LINE
8
DEFAULT_255_2_778
10
114.1543827
20
23.2932916
11
114.1543827
21
36.8632916
0
LINE
8
DEFAULT_255_2_778
10
109.1510827
20
69.1881916
11
110.1509827
21
69.1881916
0
LINE
8
DEFAULT_255_2_778
10
110.1509827
20
69.1881916
11
110.1509827
21
74.7883916
0
LINE
8
DEFAULT_255_2_778
10
110.1509827
20
74.7883916
11
109.1510827
21
74.7883916
0
LINE
8
DEFAULT_255_2_778
10
110.1512827
20
69.3884916
11
110.2512827
21
69.3884916
0
LINE
8
DEFAULT_255_2_778
10
111.2510827
20
69.6564916
11
111.2510827
21
69.7107916
0
LINE
8
DEFAULT_255_2_778
10
112.1829827
20
70.9886916
11
112.2027827
21
71.0847916
0
LINE
8
DEFAULT_255_2_778
10
112.2027827
20
71.0847916
11
112.2162827
21
71.1786916
0
LINE
8
DEFAULT_255_2_778
10
112.2162827
20
71.1786916
11
112.2239827
21
71.2656916
0
LINE
8
DEFAULT_255_2_778
10
112.2239827
20
71.2656916
11
112.2263827
21
71.3421916
0
LINE
8
DEFAULT_255_2_778
10
112.2263827
20
71.3421916
11
112.2239827
21
71.4048916
0
LINE
8
DEFAULT_255_2_778
10
112.2162827
20
71.4511916
11
112.2101827
21
71.4675916
0
LINE
8
DEFAULT_255_2_778
10
112.2101827
20
71.4675916
11
112.2025827
21
71.4791916
0
LINE
8
DEFAULT_255_2_778
10
112.2025827
20
71.4791916
11
112.1935827
21
71.4863916
0
LINE
8
DEFAULT_255_2_778
10
112.1935827
20
71.4863916
11
112.1829827
21
71.4887916
0
LINE
8
DEFAULT_255_2_778
10
112.1829827
20
71.4887916
11
111.2513827
21
71.4887916
0
LINE
8
DEFAULT_255_2_778
10
111.2513827
20
71.4887916
11
111.2513827
21
72.4885916
0
LINE
8
DEFAULT_255_2_778
10
111.2513827
20
72.4885916
11
112.1829827
21
72.4885916
0
LINE
8
DEFAULT_255_2_778
10
112.1829827
20
72.4885916
11
112.1935827
21
72.4909916
0
LINE
8
DEFAULT_255_2_778
10
112.1935827
20
72.4909916
11
112.2025827
21
72.4981916
0
LINE
8
DEFAULT_255_2_778
10
112.2025827
20
72.4981916
11
112.2101827
21
72.5097916
0
LINE
8
DEFAULT_255_2_778
10
112.2101827
20
72.5097916
11
112.2162827
21
72.5261916
0
LINE
8
DEFAULT_255_2_778
10
112.2239827
20
72.5724916
11
112.2263827
21
72.6351916
0
LINE
8
DEFAULT_255_2_778
10
112.2263827
20
72.6351916
11
112.2239827
21
72.7116916
0
LINE
8
DEFAULT_255_2_778
10
112.2239827
20
72.7116916
11
112.2162827
21
72.7986916
0
LINE
8
DEFAULT_255_2_778
10
112.2162827
20
72.7986916
11
112.2027827
21
72.8925916
0
LINE
8
DEFAULT_255_2_778
10
112.2027827
20
72.8925916
11
112.1829827
21
72.9889916
0
LINE
8
DEFAULT_255_2_778
10
111.2510827
20
74.2668916
11
111.2510827
21
74.3210916
0
LINE
8
DEFAULT_255_2_778
10
110.2512827
20
74.5891916
11
110.1512827
21
74.5891916
0
LINE
8
DEFAULT_255_2_778
10
109.1510827
20
61.5692916
11
110.1509827
21
61.5692916
0
LINE
8
DEFAULT_255_2_778
10
110.1509827
20
61.5692916
11
110.1509827
21
67.1683916
0
LINE
8
DEFAULT_255_2_778
10
110.1509827
20
67.1683916
11
109.1510827
21
67.1683916
0
LINE
8
DEFAULT_255_2_778
10
110.1512827
20
61.7684916
11
110.2512827
21
61.7684916
0
LINE
8
DEFAULT_255_2_778
10
111.2510827
20
62.0364916
11
111.2510827
21
62.0907916
0
LINE
8
DEFAULT_255_2_778
10
112.1829827
20
63.3686916
11
112.2027827
21
63.4649916
0
LINE
8
DEFAULT_255_2_778
10
112.2027827
20
63.4649916
11
112.2162827
21
63.5588916
0
LINE
8
DEFAULT_255_2_778
10
112.2162827
20
63.5588916
11
112.2239827
21
63.6459916
0
LINE
8
DEFAULT_255_2_778
10
112.2239827
20
63.6459916
11
112.2263827
21
63.7224916
0
LINE
8
DEFAULT_255_2_778
10
112.2263827
20
63.7224916
11
112.2239827
21
63.7851916
0
LINE
8
DEFAULT_255_2_778
10
112.2162827
20
63.8314916
11
112.2101827
21
63.8478916
0
LINE
8
DEFAULT_255_2_778
10
112.2101827
20
63.8478916
11
112.2025827
21
63.8594916
0
LINE
8
DEFAULT_255_2_778
10
112.2025827
20
63.8594916
11
112.1935827
21
63.8666916
0
LINE
8
DEFAULT_255_2_778
10
112.1935827
20
63.8666916
11
112.1829827
21
63.8689916
0
LINE
8
DEFAULT_255_2_778
10
112.1829827
20
63.8689916
11
111.2513827
21
63.8689916
0
LINE
8
DEFAULT_255_2_778
10
111.2513827
20
63.8689916
11
111.2513827
21
64.8691916
0
LINE
8
DEFAULT_255_2_778
10
111.2513827
20
64.8691916
11
112.1829827
21
64.8691916
0
LINE
8
DEFAULT_255_2_778
10
112.1829827
20
64.8691916
11
112.1935827
21
64.8714916
0
LINE
8
DEFAULT_255_2_778
10
112.1935827
20
64.8714916
11
112.2025827
21
64.8786916
0
LINE
8
DEFAULT_255_2_778
10
112.2025827
20
64.8786916
11
112.2101827
21
64.8902916
0
LINE
8
DEFAULT_255_2_778
10
112.2101827
20
64.8902916
11
112.2162827
21
64.9066916
0
LINE
8
DEFAULT_255_2_778
10
112.2239827
20
64.9529916
11
112.2263827
21
65.0156916
0
LINE
8
DEFAULT_255_2_778
10
112.2263827
20
65.0156916
11
112.2239827
21
65.0921916
0
LINE
8
DEFAULT_255_2_778
10
112.2239827
20
65.0921916
11
112.2162827
21
65.1792916
0
LINE
8
DEFAULT_255_2_778
10
112.2162827
20
65.1792916
11
112.2027827
21
65.2731916
0
LINE
8
DEFAULT_255_2_778
10
112.2027827
20
65.2731916
11
112.1829827
21
65.3691916
0
LINE
8
DEFAULT_255_2_778
10
111.2510827
20
66.6471916
11
111.2510827
21
66.7013916
0
LINE
8
DEFAULT_255_2_778
10
110.2512827
20
66.9693916
11
110.1512827
21
66.9693916
0
LINE
8
DEFAULT_255_2_778
10
109.1510827
20
53.9494916
11
110.1509827
21
53.9494916
0
LINE
8
DEFAULT_255_2_778
10
110.1509827
20
53.9494916
11
110.1509827
21
59.5493916
0
LINE
8
DEFAULT_255_2_778
10
110.1509827
20
59.5493916
11
109.1510827
21
59.5493916
0
LINE
8
DEFAULT_255_2_778
10
110.1512827
20
54.1495916
11
110.2512827
21
54.1495916
0
LINE
8
DEFAULT_255_2_778
10
111.2510827
20
54.4175916
11
111.2510827
21
54.4717916
0
LINE
8
DEFAULT_255_2_778
10
112.1829827
20
55.7497916
11
112.2027827
21
55.8457916
0
LINE
8
DEFAULT_255_2_778
10
112.2027827
20
55.8457916
11
112.2162827
21
55.9396916
0
LINE
8
DEFAULT_255_2_778
10
112.2162827
20
55.9396916
11
112.2239827
21
56.0267916
0
LINE
8
DEFAULT_255_2_778
10
112.2239827
20
56.0267916
11
112.2263827
21
56.1031916
0
LINE
8
DEFAULT_255_2_778
10
112.2263827
20
56.1031916
11
112.2239827
21
56.1659916
0
LINE
8
DEFAULT_255_2_778
10
112.2162827
20
56.2122916
11
112.2101827
21
56.2286916
0
LINE
8
DEFAULT_255_2_778
10
112.2101827
20
56.2286916
11
112.2025827
21
56.2402916
0
LINE
8
DEFAULT_255_2_778
10
112.2025827
20
56.2402916
11
112.1935827
21
56.2473916
0
LINE
8
DEFAULT_255_2_778
10
112.1935827
20
56.2473916
11
112.1829827
21
56.2497916
0
LINE
8
DEFAULT_255_2_778
10
112.1829827
20
56.2497916
11
111.2513827
21
56.2497916
0
LINE
8
DEFAULT_255_2_778
10
111.2513827
20
56.2497916
11
111.2513827
21
57.2496916
0
LINE
8
DEFAULT_255_2_778
10
111.2513827
20
57.2496916
11
112.1829827
21
57.2496916
0
LINE
8
DEFAULT_255_2_778
10
112.1829827
20
57.2496916
11
112.1935827
21
57.2520916
0
LINE
8
DEFAULT_255_2_778
10
112.1935827
20
57.2520916
11
112.2025827
21
57.2591916
0
LINE
8
DEFAULT_255_2_778
10
112.2025827
20
57.2591916
11
112.2101827
21
57.2708916
0
LINE
8
DEFAULT_255_2_778
10
112.2101827
20
57.2708916
11
112.2162827
21
57.2872916
0
LINE
8
DEFAULT_255_2_778
10
112.2239827
20
57.3335916
11
112.2263827
21
57.3962916
0
LINE
8
DEFAULT_255_2_778
10
112.2263827
20
57.3962916
11
112.2239827
21
57.4726916
0
LINE
8
DEFAULT_255_2_778
10
112.2239827
20
57.4726916
11
112.2162827
21
57.5597916
0
LINE
8
DEFAULT_255_2_778
10
112.2162827
20
57.5597916
11
112.2027827
21
57.6536916
0
LINE
8
DEFAULT_255_2_778
10
112.2027827
20
57.6536916
11
112.1829827
21
57.7497916
0
LINE
8
DEFAULT_255_2_778
10
111.2510827
20
59.0276916
11
111.2510827
21
59.0818916
0
LINE
8
DEFAULT_255_2_778
10
110.2512827
20
59.3499916
11
110.1512827
21
59.3499916
0
LINE
8
DEFAULT_255_2_778
10
109.1510827
20
46.3300916
11
110.1509827
21
46.3300916
0
LINE
8
DEFAULT_255_2_778
10
110.1509827
20
46.3300916
11
110.1509827
21
51.9299916
0
LINE
8
DEFAULT_255_2_778
10
110.1509827
20
51.9299916
11
109.1510827
21
51.9299916
0
LINE
8
DEFAULT_255_2_778
10
110.1512827
20
46.5300916
11
110.2512827
21
46.5300916
0
LINE
8
DEFAULT_255_2_778
10
111.2510827
20
46.7980916
11
111.2510827
21
46.8523916
0
LINE
8
DEFAULT_255_2_778
10
112.1829827
20
48.1302916
11
112.2027827
21
48.2262916
0
LINE
8
DEFAULT_255_2_778
10
112.2027827
20
48.2262916
11
112.2162827
21
48.3202916
0
LINE
8
DEFAULT_255_2_778
10
112.2162827
20
48.3202916
11
112.2239827
21
48.4072916
0
LINE
8
DEFAULT_255_2_778
10
112.2239827
20
48.4072916
11
112.2263827
21
48.4837916
0
LINE
8
DEFAULT_255_2_778
10
112.2263827
20
48.4837916
11
112.2239827
21
48.5464916
0
LINE
8
DEFAULT_255_2_778
10
112.2162827
20
48.5927916
11
112.2101827
21
48.6091916
0
LINE
8
DEFAULT_255_2_778
10
112.2101827
20
48.6091916
11
112.2025827
21
48.6207916
0
LINE
8
DEFAULT_255_2_778
10
112.2025827
20
48.6207916
11
112.1935827
21
48.6279916
0
LINE
8
DEFAULT_255_2_778
10
112.1935827
20
48.6279916
11
112.1829827
21
48.6303916
0
LINE
8
DEFAULT_255_2_778
10
112.1829827
20
48.6303916
11
111.2513827
21
48.6303916
0
LINE
8
DEFAULT_255_2_778
10
111.2513827
20
48.6303916
11
111.2513827
21
49.6301916
0
LINE
8
DEFAULT_255_2_778
10
111.2513827
20
49.6301916
11
112.1829827
21
49.6301916
0
LINE
8
DEFAULT_255_2_778
10
112.1829827
20
49.6301916
11
112.1935827
21
49.6325916
0
LINE
8
DEFAULT_255_2_778
10
112.1935827
20
49.6325916
11
112.2025827
21
49.6396916
0
LINE
8
DEFAULT_255_2_778
10
112.2025827
20
49.6396916
11
112.2101827
21
49.6513916
0
LINE
8
DEFAULT_255_2_778
10
112.2101827
20
49.6513916
11
112.2162827
21
49.6677916
0
LINE
8
DEFAULT_255_2_778
10
112.2239827
20
49.7140916
11
112.2263827
21
49.7767916
0
LINE
8
DEFAULT_255_2_778
10
112.2263827
20
49.7767916
11
112.2239827
21
49.8532916
0
LINE
8
DEFAULT_255_2_778
10
112.2239827
20
49.8532916
11
112.2162827
21
49.9402916
0
LINE
8
DEFAULT_255_2_778
10
112.2162827
20
49.9402916
11
112.2027827
21
50.0341916
0
LINE
8
DEFAULT_255_2_778
10
112.2027827
20
50.0341916
11
112.1829827
21
50.1302916
0
LINE
8
DEFAULT_255_2_778
10
111.2510827
20
51.4081916
11
111.2510827
21
51.4624916
0
LINE
8
DEFAULT_255_2_778
10
110.2512827
20
51.7304916
11
110.1512827
21
51.7304916
0
LINE
8
DEFAULT_255_2_778
10
109.1510827
20
74.9653916
11
109.1510827
21
8.0553916
0
LINE
8
DEFAULT_255_2_778
10
109.1510827
20
8.0553916
11
114.4821827
21
8.0553916
0
LINE
8
DEFAULT_255_2_778
10
109.1510827
20
38.7102916
11
110.1509827
21
38.7102916
0
LINE
8
DEFAULT_255_2_778
10
110.1509827
20
38.7102916
11
110.1509827
21
44.3101916
0
LINE
8
DEFAULT_255_2_778
10
110.1509827
20
44.3101916
11
109.1510827
21
44.3101916
0
LINE
8
DEFAULT_255_2_778
10
110.1512827
20
38.9103916
11
110.2512827
21
38.9103916
0
LINE
8
DEFAULT_255_2_778
10
111.2510827
20
39.1783916
11
111.2510827
21
39.2325916
0
LINE
8
DEFAULT_255_2_778
10
112.1829827
20
40.5105916
11
112.2027827
21
40.6065916
0
LINE
8
DEFAULT_255_2_778
10
112.2027827
20
40.6065916
11
112.2162827
21
40.7004916
0
LINE
8
DEFAULT_255_2_778
10
112.2162827
20
40.7004916
11
112.2239827
21
40.7875916
0
LINE
8
DEFAULT_255_2_778
10
112.2239827
20
40.7875916
11
112.2263827
21
40.8639916
0
LINE
8
DEFAULT_255_2_778
10
112.2263827
20
40.8639916
11
112.2239827
21
40.9264916
0
LINE
8
DEFAULT_255_2_778
10
112.2162827
20
40.9727916
11
112.2101827
21
40.9891916
0
LINE
8
DEFAULT_255_2_778
10
112.2101827
20
40.9891916
11
112.2025827
21
41.0007916
0
LINE
8
DEFAULT_255_2_778
10
112.2025827
20
41.0007916
11
112.1935827
21
41.0079916
0
LINE
8
DEFAULT_255_2_778
10
112.1935827
20
41.0079916
11
112.1829827
21
41.0103916
0
LINE
8
DEFAULT_255_2_778
10
112.1829827
20
41.0103916
11
111.2513827
21
41.0103916
0
LINE
8
DEFAULT_255_2_778
10
111.2513827
20
41.0103916
11
111.2513827
21
42.0101916
0
LINE
8
DEFAULT_255_2_778
10
111.2513827
20
42.0101916
11
112.1829827
21
42.0101916
0
LINE
8
DEFAULT_255_2_778
10
112.1829827
20
42.0101916
11
112.1935827
21
42.0125916
0
LINE
8
DEFAULT_255_2_778
10
112.1935827
20
42.0125916
11
112.2025827
21
42.0196916
0
LINE
8
DEFAULT_255_2_778
10
112.2025827
20
42.0196916
11
112.2101827
21
42.0313916
0
LINE
8
DEFAULT_255_2_778
10
112.2101827
20
42.0313916
11
112.2162827
21
42.0477916
0
LINE
8
DEFAULT_255_2_778
10
112.2239827
20
42.0940916
11
112.2263827
21
42.1567916
0
LINE
8
DEFAULT_255_2_778
10
112.2263827
20
42.1567916
11
112.2239827
21
42.2332916
0
LINE
8
DEFAULT_255_2_778
10
112.2239827
20
42.2332916
11
112.2162827
21
42.3202916
0
LINE
8
DEFAULT_255_2_778
10
112.2162827
20
42.3202916
11
112.2027827
21
42.4141916
0
LINE
8
DEFAULT_255_2_778
10
112.2027827
20
42.4141916
11
112.1829827
21
42.5102916
0
LINE
8
DEFAULT_255_2_778
10
111.2510827
20
43.7881916
11
111.2510827
21
43.8424916
0
LINE
8
DEFAULT_255_2_778
10
110.2512827
20
44.1104916
11
110.1512827
21
44.1104916
0
LINE
8
DEFAULT_255_2_778
10
109.1510827
20
31.0905916
11
110.1509827
21
31.0905916
0
LINE
8
DEFAULT_255_2_778
10
110.1509827
20
31.0905916
11
110.1509827
21
36.6904916
0
LINE
8
DEFAULT_255_2_778
10
110.1509827
20
36.6904916
11
109.1510827
21
36.6904916
0
LINE
8
DEFAULT_255_2_778
10
110.1512827
20
31.2905916
11
110.2512827
21
31.2905916
0
LINE
8
DEFAULT_255_2_778
10
111.2510827
20
31.5585916
11
111.2510827
21
31.6128916
0
LINE
8
DEFAULT_255_2_778
10
112.1829827
20
32.8907916
11
112.2027827
21
32.9868916
0
LINE
8
DEFAULT_255_2_778
10
112.2027827
20
32.9868916
11
112.2162827
21
33.0807916
0
LINE
8
DEFAULT_255_2_778
10
112.2162827
20
33.0807916
11
112.2239827
21
33.1677916
0
LINE
8
DEFAULT_255_2_778
10
112.2239827
20
33.1677916
11
112.2263827
21
33.2442916
0
LINE
8
DEFAULT_255_2_778
10
112.2263827
20
33.2442916
11
112.2239827
21
33.3066916
0
LINE
8
DEFAULT_255_2_778
10
112.2162827
20
33.3530916
11
112.2101827
21
33.3694916
0
LINE
8
DEFAULT_255_2_778
10
112.2101827
20
33.3694916
11
112.2025827
21
33.3810916
0
LINE
8
DEFAULT_255_2_778
10
112.2025827
20
33.3810916
11
112.1935827
21
33.3881916
0
LINE
8
DEFAULT_255_2_778
10
112.1935827
20
33.3881916
11
112.1829827
21
33.3905916
0
LINE
8
DEFAULT_255_2_778
10
112.1829827
20
33.3905916
11
111.2513827
21
33.3905916
0
LINE
8
DEFAULT_255_2_778
10
111.2513827
20
33.3905916
11
111.2513827
21
34.3904916
0
LINE
8
DEFAULT_255_2_778
10
111.2513827
20
34.3904916
11
112.1829827
21
34.3904916
0
LINE
8
DEFAULT_255_2_778
10
112.1829827
20
34.3904916
11
112.1935827
21
34.3928916
0
LINE
8
DEFAULT_255_2_778
10
112.1935827
20
34.3928916
11
112.2025827
21
34.3999916
0
LINE
8
DEFAULT_255_2_778
10
112.2025827
20
34.3999916
11
112.2101827
21
34.4115916
0
LINE
8
DEFAULT_255_2_778
10
112.2101827
20
34.4115916
11
112.2162827
21
34.4280916
0
LINE
8
DEFAULT_255_2_778
10
112.2239827
20
34.4743916
11
112.2263827
21
34.5370916
0
LINE
8
DEFAULT_255_2_778
10
112.2263827
20
34.5370916
11
112.2239827
21
34.6134916
0
LINE
8
DEFAULT_255_2_778
10
112.2239827
20
34.6134916
11
112.2162827
21
34.7005916
0
LINE
8
DEFAULT_255_2_778
10
112.2162827
20
34.7005916
11
112.2027827
21
34.7944916
0
LINE
8
DEFAULT_255_2_778
10
112.2027827
20
34.7944916
11
112.1829827
21
34.8904916
0
LINE
8
DEFAULT_255_2_778
10
111.2510827
20
36.1684916
11
111.2510827
21
36.2226916
0
LINE
8
DEFAULT_255_2_778
10
110.2512827
20
36.4906916
11
110.1512827
21
36.4906916
0
LINE
8
DEFAULT_255_2_778
10
109.1510827
20
23.4708916
11
110.1509827
21
23.4708916
0
LINE
8
DEFAULT_255_2_778
10
110.1509827
20
23.4708916
11
110.1509827
21
29.0707916
0
LINE
8
DEFAULT_255_2_778
10
110.1509827
20
29.0707916
11
109.1510827
21
29.0707916
0
LINE
8
DEFAULT_255_2_778
10
110.1512827
20
23.6708916
11
110.2512827
21
23.6708916
0
LINE
8
DEFAULT_255_2_778
10
111.2510827
20
23.9388916
11
111.2510827
21
23.9931916
0
LINE
8
DEFAULT_255_2_778
10
112.1829827
20
25.2710916
11
112.2027827
21
25.3670916
0
LINE
8
DEFAULT_255_2_778
10
112.2027827
20
25.3670916
11
112.2162827
21
25.4610916
0
LINE
8
DEFAULT_255_2_778
10
112.2162827
20
25.4610916
11
112.2239827
21
25.5480916
0
LINE
8
DEFAULT_255_2_778
10
112.2239827
20
25.5480916
11
112.2263827
21
25.6245916
0
LINE
8
DEFAULT_255_2_778
10
112.2263827
20
25.6245916
11
112.2239827
21
25.6869916
0
LINE
8
DEFAULT_255_2_778
10
112.2162827
20
25.7332916
11
112.2101827
21
25.7496916
0
LINE
8
DEFAULT_255_2_778
10
112.2101827
20
25.7496916
11
112.2025827
21
25.7613916
0
LINE
8
DEFAULT_255_2_778
10
112.2025827
20
25.7613916
11
112.1935827
21
25.7684916
0
LINE
8
DEFAULT_255_2_778
10
112.1935827
20
25.7684916
11
112.1829827
21
25.7708916
0
LINE
8
DEFAULT_255_2_778
10
112.1829827
20
25.7708916
11
111.2513827
21
25.7708916
0
LINE
8
DEFAULT_255_2_778
10
111.2513827
20
25.7708916
11
111.2513827
21
26.7709916
0
LINE
8
DEFAULT_255_2_778
10
111.2513827
20
26.7709916
11
112.1829827
21
26.7709916
0
LINE
8
DEFAULT_255_2_778
10
112.1829827
20
26.7709916
11
112.1935827
21
26.7733916
0
LINE
8
DEFAULT_255_2_778
10
112.1935827
20
26.7733916
11
112.2025827
21
26.7804916
0
LINE
8
DEFAULT_255_2_778
10
112.2025827
20
26.7804916
11
112.2101827
21
26.7921916
0
LINE
8
DEFAULT_255_2_778
10
112.2101827
20
26.7921916
11
112.2162827
21
26.8085916
0
LINE
8
DEFAULT_255_2_778
10
112.2239827
20
26.8548916
11
112.2263827
21
26.9172916
0
LINE
8
DEFAULT_255_2_778
10
112.2263827
20
26.9172916
11
112.2239827
21
26.9937916
0
LINE
8
DEFAULT_255_2_778
10
112.2239827
20
26.9937916
11
112.2162827
21
27.0807916
0
LINE
8
DEFAULT_255_2_778
10
112.2162827
20
27.0807916
11
112.2027827
21
27.1747916
0
LINE
8
DEFAULT_255_2_778
10
112.2027827
20
27.1747916
11
112.1829827
21
27.2707916
0
LINE
8
DEFAULT_255_2_778
10
111.2510827
20
28.5486916
11
111.2510827
21
28.6029916
0
LINE
8
DEFAULT_255_2_778
10
110.2512827
20
28.8709916
11
110.1512827
21
28.8709916
0
LINE
8
DEFAULT_255_2_778
10
109.1510827
20
15.8510916
11
110.1509827
21
15.8510916
0
LINE
8
DEFAULT_255_2_778
10
110.1509827
20
15.8510916
11
110.1509827
21
21.4509916
0
LINE
8
DEFAULT_255_2_778
10
110.1509827
20
21.4509916
11
109.1510827
21
21.4509916
0
LINE
8
DEFAULT_255_2_778
10
110.1512827
20
16.0511916
11
110.2512827
21
16.0511916
0
LINE
8
DEFAULT_255_2_778
10
111.2510827
20
16.3191916
11
111.2510827
21
16.3733916
0
LINE
8
DEFAULT_255_2_778
10
112.1829827
20
17.6513916
11
112.2027827
21
17.7473916
0
LINE
8
DEFAULT_255_2_778
10
112.2027827
20
17.7473916
11
112.2162827
21
17.8412916
0
LINE
8
DEFAULT_255_2_778
10
112.2162827
20
17.8412916
11
112.2239827
21
17.9283916
0
LINE
8
DEFAULT_255_2_778
10
112.2239827
20
17.9283916
11
112.2263827
21
18.0047916
0
LINE
8
DEFAULT_255_2_778
10
112.2263827
20
18.0047916
11
112.2239827
21
18.0674916
0
LINE
8
DEFAULT_255_2_778
10
112.2162827
20
18.1137916
11
112.2101827
21
18.1301916
0
LINE
8
DEFAULT_255_2_778
10
112.2101827
20
18.1301916
11
112.2025827
21
18.1418916
0
LINE
8
DEFAULT_255_2_778
10
112.2025827
20
18.1418916
11
112.1935827
21
18.1489916
0
LINE
8
DEFAULT_255_2_778
10
112.1935827
20
18.1489916
11
112.1829827
21
18.1513916
0
LINE
8
DEFAULT_255_2_778
10
112.1829827
20
18.1513916
11
111.2513827
21
18.1513916
0
LINE
8
DEFAULT_255_2_778
10
111.2513827
20
18.1513916
11
111.2513827
21
19.1514916
0
LINE
8
DEFAULT_255_2_778
10
111.2513827
20
19.1514916
11
112.1829827
21
19.1514916
0
LINE
8
DEFAULT_255_2_778
10
112.1829827
20
19.1514916
11
112.1935827
21
19.1538916
0
LINE
8
DEFAULT_255_2_778
10
112.1935827
20
19.1538916
11
112.2025827
21
19.1610916
0
LINE
8
DEFAULT_255_2_778
10
112.2025827
20
19.1610916
11
112.2101827
21
19.1726916
0
LINE
8
DEFAULT_255_2_778
10
112.2101827
20
19.1726916
11
112.2162827
21
19.1890916
0
LINE
8
DEFAULT_255_2_778
10
112.2239827
20
19.2353916
11
112.2263827
21
19.2978916
0
LINE
8
DEFAULT_255_2_778
10
112.2263827
20
19.2978916
11
112.2239827
21
19.3742916
0
LINE
8
DEFAULT_255_2_778
10
112.2239827
20
19.3742916
11
112.2162827
21
19.4613916
0
LINE
8
DEFAULT_255_2_778
10
112.2162827
20
19.4613916
11
112.2027827
21
19.5552916
0
LINE
8
DEFAULT_255_2_778
10
112.2027827
20
19.5552916
11
112.1829827
21
19.6512916
0
LINE
8
DEFAULT_255_2_778
10
111.2510827
20
20.9292916
11
111.2510827
21
20.9834916
0
LINE
8
DEFAULT_255_2_778
10
110.2512827
20
21.2514916
11
110.1512827
21
21.2514916
0
LINE
8
DEFAULT_255_2_778
10
109.1510827
20
8.2316916
11
110.1509827
21
8.2316916
0
LINE
8
DEFAULT_255_2_778
10
110.1509827
20
8.2316916
11
110.1509827
21
13.8315916
0
LINE
8
DEFAULT_255_2_778
10
110.1509827
20
13.8315916
11
109.1510827
21
13.8315916
0
LINE
8
DEFAULT_255_2_778
10
110.1512827
20
8.4316916
11
110.2512827
21
8.4316916
0
LINE
8
DEFAULT_255_2_778
10
111.2510827
20
8.6996916
11
111.2510827
21
8.7538916
0
LINE
8
DEFAULT_255_2_778
10
112.1829827
20
10.0318916
11
112.2027827
21
10.1278916
0
LINE
8
DEFAULT_255_2_778
10
112.2027827
20
10.1278916
11
112.2162827
21
10.2218916
0
LINE
8
DEFAULT_255_2_778
10
112.2162827
20
10.2218916
11
112.2239827
21
10.3088916
0
LINE
8
DEFAULT_255_2_778
10
112.2239827
20
10.3088916
11
112.2263827
21
10.3853916
0
LINE
8
DEFAULT_255_2_778
10
112.2263827
20
10.3853916
11
112.2239827
21
10.4480916
0
LINE
8
DEFAULT_255_2_778
10
112.2162827
20
10.4943916
11
112.2101827
21
10.5107916
0
LINE
8
DEFAULT_255_2_778
10
112.2101827
20
10.5107916
11
112.2025827
21
10.5223916
0
LINE
8
DEFAULT_255_2_778
10
112.2025827
20
10.5223916
11
112.1935827
21
10.5295916
0
LINE
8
DEFAULT_255_2_778
10
112.1935827
20
10.5295916
11
112.1829827
21
10.5318916
0
LINE
8
DEFAULT_255_2_778
10
112.1829827
20
10.5318916
11
111.2513827
21
10.5318916
0
LINE
8
DEFAULT_255_2_778
10
111.2513827
20
10.5318916
11
111.2513827
21
11.5320916
0
LINE
8
DEFAULT_255_2_778
10
111.2513827
20
11.5320916
11
112.1829827
21
11.5320916
0
LINE
8
DEFAULT_255_2_778
10
112.1829827
20
11.5320916
11
112.1935827
21
11.5344916
0
LINE
8
DEFAULT_255_2_778
10
112.1935827
20
11.5344916
11
112.2025827
21
11.5415916
0
LINE
8
DEFAULT_255_2_778
10
112.2025827
20
11.5415916
11
112.2101827
21
11.5531916
0
LINE
8
DEFAULT_255_2_778
10
112.2101827
20
11.5531916
11
112.2162827
21
11.5695916
0
LINE
8
DEFAULT_255_2_778
10
112.2239827
20
11.6158916
11
112.2263827
21
11.6783916
0
LINE
8
DEFAULT_255_2_778
10
112.2263827
20
11.6783916
11
112.2239827
21
11.7547916
0
LINE
8
DEFAULT_255_2_778
10
112.2239827
20
11.7547916
11
112.2162827
21
11.8418916
0
LINE
8
DEFAULT_255_2_778
10
112.2162827
20
11.8418916
11
112.2027827
21
11.9357916
0
LINE
8
DEFAULT_255_2_778
10
112.2027827
20
11.9357916
11
112.1829827
21
12.0318916
0
LINE
8
DEFAULT_255_2_778
10
111.2510827
20
13.3097916
11
111.2510827
21
13.3639916
0
LINE
8
DEFAULT_255_2_778
10
110.2512827
20
13.6320916
11
110.1512827
21
13.6320916
0
LINE
8
DEFAULT_255_2_778
10
101.1511827
20
69.1900916
11
97.9010827
21
65.6813916
0
LINE
8
DEFAULT_255_2_778
10
97.9010827
20
65.6813916
11
97.9010827
21
62.8643916
0
LINE
8
DEFAULT_255_2_778
10
97.9010827
20
62.8643916
11
105.6509827
21
62.8643916
0
LINE
8
DEFAULT_255_2_778
10
105.6509827
20
62.8643916
11
105.8459827
21
62.8709916
0
LINE
8
DEFAULT_255_2_778
10
105.8459827
20
62.8709916
11
106.0335827
21
62.8902916
0
LINE
8
DEFAULT_255_2_778
10
106.0335827
20
62.8902916
11
106.2062827
21
62.9217916
0
LINE
8
DEFAULT_255_2_778
10
106.3578827
20
62.9643916
11
106.4237827
21
62.9892916
0
LINE
8
DEFAULT_255_2_778
10
106.4237827
20
62.9892916
11
106.4822827
21
63.0162916
0
LINE
8
DEFAULT_255_2_778
10
106.4822827
20
63.0162916
11
106.5327827
21
63.0450916
0
LINE
8
DEFAULT_255_2_778
10
106.5327827
20
63.0450916
11
106.5748827
21
63.0754916
0
LINE
8
DEFAULT_255_2_778
10
106.5748827
20
63.0754916
11
106.6079827
21
63.1069916
0
LINE
8
DEFAULT_255_2_778
10
106.6079827
20
63.1069916
11
106.6317827
21
63.1395916
0
LINE
8
DEFAULT_255_2_778
10
106.6507827
20
76.1281916
11
106.6507827
21
69.5601916
0
LINE
8
DEFAULT_255_2_778
10
106.6507827
20
69.5601916
11
106.6507827
21
69.5601916
0
LINE
8
DEFAULT_255_2_778
10
105.6506827
20
69.1961916
11
101.1506827
21
69.1961916
0
LINE
8
DEFAULT_255_2_778
10
101.1506827
20
69.1961916
11
101.1506827
21
63.6041916
0
LINE
8
DEFAULT_255_2_778
10
101.1506827
20
63.6041916
11
97.9005827
21
63.1937916
0
LINE
8
DEFAULT_255_2_778
10
104.2039827
20
69.1913916
11
104.2205827
21
69.0839916
0
LINE
8
DEFAULT_255_2_778
10
104.2205827
20
69.0839916
11
104.2256827
21
69.0063916
0
LINE
8
DEFAULT_255_2_778
10
104.2256827
20
69.0063916
11
104.2248827
21
68.9860916
0
LINE
8
DEFAULT_255_2_778
10
104.2248827
20
68.9860916
11
104.2226827
21
68.9712916
0
LINE
8
DEFAULT_255_2_778
10
104.1819827
20
67.0667916
11
104.2099827
21
67.1987916
0
LINE
8
DEFAULT_255_2_778
10
104.2099827
20
67.1987916
11
104.2184827
21
67.2559916
0
LINE
8
DEFAULT_255_2_778
10
104.2184827
20
67.2559916
11
104.2234827
21
67.3045916
0
LINE
8
DEFAULT_255_2_778
10
104.2234827
20
67.3045916
11
104.2253827
21
67.3437916
0
LINE
8
DEFAULT_255_2_778
10
104.2253827
20
67.3437916
11
104.2242827
21
67.3723916
0
LINE
8
DEFAULT_255_2_778
10
104.2242827
20
67.3723916
11
104.2226827
21
67.3823916
0
LINE
8
DEFAULT_255_2_778
10
104.2226827
20
67.3823916
11
104.2203827
21
67.3897916
0
LINE
8
DEFAULT_255_2_778
10
104.2203827
20
67.3897916
11
104.2129827
21
67.3956916
0
LINE
8
DEFAULT_255_2_778
10
104.2129827
20
67.3956916
11
104.1819827
21
67.3654916
0
LINE
8
DEFAULT_255_2_778
10
103.2501827
20
66.9283916
11
103.2501827
21
67.8678916
0
LINE
8
DEFAULT_255_2_778
10
103.2501827
20
67.8678916
11
103.5763827
21
67.9504916
0
LINE
8
DEFAULT_255_2_778
10
104.2253827
20
68.5634916
11
104.2152827
21
68.7542916
0
LINE
8
DEFAULT_255_2_778
10
104.1816827
20
51.8262916
11
104.2097827
21
51.9582916
0
LINE
8
DEFAULT_255_2_778
10
104.2097827
20
51.9582916
11
104.2181827
21
52.0153916
0
LINE
8
DEFAULT_255_2_778
10
104.2181827
20
52.0153916
11
104.2232827
21
52.0640916
0
LINE
8
DEFAULT_255_2_778
10
104.2232827
20
52.0640916
11
104.2250827
21
52.1032916
0
LINE
8
DEFAULT_255_2_778
10
104.2250827
20
52.1032916
11
104.2240827
21
52.1318916
0
LINE
8
DEFAULT_255_2_778
10
104.2240827
20
52.1318916
11
104.2224827
21
52.1418916
0
LINE
8
DEFAULT_255_2_778
10
104.2224827
20
52.1418916
11
104.2200827
21
52.1492916
0
LINE
8
DEFAULT_255_2_778
10
104.2200827
20
52.1492916
11
104.2126827
21
52.1550916
0
LINE
8
DEFAULT_255_2_778
10
104.2126827
20
52.1550916
11
104.1816827
21
52.1249916
0
LINE
8
DEFAULT_255_2_778
10
103.2498827
20
51.6878916
11
103.2498827
21
52.6276916
0
LINE
8
DEFAULT_255_2_778
10
103.2498827
20
52.6276916
11
103.5760827
21
52.7101916
0
LINE
8
DEFAULT_255_2_778
10
104.2250827
20
53.3232916
11
104.2150827
21
53.5139916
0
LINE
8
DEFAULT_255_2_778
10
104.1814827
20
59.4459916
11
104.2094827
21
59.5779916
0
LINE
8
DEFAULT_255_2_778
10
104.2094827
20
59.5779916
11
104.2179827
21
59.6351916
0
LINE
8
DEFAULT_255_2_778
10
104.2179827
20
59.6351916
11
104.2229827
21
59.6838916
0
LINE
8
DEFAULT_255_2_778
10
104.2229827
20
59.6838916
11
104.2248827
21
59.7229916
0
LINE
8
DEFAULT_255_2_778
10
104.2248827
20
59.7229916
11
104.2237827
21
59.7515916
0
LINE
8
DEFAULT_255_2_778
10
104.2237827
20
59.7515916
11
104.2221827
21
59.7615916
0
LINE
8
DEFAULT_255_2_778
10
104.2221827
20
59.7615916
11
104.2197827
21
59.7690916
0
LINE
8
DEFAULT_255_2_778
10
104.2197827
20
59.7690916
11
104.2123827
21
59.7748916
0
LINE
8
DEFAULT_255_2_778
10
104.2123827
20
59.7748916
11
104.1814827
21
59.7446916
0
LINE
8
DEFAULT_255_2_778
10
103.2495827
20
59.3075916
11
103.2495827
21
60.2473916
0
LINE
8
DEFAULT_255_2_778
10
103.2495827
20
60.2473916
11
103.5757827
21
60.3299916
0
LINE
8
DEFAULT_255_2_778
10
104.2248827
20
60.9429916
11
104.2147827
21
61.1337916
0
LINE
8
DEFAULT_255_2_778
10
104.1811827
20
44.2056916
11
104.2092827
21
44.3377916
0
LINE
8
DEFAULT_255_2_778
10
104.2092827
20
44.3377916
11
104.2176827
21
44.3948916
0
LINE
8
DEFAULT_255_2_778
10
104.2176827
20
44.3948916
11
104.2226827
21
44.4435916
0
LINE
8
DEFAULT_255_2_778
10
104.2226827
20
44.4435916
11
104.2245827
21
44.4826916
0
LINE
8
DEFAULT_255_2_778
10
104.2245827
20
44.4826916
11
104.2234827
21
44.5112916
0
LINE
8
DEFAULT_255_2_778
10
104.2234827
20
44.5112916
11
104.2218827
21
44.5213916
0
LINE
8
DEFAULT_255_2_778
10
104.2218827
20
44.5213916
11
104.2195827
21
44.5287916
0
LINE
8
DEFAULT_255_2_778
10
104.2195827
20
44.5287916
11
104.2121827
21
44.5345916
0
LINE
8
DEFAULT_255_2_778
10
104.2121827
20
44.5345916
11
104.1811827
21
44.5043916
0
LINE
8
DEFAULT_255_2_778
10
103.2492827
20
44.0673916
11
103.2492827
21
45.0071916
0
LINE
8
DEFAULT_255_2_778
10
103.2492827
20
45.0071916
11
103.5755827
21
45.0896916
0
LINE
8
DEFAULT_255_2_778
10
104.2245827
20
45.7026916
11
104.2144827
21
45.8934916
0
LINE
8
DEFAULT_255_2_778
10
104.2216827
20
46.1098916
11
104.2237827
21
46.1244916
0
LINE
8
DEFAULT_255_2_778
10
104.2237827
20
46.1244916
11
104.2245827
21
46.1448916
0
LINE
8
DEFAULT_255_2_778
10
104.1811827
20
46.4271916
11
104.1650827
21
46.4866916
0
LINE
8
DEFAULT_255_2_778
10
104.2216827
20
53.7301916
11
104.2237827
21
53.7447916
0
LINE
8
DEFAULT_255_2_778
10
104.2237827
20
53.7447916
11
104.2245827
21
53.7650916
0
LINE
8
DEFAULT_255_2_778
10
104.1811827
20
54.0473916
11
104.1650827
21
54.1069916
0
LINE
8
DEFAULT_255_2_778
10
104.2216827
20
61.3504916
11
104.2237827
21
61.3649916
0
LINE
8
DEFAULT_255_2_778
10
104.2237827
20
61.3649916
11
104.2245827
21
61.3853916
0
LINE
8
DEFAULT_255_2_778
10
104.1811827
20
61.6676916
11
104.1650827
21
61.7271916
0
LINE
8
DEFAULT_255_2_778
10
104.1811827
20
28.9662916
11
104.2092827
21
29.0982916
0
LINE
8
DEFAULT_255_2_778
10
104.2092827
20
29.0982916
11
104.2176827
21
29.1553916
0
LINE
8
DEFAULT_255_2_778
10
104.2176827
20
29.1553916
11
104.2226827
21
29.2040916
0
LINE
8
DEFAULT_255_2_778
10
104.2226827
20
29.2040916
11
104.2245827
21
29.2432916
0
LINE
8
DEFAULT_255_2_778
10
104.2245827
20
29.2432916
11
104.2234827
21
29.2718916
0
LINE
8
DEFAULT_255_2_778
10
104.2234827
20
29.2718916
11
104.2218827
21
29.2818916
0
LINE
8
DEFAULT_255_2_778
10
104.2218827
20
29.2818916
11
104.2195827
21
29.2892916
0
LINE
8
DEFAULT_255_2_778
10
104.2195827
20
29.2892916
11
104.2121827
21
29.2950916
0
LINE
8
DEFAULT_255_2_778
10
104.2121827
20
29.2950916
11
104.1811827
21
29.2649916
0
LINE
8
DEFAULT_255_2_778
10
103.2492827
20
28.8278916
11
103.2492827
21
29.7676916
0
LINE
8
DEFAULT_255_2_778
10
103.2492827
20
29.7676916
11
103.5755827
21
29.8501916
0
LINE
8
DEFAULT_255_2_778
10
104.2245827
20
30.4632916
11
104.2144827
21
30.6539916
0
LINE
8
DEFAULT_255_2_778
10
104.1808827
20
36.5859916
11
104.2089827
21
36.7179916
0
LINE
8
DEFAULT_255_2_778
10
104.2089827
20
36.7179916
11
104.2174827
21
36.7751916
0
LINE
8
DEFAULT_255_2_778
10
104.2174827
20
36.7751916
11
104.2224827
21
36.8238916
0
LINE
8
DEFAULT_255_2_778
10
104.2224827
20
36.8238916
11
104.2242827
21
36.8629916
0
LINE
8
DEFAULT_255_2_778
10
104.2242827
20
36.8629916
11
104.2232827
21
36.8915916
0
LINE
8
DEFAULT_255_2_778
10
104.2232827
20
36.8915916
11
104.2216827
21
36.9015916
0
LINE
8
DEFAULT_255_2_778
10
104.2216827
20
36.9015916
11
104.2192827
21
36.9090916
0
LINE
8
DEFAULT_255_2_778
10
104.2192827
20
36.9090916
11
104.2118827
21
36.9148916
0
LINE
8
DEFAULT_255_2_778
10
104.2118827
20
36.9148916
11
104.1808827
21
36.8846916
0
LINE
8
DEFAULT_255_2_778
10
103.2490827
20
36.4475916
11
103.2490827
21
37.3873916
0
LINE
8
DEFAULT_255_2_778
10
103.2490827
20
37.3873916
11
103.5752827
21
37.4699916
0
LINE
8
DEFAULT_255_2_778
10
104.2242827
20
38.0829916
11
104.2142827
21
38.2737916
0
LINE
8
DEFAULT_255_2_778
10
104.2213827
20
30.8701916
11
104.2234827
21
30.8847916
0
LINE
8
DEFAULT_255_2_778
10
104.2234827
20
30.8847916
11
104.2242827
21
30.9050916
0
LINE
8
DEFAULT_255_2_778
10
104.1808827
20
31.1873916
11
104.1647827
21
31.2469916
0
LINE
8
DEFAULT_255_2_778
10
104.2213827
20
38.4904916
11
104.2234827
21
38.5049916
0
LINE
8
DEFAULT_255_2_778
10
104.2234827
20
38.5049916
11
104.2242827
21
38.5253916
0
LINE
8
DEFAULT_255_2_778
10
104.1808827
20
38.8076916
11
104.1647827
21
38.8671916
0
LINE
8
DEFAULT_255_2_778
10
104.1808827
20
21.3462916
11
104.2089827
21
21.4782916
0
LINE
8
DEFAULT_255_2_778
10
104.2089827
20
21.4782916
11
104.2174827
21
21.5353916
0
LINE
8
DEFAULT_255_2_778
10
104.2174827
20
21.5353916
11
104.2224827
21
21.5840916
0
LINE
8
DEFAULT_255_2_778
10
104.2224827
20
21.5840916
11
104.2242827
21
21.6232916
0
LINE
8
DEFAULT_255_2_778
10
104.2242827
20
21.6232916
11
104.2232827
21
21.6518916
0
LINE
8
DEFAULT_255_2_778
10
104.2232827
20
21.6518916
11
104.2216827
21
21.6618916
0
LINE
8
DEFAULT_255_2_778
10
104.2216827
20
21.6618916
11
104.2192827
21
21.6692916
0
LINE
8
DEFAULT_255_2_778
10
104.2192827
20
21.6692916
11
104.2118827
21
21.6750916
0
LINE
8
DEFAULT_255_2_778
10
104.2118827
20
21.6750916
11
104.1808827
21
21.6449916
0
LINE
8
DEFAULT_255_2_778
10
103.2490827
20
21.2078916
11
103.2490827
21
22.1476916
0
LINE
8
DEFAULT_255_2_778
10
103.2490827
20
22.1476916
11
103.5752827
21
22.2301916
0
LINE
8
DEFAULT_255_2_778
10
104.2242827
20
22.8432916
11
104.2142827
21
23.0339916
0
LINE
8
DEFAULT_255_2_778
10
104.2213827
20
23.2504916
11
104.2234827
21
23.2649916
0
LINE
8
DEFAULT_255_2_778
10
104.2234827
20
23.2649916
11
104.2242827
21
23.2853916
0
LINE
8
DEFAULT_255_2_778
10
104.1808827
20
23.5676916
11
104.1647827
21
23.6271916
0
LINE
8
DEFAULT_255_2_778
10
104.1808827
20
13.7262916
11
104.2089827
21
13.8582916
0
LINE
8
DEFAULT_255_2_778
10
104.2089827
20
13.8582916
11
104.2174827
21
13.9153916
0
LINE
8
DEFAULT_255_2_778
10
104.2174827
20
13.9153916
11
104.2224827
21
13.9640916
0
LINE
8
DEFAULT_255_2_778
10
104.2224827
20
13.9640916
11
104.2242827
21
14.0032916
0
LINE
8
DEFAULT_255_2_778
10
104.2242827
20
14.0032916
11
104.2232827
21
14.0318916
0
LINE
8
DEFAULT_255_2_778
10
104.2232827
20
14.0318916
11
104.2216827
21
14.0418916
0
LINE
8
DEFAULT_255_2_778
10
104.2216827
20
14.0418916
11
104.2192827
21
14.0492916
0
LINE
8
DEFAULT_255_2_778
10
104.2192827
20
14.0492916
11
104.2118827
21
14.0550916
0
LINE
8
DEFAULT_255_2_778
10
104.2118827
20
14.0550916
11
104.1808827
21
14.0249916
0
LINE
8
DEFAULT_255_2_778
10
103.2490827
20
13.5878916
11
103.2490827
21
14.5276916
0
LINE
8
DEFAULT_255_2_778
10
103.2490827
20
14.5276916
11
103.5752827
21
14.6101916
0
LINE
8
DEFAULT_255_2_778
10
104.2242827
20
15.2232916
11
104.2142827
21
15.4139916
0
LINE
8
DEFAULT_255_2_778
10
104.1806827
20
6.1059916
11
104.2086827
21
6.2379916
0
LINE
8
DEFAULT_255_2_778
10
104.2086827
20
6.2379916
11
104.2171827
21
6.2951916
0
LINE
8
DEFAULT_255_2_778
10
104.2171827
20
6.2951916
11
104.2221827
21
6.3438916
0
LINE
8
DEFAULT_255_2_778
10
104.2221827
20
6.3438916
11
104.2240827
21
6.3829916
0
LINE
8
DEFAULT_255_2_778
10
104.2240827
20
6.3829916
11
104.2229827
21
6.4115916
0
LINE
8
DEFAULT_255_2_778
10
104.2229827
20
6.4115916
11
104.2213827
21
6.4215916
0
LINE
8
DEFAULT_255_2_778
10
104.2213827
20
6.4215916
11
104.2189827
21
6.4290916
0
LINE
8
DEFAULT_255_2_778
10
104.2189827
20
6.4290916
11
104.2115827
21
6.4348916
0
LINE
8
DEFAULT_255_2_778
10
104.2115827
20
6.4348916
11
104.1806827
21
6.4046916
0
LINE
8
DEFAULT_255_2_778
10
103.2487827
20
5.9675916
11
103.2487827
21
6.9073916
0
LINE
8
DEFAULT_255_2_778
10
103.2487827
20
6.9073916
11
103.5749827
21
6.9899916
0
LINE
8
DEFAULT_255_2_778
10
104.2240827
20
7.6029916
11
104.2139827
21
7.7937916
0
LINE
8
DEFAULT_255_2_778
10
104.2211827
20
15.6301916
11
104.2232827
21
15.6447916
0
LINE
8
DEFAULT_255_2_778
10
104.2232827
20
15.6447916
11
104.2240827
21
15.6650916
0
LINE
8
DEFAULT_255_2_778
10
104.1806827
20
15.9473916
11
104.1644827
21
16.0069916
0
LINE
8
DEFAULT_255_2_778
10
104.2211827
20
8.0104916
11
104.2232827
21
8.0249916
0
LINE
8
DEFAULT_255_2_778
10
104.2232827
20
8.0249916
11
104.2240827
21
8.0453916
0
LINE
8
DEFAULT_255_2_778
10
104.1806827
20
8.3276916
11
104.1644827
21
8.3871916
0
LINE
8
DEFAULT_255_2_778
10
112.1488827
20
74.9619916
11
112.1488827
21
73.0833916
0
LINE
8
DEFAULT_255_2_778
10
106.6486827
20
74.9619916
11
117.5852827
21
74.9619916
0
LINE
8
DEFAULT_255_2_778
10
117.5852827
20
74.9619916
11
117.5852827
21
1.6268916
0
LINE
8
DEFAULT_255_2_778
10
114.1511827
20
69.0132916
11
114.1511827
21
72.9632916
0
LINE
8
DEFAULT_255_2_778
10
114.1511827
20
72.9632916
11
112.1874827
21
72.9632916
0
LINE
8
DEFAULT_255_2_778
10
114.4824827
20
67.3432916
11
107.5924827
21
67.3432916
0
LINE
8
DEFAULT_255_2_778
10
107.5924827
20
67.3432916
11
107.5924827
21
69.0132916
0
LINE
8
DEFAULT_255_2_778
10
107.5924827
20
69.0132916
11
114.4824827
21
69.0132916
0
LINE
8
DEFAULT_255_2_778
10
103.9170827
20
66.5042916
11
106.6515827
21
66.5042916
0
LINE
8
DEFAULT_255_2_778
10
106.6515827
20
66.5042916
11
106.6515827
21
62.0695916
0
LINE
8
DEFAULT_255_2_778
10
106.6325827
20
62.0026916
11
106.6087827
21
61.9700916
0
LINE
8
DEFAULT_255_2_778
10
106.6087827
20
61.9700916
11
106.5756827
21
61.9385916
0
LINE
8
DEFAULT_255_2_778
10
106.5756827
20
61.9385916
11
106.5335827
21
61.9081916
0
LINE
8
DEFAULT_255_2_778
10
106.5335827
20
61.9081916
11
106.4830827
21
61.8793916
0
LINE
8
DEFAULT_255_2_778
10
106.4830827
20
61.8793916
11
106.4245827
21
61.8523916
0
LINE
8
DEFAULT_255_2_778
10
106.4245827
20
61.8523916
11
106.3586827
21
61.8274916
0
LINE
8
DEFAULT_255_2_778
10
106.2070827
20
61.7848916
11
106.0342827
21
61.7533916
0
LINE
8
DEFAULT_255_2_778
10
106.0342827
20
61.7533916
11
105.8467827
21
61.7340916
0
LINE
8
DEFAULT_255_2_778
10
105.8467827
20
61.7340916
11
105.6517827
21
61.7274916
0
LINE
8
DEFAULT_255_2_778
10
105.6517827
20
61.7274916
11
99.1056827
21
61.7274916
0
LINE
8
DEFAULT_255_2_778
10
99.1056827
20
61.7274916
11
99.1056827
21
62.8643916
0
LINE
8
DEFAULT_255_2_778
10
99.1056827
20
62.8643916
11
97.9015827
21
61.5644916
0
LINE
8
DEFAULT_255_2_778
10
97.9015827
20
61.5644916
11
97.9015827
21
55.2448916
0
LINE
8
DEFAULT_255_2_778
10
97.9015827
20
55.2448916
11
99.1056827
21
55.2443916
0
LINE
8
DEFAULT_255_2_778
10
99.1056827
20
55.2443916
11
105.1516827
21
55.2443916
0
LINE
8
DEFAULT_255_2_778
10
105.1516827
20
55.2443916
11
105.1516827
21
54.1074916
0
LINE
8
DEFAULT_255_2_778
10
105.1516827
20
54.1074916
11
99.1056827
21
54.1074916
0
LINE
8
DEFAULT_255_2_778
10
99.1056827
20
54.1074916
11
99.1056827
21
55.2443916
0
LINE
8
DEFAULT_255_2_778
10
99.1056827
20
55.2443916
11
97.9015827
21
53.9444916
0
LINE
8
DEFAULT_255_2_778
10
97.9015827
20
53.9444916
11
97.9015827
21
47.6248916
0
LINE
8
DEFAULT_255_2_778
10
97.9015827
20
47.6248916
11
99.1056827
21
47.6243916
0
LINE
8
DEFAULT_255_2_778
10
99.1056827
20
47.6243916
11
105.6517827
21
47.6243916
0
LINE
8
DEFAULT_255_2_778
10
105.6517827
20
47.6243916
11
105.8467827
21
47.6309916
0
LINE
8
DEFAULT_255_2_778
10
105.8467827
20
47.6309916
11
106.0342827
21
47.6505916
0
LINE
8
DEFAULT_255_2_778
10
106.0342827
20
47.6505916
11
106.2070827
21
47.6820916
0
LINE
8
DEFAULT_255_2_778
10
106.2070827
20
47.6820916
11
106.3586827
21
47.7246916
0
LINE
8
DEFAULT_255_2_778
10
106.3586827
20
47.7246916
11
106.4245827
21
47.7495916
0
LINE
8
DEFAULT_255_2_778
10
106.4245827
20
47.7495916
11
106.4830827
21
47.7764916
0
LINE
8
DEFAULT_255_2_778
10
106.4830827
20
47.7764916
11
106.5335827
21
47.8053916
0
LINE
8
DEFAULT_255_2_778
10
106.5335827
20
47.8053916
11
106.5756827
21
47.8357916
0
LINE
8
DEFAULT_255_2_778
10
106.5756827
20
47.8357916
11
106.6087827
21
47.8675916
0
LINE
8
DEFAULT_255_2_778
10
106.6087827
20
47.8675916
11
106.6325827
21
47.9000916
0
LINE
8
DEFAULT_255_2_778
10
102.1512827
20
69.1963916
11
102.1512827
21
64.5894916
0
LINE
8
DEFAULT_255_2_778
10
102.1512827
20
64.5894916
11
101.1514827
21
64.5894916
0
LINE
8
DEFAULT_255_2_778
10
114.4824827
20
52.1032916
11
107.5924827
21
52.1032916
0
LINE
8
DEFAULT_255_2_778
10
107.5924827
20
52.1032916
11
107.5924827
21
53.7732916
0
LINE
8
DEFAULT_255_2_778
10
107.5924827
20
53.7732916
11
114.4824827
21
53.7732916
0
LINE
8
DEFAULT_255_2_778
10
103.9170827
20
51.2642916
11
106.6515827
21
51.2642916
0
LINE
8
DEFAULT_255_2_778
10
106.6515827
20
51.2642916
11
106.6515827
21
46.8295916
0
LINE
8
DEFAULT_255_2_778
10
106.6325827
20
46.7628916
11
106.6087827
21
46.7303916
0
LINE
8
DEFAULT_255_2_778
10
106.6087827
20
46.7303916
11
106.5756827
21
46.6988916
0
LINE
8
DEFAULT_255_2_778
10
106.5756827
20
46.6988916
11
106.5335827
21
46.6684916
0
LINE
8
DEFAULT_255_2_778
10
106.5335827
20
46.6684916
11
106.4830827
21
46.6395916
0
LINE
8
DEFAULT_255_2_778
10
106.4830827
20
46.6395916
11
106.4245827
21
46.6125916
0
LINE
8
DEFAULT_255_2_778
10
106.4245827
20
46.6125916
11
106.3586827
21
46.5877916
0
LINE
8
DEFAULT_255_2_778
10
106.2070827
20
46.5451916
11
106.0342827
21
46.5136916
0
LINE
8
DEFAULT_255_2_778
10
106.0342827
20
46.5136916
11
105.8467827
21
46.4943916
0
LINE
8
DEFAULT_255_2_778
10
105.8467827
20
46.4943916
11
105.6517827
21
46.4877916
0
LINE
8
DEFAULT_255_2_778
10
105.6517827
20
46.4877916
11
99.1056827
21
46.4877916
0
LINE
8
DEFAULT_255_2_778
10
99.1056827
20
46.4877916
11
99.1056827
21
47.6246916
0
LINE
8
DEFAULT_255_2_778
10
99.1056827
20
47.6246916
11
97.9015827
21
46.3247916
0
LINE
8
DEFAULT_255_2_778
10
97.9015827
20
46.3247916
11
97.9015827
21
40.0051916
0
LINE
8
DEFAULT_255_2_778
10
97.9015827
20
40.0051916
11
99.1056827
21
40.0046916
0
LINE
8
DEFAULT_255_2_778
10
99.1056827
20
40.0046916
11
105.1516827
21
40.0046916
0
LINE
8
DEFAULT_255_2_778
10
105.1516827
20
40.0046916
11
105.1516827
21
38.8677916
0
LINE
8
DEFAULT_255_2_778
10
105.1516827
20
38.8677916
11
99.1056827
21
38.8677916
0
LINE
8
DEFAULT_255_2_778
10
99.1056827
20
38.8677916
11
99.1056827
21
40.0046916
0
LINE
8
DEFAULT_255_2_778
10
99.1056827
20
40.0046916
11
97.9015827
21
38.7047916
0
LINE
8
DEFAULT_255_2_778
10
97.9015827
20
38.7047916
11
97.9015827
21
32.3851916
0
LINE
8
DEFAULT_255_2_778
10
97.9015827
20
32.3851916
11
99.1056827
21
32.3846916
0
LINE
8
DEFAULT_255_2_778
10
99.1056827
20
32.3846916
11
105.6517827
21
32.3846916
0
LINE
8
DEFAULT_255_2_778
10
105.6517827
20
32.3846916
11
105.8467827
21
32.3912916
0
LINE
8
DEFAULT_255_2_778
10
105.8467827
20
32.3912916
11
106.0342827
21
32.4108916
0
LINE
8
DEFAULT_255_2_778
10
106.0342827
20
32.4108916
11
106.2070827
21
32.4425916
0
LINE
8
DEFAULT_255_2_778
10
106.2070827
20
32.4425916
11
106.3586827
21
32.4851916
0
LINE
8
DEFAULT_255_2_778
10
106.3586827
20
32.4851916
11
106.4245827
21
32.5100916
0
LINE
8
DEFAULT_255_2_778
10
106.4245827
20
32.5100916
11
106.4830827
21
32.5370916
0
LINE
8
DEFAULT_255_2_778
10
106.4830827
20
32.5370916
11
106.5335827
21
32.5658916
0
LINE
8
DEFAULT_255_2_778
10
106.5335827
20
32.5658916
11
106.5756827
21
32.5962916
0
LINE
8
DEFAULT_255_2_778
10
106.5756827
20
32.5962916
11
106.6087827
21
32.6280916
0
LINE
8
DEFAULT_255_2_778
10
106.6087827
20
32.6280916
11
106.6325827
21
32.6605916
0
LINE
8
DEFAULT_255_2_778
10
97.9015827
20
55.9849916
11
101.1516827
21
56.3952916
0
LINE
8
DEFAULT_255_2_778
10
101.1516827
20
56.3952916
11
101.1516827
21
61.7285916
0
LINE
8
DEFAULT_255_2_778
10
114.4827827
20
36.8642916
11
107.5926827
21
36.8642916
0
LINE
8
DEFAULT_255_2_778
10
107.5926827
20
36.8642916
11
107.5926827
21
38.5343916
0
LINE
8
DEFAULT_255_2_778
10
107.5926827
20
38.5343916
11
114.4827827
21
38.5343916
0
LINE
8
DEFAULT_255_2_778
10
97.9015827
20
48.3649916
11
101.1516827
21
48.7752916
0
LINE
8
DEFAULT_255_2_778
10
101.1516827
20
48.7752916
11
101.1516827
21
54.1085916
0
LINE
8
DEFAULT_255_2_778
10
97.9015827
20
40.7449916
11
101.1516827
21
41.1552916
0
LINE
8
DEFAULT_255_2_778
10
101.1516827
20
41.1552916
11
101.1516827
21
46.4885916
0
LINE
8
DEFAULT_255_2_778
10
103.9173827
20
36.0252916
11
106.6518827
21
36.0252916
0
LINE
8
DEFAULT_255_2_778
10
106.6518827
20
36.0252916
11
106.6518827
21
31.5906916
0
LINE
8
DEFAULT_255_2_778
10
106.6327827
20
31.5239916
11
106.6089827
21
31.4913916
0
LINE
8
DEFAULT_255_2_778
10
106.6089827
20
31.4913916
11
106.5758827
21
31.4599916
0
LINE
8
DEFAULT_255_2_778
10
106.5758827
20
31.4599916
11
106.5338827
21
31.4294916
0
LINE
8
DEFAULT_255_2_778
10
106.5338827
20
31.4294916
11
106.4832827
21
31.4006916
0
LINE
8
DEFAULT_255_2_778
10
106.4832827
20
31.4006916
11
106.4248827
21
31.3736916
0
LINE
8
DEFAULT_255_2_778
10
106.4248827
20
31.3736916
11
106.3589827
21
31.3487916
0
LINE
8
DEFAULT_255_2_778
10
106.2073827
20
31.3061916
11
106.0345827
21
31.2746916
0
LINE
8
DEFAULT_255_2_778
10
106.0345827
20
31.2746916
11
105.8469827
21
31.2551916
0
LINE
8
DEFAULT_255_2_778
10
105.8469827
20
31.2551916
11
105.6519827
21
31.2485916
0
LINE
8
DEFAULT_255_2_778
10
105.6519827
20
31.2485916
11
99.1059827
21
31.2485916
0
LINE
8
DEFAULT_255_2_778
10
99.1059827
20
31.2485916
11
99.1059827
21
32.3854916
0
LINE
8
DEFAULT_255_2_778
10
99.1059827
20
32.3854916
11
97.9017827
21
31.0855916
0
LINE
8
DEFAULT_255_2_778
10
97.9017827
20
31.0855916
11
97.9017827
21
24.7659916
0
LINE
8
DEFAULT_255_2_778
10
97.9017827
20
24.7659916
11
99.1059827
21
24.7654916
0
LINE
8
DEFAULT_255_2_778
10
99.1059827
20
24.7654916
11
105.1519827
21
24.7654916
0
LINE
8
DEFAULT_255_2_778
10
105.1519827
20
24.7654916
11
105.1519827
21
23.6285916
0
LINE
8
DEFAULT_255_2_778
10
105.1519827
20
23.6285916
11
99.1059827
21
23.6285916
0
LINE
8
DEFAULT_255_2_778
10
99.1059827
20
23.6285916
11
99.1059827
21
24.7654916
0
LINE
8
DEFAULT_255_2_778
10
99.1059827
20
24.7654916
11
97.9017827
21
23.4655916
0
LINE
8
DEFAULT_255_2_778
10
97.9017827
20
23.4655916
11
97.9017827
21
17.1459916
0
LINE
8
DEFAULT_255_2_778
10
97.9017827
20
17.1459916
11
99.1059827
21
17.1454916
0
LINE
8
DEFAULT_255_2_778
10
99.1059827
20
17.1454916
11
105.6519827
21
17.1454916
0
LINE
8
DEFAULT_255_2_778
10
105.6519827
20
17.1454916
11
105.8469827
21
17.1520916
0
LINE
8
DEFAULT_255_2_778
10
105.8469827
20
17.1520916
11
106.0345827
21
17.1716916
0
LINE
8
DEFAULT_255_2_778
10
106.0345827
20
17.1716916
11
106.2073827
21
17.2033916
0
LINE
8
DEFAULT_255_2_778
10
106.2073827
20
17.2033916
11
106.3589827
21
17.2459916
0
LINE
8
DEFAULT_255_2_778
10
106.3589827
20
17.2459916
11
106.4248827
21
17.2708916
0
LINE
8
DEFAULT_255_2_778
10
106.4248827
20
17.2708916
11
106.4832827
21
17.2978916
0
LINE
8
DEFAULT_255_2_778
10
106.4832827
20
17.2978916
11
106.5338827
21
17.3266916
0
LINE
8
DEFAULT_255_2_778
10
106.5338827
20
17.3266916
11
106.5758827
21
17.3570916
0
LINE
8
DEFAULT_255_2_778
10
106.5758827
20
17.3570916
11
106.6089827
21
17.3888916
0
LINE
8
DEFAULT_255_2_778
10
106.6089827
20
17.3888916
11
106.6327827
21
17.4213916
0
LINE
8
DEFAULT_255_2_778
10
97.9017827
20
33.1254916
11
101.1519827
21
33.5358916
0
LINE
8
DEFAULT_255_2_778
10
101.1519827
20
33.5358916
11
101.1519827
21
38.8690916
0
LINE
8
DEFAULT_255_2_778
10
97.9017827
20
25.5054916
11
101.1519827
21
25.9158916
0
LINE
8
DEFAULT_255_2_778
10
101.1519827
20
25.9158916
11
101.1519827
21
31.2490916
0
LINE
8
DEFAULT_255_2_778
10
114.4829827
20
21.6248916
11
107.5929827
21
21.6248916
0
LINE
8
DEFAULT_255_2_778
10
107.5929827
20
21.6248916
11
107.5929827
21
23.2948916
0
LINE
8
DEFAULT_255_2_778
10
107.5929827
20
23.2948916
11
114.4829827
21
23.2948916
0
LINE
8
DEFAULT_255_2_778
10
103.9176827
20
20.7858916
11
106.6520827
21
20.7858916
0
LINE
8
DEFAULT_255_2_778
10
106.6520827
20
20.7858916
11
106.6520827
21
16.3511916
0
LINE
8
DEFAULT_255_2_778
10
106.6330827
20
16.2844916
11
106.6092827
21
16.2519916
0
LINE
8
DEFAULT_255_2_778
10
106.6092827
20
16.2519916
11
106.5761827
21
16.2204916
0
LINE
8
DEFAULT_255_2_778
10
106.5761827
20
16.2204916
11
106.5340827
21
16.1900916
0
LINE
8
DEFAULT_255_2_778
10
106.5340827
20
16.1900916
11
106.4835827
21
16.1611916
0
LINE
8
DEFAULT_255_2_778
10
106.4835827
20
16.1611916
11
106.4251827
21
16.1341916
0
LINE
8
DEFAULT_255_2_778
10
106.4251827
20
16.1341916
11
106.3592827
21
16.1093916
0
LINE
8
DEFAULT_255_2_778
10
106.2075827
20
16.0667916
11
106.0348827
21
16.0349916
0
LINE
8
DEFAULT_255_2_778
10
106.0348827
20
16.0349916
11
105.8472827
21
16.0153916
0
LINE
8
DEFAULT_255_2_778
10
105.8472827
20
16.0153916
11
105.6522827
21
16.0087916
0
LINE
8
DEFAULT_255_2_778
10
105.6522827
20
16.0087916
11
99.1061827
21
16.0087916
0
LINE
8
DEFAULT_255_2_778
10
99.1061827
20
16.0087916
11
99.1061827
21
17.1456916
0
LINE
8
DEFAULT_255_2_778
10
99.1061827
20
17.1456916
11
97.9020827
21
15.8457916
0
LINE
8
DEFAULT_255_2_778
10
97.9020827
20
15.8457916
11
97.9020827
21
9.5262916
0
LINE
8
DEFAULT_255_2_778
10
97.9020827
20
9.5262916
11
99.1061827
21
9.5256916
0
LINE
8
DEFAULT_255_2_778
10
99.1061827
20
9.5256916
11
105.1521827
21
9.5256916
0
LINE
8
DEFAULT_255_2_778
10
105.1521827
20
9.5256916
11
105.1521827
21
8.3887916
0
LINE
8
DEFAULT_255_2_778
10
105.1521827
20
8.3887916
11
99.1061827
21
8.3887916
0
LINE
8
DEFAULT_255_2_778
10
99.1061827
20
8.3887916
11
99.1061827
21
9.5256916
0
LINE
8
DEFAULT_255_2_778
10
99.1061827
20
9.5256916
11
97.9020827
21
8.2257916
0
LINE
8
DEFAULT_255_2_778
10
97.9020827
20
8.2257916
11
97.9020827
21
0.3295916
0
LINE
8
DEFAULT_255_2_778
10
114.4829827
20
14.0045916
11
107.5929827
21
14.0045916
0
LINE
8
DEFAULT_255_2_778
10
107.5929827
20
14.0045916
11
107.5929827
21
15.6746916
0
LINE
8
DEFAULT_255_2_778
10
107.5929827
20
15.6746916
11
114.4829827
21
15.6746916
0
LINE
8
DEFAULT_255_2_778
10
97.9017827
20
17.8851916
11
101.1519827
21
18.2955916
0
LINE
8
DEFAULT_255_2_778
10
101.1519827
20
18.2955916
11
101.1519827
21
23.6287916
0
LINE
8
DEFAULT_255_2_778
10
109.1518827
20
10.1945916
11
106.6518827
21
10.1945916
0
LINE
8
DEFAULT_255_2_778
10
114.1517827
20
6.5795916
11
114.4827827
21
6.5795916
0
LINE
8
DEFAULT_255_2_778
10
103.6183827
20
5.1814916
11
114.1517827
21
5.1814916
0
LINE
8
DEFAULT_255_2_778
10
103.3815827
20
4.9994916
11
106.9018827
21
4.9994916
0
LINE
8
DEFAULT_255_2_778
10
108.9018827
20
4.2715916
11
108.9018827
21
0.3295916
0
LINE
8
DEFAULT_255_2_778
10
110.4017827
20
3.7257916
11
110.4017827
21
3.7257916
0
LINE
8
DEFAULT_255_2_778
10
110.4017827
20
3.7257916
11
114.1517827
21
3.7257916
0
LINE
8
DEFAULT_255_2_778
10
114.1517827
20
21.6245916
11
114.1517827
21
1.6294916
0
LINE
8
DEFAULT_255_2_778
10
114.1517827
20
1.6294916
11
117.5883827
21
1.6294916
0
LINE
8
DEFAULT_255_2_778
10
97.9017827
20
10.2649916
11
101.1519827
21
10.6752916
0
LINE
8
DEFAULT_255_2_778
10
101.1519827
20
10.6752916
11
101.1519827
21
16.0085916
0
LINE
8
DEFAULT_255_2_778
10
101.1519827
20
8.3885916
11
101.1519827
21
2.4292916
0
LINE
8
DEFAULT_255_2_778
10
101.1519827
20
2.4292916
11
97.9017827
21
1.5265916
0
LINE
8
DEFAULT_255_2_778
10
16.2262827
20
42.3782916
11
14.0762827
21
42.3782916
0
LINE
8
DEFAULT_255_2_778
10
14.0762827
20
42.3782916
11
14.0762827
21
17.2782916
0
LINE
8
DEFAULT_255_2_778
10
14.0762827
20
17.2782916
11
16.2262827
21
17.2782916
0
LINE
8
DEFAULT_255_2_778
10
16.2262827
20
17.2782916
11
16.2262827
21
42.3782916
0
LINE
8
DEFAULT_255_2_778
10
13.6513827
20
14.7480916
11
13.6513827
21
13.9280916
0
LINE
8
DEFAULT_255_2_778
10
13.6513827
20
13.9280916
11
11.9513827
21
13.9280916
0
LINE
8
DEFAULT_255_2_778
10
11.9513827
20
13.9280916
11
11.7513827
21
14.1281916
0
LINE
8
DEFAULT_255_2_778
10
11.7513827
20
14.1281916
11
11.7513827
21
16.7832916
0
LINE
8
DEFAULT_255_2_778
10
11.7513827
20
16.7832916
11
12.4514827
21
17.2832916
0
LINE
8
DEFAULT_255_2_778
10
12.4514827
20
17.2832916
11
12.4514827
21
42.3731916
0
LINE
8
DEFAULT_255_2_778
10
12.4514827
20
42.3731916
11
11.7513827
21
42.8732916
0
LINE
8
DEFAULT_255_2_778
10
11.7513827
20
42.8732916
11
11.7513827
21
45.5283916
0
LINE
8
DEFAULT_255_2_778
10
11.7513827
20
45.5283916
11
11.9513827
21
45.7283916
0
LINE
8
DEFAULT_255_2_778
10
11.9513827
20
45.7283916
11
13.6513827
21
45.7283916
0
LINE
8
DEFAULT_255_2_778
10
13.6513827
20
45.7283916
11
13.6513827
21
44.9084916
0
LINE
8
DEFAULT_255_2_778
10
16.6514827
20
44.9081916
11
16.6514827
21
45.7280916
0
LINE
8
DEFAULT_255_2_778
10
16.6514827
20
45.7280916
11
18.3513827
21
45.7280916
0
LINE
8
DEFAULT_255_2_778
10
18.3513827
20
45.7280916
11
18.5514827
21
45.5280916
0
LINE
8
DEFAULT_255_2_778
10
18.5514827
20
45.5280916
11
18.5514827
21
42.8729916
0
LINE
8
DEFAULT_255_2_778
10
18.5514827
20
42.8729916
11
17.8513827
21
42.3729916
0
LINE
8
DEFAULT_255_2_778
10
17.8513827
20
42.3729916
11
17.8513827
21
17.2830916
0
LINE
8
DEFAULT_255_2_778
10
17.8513827
20
17.2830916
11
18.5514827
21
16.7829916
0
LINE
8
DEFAULT_255_2_778
10
18.5514827
20
16.7829916
11
18.5514827
21
14.1278916
0
LINE
8
DEFAULT_255_2_778
10
18.5514827
20
14.1278916
11
18.3513827
21
13.9278916
0
LINE
8
DEFAULT_255_2_778
10
18.3513827
20
13.9278916
11
16.6514827
21
13.9278916
0
LINE
8
DEFAULT_255_2_778
10
16.6514827
20
13.9278916
11
16.6514827
21
14.7477916
0
ARC
8
DEFAULT_255_2_778
10
13.8019752
20
14.3304438
40
0.3025516
50
240.1265227
51
269.8680405
0
ARC
8
DEFAULT_255_2_778
10
16.5013127
20
14.32809
40
0.300197
50
270.0125377
51
299.9927848
0
ARC
8
DEFAULT_255_2_778
10
14.1513331
20
14.6777477
40
0.1500547
50
180.0208901
51
269.9791099
0
ARC
8
DEFAULT_255_2_778
10
16.1512383
20
14.6778332
40
0.1501402
50
270.0152977
51
359.9465178
0
ARC
8
DEFAULT_255_2_778
10
14.15224
20
44.9776623
40
0.1509623
50
135.1156421
51
179.836516
0
ARC
8
DEFAULT_255_2_778
10
14.1509771
20
44.9788975
40
0.1491957
50
89.8842903
51
135.109492
0
ARC
8
DEFAULT_255_2_778
10
16.1504644
20
44.9771785
40
0.1509167
50
0.3471979
51
89.6909865
0
ARC
8
DEFAULT_255_2_778
10
13.8008433
20
45.3284461
40
0.2994469
50
89.9741626
51
120.0312695
0
ARC
8
DEFAULT_255_2_778
10
16.5012868
20
45.3287204
40
0.2991727
50
59.9546148
51
90.0399169
0
ARC
8
DEFAULT_255_2_778
10
9.0987947
20
8.5211746
40
1.993183
50
245.6872806
51
270.068521
0
ARC
8
DEFAULT_255_2_778
10
9.1036885
20
8.529691
40
2.0029591
50
189.8014535
51
245.6600071
0
ARC
8
DEFAULT_255_2_778
10
9.1145825
20
8.5273755
40
2.0133042
50
179.9824264
51
189.6837422
0
ARC
8
DEFAULT_255_2_778
10
9.0942252
20
51.1306604
40
1.9929485
50
155.6900296
51
180.073811
0
ARC
8
DEFAULT_255_2_778
10
9.1028353
20
51.1256989
40
2.0028379
50
99.8008593
51
155.6620791
0
ARC
8
DEFAULT_255_2_778
10
9.1005607
20
51.1146931
40
2.0133
50
89.9824215
51
99.6837544
0
ARC
8
DEFAULT_255_2_778
10
21.2037444
20
51.1350312
40
1.9929635
50
65.6901216
51
90.0737704
0
ARC
8
DEFAULT_255_2_778
10
21.1986939
20
51.1262716
40
2.0030257
50
9.804704
51
65.6616138
0
ARC
8
DEFAULT_255_2_778
10
21.1876332
20
51.128525
40
2.0135452
50
359.9877083
51
9.6879249
0
LINE
8
DEFAULT_255_2_778
10
12.4513784
20
38.413193
11
11.8512784
21
38.413193
0
LINE
8
DEFAULT_255_2_778
10
11.8512784
20
38.413193
11
11.8512784
21
38.643193
0
LINE
8
DEFAULT_255_2_778
10
11.8512784
20
38.643193
11
12.4513784
21
38.643193
0
LINE
8
DEFAULT_255_2_778
10
12.4513784
20
39.012993
11
11.8512784
21
39.012993
0
LINE
8
DEFAULT_255_2_778
10
11.8512784
20
39.012993
11
11.8512784
21
39.242993
0
LINE
8
DEFAULT_255_2_778
10
11.8512784
20
39.242993
11
12.4513784
21
39.242993
0
LINE
8
DEFAULT_255_2_778
10
12.4513784
20
39.612893
11
11.8512784
21
39.612893
0
LINE
8
DEFAULT_255_2_778
10
11.8512784
20
39.612893
11
11.8512784
21
39.842793
0
LINE
8
DEFAULT_255_2_778
10
11.8512784
20
39.842793
11
12.4513784
21
39.842793
0
LINE
8
DEFAULT_255_2_778
10
12.4513784
20
40.212693
11
11.8512784
21
40.212693
0
LINE
8
DEFAULT_255_2_778
10
11.8512784
20
40.212693
11
11.8512784
21
40.442593
0
LINE
8
DEFAULT_255_2_778
10
11.8512784
20
40.442593
11
12.4513784
21
40.442593
0
LINE
8
DEFAULT_255_2_778
10
12.4513784
20
40.812493
11
11.8512784
21
40.812493
0
LINE
8
DEFAULT_255_2_778
10
11.8512784
20
40.812493
11
11.8512784
21
41.042393
0
LINE
8
DEFAULT_255_2_778
10
11.8512784
20
41.042393
11
12.4513784
21
41.042393
0
LINE
8
DEFAULT_255_2_778
10
12.4513784
20
41.412293
11
11.8512784
21
41.412293
0
LINE
8
DEFAULT_255_2_778
10
11.8512784
20
41.412293
11
11.8512784
21
41.642193
0
LINE
8
DEFAULT_255_2_778
10
11.8512784
20
41.642193
11
12.4513784
21
41.642193
0
LINE
8
DEFAULT_255_2_778
10
12.4513784
20
28.212193
11
11.8512784
21
28.212193
0
LINE
8
DEFAULT_255_2_778
10
11.8512784
20
28.212193
11
11.8512784
21
28.442093
0
LINE
8
DEFAULT_255_2_778
10
11.8512784
20
28.442093
11
12.4513784
21
28.442093
0
LINE
8
DEFAULT_255_2_778
10
12.4513784
20
28.811993
11
11.8512784
21
28.811993
0
LINE
8
DEFAULT_255_2_778
10
11.8512784
20
28.811993
11
11.8512784
21
29.041993
0
LINE
8
DEFAULT_255_2_778
10
11.8512784
20
29.041993
11
12.4513784
21
29.041993
0
LINE
8
DEFAULT_255_2_778
10
12.4513784
20
29.411793
11
11.8512784
21
29.411793
0
LINE
8
DEFAULT_255_2_778
10
11.8512784
20
29.411793
11
11.8512784
21
29.641793
0
LINE
8
DEFAULT_255_2_778
10
11.8512784
20
29.641793
11
12.4513784
21
29.641793
0
LINE
8
DEFAULT_255_2_778
10
12.4513784
20
30.011693
11
11.8512784
21
30.011693
0
LINE
8
DEFAULT_255_2_778
10
11.8512784
20
30.011693
11
11.8512784
21
30.241593
0
LINE
8
DEFAULT_255_2_778
10
11.8512784
20
30.241593
11
12.4513784
21
30.241593
0
LINE
8
DEFAULT_255_2_778
10
12.4513784
20
30.611693
11
11.8512784
21
30.611693
0
LINE
8
DEFAULT_255_2_778
10
11.8512784
20
30.611693
11
11.8512784
21
30.841693
0
LINE
8
DEFAULT_255_2_778
10
11.8512784
20
30.841693
11
12.4513784
21
30.841693
0
LINE
8
DEFAULT_255_2_778
10
12.4513784
20
31.211493
11
11.8512784
21
31.211493
0
LINE
8
DEFAULT_255_2_778
10
11.8512784
20
31.211493
11
11.8512784
21
31.441493
0
LINE
8
DEFAULT_255_2_778
10
11.8512784
20
31.441493
11
12.4513784
21
31.441493
0
LINE
8
DEFAULT_255_2_778
10
12.4513784
20
31.811393
11
11.8512784
21
31.811393
0
LINE
8
DEFAULT_255_2_778
10
11.8512784
20
31.811393
11
11.8512784
21
32.041293
0
LINE
8
DEFAULT_255_2_778
10
11.8512784
20
32.041293
11
12.4513784
21
32.041293
0
LINE
8
DEFAULT_255_2_778
10
12.4513784
20
32.411193
11
11.8512784
21
32.411193
0
LINE
8
DEFAULT_255_2_778
10
11.8512784
20
32.411193
11
11.8512784
21
32.641093
0
LINE
8
DEFAULT_255_2_778
10
11.8512784
20
32.641093
11
12.4513784
21
32.641093
0
LINE
8
DEFAULT_255_2_778
10
12.4513784
20
33.010993
11
11.8512784
21
33.010993
0
LINE
8
DEFAULT_255_2_778
10
11.8512784
20
33.010993
11
11.8512784
21
33.240893
0
LINE
8
DEFAULT_255_2_778
10
11.8512784
20
33.240893
11
12.4513784
21
33.240893
0
LINE
8
DEFAULT_255_2_778
10
12.4513784
20
33.610793
11
11.8512784
21
33.610793
0
LINE
8
DEFAULT_255_2_778
10
11.8512784
20
33.610793
11
11.8512784
21
33.840693
0
LINE
8
DEFAULT_255_2_778
10
11.8512784
20
33.840693
11
12.4513784
21
33.840693
0
LINE
8
DEFAULT_255_2_778
10
12.4513784
20
34.210593
11
11.8512784
21
34.210593
0
LINE
8
DEFAULT_255_2_778
10
11.8512784
20
34.210593
11
11.8512784
21
34.440493
0
LINE
8
DEFAULT_255_2_778
10
11.8512784
20
34.440493
11
12.4513784
21
34.440493
0
LINE
8
DEFAULT_255_2_778
10
12.4513784
20
34.810393
11
11.8512784
21
34.810393
0
LINE
8
DEFAULT_255_2_778
10
11.8512784
20
34.810393
11
11.8512784
21
35.040293
0
LINE
8
DEFAULT_255_2_778
10
11.8512784
20
35.040293
11
12.4513784
21
35.040293
0
LINE
8
DEFAULT_255_2_778
10
12.4513784
20
35.410193
11
11.8512784
21
35.410193
0
LINE
8
DEFAULT_255_2_778
10
11.8512784
20
35.410193
11
11.8512784
21
35.640093
0
LINE
8
DEFAULT_255_2_778
10
11.8512784
20
35.640093
11
12.4513784
21
35.640093
0
LINE
8
DEFAULT_255_2_778
10
12.4513784
20
36.009993
11
11.8512784
21
36.009993
0
LINE
8
DEFAULT_255_2_778
10
11.8512784
20
36.009993
11
11.8512784
21
36.239893
0
LINE
8
DEFAULT_255_2_778
10
11.8512784
20
36.239893
11
12.4513784
21
36.239893
0
LINE
8
DEFAULT_255_2_778
10
12.4513784
20
36.609793
11
11.8512784
21
36.609793
0
LINE
8
DEFAULT_255_2_778
10
11.8512784
20
36.609793
11
11.8512784
21
36.839793
0
LINE
8
DEFAULT_255_2_778
10
11.8512784
20
36.839793
11
12.4513784
21
36.839793
0
LINE
8
DEFAULT_255_2_778
10
12.4513784
20
37.209593
11
11.8512784
21
37.209593
0
LINE
8
DEFAULT_255_2_778
10
11.8512784
20
37.209593
11
11.8512784
21
37.439593
0
LINE
8
DEFAULT_255_2_778
10
11.8512784
20
37.439593
11
12.4513784
21
37.439593
0
LINE
8
DEFAULT_255_2_778
10
12.4513784
20
37.809493
11
11.8512784
21
37.809493
0
LINE
8
DEFAULT_255_2_778
10
11.8512784
20
37.809493
11
11.8512784
21
38.039393
0
LINE
8
DEFAULT_255_2_778
10
11.8512784
20
38.039393
11
12.4513784
21
38.039393
0
LINE
8
DEFAULT_255_2_778
10
12.4513784
20
18.009393
11
11.8512784
21
18.009393
0
LINE
8
DEFAULT_255_2_778
10
11.8512784
20
18.009393
11
11.8512784
21
18.239293
0
LINE
8
DEFAULT_255_2_778
10
11.8512784
20
18.239293
11
12.4513784
21
18.239293
0
LINE
8
DEFAULT_255_2_778
10
12.4513784
20
18.609193
11
11.8512784
21
18.609193
0
LINE
8
DEFAULT_255_2_778
10
11.8512784
20
18.609193
11
11.8512784
21
18.839093
0
LINE
8
DEFAULT_255_2_778
10
11.8512784
20
18.839093
11
12.4513784
21
18.839093
0
LINE
8
DEFAULT_255_2_778
10
12.4513784
20
19.208993
11
11.8512784
21
19.208993
0
LINE
8
DEFAULT_255_2_778
10
11.8512784
20
19.208993
11
11.8512784
21
19.438893
0
LINE
8
DEFAULT_255_2_778
10
11.8512784
20
19.438893
11
12.4513784
21
19.438893
0
LINE
8
DEFAULT_255_2_778
10
12.4513784
20
19.808793
11
11.8512784
21
19.808793
0
LINE
8
DEFAULT_255_2_778
10
11.8512784
20
19.808793
11
11.8512784
21
20.038693
0
LINE
8
DEFAULT_255_2_778
10
11.8512784
20
20.038693
11
12.4513784
21
20.038693
0
LINE
8
DEFAULT_255_2_778
10
12.4513784
20
20.408893
11
11.8512784
21
20.408893
0
LINE
8
DEFAULT_255_2_778
10
11.8512784
20
20.408893
11
11.8512784
21
20.638793
0
LINE
8
DEFAULT_255_2_778
10
11.8512784
20
20.638793
11
12.4513784
21
20.638793
0
LINE
8
DEFAULT_255_2_778
10
12.4513784
20
21.008693
11
11.8512784
21
21.008693
0
LINE
8
DEFAULT_255_2_778
10
11.8512784
20
21.008693
11
11.8512784
21
21.238593
0
LINE
8
DEFAULT_255_2_778
10
11.8512784
20
21.238593
11
12.4513784
21
21.238593
0
LINE
8
DEFAULT_255_2_778
10
12.4513784
20
21.608493
11
11.8512784
21
21.608493
0
LINE
8
DEFAULT_255_2_778
10
11.8512784
20
21.608493
11
11.8512784
21
21.838393
0
LINE
8
DEFAULT_255_2_778
10
11.8512784
20
21.838393
11
12.4513784
21
21.838393
0
LINE
8
DEFAULT_255_2_778
10
12.4513784
20
22.208293
11
11.8512784
21
22.208293
0
LINE
8
DEFAULT_255_2_778
10
11.8512784
20
22.208293
11
11.8512784
21
22.438193
0
LINE
8
DEFAULT_255_2_778
10
11.8512784
20
22.438193
11
12.4513784
21
22.438193
0
LINE
8
DEFAULT_255_2_778
10
12.4513784
20
22.808093
11
11.8512784
21
22.808093
0
LINE
8
DEFAULT_255_2_778
10
11.8512784
20
22.808093
11
11.8512784
21
23.037993
0
LINE
8
DEFAULT_255_2_778
10
11.8512784
20
23.037993
11
12.4513784
21
23.037993
0
LINE
8
DEFAULT_255_2_778
10
12.4513784
20
23.407893
11
11.8512784
21
23.407893
0
LINE
8
DEFAULT_255_2_778
10
11.8512784
20
23.407893
11
11.8512784
21
23.637793
0
LINE
8
DEFAULT_255_2_778
10
11.8512784
20
23.637793
11
12.4513784
21
23.637793
0
LINE
8
DEFAULT_255_2_778
10
12.4513784
20
24.007993
11
11.8512784
21
24.007993
0
LINE
8
DEFAULT_255_2_778
10
11.8512784
20
24.007993
11
11.8512784
21
24.237893
0
LINE
8
DEFAULT_255_2_778
10
11.8512784
20
24.237893
11
12.4513784
21
24.237893
0
LINE
8
DEFAULT_255_2_778
10
12.4513784
20
24.607793
11
11.8512784
21
24.607793
0
LINE
8
DEFAULT_255_2_778
10
11.8512784
20
24.607793
11
11.8512784
21
24.837693
0
LINE
8
DEFAULT_255_2_778
10
11.8512784
20
24.837693
11
12.4513784
21
24.837693
0
LINE
8
DEFAULT_255_2_778
10
12.4513784
20
25.207593
11
11.8512784
21
25.207593
0
LINE
8
DEFAULT_255_2_778
10
11.8512784
20
25.207593
11
11.8512784
21
25.437493
0
LINE
8
DEFAULT_255_2_778
10
11.8512784
20
25.437493
11
12.4513784
21
25.437493
0
LINE
8
DEFAULT_255_2_778
10
12.4513784
20
25.807393
11
11.8512784
21
25.807393
0
LINE
8
DEFAULT_255_2_778
10
11.8512784
20
25.807393
11
11.8512784
21
26.037393
0
LINE
8
DEFAULT_255_2_778
10
11.8512784
20
26.037393
11
12.4513784
21
26.037393
0
LINE
8
DEFAULT_255_2_778
10
12.4513784
20
26.407193
11
11.8512784
21
26.407193
0
LINE
8
DEFAULT_255_2_778
10
11.8512784
20
26.407193
11
11.8512784
21
26.637193
0
LINE
8
DEFAULT_255_2_778
10
11.8512784
20
26.637193
11
12.4513784
21
26.637193
0
LINE
8
DEFAULT_255_2_778
10
12.4513784
20
27.006993
11
11.8512784
21
27.006993
0
LINE
8
DEFAULT_255_2_778
10
11.8512784
20
27.006993
11
11.8512784
21
27.236993
0
LINE
8
DEFAULT_255_2_778
10
11.8512784
20
27.236993
11
12.4513784
21
27.236993
0
LINE
8
DEFAULT_255_2_778
10
12.4513784
20
27.607093
11
11.8512784
21
27.607093
0
LINE
8
DEFAULT_255_2_778
10
11.8512784
20
27.607093
11
11.8512784
21
27.836993
0
LINE
8
DEFAULT_255_2_778
10
11.8512784
20
27.836993
11
12.4513784
21
27.836993
0
LINE
8
DEFAULT_255_2_778
10
17.8512784
20
41.643293
11
18.4513784
21
41.643293
0
LINE
8
DEFAULT_255_2_778
10
18.4513784
20
41.643293
11
18.4513784
21
41.413293
0
LINE
8
DEFAULT_255_2_778
10
18.4513784
20
41.413293
11
17.8512784
21
41.413293
0
LINE
8
DEFAULT_255_2_778
10
17.8512784
20
41.043493
11
18.4513784
21
41.043493
0
LINE
8
DEFAULT_255_2_778
10
18.4513784
20
41.043493
11
18.4513784
21
40.813493
0
LINE
8
DEFAULT_255_2_778
10
18.4513784
20
40.813493
11
17.8512784
21
40.813493
0
LINE
8
DEFAULT_255_2_778
10
17.8512784
20
40.443593
11
18.4513784
21
40.443593
0
LINE
8
DEFAULT_255_2_778
10
18.4513784
20
40.443593
11
18.4513784
21
40.213693
0
LINE
8
DEFAULT_255_2_778
10
18.4513784
20
40.213693
11
17.8512784
21
40.213693
0
LINE
8
DEFAULT_255_2_778
10
17.8512784
20
39.843793
11
18.4513784
21
39.843793
0
LINE
8
DEFAULT_255_2_778
10
18.4513784
20
39.843793
11
18.4513784
21
39.613893
0
LINE
8
DEFAULT_255_2_778
10
18.4513784
20
39.613893
11
17.8512784
21
39.613893
0
LINE
8
DEFAULT_255_2_778
10
17.8512784
20
39.243993
11
18.4513784
21
39.243993
0
LINE
8
DEFAULT_255_2_778
10
18.4513784
20
39.243993
11
18.4513784
21
39.014093
0
LINE
8
DEFAULT_255_2_778
10
18.4513784
20
39.014093
11
17.8512784
21
39.014093
0
LINE
8
DEFAULT_255_2_778
10
17.8512784
20
38.644193
11
18.4513784
21
38.644193
0
LINE
8
DEFAULT_255_2_778
10
18.4513784
20
38.644193
11
18.4513784
21
38.414293
0
LINE
8
DEFAULT_255_2_778
10
18.4513784
20
38.414293
11
17.8512784
21
38.414293
0
LINE
8
DEFAULT_255_2_778
10
17.8512784
20
28.444293
11
18.4513784
21
28.444293
0
LINE
8
DEFAULT_255_2_778
10
18.4513784
20
28.444293
11
18.4513784
21
28.214293
0
LINE
8
DEFAULT_255_2_778
10
18.4513784
20
28.214293
11
17.8512784
21
28.214293
0
LINE
8
DEFAULT_255_2_778
10
17.8512784
20
29.044293
11
18.4513784
21
29.044293
0
LINE
8
DEFAULT_255_2_778
10
18.4513784
20
29.044293
11
18.4513784
21
28.814393
0
LINE
8
DEFAULT_255_2_778
10
18.4513784
20
28.814393
11
17.8512784
21
28.814393
0
LINE
8
DEFAULT_255_2_778
10
17.8512784
20
29.644393
11
18.4513784
21
29.644393
0
LINE
8
DEFAULT_255_2_778
10
18.4513784
20
29.644393
11
18.4513784
21
29.414493
0
LINE
8
DEFAULT_255_2_778
10
18.4513784
20
29.414493
11
17.8512784
21
29.414493
0
LINE
8
DEFAULT_255_2_778
10
17.8512784
20
30.244493
11
18.4513784
21
30.244493
0
LINE
8
DEFAULT_255_2_778
10
18.4513784
20
30.244493
11
18.4513784
21
30.014593
0
LINE
8
DEFAULT_255_2_778
10
18.4513784
20
30.014593
11
17.8512784
21
30.014593
0
LINE
8
DEFAULT_255_2_778
10
17.8512784
20
30.844593
11
18.4513784
21
30.844593
0
LINE
8
DEFAULT_255_2_778
10
18.4513784
20
30.844593
11
18.4513784
21
30.614593
0
LINE
8
DEFAULT_255_2_778
10
18.4513784
20
30.614593
11
17.8512784
21
30.614593
0
LINE
8
DEFAULT_255_2_778
10
17.8512784
20
31.444593
11
18.4513784
21
31.444593
0
LINE
8
DEFAULT_255_2_778
10
18.4513784
20
31.444593
11
18.4513784
21
31.214693
0
LINE
8
DEFAULT_255_2_778
10
18.4513784
20
31.214693
11
17.8512784
21
31.214693
0
LINE
8
DEFAULT_255_2_778
10
17.8512784
20
32.044693
11
18.4513784
21
32.044693
0
LINE
8
DEFAULT_255_2_778
10
18.4513784
20
32.044693
11
18.4513784
21
31.814793
0
LINE
8
DEFAULT_255_2_778
10
18.4513784
20
31.814793
11
17.8512784
21
31.814793
0
LINE
8
DEFAULT_255_2_778
10
17.8512784
20
32.644793
11
18.4513784
21
32.644793
0
LINE
8
DEFAULT_255_2_778
10
18.4513784
20
32.644793
11
18.4513784
21
32.414893
0
LINE
8
DEFAULT_255_2_778
10
18.4513784
20
32.414893
11
17.8512784
21
32.414893
0
LINE
8
DEFAULT_255_2_778
10
17.8512784
20
33.244893
11
18.4513784
21
33.244893
0
LINE
8
DEFAULT_255_2_778
10
18.4513784
20
33.244893
11
18.4513784
21
33.014893
0
LINE
8
DEFAULT_255_2_778
10
18.4513784
20
33.014893
11
17.8512784
21
33.014893
0
LINE
8
DEFAULT_255_2_778
10
17.8512784
20
33.844893
11
18.4513784
21
33.844893
0
LINE
8
DEFAULT_255_2_778
10
18.4513784
20
33.844893
11
18.4513784
21
33.614993
0
LINE
8
DEFAULT_255_2_778
10
18.4513784
20
33.614993
11
17.8512784
21
33.614993
0
LINE
8
DEFAULT_255_2_778
10
17.8512784
20
34.444993
11
18.4513784
21
34.444993
0
LINE
8
DEFAULT_255_2_778
10
18.4513784
20
34.444993
11
18.4513784
21
34.215093
0
LINE
8
DEFAULT_255_2_778
10
18.4513784
20
34.215093
11
17.8512784
21
34.215093
0
LINE
8
DEFAULT_255_2_778
10
17.8512784
20
35.045093
11
18.4513784
21
35.045093
0
LINE
8
DEFAULT_255_2_778
10
18.4513784
20
35.045093
11
18.4513784
21
34.815193
0
LINE
8
DEFAULT_255_2_778
10
18.4513784
20
34.815193
11
17.8512784
21
34.815193
0
LINE
8
DEFAULT_255_2_778
10
17.8512784
20
35.645193
11
18.4513784
21
35.645193
0
LINE
8
DEFAULT_255_2_778
10
18.4513784
20
35.645193
11
18.4513784
21
35.415193
0
LINE
8
DEFAULT_255_2_778
10
18.4513784
20
35.415193
11
17.8512784
21
35.415193
0
LINE
8
DEFAULT_255_2_778
10
17.8512784
20
36.245193
11
18.4513784
21
36.245193
0
LINE
8
DEFAULT_255_2_778
10
18.4513784
20
36.245193
11
18.4513784
21
36.015293
0
LINE
8
DEFAULT_255_2_778
10
18.4513784
20
36.015293
11
17.8512784
21
36.015293
0
LINE
8
DEFAULT_255_2_778
10
17.8512784
20
36.845293
11
18.4513784
21
36.845293
0
LINE
8
DEFAULT_255_2_778
10
18.4513784
20
36.845293
11
18.4513784
21
36.615393
0
LINE
8
DEFAULT_255_2_778
10
18.4513784
20
36.615393
11
17.8512784
21
36.615393
0
LINE
8
DEFAULT_255_2_778
10
17.8512784
20
37.445393
11
18.4513784
21
37.445393
0
LINE
8
DEFAULT_255_2_778
10
18.4513784
20
37.445393
11
18.4513784
21
37.215493
0
LINE
8
DEFAULT_255_2_778
10
18.4513784
20
37.215493
11
17.8512784
21
37.215493
0
LINE
8
DEFAULT_255_2_778
10
17.8512784
20
38.045493
11
18.4513784
21
38.045493
0
LINE
8
DEFAULT_255_2_778
10
18.4513784
20
38.045493
11
18.4513784
21
37.815493
0
LINE
8
DEFAULT_255_2_778
10
18.4513784
20
37.815493
11
17.8512784
21
37.815493
0
LINE
8
DEFAULT_255_2_778
10
17.8512784
20
18.245593
11
18.4513784
21
18.245593
0
LINE
8
DEFAULT_255_2_778
10
18.4513784
20
18.245593
11
18.4513784
21
18.015693
0
LINE
8
DEFAULT_255_2_778
10
18.4513784
20
18.015693
11
17.8512784
21
18.015693
0
LINE
8
DEFAULT_255_2_778
10
17.8512784
20
18.845693
11
18.4513784
21
18.845693
0
LINE
8
DEFAULT_255_2_778
10
18.4513784
20
18.845693
11
18.4513784
21
18.615793
0
LINE
8
DEFAULT_255_2_778
10
18.4513784
20
18.615793
11
17.8512784
21
18.615793
0
LINE
8
DEFAULT_255_2_778
10
17.8512784
20
19.445793
11
18.4513784
21
19.445793
0
LINE
8
DEFAULT_255_2_778
10
18.4513784
20
19.445793
11
18.4513784
21
19.215893
0
LINE
8
DEFAULT_255_2_778
10
18.4513784
20
19.215893
11
17.8512784
21
19.215893
0
LINE
8
DEFAULT_255_2_778
10
17.8512784
20
20.045893
11
18.4513784
21
20.045893
0
LINE
8
DEFAULT_255_2_778
10
18.4513784
20
20.045893
11
18.4513784
21
19.815893
0
LINE
8
DEFAULT_255_2_778
10
18.4513784
20
19.815893
11
17.8512784
21
19.815893
0
LINE
8
DEFAULT_255_2_778
10
17.8512784
20
20.645893
11
18.4513784
21
20.645893
0
LINE
8
DEFAULT_255_2_778
10
18.4513784
20
20.645893
11
18.4513784
21
20.415993
0
LINE
8
DEFAULT_255_2_778
10
18.4513784
20
20.415993
11
17.8512784
21
20.415993
0
LINE
8
DEFAULT_255_2_778
10
17.8512784
20
21.245993
11
18.4513784
21
21.245993
0
LINE
8
DEFAULT_255_2_778
10
18.4513784
20
21.245993
11
18.4513784
21
21.016093
0
LINE
8
DEFAULT_255_2_778
10
18.4513784
20
21.016093
11
17.8512784
21
21.016093
0
LINE
8
DEFAULT_255_2_778
10
17.8512784
20
21.846093
11
18.4513784
21
21.846093
0
LINE
8
DEFAULT_255_2_778
10
18.4513784
20
21.846093
11
18.4513784
21
21.616193
0
LINE
8
DEFAULT_255_2_778
10
18.4513784
20
21.616193
11
17.8512784
21
21.616193
0
LINE
8
DEFAULT_255_2_778
10
17.8512784
20
22.446193
11
18.4513784
21
22.446193
0
LINE
8
DEFAULT_255_2_778
10
18.4513784
20
22.446193
11
18.4513784
21
22.216193
0
LINE
8
DEFAULT_255_2_778
10
18.4513784
20
22.216193
11
17.8512784
21
22.216193
0
LINE
8
DEFAULT_255_2_778
10
17.8512784
20
23.046193
11
18.4513784
21
23.046193
0
LINE
8
DEFAULT_255_2_778
10
18.4513784
20
23.046193
11
18.4513784
21
22.816293
0
LINE
8
DEFAULT_255_2_778
10
18.4513784
20
22.816293
11
17.8512784
21
22.816293
0
LINE
8
DEFAULT_255_2_778
10
17.8512784
20
23.646293
11
18.4513784
21
23.646293
0
LINE
8
DEFAULT_255_2_778
10
18.4513784
20
23.646293
11
18.4513784
21
23.416393
0
LINE
8
DEFAULT_255_2_778
10
18.4513784
20
23.416393
11
17.8512784
21
23.416393
0
LINE
8
DEFAULT_255_2_778
10
17.8512784
20
24.246393
11
18.4513784
21
24.246393
0
LINE
8
DEFAULT_255_2_778
10
18.4513784
20
24.246393
11
18.4513784
21
24.016493
0
LINE
8
DEFAULT_255_2_778
10
18.4513784
20
24.016493
11
17.8512784
21
24.016493
0
LINE
8
DEFAULT_255_2_778
10
17.8512784
20
24.846493
11
18.4513784
21
24.846493
0
LINE
8
DEFAULT_255_2_778
10
18.4513784
20
24.846493
11
18.4513784
21
24.616493
0
LINE
8
DEFAULT_255_2_778
10
18.4513784
20
24.616493
11
17.8512784
21
24.616493
0
LINE
8
DEFAULT_255_2_778
10
17.8512784
20
25.446493
11
18.4513784
21
25.446493
0
LINE
8
DEFAULT_255_2_778
10
18.4513784
20
25.446493
11
18.4513784
21
25.216593
0
LINE
8
DEFAULT_255_2_778
10
18.4513784
20
25.216593
11
17.8512784
21
25.216593
0
LINE
8
DEFAULT_255_2_778
10
17.8512784
20
26.046593
11
18.4513784
21
26.046593
0
LINE
8
DEFAULT_255_2_778
10
18.4513784
20
26.046593
11
18.4513784
21
25.816693
0
LINE
8
DEFAULT_255_2_778
10
18.4513784
20
25.816693
11
17.8512784
21
25.816693
0
LINE
8
DEFAULT_255_2_778
10
17.8512784
20
26.646693
11
18.4513784
21
26.646693
0
LINE
8
DEFAULT_255_2_778
10
18.4513784
20
26.646693
11
18.4513784
21
26.416793
0
LINE
8
DEFAULT_255_2_778
10
18.4513784
20
26.416793
11
17.8512784
21
26.416793
0
LINE
8
DEFAULT_255_2_778
10
17.8512784
20
27.246793
11
18.4513784
21
27.246793
0
LINE
8
DEFAULT_255_2_778
10
18.4513784
20
27.246793
11
18.4513784
21
27.016793
0
LINE
8
DEFAULT_255_2_778
10
18.4513784
20
27.016793
11
17.8512784
21
27.016793
0
LINE
8
DEFAULT_255_2_778
10
17.8512784
20
27.846793
11
18.4513784
21
27.846793
0
LINE
8
DEFAULT_255_2_778
10
18.4513784
20
27.846793
11
18.4513784
21
27.616893
0
LINE
8
DEFAULT_255_2_778
10
18.4513784
20
27.616893
11
17.8512784
21
27.616893
0
LINE
8
DEFAULT_255_2_778
10
12.3513784
20
16.008093
11
12.3513784
21
15.398193
0
LINE
8
DEFAULT_255_2_778
10
12.3513784
20
15.398193
11
13.5012784
21
15.398193
0
LINE
8
DEFAULT_255_2_778
10
17.9512784
20
15.398193
11
17.9512784
21
16.008093
0
LINE
8
DEFAULT_255_2_778
10
17.9512784
20
16.008093
11
16.8013784
21
16.008093
0
LINE
8
DEFAULT_255_2_778
10
13.5012784
20
14.798093
11
13.5012784
21
16.608093
0
LINE
8
DEFAULT_255_2_778
10
16.8011784
20
14.798093
11
16.8011784
21
16.608093
0
LINE
8
DEFAULT_255_2_778
10
17.9509784
20
16.008093
11
18.5510784
21
16.608093
0
LINE
8
DEFAULT_255_2_778
10
18.5510784
20
16.608093
11
11.7512784
21
16.608093
0
LINE
8
DEFAULT_255_2_778
10
11.7512784
20
16.608093
11
12.3513784
21
16.008093
0
LINE
8
DEFAULT_255_2_778
10
12.3513784
20
16.008093
11
13.5012784
21
16.008093
0
LINE
8
DEFAULT_255_2_778
10
13.8012784
20
14.027893
11
16.5013784
21
14.027893
0
LINE
8
DEFAULT_255_2_778
10
16.7513784
20
16.607893
11
16.7513784
21
14.747793
0
LINE
8
DEFAULT_255_2_778
10
16.7513784
20
14.747793
11
13.5512784
21
14.747793
0
LINE
8
DEFAULT_255_2_778
10
13.5512784
20
14.747793
11
13.5512784
21
16.607893
0
LINE
8
DEFAULT_255_2_778
10
14.0012784
20
14.747793
11
14.0012784
21
14.677693
0
LINE
8
DEFAULT_255_2_778
10
14.1512784
20
14.527693
11
16.1512784
21
14.527693
0
LINE
8
DEFAULT_255_2_778
10
16.3013784
20
14.677693
11
16.3013784
21
14.747793
0
LINE
8
DEFAULT_255_2_778
10
11.7512784
20
14.997893
11
11.9512784
21
14.797893
0
LINE
8
DEFAULT_255_2_778
10
11.9512784
20
14.797893
11
13.5512784
21
14.797893
0
LINE
8
DEFAULT_255_2_778
10
16.7513784
20
14.797893
11
18.3512784
21
14.797893
0
LINE
8
DEFAULT_255_2_778
10
18.3512784
20
14.797893
11
18.5513784
21
14.997893
0
LINE
8
DEFAULT_255_2_778
10
18.5513784
20
14.597793
11
16.6513784
21
14.597793
0
LINE
8
DEFAULT_255_2_778
10
13.6512784
20
14.597793
11
11.7512784
21
14.597793
0
LINE
8
DEFAULT_255_2_778
10
11.8512784
20
14.897893
11
12.3513784
21
15.397893
0
LINE
8
DEFAULT_255_2_778
10
18.4513784
20
14.897893
11
17.9512784
21
15.397893
0
LINE
8
DEFAULT_255_2_778
10
17.9512784
20
15.397893
11
16.8013784
21
15.397893
0
LINE
8
DEFAULT_255_2_778
10
12.3513784
20
43.647993
11
11.7512784
21
43.047893
0
LINE
8
DEFAULT_255_2_778
10
11.7512784
20
43.047893
11
18.5513784
21
43.047893
0
LINE
8
DEFAULT_255_2_778
10
18.5513784
20
43.047893
11
17.9512784
21
43.647993
0
LINE
8
DEFAULT_255_2_778
10
17.9512784
20
43.647993
11
17.9512784
21
44.257893
0
LINE
8
DEFAULT_255_2_778
10
17.9512784
20
44.257893
11
16.8013784
21
44.257893
0
LINE
8
DEFAULT_255_2_778
10
14.0012784
20
44.907993
11
14.0012784
21
44.978093
0
LINE
8
DEFAULT_255_2_778
10
14.1512784
20
45.128093
11
16.1512784
21
45.128093
0
LINE
8
DEFAULT_255_2_778
10
16.3013784
20
44.978093
11
16.3013784
21
44.907993
0
LINE
8
DEFAULT_255_2_778
10
13.5512784
20
43.047893
11
13.5512784
21
44.907993
0
LINE
8
DEFAULT_255_2_778
10
13.5512784
20
44.907993
11
16.7510784
21
44.907993
0
LINE
8
DEFAULT_255_2_778
10
16.7510784
20
44.907993
11
16.7510784
21
43.047893
0
LINE
8
DEFAULT_255_2_778
10
13.8009784
20
45.627893
11
16.5010784
21
45.627893
0
LINE
8
DEFAULT_255_2_778
10
18.5510784
20
45.057993
11
16.6510784
21
45.057993
0
LINE
8
DEFAULT_255_2_778
10
13.6509784
20
45.057993
11
11.7509784
21
45.057993
0
LINE
8
DEFAULT_255_2_778
10
18.5510784
20
44.657893
11
18.3510784
21
44.857993
0
LINE
8
DEFAULT_255_2_778
10
18.3510784
20
44.857993
11
16.7510784
21
44.857993
0
LINE
8
DEFAULT_255_2_778
10
13.5509784
20
44.857993
11
11.9510784
21
44.857993
0
LINE
8
DEFAULT_255_2_778
10
11.9510784
20
44.857993
11
11.7509784
21
44.657893
0
LINE
8
DEFAULT_255_2_778
10
13.5009784
20
43.047893
11
13.5009784
21
44.857993
0
LINE
8
DEFAULT_255_2_778
10
16.8008784
20
43.047893
11
16.8008784
21
44.857993
0
LINE
8
DEFAULT_255_2_778
10
18.4507784
20
44.757893
11
17.9507784
21
44.257893
0
LINE
8
DEFAULT_255_2_778
10
13.5006784
20
44.257893
11
12.3508784
21
44.257893
0
LINE
8
DEFAULT_255_2_778
10
16.8008784
20
43.647993
11
17.9507784
21
43.647993
0
LINE
8
DEFAULT_255_2_778
10
11.8507784
20
44.757893
11
12.3508784
21
44.257893
0
LINE
8
DEFAULT_255_2_778
10
12.3508784
20
44.257893
11
12.3508784
21
43.647993
0
LINE
8
DEFAULT_255_2_778
10
12.3508784
20
43.647993
11
13.5006784
21
43.647993
0
LINE
8
DEFAULT_255_2_778
10
23.6511784
20
7.628193
11
23.6511784
21
3.328193
0
LINE
8
DEFAULT_255_2_778
10
23.6511784
20
3.328193
11
23.9011784
21
3.078093
0
LINE
8
DEFAULT_255_2_778
10
9.1011784
20
6.027993
11
16.9011784
21
6.027993
0
LINE
8
DEFAULT_255_2_778
10
16.9011784
20
6.027993
11
16.9011784
21
1.327893
0
LINE
8
DEFAULT_255_2_778
10
16.9011784
20
1.327893
11
24.4009784
21
1.327893
0
LINE
8
DEFAULT_255_2_778
10
24.4009784
20
1.327893
11
23.9009784
21
1.827993
0
LINE
8
DEFAULT_255_2_778
10
23.9009784
20
1.827993
11
17.4011784
21
1.827993
0
LINE
8
DEFAULT_255_2_778
10
17.4011784
20
1.827993
11
17.4011784
21
6.527993
0
LINE
8
DEFAULT_255_2_778
10
17.4011784
20
6.527993
11
9.1011784
21
6.527993
0
LINE
8
DEFAULT_255_2_778
10
7.1012784
20
8.527993
11
7.1012784
21
51.128093
0
LINE
8
DEFAULT_255_2_778
10
9.1011784
20
53.127993
11
21.2011784
21
53.127993
0
LINE
8
DEFAULT_255_2_778
10
23.2011784
20
51.128093
11
23.2011784
21
7.628193
0
LINE
8
DEFAULT_255_2_778
10
23.2011784
20
7.628193
11
24.4009784
21
7.628193
0
LINE
8
DEFAULT_255_2_778
10
24.4009784
20
7.628193
11
24.4009784
21
1.328193
0
LINE
8
DEFAULT_255_2_778
10
23.9011784
20
2.327993
11
17.4011784
21
2.327993
0
LINE
8
DEFAULT_255_2_778
10
17.6512784
20
2.127993
11
17.4011784
21
2.127993
0
LINE
8
DEFAULT_255_2_778
10
6.6011784
20
8.527993
11
6.6011784
21
51.128093
0
LINE
8
DEFAULT_255_2_778
10
9.1011784
20
53.628093
11
21.2011784
21
53.628093
0
LINE
8
DEFAULT_255_2_778
10
23.9011784
20
7.628193
11
23.9011784
21
1.828193
0
ARC
8
DEFAULT_255_2_778
10
9.0955991
20
8.5251963
40
2.4944108
50
179.9364769
51
200.7914979
0
ARC
8
DEFAULT_255_2_778
10
9.103707
20
8.5313241
40
2.5041677
50
200.8567219
51
259.5425896
0
ARC
8
DEFAULT_255_2_778
10
9.1002628
20
8.5425157
40
2.514554
50
259.6660508
51
270.0211234
0
ARC
8
DEFAULT_255_2_778
10
15.1511432
20
5.8273981
40
1.5003637
50
27.8610656
51
89.9982186
0
ARC
8
DEFAULT_255_2_778
10
15.1511741
20
5.8276675
40
1.5000943
50
89.9993983
51
152.1451319
0
ARC
8
DEFAULT_255_2_778
10
21.2069337
20
51.1308147
40
2.4942577
50
359.9367623
51
20.7921437
0
ARC
8
DEFAULT_255_2_778
10
21.1985831
20
51.12461
40
2.5042687
50
20.8570372
51
79.540934
0
ARC
8
DEFAULT_255_2_778
10
21.2021136
20
51.1136784
40
2.5143836
50
79.6652679
51
90.0210513
0
LINE
8
DEFAULT_255_2_778
10
23.7011898
20
51.1280618
11
23.7011898
21
7.6278618
0
LINE
8
DEFAULT_255_2_778
10
17.6512898
20
1.8279618
11
17.6512898
21
2.3279618
0
ARC
8
DEFAULT_255_2_778
10
9.0986918
20
51.1332851
40
2.4947862
50
89.9405721
51
110.7925967
0
ARC
8
DEFAULT_255_2_778
10
9.1046607
20
51.1255028
40
2.504182
50
110.8570611
51
169.5431969
0
ARC
8
DEFAULT_255_2_778
10
9.1160913
20
51.1289002
40
2.5148119
50
169.6665817
51
180.0211954
0
ARC
8
DEFAULT_255_2_778
10
8.8499083
20
15.3743411
40
0.5987304
50
89.8687833
51
180.1312167
0
ARC
8
DEFAULT_255_2_778
10
8.8513099
20
15.3730004
40
0.6000695
50
359.9970872
51
90.002908
0
ARC
8
DEFAULT_255_2_778
10
8.8513314
20
15.3730179
40
0.600048
50
269.9950382
51
359.9954133
0
ARC
8
DEFAULT_255_2_778
10
8.8490756
20
15.3509049
40
0.5779392
50
269.9949379
51
270.2184925
0
ARC
8
DEFAULT_255_2_778
10
8.8490223
20
15.3708182
40
0.5978526
50
225.000371
51
270.0002072
0
ARC
8
DEFAULT_255_2_778
10
8.8490451
20
15.3708198
40
0.5978697
50
180.0097178
51
224.9989378
0
ARC
8
DEFAULT_255_2_778
10
8.8272996
20
15.3707694
40
0.5761244
50
179.7811582
51
180.0050702
0
ARC
8
DEFAULT_255_2_778
10
8.8512585
20
15.3728855
40
0.445079
50
119.9910225
51
179.9891282
0
ARC
8
DEFAULT_255_2_778
10
8.8512129
20
15.3732841
40
0.4447108
50
89.9914192
51
120.0116057
0
ARC
8
DEFAULT_255_2_778
10
8.8513461
20
15.3732841
40
0.4447108
50
59.9883943
51
90.0085808
0
ARC
8
DEFAULT_255_2_778
10
8.8512941
20
15.3729971
40
0.4449853
50
359.9965034
51
60.0010896
0
ARC
8
DEFAULT_255_2_778
10
8.8512579
20
15.3729914
40
0.4450216
50
270.002777
51
359.9972295
0
ARC
8
DEFAULT_255_2_778
10
8.8512864
20
15.3730767
40
0.4451068
50
180.0137492
51
269.999112
0
ARC
8
DEFAULT_255_2_778
10
8.8506537
20
15.3735956
40
0.2443751
50
89.8532922
51
180.1467078
0
ARC
8
DEFAULT_255_2_778
10
8.8518415
20
15.3735318
40
0.2444387
50
359.8682836
51
90.1317329
0
ARC
8
DEFAULT_255_2_778
10
8.8517779
20
15.3724716
40
0.2445021
50
269.883202
51
0.116763
0
ARC
8
DEFAULT_255_2_778
10
8.8507175
20
15.3724079
40
0.2444387
50
179.8682753
51
270.131713
0
ARC
8
DEFAULT_255_2_778
10
21.4499721
20
44.2842773
40
0.5987941
50
89.8749053
51
180.1250994
0
ARC
8
DEFAULT_255_2_778
10
21.4512314
20
44.2830219
40
0.600048
50
359.9950382
51
89.9954133
0
ARC
8
DEFAULT_255_2_778
10
21.4512314
20
44.2829179
40
0.600048
50
270.0045867
51
0.0049618
0
ARC
8
DEFAULT_255_2_778
10
21.4493302
20
44.3153592
40
0.6324923
50
270.0060923
51
270.1765788
0
ARC
8
DEFAULT_255_2_778
10
21.4493326
20
44.2812302
40
0.5983633
50
225.0072567
51
270.0062071
0
ARC
8
DEFAULT_255_2_778
10
21.4490451
20
44.2808198
40
0.5978697
50
180.0097178
51
224.9989378
0
ARC
8
DEFAULT_255_2_778
10
21.4272996
20
44.2807694
40
0.5761244
50
179.7811582
51
180.0050702
0
ARC
8
DEFAULT_255_2_778
10
21.4512222
20
44.2829272
40
0.4450427
50
89.9926285
51
179.9944975
0
ARC
8
DEFAULT_255_2_778
10
21.4513221
20
44.2830125
40
0.4449574
50
359.9945129
51
90.0054871
0
ARC
8
DEFAULT_255_2_778
10
21.4513221
20
44.2829273
40
0.4449574
50
269.9945129
51
0.0054871
0
ARC
8
DEFAULT_255_2_778
10
21.4512222
20
44.2830126
40
0.4450427
50
180.0055025
51
270.0073715
0
ARC
8
DEFAULT_255_2_778
10
21.4507175
20
44.2835319
40
0.2444387
50
89.8682836
51
180.1317329
0
ARC
8
DEFAULT_255_2_778
10
21.4517778
20
44.2834682
40
0.2445022
50
359.8832289
51
90.116778
0
ARC
8
DEFAULT_255_2_778
10
21.4517777
20
44.2824717
40
0.2445023
50
269.8832536
51
0.116758
0
ARC
8
DEFAULT_255_2_778
10
21.4507175
20
44.2824078
40
0.2444386
50
179.8682472
51
270.1317246
0
ARC
8
DEFAULT_255_2_778
10
0.6511313
20
66.8783348
40
0.3001482
50
292.5178588
51
0.0066959
0
LINE
8
DEFAULT_255_2_778
10
13.9013795
20
6.6570699
11
13.9013795
21
6.5279699
0
LINE
8
DEFAULT_255_2_778
10
16.4011795
20
6.5279699
11
16.4011795
21
6.6570699
0
LINE
8
DEFAULT_255_2_778
10
17.4012795
20
6.5279699
11
16.9011795
21
6.0279699
0
LINE
8
DEFAULT_255_2_778
10
17.4012795
20
1.8281699
11
16.9011795
21
1.3281699
0
LINE
8
DEFAULT_255_2_778
10
8.2511795
20
15.3729699
11
8.2511795
21
15.3729699
0
LINE
8
DEFAULT_255_2_778
10
8.4061795
20
15.3729699
11
8.4061795
21
15.3729699
0
LINE
8
DEFAULT_255_2_778
10
8.6062795
20
15.3729699
11
8.6062795
21
15.3729699
0
LINE
8
DEFAULT_255_2_778
10
8.9647795
20
14.7842699
11
8.6210795
21
14.9922699
0
LINE
8
DEFAULT_255_2_778
10
8.6210795
20
15.7537699
11
8.9647795
21
15.9616699
0
LINE
8
DEFAULT_255_2_778
10
20.8511795
20
44.2829699
11
20.8511795
21
44.2829699
0
LINE
8
DEFAULT_255_2_778
10
21.0061795
20
44.2829699
11
21.0061795
21
44.2829699
0
LINE
8
DEFAULT_255_2_778
10
21.2062795
20
44.2829699
11
21.2062795
21
44.2829699
0
LINE
8
DEFAULT_255_2_778
10
21.3377795
20
44.8716699
11
21.6814795
21
44.6636699
0
LINE
8
DEFAULT_255_2_778
10
21.6814795
20
43.9022699
11
21.3377795
21
43.6942699
0
LINE
8
DEFAULT_255_2_778
10
0.5512795
20
66.5783699
11
0.5512795
21
68.0782699
0
LINE
8
DEFAULT_255_2_778
10
0.9512795
20
68.0782699
11
0.9512795
21
66.8783699
0
LINE
8
DEFAULT_255_2_778
10
0.1512512
20
68.0783039
11
14.1511512
21
68.0783039
0
LINE
8
DEFAULT_255_2_778
10
14.1511512
20
68.0783039
11
14.1511512
21
76.0782039
0
LINE
8
DEFAULT_255_2_778
10
14.1511512
20
76.0782039
11
0.1512512
21
76.0782039
0
LINE
8
DEFAULT_255_2_778
10
0.1512512
20
77.0784039
11
14.1511512
21
77.0784039
0
LINE
8
DEFAULT_255_2_778
10
14.1511512
20
77.0784039
11
14.1511512
21
85.0783039
0
LINE
8
DEFAULT_255_2_778
10
14.1511512
20
85.0783039
11
0.1512512
21
85.0783039
0
ARC
8
DEFAULT_255_2_778
10
1.2555673
20
87.8285857
40
0.3002965
50
175.280891
51
180.0003388
0
ARC
8
DEFAULT_255_2_778
10
1.2556954
20
87.8285797
40
0.3004248
50
179.9992019
51
222.6098762
0
ARC
8
DEFAULT_255_2_778
10
1.2555623
20
87.8290089
40
0.3006175
50
222.6872565
51
270.0050429
0
ARC
8
DEFAULT_255_2_778
10
14.1524633
20
86.5319549
40
0.996437
50
48.3467613
51
90.061789
0
ARC
8
DEFAULT_255_2_778
10
14.1535703
20
86.5294257
40
0.9975941
50
1.731648
51
48.4908105
0
ARC
8
DEFAULT_255_2_778
10
14.1327947
20
86.528314
40
1.0183939
50
359.9987247
51
1.7588418
0
ARC
8
DEFAULT_255_2_778
10
14.1547883
20
67.5768267
40
0.9964016
50
318.3643392
51
0.0842224
0
ARC
8
DEFAULT_255_2_778
10
14.1523579
20
67.5756674
40
0.9974511
50
271.7413852
51
318.5068638
0
ARC
8
DEFAULT_255_2_778
10
14.1512169
20
67.5965238
40
1.0183326
50
270.0096674
51
271.7698896
0
ARC
8
DEFAULT_255_2_778
10
0.4513836
20
66.2779966
40
0.3001949
50
90.0371877
51
179.9819077
0
LINE
8
DEFAULT_255_2_778
10
1.2555888
20
87.5283914
11
14.1513888
21
87.5283914
0
LINE
8
DEFAULT_255_2_778
10
15.1511888
20
86.5282914
11
15.1511888
21
67.5782914
0
LINE
8
DEFAULT_255_2_778
10
14.1513888
20
66.5781914
11
0.4511888
21
66.5781914
0
ARC
8
DEFAULT_255_2_778
10
1.5549569
20
85.5732661
40
1.406039
50
115.4268384
51
135.5835711
0
ARC
8
DEFAULT_255_2_778
10
1.5516102
20
85.5778342
40
1.0004479
50
126.8970296
51
179.9843113
0
LINE
8
DEFAULT_255_2_778
10
0.1511625
20
87.8281082
11
0.9544625
21
87.8281082
0
LINE
8
DEFAULT_255_2_778
10
0.9512625
20
77.0783082
11
0.9512625
21
76.0785082
0
LINE
8
DEFAULT_255_2_778
10
0.5511625
20
76.0785082
11
0.5511625
21
77.0783082
0
LINE
8
DEFAULT_255_2_778
10
0.1511625
20
86.8282082
11
0.5511625
21
86.8282082
0
LINE
8
DEFAULT_255_2_778
10
0.151175
20
86.0282
11
0.551175
21
86.0282
0
ENDSEC
0
EOF