0
SECTION
2
HEADER
9
$MEASUREMENT
70
1
0
ENDSEC
0
SECTION
2
TABLES
0
TABLE
2
LTYPE
0
LTYPE
72
65
70
64
2
CONTINUOUS
3
______
73
0
40
0
0
ENDTAB
0
TABLE
2
LAYER
0
LAYER
2
DEFAULT_255_2_778
70
0
62
255
6
CONTINUOUS
0
ENDTAB
0
ENDSEC
0
SECTION
2
ENTITIES
0
LINE
8
DEFAULT_255_2_778
10
13.5182951
20
1.5565238
11
27.9697951
21
1.5565238
0
LINE
8
DEFAULT_255_2_778
10
27.6046951
20
3.5564238
11
27.9697951
21
3.5564238
0
LINE
8
DEFAULT_255_2_778
10
27.6046951
20
72.8913238
11
27.9697951
21
72.8913238
0
LINE
8
DEFAULT_255_2_778
10
13.5182951
20
74.8913238
11
27.9697951
21
74.8913238
0
LINE
8
DEFAULT_255_2_778
10
6.8269951
20
81.3180238
11
6.8269951
21
80.9563238
0
LINE
8
DEFAULT_255_2_778
10
6.8269951
20
80.9563238
11
6.4657951
21
80.9563238
0
LINE
8
DEFAULT_255_2_778
10
6.4657951
20
80.9563238
11
6.4657951
21
81.3180238
0
LINE
8
DEFAULT_255_2_778
10
6.4657951
20
81.3180238
11
6.8269951
21
81.3180238
0
LINE
8
DEFAULT_255_2_778
10
8.8364951
20
79.5638238
11
8.8364951
21
86.5639238
0
LINE
8
DEFAULT_255_2_778
10
8.8364951
20
86.5639238
11
8.5363951
21
86.5639238
0
LINE
8
DEFAULT_255_2_778
10
8.5363951
20
86.5639238
11
8.5363951
21
79.5638238
0
LINE
8
DEFAULT_255_2_778
10
8.5363951
20
79.5638238
11
8.8364951
21
79.5638238
0
ARC
8
DEFAULT_255_2_778
10
28.1697673
20
89.2564311
40
0.5000716
50
359.9927127
51
44.9890432
0
ARC
8
DEFAULT_255_2_778
10
28.1697925
20
89.2563719
40
0.5000956
50
44.9958871
51
89.9946851
0
ARC
8
DEFAULT_255_2_778
10
0.6698359
20
89.2563706
40
0.5000969
50
89.9996485
51
180.0003515
0
ARC
8
DEFAULT_255_2_778
10
0.6698147
20
0.2564432
40
0.5000758
50
180.008676
51
270.0027763
0
LINE
8
DEFAULT_255_2_778
10
28.1698389
20
89.7564675
11
0.6698389
21
89.7564675
0
LINE
8
DEFAULT_255_2_778
10
0.1697389
20
89.2563675
11
0.1697389
21
0.2563675
0
LINE
8
DEFAULT_255_2_778
10
0.6698389
20
-0.2436325
11
28.6698389
21
-0.2436325
0
LINE
8
DEFAULT_255_2_778
10
28.6698389
20
-0.2436325
11
28.6698389
21
89.2563675
0
ARC
8
DEFAULT_255_2_778
10
9.4698452
20
0.2563334
40
0.5000969
50
179.9996485
51
270.0003515
0
ARC
8
DEFAULT_255_2_778
10
9.4694957
20
76.0563343
40
0.4997474
50
134.9793514
51
180.0112208
0
ARC
8
DEFAULT_255_2_778
10
9.4698947
20
76.0562408
40
0.5000956
50
90.0053149
51
135.0041129
0
ARC
8
DEFAULT_255_2_778
10
27.6157739
20
73.5747944
40
2.9866601
50
72.6353552
51
80.4585036
0
LINE
8
DEFAULT_255_2_778
10
13.5182483
20
9.8204364
11
9.3835483
21
8.3155364
0
LINE
8
DEFAULT_255_2_778
10
9.3835483
20
8.3155364
11
8.9697483
21
9.4524364
0
LINE
8
DEFAULT_255_2_778
10
8.9697483
20
9.4524364
11
8.9697483
21
0.2563364
0
LINE
8
DEFAULT_255_2_778
10
0.9698483
20
75.6565364
11
0.9698483
21
75.7565364
0
LINE
8
DEFAULT_255_2_778
10
8.9697483
20
55.1729364
11
8.9697483
21
76.0562364
0
LINE
8
DEFAULT_255_2_778
10
9.4698483
20
76.5563364
11
27.7020483
21
76.5563364
0
LINE
8
DEFAULT_255_2_778
10
27.7020483
20
76.5563364
11
27.9073483
21
76.5465364
0
LINE
8
DEFAULT_255_2_778
10
27.9073483
20
76.5465364
11
28.1108483
21
76.5201364
0
ARC
8
DEFAULT_255_2_778
10
27.4696072
20
0.2563119
40
0.5000754
50
270.0086483
51
0.0028154
0
ARC
8
DEFAULT_255_2_778
10
27.4700313
20
76.056474
40
0.4996515
50
359.9727611
51
45.0090046
0
ARC
8
DEFAULT_255_2_778
10
27.4696363
20
76.0562408
40
0.5000956
50
44.9958871
51
89.9946851
0
ARC
8
DEFAULT_255_2_778
10
16.4698569
20
76.0564149
40
0.4999215
50
89.9970476
51
135.0123762
0
ARC
8
DEFAULT_255_2_778
10
16.4695301
20
76.0563343
40
0.4997474
50
134.9793514
51
180.0112208
0
ARC
8
DEFAULT_255_2_778
10
16.4698796
20
0.2566334
40
0.5000969
50
179.9996485
51
270.0003515
0
ARC
8
DEFAULT_255_2_778
10
14.4698796
20
0.2566334
40
0.5000969
50
179.9996485
51
270.0003515
0
LINE
8
DEFAULT_255_2_778
10
13.5181827
20
1.5562364
11
13.5181827
21
74.8913364
0
LINE
8
DEFAULT_255_2_778
10
27.6045827
20
1.5562364
11
27.6045827
21
74.8913364
0
LINE
8
DEFAULT_255_2_778
10
27.9696827
20
0.2563364
11
27.9696827
21
76.0562364
0
LINE
8
DEFAULT_255_2_778
10
0.1696827
20
75.7565364
11
8.9696827
21
75.7565364
0
LINE
8
DEFAULT_255_2_778
10
8.9696827
20
75.6565364
11
0.1696827
21
75.6565364
0
LINE
8
DEFAULT_255_2_778
10
15.9697827
20
76.0562364
11
15.9697827
21
74.8913364
0
LINE
8
DEFAULT_255_2_778
10
13.9697827
20
74.8913364
11
13.9697827
21
76.5563364
0
LINE
8
DEFAULT_255_2_778
10
15.9697827
20
1.5565364
11
15.9697827
21
0.2566364
0
LINE
8
DEFAULT_255_2_778
10
13.9697827
20
0.2566364
11
13.9697827
21
1.5565364
0
ARC
8
DEFAULT_255_2_778
10
13.5985286
20
60.4339206
40
2.6529809
50
91.7288884
51
98.3625731
0
ARC
8
DEFAULT_255_2_778
10
13.5936732
20
60.4913111
40
2.5958254
50
121.7325122
51
143.4439741
0
ARC
8
DEFAULT_255_2_778
10
13.6008196
20
60.4866085
40
2.6043669
50
143.4545108
51
179.972613
0
ARC
8
DEFAULT_255_2_778
10
13.5894353
20
60.4878899
40
2.5929823
50
180.0008087
51
187.4654684
0
ARC
8
DEFAULT_255_2_778
10
13.6033762
20
60.489833
40
2.6070574
50
187.4680013
51
194.0454174
0
ARC
8
DEFAULT_255_2_778
10
13.6214776
20
60.4941245
40
2.6256591
50
194.0404026
51
194.9832862
0
ARC
8
DEFAULT_255_2_778
10
13.592391
20
60.4847541
40
2.5951392
50
194.9494652
51
220.3407847
0
ARC
8
DEFAULT_255_2_778
10
13.5975722
20
60.4880338
40
2.6012116
50
220.3219705
51
262.0414279
0
ARC
8
DEFAULT_255_2_778
10
13.5975555
20
60.4982812
40
2.6113584
50
262.0729203
51
268.2122223
0
ARC
8
DEFAULT_255_2_778
10
13.5965888
20
52.8360903
40
2.630963
50
91.7010992
51
98.3903625
0
ARC
8
DEFAULT_255_2_778
10
13.5940974
20
52.8712587
40
2.5963482
50
121.7363818
51
143.4441247
0
ARC
8
DEFAULT_255_2_778
10
13.6008409
20
52.866855
40
2.6043881
50
143.4546655
51
179.9727712
0
ARC
8
DEFAULT_255_2_778
10
13.5897108
20
52.8681332
40
2.5932578
50
180.000895
51
187.4839557
0
ARC
8
DEFAULT_255_2_778
10
13.6038662
20
52.8701056
40
2.6075496
50
187.4864137
51
194.0466606
0
ARC
8
DEFAULT_255_2_778
10
13.6202196
20
52.8739385
40
2.6243441
50
194.0411823
51
194.9822447
0
ARC
8
DEFAULT_255_2_778
10
13.592432
20
52.8650494
40
2.5952034
50
194.9512639
51
220.3410548
0
ARC
8
DEFAULT_255_2_778
10
13.5976581
20
52.868311
40
2.6012982
50
220.3212965
51
262.039784
0
ARC
8
DEFAULT_255_2_778
10
13.5975546
20
52.8782732
40
2.6111505
50
262.0723064
51
268.212101
0
ARC
8
DEFAULT_255_2_778
10
13.5965888
20
45.2163903
40
2.630963
50
91.7010992
51
98.3903625
0
ARC
8
DEFAULT_255_2_778
10
13.5936732
20
45.2518111
40
2.5958254
50
121.7325122
51
143.4439741
0
ARC
8
DEFAULT_255_2_778
10
13.6008196
20
45.2471085
40
2.6043669
50
143.4545108
51
179.972613
0
ARC
8
DEFAULT_255_2_778
10
13.5894353
20
45.2483899
40
2.5929823
50
180.0008087
51
187.4654684
0
ARC
8
DEFAULT_255_2_778
10
13.6033762
20
45.250333
40
2.6070574
50
187.4680013
51
194.0454174
0
ARC
8
DEFAULT_255_2_778
10
13.6214776
20
45.2546245
40
2.6256591
50
194.0404026
51
194.9832862
0
ARC
8
DEFAULT_255_2_778
10
13.592432
20
45.2453494
40
2.5952034
50
194.9512639
51
220.3410548
0
ARC
8
DEFAULT_255_2_778
10
13.5976581
20
45.248611
40
2.6012982
50
220.3212965
51
262.039784
0
ARC
8
DEFAULT_255_2_778
10
13.5975546
20
45.2585732
40
2.6111505
50
262.0723064
51
268.212101
0
ARC
8
DEFAULT_255_2_778
10
13.5919417
20
30.019743
40
2.5876935
50
91.626614
51
98.4276659
0
ARC
8
DEFAULT_255_2_778
10
13.5936732
20
30.0121111
40
2.5958254
50
121.7325122
51
143.4439741
0
ARC
8
DEFAULT_255_2_778
10
13.6008196
20
30.0074085
40
2.6043669
50
143.4545108
51
179.972613
0
ARC
8
DEFAULT_255_2_778
10
13.5894353
20
30.0086899
40
2.5929823
50
180.0008087
51
187.4654684
0
ARC
8
DEFAULT_255_2_778
10
13.6033762
20
30.010633
40
2.6070574
50
187.4680013
51
194.0454174
0
ARC
8
DEFAULT_255_2_778
10
13.6214776
20
30.0149245
40
2.6256591
50
194.0404026
51
194.9832862
0
ARC
8
DEFAULT_255_2_778
10
13.5925593
20
30.0056034
40
2.5953146
50
194.9495588
51
220.3396005
0
ARC
8
DEFAULT_255_2_778
10
13.5974255
20
30.0085508
40
2.6009316
50
220.3197006
51
262.0438298
0
ARC
8
DEFAULT_255_2_778
10
13.5973118
20
30.0184622
40
2.6107323
50
262.0764077
51
268.2171451
0
ARC
8
DEFAULT_255_2_778
10
13.5965838
20
37.5969468
40
2.6309064
50
91.7010271
51
98.3904345
0
ARC
8
DEFAULT_255_2_778
10
13.5940974
20
37.6320587
40
2.5963482
50
121.7363818
51
143.4441247
0
ARC
8
DEFAULT_255_2_778
10
13.6008409
20
37.627655
40
2.6043881
50
143.4546655
51
179.9727712
0
ARC
8
DEFAULT_255_2_778
10
13.5897108
20
37.6289332
40
2.5932578
50
180.000895
51
187.4839557
0
ARC
8
DEFAULT_255_2_778
10
13.6038662
20
37.6309056
40
2.6075496
50
187.4864137
51
194.0466606
0
ARC
8
DEFAULT_255_2_778
10
13.6202196
20
37.6347385
40
2.6243441
50
194.0411823
51
194.9822447
0
ARC
8
DEFAULT_255_2_778
10
13.592432
20
37.6258494
40
2.5952034
50
194.9512639
51
220.3410548
0
ARC
8
DEFAULT_255_2_778
10
13.5976581
20
37.629111
40
2.6012982
50
220.3212965
51
262.039784
0
ARC
8
DEFAULT_255_2_778
10
13.5975546
20
37.6390732
40
2.6111505
50
262.0723064
51
268.212101
0
ARC
8
DEFAULT_255_2_778
10
13.5965836
20
22.3572485
40
2.6309047
50
91.7010238
51
98.3904356
0
ARC
8
DEFAULT_255_2_778
10
13.5936732
20
22.3926111
40
2.5958254
50
121.7325122
51
143.4439741
0
ARC
8
DEFAULT_255_2_778
10
13.6008196
20
22.3879085
40
2.6043669
50
143.4545108
51
179.972613
0
ARC
8
DEFAULT_255_2_778
10
13.5894353
20
22.3891899
40
2.5929823
50
180.0008087
51
187.4654684
0
ARC
8
DEFAULT_255_2_778
10
13.6033762
20
22.391133
40
2.6070574
50
187.4680013
51
194.0454174
0
ARC
8
DEFAULT_255_2_778
10
13.6214776
20
22.3954245
40
2.6256591
50
194.0404026
51
194.9832862
0
ARC
8
DEFAULT_255_2_778
10
13.592432
20
22.3861494
40
2.5952034
50
194.9512639
51
220.3410548
0
ARC
8
DEFAULT_255_2_778
10
13.5976581
20
22.389411
40
2.6012982
50
220.3212965
51
262.039784
0
ARC
8
DEFAULT_255_2_778
10
13.5975546
20
22.3993732
40
2.6111505
50
262.0723064
51
268.212101
0
ARC
8
DEFAULT_255_2_778
10
13.5957167
20
7.117628
40
2.6306997
50
91.6822676
51
98.3720098
0
ARC
8
DEFAULT_255_2_778
10
13.5936732
20
7.1529111
40
2.5958254
50
121.7325122
51
143.4439741
0
ARC
8
DEFAULT_255_2_778
10
13.6008196
20
7.1482085
40
2.6043669
50
143.4545108
51
179.972613
0
ARC
8
DEFAULT_255_2_778
10
13.5894353
20
7.1494899
40
2.5929823
50
180.0008087
51
187.4654684
0
ARC
8
DEFAULT_255_2_778
10
13.6033762
20
7.151433
40
2.6070574
50
187.4680013
51
194.0454174
0
ARC
8
DEFAULT_255_2_778
10
13.6214776
20
7.1557245
40
2.6256591
50
194.0404026
51
194.9832862
0
ARC
8
DEFAULT_255_2_778
10
13.592391
20
7.1463541
40
2.5951392
50
194.9494652
51
220.3407847
0
ARC
8
DEFAULT_255_2_778
10
13.5975722
20
7.1496338
40
2.6012116
50
220.3219705
51
262.0414279
0
ARC
8
DEFAULT_255_2_778
10
13.5975555
20
7.1598812
40
2.6113584
50
262.0729203
51
268.2122223
0
ARC
8
DEFAULT_255_2_778
10
13.5965785
20
14.7378067
40
2.6308464
50
91.7009505
51
98.3905108
0
ARC
8
DEFAULT_255_2_778
10
13.5937069
20
14.7730326
40
2.5959099
50
121.7322317
51
143.4427008
0
ARC
8
DEFAULT_255_2_778
10
13.600687
20
14.7684705
40
2.6042343
50
143.4535472
51
179.9731274
0
ARC
8
DEFAULT_255_2_778
10
13.5896851
20
14.76973
40
2.5932321
50
180.0008414
51
187.4851454
0
ARC
8
DEFAULT_255_2_778
10
13.6039027
20
14.7717137
40
2.6075868
50
187.4876663
51
194.0467886
0
ARC
8
DEFAULT_255_2_778
10
13.6194061
20
14.7753341
40
2.6235053
50
194.0413124
51
194.9825266
0
ARC
8
DEFAULT_255_2_778
10
13.592432
20
14.7666494
40
2.5952034
50
194.9512639
51
220.3410548
0
ARC
8
DEFAULT_255_2_778
10
13.5976581
20
14.769911
40
2.6012982
50
220.3212965
51
262.039784
0
ARC
8
DEFAULT_255_2_778
10
13.5975546
20
14.7798732
40
2.6111505
50
262.0723064
51
268.212101
0
ARC
8
DEFAULT_255_2_778
10
13.5938465
20
68.1106386
40
2.5959739
50
121.7557454
51
143.4576506
0
ARC
8
DEFAULT_255_2_778
10
13.6008499
20
68.1060365
40
2.6043408
50
143.4680459
51
179.9725415
0
ARC
8
DEFAULT_255_2_778
10
13.58942
20
68.1073202
40
2.5929108
50
180.0007866
51
187.4633924
0
ARC
8
DEFAULT_255_2_778
10
13.6033816
20
68.109263
40
2.6070064
50
187.4658713
51
194.0559292
0
ARC
8
DEFAULT_255_2_778
10
13.6196237
20
68.1130788
40
2.623689
50
194.0506199
51
194.9960271
0
ARC
8
DEFAULT_255_2_778
10
13.5929607
20
68.1045444
40
2.5957261
50
194.9663459
51
220.3497056
0
ARC
8
DEFAULT_255_2_778
10
13.5976824
20
68.107397
40
2.6011719
50
220.3302538
51
262.0460691
0
ARC
8
DEFAULT_255_2_778
10
13.5976321
20
68.1175873
40
2.6112576
50
262.0781017
51
268.2170575
0
ARC
8
DEFAULT_255_2_778
10
13.5908441
20
68.1580287
40
2.5483841
50
91.6202766
51
98.504124
0
ARC
8
DEFAULT_255_2_778
10
12.9968863
20
66.8246442
40
0.5002276
50
20.0197102
51
89.9840448
0
ARC
8
DEFAULT_255_2_778
10
12.9970295
20
66.8286415
40
0.4962303
50
90.0004556
51
98.4317172
0
ARC
8
DEFAULT_255_2_778
10
12.9980654
20
66.8227894
40
0.5021712
50
98.4507307
51
110.0273512
0
ARC
8
DEFAULT_255_2_778
10
13.5915652
20
68.1054737
40
2.3287461
50
187.6021928
51
212.4021949
0
ARC
8
DEFAULT_255_2_778
10
12.3126108
20
68.7044842
40
0.5003548
50
290.0298986
51
359.9806107
0
ARC
8
DEFAULT_255_2_778
10
12.3165229
20
68.7043084
40
0.4964426
50
0.000743
51
8.4926582
0
ARC
8
DEFAULT_255_2_778
10
12.3104681
20
68.7032306
40
0.5025902
50
8.5122486
51
20.0202924
0
ARC
8
DEFAULT_255_2_778
10
13.5940986
20
68.1086576
40
2.3299781
50
97.6138061
51
122.4013478
0
ARC
8
DEFAULT_255_2_778
10
12.9965972
20
59.2045171
40
0.5003548
50
20.0298986
51
89.9806107
0
ARC
8
DEFAULT_255_2_778
10
12.996773
20
59.2084291
40
0.4964426
50
90.000743
51
98.4926582
0
ARC
8
DEFAULT_255_2_778
10
12.9978508
20
59.2023743
40
0.5025902
50
98.5122486
51
110.0202924
0
ARC
8
DEFAULT_255_2_778
10
13.5913878
20
60.4857276
40
2.3289013
50
187.6079836
51
212.4071694
0
ARC
8
DEFAULT_255_2_778
10
12.3123108
20
61.0844842
40
0.5003548
50
290.0298986
51
359.9806107
0
ARC
8
DEFAULT_255_2_778
10
12.3162229
20
61.0843084
40
0.4964426
50
0.000743
51
8.4926582
0
ARC
8
DEFAULT_255_2_778
10
12.3101681
20
61.0832306
40
0.5025902
50
8.5122486
51
20.0202924
0
ARC
8
DEFAULT_255_2_778
10
13.5937983
20
60.4886586
40
2.3299771
50
97.6138033
51
122.4013561
0
ARC
8
DEFAULT_255_2_778
10
12.9971863
20
51.5846442
40
0.5002276
50
20.0197102
51
89.9840448
0
ARC
8
DEFAULT_255_2_778
10
12.9973295
20
51.5886415
40
0.4962303
50
90.0004556
51
98.4317172
0
ARC
8
DEFAULT_255_2_778
10
12.9983654
20
51.5827894
40
0.5021712
50
98.4507307
51
110.0273512
0
ARC
8
DEFAULT_255_2_778
10
13.5918642
20
52.8654733
40
2.3287451
50
187.6021848
51
212.4021977
0
ARC
8
DEFAULT_255_2_778
10
12.3129108
20
53.4644842
40
0.5003548
50
290.0298986
51
359.9806107
0
ARC
8
DEFAULT_255_2_778
10
12.3168229
20
53.4643084
40
0.4964426
50
0.000743
51
8.4926582
0
ARC
8
DEFAULT_255_2_778
10
12.3107681
20
53.4632306
40
0.5025902
50
8.5122486
51
20.0202924
0
ARC
8
DEFAULT_255_2_778
10
13.5942098
20
52.8691762
40
2.3294391
50
97.6108935
51
122.4042627
0
ARC
8
DEFAULT_255_2_778
10
12.9968863
20
43.9652442
40
0.5002276
50
20.0197102
51
89.9840448
0
ARC
8
DEFAULT_255_2_778
10
12.9970295
20
43.9692415
40
0.4962303
50
90.0004556
51
98.4317172
0
ARC
8
DEFAULT_255_2_778
10
12.9980654
20
43.9633894
40
0.5021712
50
98.4507307
51
110.0273512
0
ARC
8
DEFAULT_255_2_778
10
13.5920807
20
45.2461614
40
2.329282
50
187.6050918
51
212.3992982
0
ARC
8
DEFAULT_255_2_778
10
12.31281
20
45.8449448
40
0.5001556
50
290.0139342
51
359.9852364
0
ARC
8
DEFAULT_255_2_778
10
12.3165369
20
45.8448101
40
0.4964286
50
0.0006654
51
8.497943
0
ARC
8
DEFAULT_255_2_778
10
12.3104872
20
45.8437357
40
0.5025706
50
8.5171711
51
20.0204905
0
ARC
8
DEFAULT_255_2_778
10
13.5938439
20
45.2492822
40
2.3298209
50
97.6080037
51
122.396384
0
ARC
8
DEFAULT_255_2_778
10
12.9968863
20
36.3452442
40
0.5002276
50
20.0197102
51
89.9840448
0
ARC
8
DEFAULT_255_2_778
10
12.9970295
20
36.3492415
40
0.4962303
50
90.0004556
51
98.4317172
0
ARC
8
DEFAULT_255_2_778
10
12.9980654
20
36.3433894
40
0.5021712
50
98.4507307
51
110.0273512
0
ARC
8
DEFAULT_255_2_778
10
13.5920807
20
37.6261614
40
2.329282
50
187.6050918
51
212.3992982
0
ARC
8
DEFAULT_255_2_778
10
12.312738
20
38.2249951
40
0.5002276
50
290.0197102
51
359.9840448
0
ARC
8
DEFAULT_255_2_778
10
12.3167352
20
38.2248519
40
0.4962303
50
0.0004556
51
8.4317172
0
ARC
8
DEFAULT_255_2_778
10
12.3108831
20
38.223816
40
0.5021712
50
8.4507307
51
20.0273512
0
ARC
8
DEFAULT_255_2_778
10
13.5938439
20
37.6292822
40
2.3298209
50
97.6080037
51
122.396384
0
ARC
8
DEFAULT_255_2_778
10
12.9965972
20
28.7248171
40
0.5003548
50
20.0298986
51
89.9806107
0
ARC
8
DEFAULT_255_2_778
10
12.996773
20
28.7287291
40
0.4964426
50
90.000743
51
98.4926582
0
ARC
8
DEFAULT_255_2_778
10
12.9978508
20
28.7226743
40
0.5025902
50
98.5122486
51
110.0202924
0
ARC
8
DEFAULT_255_2_778
10
13.5924228
20
30.0063046
40
2.3299771
50
187.6138033
51
212.4013561
0
ARC
8
DEFAULT_255_2_778
10
12.312438
20
30.6046951
40
0.5002276
50
290.0197102
51
359.9840448
0
ARC
8
DEFAULT_255_2_778
10
12.3164352
20
30.6045519
40
0.4962303
50
0.0004556
51
8.4317172
0
ARC
8
DEFAULT_255_2_778
10
12.3105831
20
30.603516
40
0.5021712
50
8.4507307
51
20.0273512
0
ARC
8
DEFAULT_255_2_778
10
13.5935436
20
30.0089833
40
2.3298199
50
97.6080009
51
122.3963922
0
ARC
8
DEFAULT_255_2_778
10
12.9965972
20
21.1048171
40
0.5003548
50
20.0298986
51
89.9806107
0
ARC
8
DEFAULT_255_2_778
10
12.996773
20
21.1087291
40
0.4964426
50
90.000743
51
98.4926582
0
ARC
8
DEFAULT_255_2_778
10
12.9978508
20
21.1026743
40
0.5025902
50
98.5122486
51
110.0202924
0
ARC
8
DEFAULT_255_2_778
10
13.5924224
20
22.3863044
40
2.3299767
50
187.6137997
51
212.4013573
0
ARC
8
DEFAULT_255_2_778
10
12.312438
20
22.9846951
40
0.5002276
50
290.0197102
51
359.9840448
0
ARC
8
DEFAULT_255_2_778
10
12.3164352
20
22.9845519
40
0.4962303
50
0.0004556
51
8.4317172
0
ARC
8
DEFAULT_255_2_778
10
12.3105831
20
22.983516
40
0.5021712
50
8.4507307
51
20.0273512
0
ARC
8
DEFAULT_255_2_778
10
13.5935436
20
22.3889833
40
2.3298199
50
97.6080009
51
122.3963922
0
ARC
8
DEFAULT_255_2_778
10
12.9963863
20
13.4846442
40
0.5002276
50
20.0197102
51
89.9840448
0
ARC
8
DEFAULT_255_2_778
10
12.9965295
20
13.4886415
40
0.4962303
50
90.0004556
51
98.4317172
0
ARC
8
DEFAULT_255_2_778
10
12.9975654
20
13.4827894
40
0.5021712
50
98.4507307
51
110.0273512
0
ARC
8
DEFAULT_255_2_778
10
13.5910633
20
14.7654733
40
2.3287443
50
187.6021878
51
212.4022098
0
ARC
8
DEFAULT_255_2_778
10
12.3121108
20
15.3644842
40
0.5003548
50
290.0298986
51
359.9806107
0
ARC
8
DEFAULT_255_2_778
10
12.3160229
20
15.3643084
40
0.4964426
50
0.000743
51
8.4926582
0
ARC
8
DEFAULT_255_2_778
10
12.3099681
20
15.3632306
40
0.5025902
50
8.5122486
51
20.0202924
0
ARC
8
DEFAULT_255_2_778
10
13.5934098
20
14.7691762
40
2.3294391
50
97.6108935
51
122.4042627
0
ARC
8
DEFAULT_255_2_778
10
12.9963863
20
5.8646442
40
0.5002276
50
20.0197102
51
89.9840448
0
ARC
8
DEFAULT_255_2_778
10
12.9965295
20
5.8686415
40
0.4962303
50
90.0004556
51
98.4317172
0
ARC
8
DEFAULT_255_2_778
10
12.9975654
20
5.8627894
40
0.5021712
50
98.4507307
51
110.0273512
0
ARC
8
DEFAULT_255_2_778
10
13.5910624
20
7.1454728
40
2.3287433
50
187.6021797
51
212.4022125
0
ARC
8
DEFAULT_255_2_778
10
12.3121108
20
7.7444842
40
0.5003548
50
290.0298986
51
359.9806107
0
ARC
8
DEFAULT_255_2_778
10
12.3160229
20
7.7443084
40
0.4964426
50
0.000743
51
8.4926582
0
ARC
8
DEFAULT_255_2_778
10
12.3099681
20
7.7432306
40
0.5025902
50
8.5122486
51
20.0202924
0
ARC
8
DEFAULT_255_2_778
10
13.5934098
20
7.1491762
40
2.3294391
50
97.6108935
51
122.4042627
0
LINE
8
DEFAULT_255_2_778
10
8.9697876
20
8.1528938
11
11.4078876
21
1.4538938
0
LINE
8
DEFAULT_255_2_778
10
11.4078876
20
1.4538938
11
13.9695876
21
1.4538938
0
LINE
8
DEFAULT_255_2_778
10
13.5179876
20
57.4790938
11
11.9209876
21
56.8977938
0
LINE
8
DEFAULT_255_2_778
10
11.9209876
20
56.8977938
11
10.0950876
21
61.9148938
0
LINE
8
DEFAULT_255_2_778
10
13.5179876
20
49.8593938
11
11.9209876
21
49.2780938
0
LINE
8
DEFAULT_255_2_778
10
11.9209876
20
49.2780938
11
10.0950876
21
54.2950938
0
LINE
8
DEFAULT_255_2_778
10
13.5179876
20
42.2396938
11
11.9209876
21
41.6583938
0
LINE
8
DEFAULT_255_2_778
10
11.9209876
20
41.6583938
11
10.0950876
21
46.6753938
0
LINE
8
DEFAULT_255_2_778
10
13.5179876
20
26.9998938
11
11.9209876
21
26.4185938
0
LINE
8
DEFAULT_255_2_778
10
11.9209876
20
26.4185938
11
10.0950876
21
31.4356938
0
LINE
8
DEFAULT_255_2_778
10
13.5179876
20
34.6201938
11
11.9209876
21
34.0388938
0
LINE
8
DEFAULT_255_2_778
10
11.9209876
20
34.0388938
11
10.0950876
21
39.0558938
0
LINE
8
DEFAULT_255_2_778
10
13.5179876
20
19.3804938
11
11.9209876
21
18.7991938
0
LINE
8
DEFAULT_255_2_778
10
11.9209876
20
18.7991938
11
10.0950876
21
23.8161938
0
LINE
8
DEFAULT_255_2_778
10
13.5179876
20
4.1406938
11
11.9209876
21
3.5593938
0
LINE
8
DEFAULT_255_2_778
10
11.9209876
20
3.5593938
11
10.0950876
21
8.5764938
0
LINE
8
DEFAULT_255_2_778
10
13.5179876
20
11.7609938
11
11.9209876
21
11.1796938
0
LINE
8
DEFAULT_255_2_778
10
11.9209876
20
11.1796938
11
10.0950876
21
16.1966938
0
LINE
8
DEFAULT_255_2_778
10
13.5179876
20
11.1103938
11
8.9697876
21
9.4527938
0
LINE
8
DEFAULT_255_2_778
10
8.9697876
20
9.4527938
11
8.9697876
21
17.0727938
0
LINE
8
DEFAULT_255_2_778
10
8.9697876
20
17.0727938
11
9.3835876
21
15.9357938
0
LINE
8
DEFAULT_255_2_778
10
9.3835876
20
15.9357938
11
13.5181876
21
17.4407938
0
LINE
8
DEFAULT_255_2_778
10
13.5181876
20
25.0607938
11
9.3835876
21
23.5557938
0
LINE
8
DEFAULT_255_2_778
10
9.3835876
20
23.5557938
11
8.9697876
21
24.6927938
0
LINE
8
DEFAULT_255_2_778
10
8.9697876
20
24.6927938
11
8.9697876
21
17.0732938
0
LINE
8
DEFAULT_255_2_778
10
8.9697876
20
17.0732938
11
13.5181876
21
18.7282938
0
LINE
8
DEFAULT_255_2_778
10
13.5181876
20
32.6804938
11
9.3835876
21
31.1755938
0
LINE
8
DEFAULT_255_2_778
10
9.3835876
20
31.1755938
11
8.9697876
21
32.3124938
0
LINE
8
DEFAULT_255_2_778
10
8.9697876
20
32.3124938
11
8.9697876
21
24.6929938
0
LINE
8
DEFAULT_255_2_778
10
8.9697876
20
24.6929938
11
13.5181876
21
26.3479938
0
LINE
8
DEFAULT_255_2_778
10
13.5181876
20
40.3002938
11
9.3835876
21
38.7952938
0
LINE
8
DEFAULT_255_2_778
10
9.3835876
20
38.7952938
11
8.9697876
21
39.9321938
0
LINE
8
DEFAULT_255_2_778
10
8.9697876
20
39.9321938
11
8.9697876
21
32.3127938
0
LINE
8
DEFAULT_255_2_778
10
8.9697876
20
32.3127938
11
13.5181876
21
33.9676938
0
LINE
8
DEFAULT_255_2_778
10
13.5181876
20
47.9199938
11
9.3835876
21
46.4150938
0
LINE
8
DEFAULT_255_2_778
10
9.3835876
20
46.4150938
11
8.9697876
21
47.5519938
0
LINE
8
DEFAULT_255_2_778
10
8.9697876
20
47.5519938
11
8.9697876
21
39.9324938
0
LINE
8
DEFAULT_255_2_778
10
8.9697876
20
39.9324938
11
13.5181876
21
41.5874938
0
LINE
8
DEFAULT_255_2_778
10
13.5181876
20
55.5396938
11
9.3835876
21
54.0347938
0
LINE
8
DEFAULT_255_2_778
10
9.3835876
20
54.0347938
11
8.9697876
21
55.1716938
0
LINE
8
DEFAULT_255_2_778
10
8.9697876
20
55.1716938
11
8.9697876
21
47.5521938
0
LINE
8
DEFAULT_255_2_778
10
8.9697876
20
47.5521938
11
13.5181876
21
49.2071938
0
LINE
8
DEFAULT_255_2_778
10
8.9697876
20
55.1727938
11
13.5181876
21
56.8282938
0
LINE
8
DEFAULT_255_2_778
10
12.3564876
20
2.3563938
11
11.4078876
21
1.4535938
0
LINE
8
DEFAULT_255_2_778
10
8.9697876
20
69.1244938
11
13.5181876
21
70.7799938
0
LINE
8
DEFAULT_255_2_778
10
13.5181876
20
66.8548938
11
13.4668876
21
66.9958938
0
LINE
8
DEFAULT_255_2_778
10
12.8260876
20
67.2945938
11
11.6253876
21
66.8575938
0
LINE
8
DEFAULT_255_2_778
10
11.2832876
20
67.7973938
11
12.4839876
21
68.2343938
0
LINE
8
DEFAULT_255_2_778
10
12.7826876
20
68.8752938
11
12.3455876
21
70.0758938
0
LINE
8
DEFAULT_255_2_778
10
13.2853876
20
70.4180938
11
13.5179876
21
69.7787938
0
LINE
8
DEFAULT_255_2_778
10
13.5179876
20
65.0990938
11
11.9209876
21
64.5177938
0
LINE
8
DEFAULT_255_2_778
10
11.9209876
20
64.5177938
11
10.0950876
21
69.5342938
0
LINE
8
DEFAULT_255_2_778
10
13.5179876
20
59.2348938
11
13.4666876
21
59.3758938
0
LINE
8
DEFAULT_255_2_778
10
12.8257876
20
59.6745938
11
11.6251876
21
59.2375938
0
LINE
8
DEFAULT_255_2_778
10
11.2829876
20
60.1773938
11
12.4836876
21
60.6143938
0
LINE
8
DEFAULT_255_2_778
10
12.7823876
20
61.2552938
11
12.3452876
21
62.4558938
0
LINE
8
DEFAULT_255_2_778
10
13.2850876
20
62.7980938
11
13.5176876
21
62.1587938
0
LINE
8
DEFAULT_255_2_778
10
11.0022876
20
63.5327938
11
8.9697876
21
69.1183938
0
LINE
8
DEFAULT_255_2_778
10
9.8751876
20
63.1221938
11
8.9697876
21
65.6097938
0
LINE
8
DEFAULT_255_2_778
10
11.9195876
20
56.8969938
11
12.1288876
21
56.3223938
0
LINE
8
DEFAULT_255_2_778
10
13.5184876
20
51.6148938
11
13.4671876
21
51.7558938
0
LINE
8
DEFAULT_255_2_778
10
12.8263876
20
52.0545938
11
11.6256876
21
51.6175938
0
LINE
8
DEFAULT_255_2_778
10
11.2835876
20
52.5573938
11
12.4842876
21
52.9943938
0
LINE
8
DEFAULT_255_2_778
10
12.7829876
20
53.6352938
11
12.3458876
21
54.8358938
0
LINE
8
DEFAULT_255_2_778
10
13.2856876
20
55.1780938
11
13.5181876
21
54.5387938
0
LINE
8
DEFAULT_255_2_778
10
13.5181876
20
64.4482938
11
8.9697876
21
62.7927938
0
LINE
8
DEFAULT_255_2_778
10
8.9697876
20
62.7927938
11
9.3835876
21
61.6557938
0
LINE
8
DEFAULT_255_2_778
10
9.3835876
20
61.6557938
11
13.5181876
21
63.1607938
0
LINE
8
DEFAULT_255_2_778
10
11.0009876
20
55.9127938
11
8.9697876
21
61.4930938
0
LINE
8
DEFAULT_255_2_778
10
10.3791876
20
55.6860938
11
10.7929876
21
54.5490938
0
LINE
8
DEFAULT_255_2_778
10
11.9193876
20
49.2775938
11
12.1286876
21
48.7028938
0
LINE
8
DEFAULT_255_2_778
10
13.5181876
20
43.9953938
11
13.4668876
21
44.1364938
0
LINE
8
DEFAULT_255_2_778
10
12.8260876
20
44.4351938
11
11.6253876
21
43.9980938
0
LINE
8
DEFAULT_255_2_778
10
11.2832876
20
44.9378938
11
12.4839876
21
45.3749938
0
LINE
8
DEFAULT_255_2_778
10
12.7826876
20
46.0157938
11
12.3455876
21
47.2164938
0
LINE
8
DEFAULT_255_2_778
10
13.2853876
20
47.5585938
11
13.5179876
21
46.9192938
0
LINE
8
DEFAULT_255_2_778
10
11.0006876
20
48.2930938
11
8.9694876
21
53.8733938
0
LINE
8
DEFAULT_255_2_778
10
11.9193876
20
41.6575938
11
12.1286876
21
41.0828938
0
LINE
8
DEFAULT_255_2_778
10
13.5181876
20
36.3753938
11
13.4668876
21
36.5164938
0
LINE
8
DEFAULT_255_2_778
10
12.8260876
20
36.8151938
11
11.6253876
21
36.3780938
0
LINE
8
DEFAULT_255_2_778
10
11.2832876
20
37.3178938
11
12.4839876
21
37.7549938
0
LINE
8
DEFAULT_255_2_778
10
12.7826876
20
38.3957938
11
12.3455876
21
39.5964938
0
LINE
8
DEFAULT_255_2_778
10
13.2853876
20
39.9385938
11
13.5179876
21
39.2992938
0
LINE
8
DEFAULT_255_2_778
10
11.0006876
20
40.6730938
11
8.9694876
21
46.2533938
0
LINE
8
DEFAULT_255_2_778
10
10.7927876
20
39.3090938
11
10.3789876
21
40.4460938
0
LINE
8
DEFAULT_255_2_778
10
11.9190876
20
34.0372938
11
12.1283876
21
33.4625938
0
LINE
8
DEFAULT_255_2_778
10
13.5179876
20
28.7551938
11
13.4666876
21
28.8961938
0
LINE
8
DEFAULT_255_2_778
10
12.8257876
20
29.1948938
11
11.6251876
21
28.7577938
0
LINE
8
DEFAULT_255_2_778
10
11.2829876
20
29.6975938
11
12.4836876
21
30.1346938
0
LINE
8
DEFAULT_255_2_778
10
12.7823876
20
30.7754938
11
12.3452876
21
31.9761938
0
LINE
8
DEFAULT_255_2_778
10
13.2850876
20
32.3182938
11
13.5176876
21
31.6790938
0
LINE
8
DEFAULT_255_2_778
10
11.0004876
20
33.0527938
11
8.9692876
21
38.6330938
0
LINE
8
DEFAULT_255_2_778
10
11.9190876
20
26.4172938
11
12.1283876
21
25.8425938
0
LINE
8
DEFAULT_255_2_778
10
13.5179876
20
21.1351938
11
13.4666876
21
21.2761938
0
LINE
8
DEFAULT_255_2_778
10
12.8257876
20
21.5748938
11
11.6251876
21
21.1377938
0
LINE
8
DEFAULT_255_2_778
10
11.2829876
20
22.0775938
11
12.4836876
21
22.5146938
0
LINE
8
DEFAULT_255_2_778
10
12.7823876
20
23.1554938
11
12.3452876
21
24.3561938
0
LINE
8
DEFAULT_255_2_778
10
13.2850876
20
24.6982938
11
13.5176876
21
24.0590938
0
LINE
8
DEFAULT_255_2_778
10
11.0004876
20
25.4327938
11
8.9692876
21
31.0130938
0
LINE
8
DEFAULT_255_2_778
10
10.7924876
20
24.0688938
11
10.3786876
21
25.2057938
0
LINE
8
DEFAULT_255_2_778
10
11.9187876
20
18.7969938
11
12.1280876
21
18.2223938
0
LINE
8
DEFAULT_255_2_778
10
13.5176876
20
13.5148938
11
13.4663876
21
13.6558938
0
LINE
8
DEFAULT_255_2_778
10
12.8255876
20
13.9545938
11
11.6248876
21
13.5175938
0
LINE
8
DEFAULT_255_2_778
10
11.2827876
20
14.4573938
11
12.4834876
21
14.8943938
0
LINE
8
DEFAULT_255_2_778
10
12.7821876
20
15.5352938
11
12.3450876
21
16.7358938
0
LINE
8
DEFAULT_255_2_778
10
13.2848876
20
17.0780938
11
13.5174876
21
16.4387938
0
LINE
8
DEFAULT_255_2_778
10
11.0001876
20
17.8124938
11
8.9689876
21
23.3928938
0
LINE
8
DEFAULT_255_2_778
10
11.9187876
20
11.1769938
11
12.1280876
21
10.6023938
0
LINE
8
DEFAULT_255_2_778
10
13.5176876
20
5.8948938
11
13.4663876
21
6.0358938
0
LINE
8
DEFAULT_255_2_778
10
12.8255876
20
6.3345938
11
11.6248876
21
5.8975938
0
LINE
8
DEFAULT_255_2_778
10
11.2827876
20
6.8373938
11
12.4834876
21
7.2743938
0
LINE
8
DEFAULT_255_2_778
10
12.7821876
20
7.9152938
11
12.3450876
21
9.1158938
0
LINE
8
DEFAULT_255_2_778
10
13.2848876
20
9.4580938
11
13.5174876
21
8.8187938
0
LINE
8
DEFAULT_255_2_778
10
11.0001876
20
10.1924938
11
8.9689876
21
15.7728938
0
LINE
8
DEFAULT_255_2_778
10
10.7921876
20
8.8285938
11
10.3783876
21
9.9654938
0
LINE
8
DEFAULT_255_2_778
10
13.5174876
20
2.3563938
11
12.3564876
21
2.3563938
0
LINE
8
DEFAULT_255_2_778
10
12.3564876
20
2.3563938
11
11.9193876
21
3.5569938
0
ARC
8
DEFAULT_255_2_778
10
2.1323431
20
85.5313851
40
0.2214702
50
29.8173286
51
98.2377654
0
ARC
8
DEFAULT_255_2_778
10
1.8910583
20
85.3964194
40
0.4979307
50
17.5506863
51
29.4862367
0
ARC
8
DEFAULT_255_2_778
10
2.0476589
20
81.9937873
40
4.7628126
50
89.9999472
51
90.2026823
0
ARC
8
DEFAULT_255_2_778
10
2.0626562
20
83.597004
40
3.1596315
50
85.8098881
51
90.2718772
0
ARC
8
DEFAULT_255_2_778
10
2.1963431
20
85.3436564
40
1.4078912
50
77.5960388
51
86.0422043
0
ARC
8
DEFAULT_255_2_778
10
2.3787694
20
86.14194
40
0.5890938
50
59.8334202
51
78.2471552
0
ARC
8
DEFAULT_255_2_778
10
2.490949
20
86.3553136
40
0.3483962
50
2.1292412
51
58.1497061
0
ARC
8
DEFAULT_255_2_778
10
2.0850233
20
86.2873465
40
0.7584097
50
1.0292816
51
6.1242809
0
ARC
8
DEFAULT_255_2_778
10
2.3535987
20
86.2888807
40
0.4898611
50
0.0026399
51
1.4141635
0
ARC
8
DEFAULT_255_2_778
10
2.4447704
20
86.2815931
40
0.3987566
50
322.6788687
51
1.0504337
0
ARC
8
DEFAULT_255_2_778
10
2.4369866
20
86.299551
40
0.4159441
50
277.7129643
51
321.3616095
0
ARC
8
DEFAULT_255_2_778
10
2.2530327
20
85.5336725
40
0.4535722
50
22.4894762
51
39.4820259
0
ARC
8
DEFAULT_255_2_778
10
2.4462118
20
85.6886344
40
0.2059668
50
40.3797251
51
58.8317114
0
ARC
8
DEFAULT_255_2_778
10
2.476739
20
85.7350889
40
0.1504329
50
59.6231763
51
85.0915438
0
ARC
8
DEFAULT_255_2_778
10
2.1684332
20
86.5894175
40
0.5652861
50
274.7466525
51
289.3108517
0
ARC
8
DEFAULT_255_2_778
10
2.2939464
20
86.236172
40
0.1904154
50
288.8186513
51
6.5805941
0
ARC
8
DEFAULT_255_2_778
10
1.9703298
20
86.2682923
40
0.512881
50
358.8494384
51
0.0086992
0
ARC
8
DEFAULT_255_2_778
10
2.2431838
20
86.2799799
40
0.2403074
50
357.2308427
51
359.9836573
0
ARC
8
DEFAULT_255_2_778
10
2.2811784
20
86.2723992
40
0.2024522
50
2.126501
51
86.9879782
0
ARC
8
DEFAULT_255_2_778
10
2.2059784
20
86.0283067
40
0.4544453
50
79.1122729
51
85.5796647
0
ARC
8
DEFAULT_255_2_778
10
2.2022021
20
85.9882681
40
0.4946564
50
85.5009889
51
86.8352559
0
ARC
8
DEFAULT_255_2_778
10
4.8843025
20
85.7361819
40
1.7544522
50
178.007885
51
179.3556284
0
ARC
8
DEFAULT_255_2_778
10
4.7778397
20
85.7375956
40
1.6479804
50
179.3631469
51
179.9979381
0
ARC
8
DEFAULT_255_2_778
10
4.3867856
20
85.7291599
40
1.256955
50
179.6127726
51
189.1743523
0
ARC
8
DEFAULT_255_2_778
10
3.8918087
20
85.6463765
40
0.7551162
50
188.9614686
51
203.916776
0
ARC
8
DEFAULT_255_2_778
10
3.6521798
20
85.5388476
40
0.492471
50
203.7831889
51
230.1333958
0
ARC
8
DEFAULT_255_2_778
10
3.7153459
20
85.6588084
40
0.6256807
50
232.736139
51
265.6630528
0
ARC
8
DEFAULT_255_2_778
10
3.8225363
20
86.3660859
40
1.3401031
50
263.3794347
51
267.4883935
0
ARC
8
DEFAULT_255_2_778
10
3.845021
20
86.6142554
40
1.5890618
50
267.0705727
51
269.126843
0
ARC
8
DEFAULT_255_2_778
10
3.842557
20
86.4837265
40
1.4585106
50
269.1454883
51
269.9958102
0
ARC
8
DEFAULT_255_2_778
10
3.8537778
20
86.0800689
40
1.0549137
50
269.3847586
51
282.4335651
0
ARC
8
DEFAULT_255_2_778
10
3.9590386
20
85.626254
40
0.5891011
50
281.9392459
51
307.719916
0
ARC
8
DEFAULT_255_2_778
10
3.9672084
20
85.584008
40
0.5510267
50
309.735864
51
346.58915
0
ARC
8
DEFAULT_255_2_778
10
3.4524178
20
85.7284134
40
1.0854768
50
345.4768537
51
359.201986
0
ARC
8
DEFAULT_255_2_778
10
2.960246
20
85.754285
40
1.5780757
50
358.5116075
51
0.0116992
0
ARC
8
DEFAULT_255_2_778
10
2.825257
20
85.7544288
40
1.7130647
50
0.0059692
51
1.0918003
0
ARC
8
DEFAULT_255_2_778
10
4.6703659
20
85.7393943
40
1.1960161
50
178.8034318
51
179.9932511
0
ARC
8
DEFAULT_255_2_778
10
4.2978482
20
85.7291222
40
0.8235643
50
179.2755488
51
192.7713705
0
ARC
8
DEFAULT_255_2_778
10
3.8893343
20
85.6310836
40
0.4035194
50
192.0178698
51
219.0638712
0
ARC
8
DEFAULT_255_2_778
10
3.8149174
20
85.5892104
40
0.3196748
50
221.6428694
51
270.8412001
0
ARC
8
DEFAULT_255_2_778
10
2.9421671
20
85.7425165
40
1.249049
50
0.2985195
51
2.1818842
0
ARC
8
DEFAULT_255_2_778
10
3.0238704
20
85.7433479
40
1.1673427
50
359.9984598
51
0.278605
0
ARC
8
DEFAULT_255_2_778
10
3.3461883
20
85.7336707
40
0.84508
50
347.7429398
51
0.6539993
0
ARC
8
DEFAULT_255_2_778
10
3.7461143
20
85.6425211
40
0.4349395
50
324.8627182
51
348.2920429
0
ARC
8
DEFAULT_255_2_778
10
3.8560992
20
85.5755774
40
0.3065873
50
267.3550189
51
323.2636416
0
ARC
8
DEFAULT_255_2_778
10
3.8420202
20
85.7255316
40
0.4562149
50
268.0894801
51
269.9913076
0
ARC
8
DEFAULT_255_2_778
10
3.4912344
20
78.1586741
40
0.1505766
50
90.0212706
51
99.0648777
0
ARC
8
DEFAULT_255_2_778
10
3.4841028
20
78.1187233
40
0.1906587
50
48.7508826
51
87.8731519
0
ARC
8
DEFAULT_255_2_778
10
4.0531259
20
78.8426804
40
0.7305044
50
232.6370646
51
242.5552462
0
ARC
8
DEFAULT_255_2_778
10
3.820943
20
78.3822277
40
0.2149502
50
240.9110386
51
266.0626468
0
ARC
8
DEFAULT_255_2_778
10
3.8073614
20
78.2762005
40
0.108422
50
269.3774528
51
269.9989411
0
ARC
8
DEFAULT_255_2_778
10
3.8082332
20
78.253162
40
0.085388
50
269.4136516
51
287.1490569
0
ARC
8
DEFAULT_255_2_778
10
3.7446721
20
78.4417598
40
0.2843888
50
288.1817607
51
336.8751581
0
ARC
8
DEFAULT_255_2_778
10
0.8518452
20
77.371477
40
3.2968048
50
16.9037182
51
17.9342156
0
ARC
8
DEFAULT_255_2_778
10
-15.0965996
20
72.2544631
40
20.0460266
50
17.8126259
51
18.1188821
0
ARC
8
DEFAULT_255_2_778
10
3.6929451
20
78.583223
40
0.2790113
50
316.7471892
51
340.16919
0
ARC
8
DEFAULT_255_2_778
10
3.8312776
20
78.4538704
40
0.0896256
50
271.3637284
51
316.3791409
0
ARC
8
DEFAULT_255_2_778
10
3.8349895
20
78.66117
40
0.2969041
50
234.0326599
51
269.695306
0
ARC
8
DEFAULT_255_2_778
10
3.4387096
20
78.1105381
40
0.381505
50
54.4335682
51
82.6053188
0
ARC
8
DEFAULT_255_2_778
10
3.457077
20
78.3110079
40
0.180498
50
80.1964047
51
89.8832343
0
ARC
8
DEFAULT_255_2_778
10
3.4643321
20
78.3029944
40
0.1886369
50
92.0923888
51
145.0040149
0
ARC
8
DEFAULT_255_2_778
10
3.6562589
20
78.134502
40
0.4433774
50
141.3892405
51
152.1294415
0
ARC
8
DEFAULT_255_2_778
10
3.4953539
20
78.1500013
40
0.1603054
50
100.0023815
51
176.1481288
0
LINE
8
DEFAULT_255_2_778
10
8.9698106
20
71.0564701
11
8.3697106
21
71.0564701
0
LINE
8
DEFAULT_255_2_778
10
8.3697106
20
71.0564701
11
8.3697106
21
75.3564701
0
LINE
8
DEFAULT_255_2_778
10
8.9698106
20
75.0563701
11
8.6697106
21
75.0563701
0
LINE
8
DEFAULT_255_2_778
10
8.6697106
20
75.0563701
11
8.3697106
21
75.3564701
0
LINE
8
DEFAULT_255_2_778
10
8.3697106
20
75.3564701
11
8.9698106
21
75.3564701
0
LINE
8
DEFAULT_255_2_778
10
8.9698106
20
71.3564701
11
8.6697106
21
71.3564701
0
LINE
8
DEFAULT_255_2_778
10
8.6697106
20
71.3564701
11
8.6697106
21
75.0563701
0
LINE
8
DEFAULT_255_2_778
10
8.9698106
20
71.3665701
11
8.6697106
21
71.3665701
0
LINE
8
DEFAULT_255_2_778
10
8.9698106
20
72.6163701
11
8.6697106
21
72.6163701
0
LINE
8
DEFAULT_255_2_778
10
8.9698106
20
73.2564701
11
8.6697106
21
73.2564701
0
LINE
8
DEFAULT_255_2_778
10
8.6697106
20
71.3564701
11
8.3697106
21
71.0564701
0
LINE
8
DEFAULT_255_2_778
10
13.1954106
20
85.2401701
11
13.1954106
21
84.9562701
0
LINE
8
DEFAULT_255_2_778
10
13.1954106
20
84.9562701
11
12.1368106
21
84.9562701
0
LINE
8
DEFAULT_255_2_778
10
12.1368106
20
84.9562701
11
12.1368106
21
86.7559701
0
LINE
8
DEFAULT_255_2_778
10
12.1368106
20
86.7559701
11
12.4974106
21
86.7559701
0
LINE
8
DEFAULT_255_2_778
10
12.4974106
20
86.7559701
11
12.4974106
21
85.2401701
0
LINE
8
DEFAULT_255_2_778
10
12.4974106
20
85.2401701
11
13.1954106
21
85.2401701
0
LINE
8
DEFAULT_255_2_778
10
15.0890106
20
86.4416701
11
14.6046106
21
84.9560701
0
LINE
8
DEFAULT_255_2_778
10
14.6046106
20
84.9560701
11
14.2593106
21
84.9560701
0
LINE
8
DEFAULT_255_2_778
10
14.2593106
20
84.9560701
11
13.7754106
21
86.4416701
0
LINE
8
DEFAULT_255_2_778
10
13.7754106
20
86.4416701
11
13.7701106
21
86.4361701
0
LINE
8
DEFAULT_255_2_778
10
13.7701106
20
86.4361701
11
13.7701106
21
84.9560701
0
LINE
8
DEFAULT_255_2_778
10
13.7701106
20
84.9560701
11
13.4248106
21
84.9560701
0
LINE
8
DEFAULT_255_2_778
10
13.4248106
20
84.9560701
11
13.4248106
21
86.7559701
0
LINE
8
DEFAULT_255_2_778
10
13.4248106
20
86.7559701
11
14.0019106
21
86.7559701
0
LINE
8
DEFAULT_255_2_778
10
14.0019106
20
86.7559701
11
14.4294106
21
85.3923701
0
LINE
8
DEFAULT_255_2_778
10
14.4294106
20
85.3923701
11
14.4342106
21
85.3923701
0
LINE
8
DEFAULT_255_2_778
10
14.4342106
20
85.3923701
11
14.8620106
21
86.7559701
0
LINE
8
DEFAULT_255_2_778
10
14.8620106
20
86.7559701
11
15.4391106
21
86.7559701
0
LINE
8
DEFAULT_255_2_778
10
15.4391106
20
86.7559701
11
15.4391106
21
84.9562701
0
LINE
8
DEFAULT_255_2_778
10
15.4391106
20
84.9562701
11
15.0938106
21
84.9562701
0
LINE
8
DEFAULT_255_2_778
10
15.0938106
20
84.9562701
11
15.0938106
21
86.4419701
0
LINE
8
DEFAULT_255_2_778
10
15.0938106
20
86.4419701
11
15.0885106
21
86.4419701
0
LINE
8
DEFAULT_255_2_778
10
10.0918106
20
84.9562701
11
10.7922106
21
86.7559701
0
LINE
8
DEFAULT_255_2_778
10
10.7922106
20
86.7559701
11
11.1991106
21
86.7559701
0
LINE
8
DEFAULT_255_2_778
10
11.1991106
20
86.7559701
11
11.9050106
21
84.9562701
0
LINE
8
DEFAULT_255_2_778
10
11.9050106
20
84.9562701
11
11.5058106
21
84.9562701
0
LINE
8
DEFAULT_255_2_778
10
11.5058106
20
84.9562701
11
11.3515106
21
85.3690701
0
LINE
8
DEFAULT_255_2_778
10
11.3515106
20
85.3690701
11
10.6226106
21
85.3690701
0
LINE
8
DEFAULT_255_2_778
10
10.6226106
20
85.3690701
11
10.4654106
21
84.9562701
0
LINE
8
DEFAULT_255_2_778
10
10.4654106
20
84.9562701
11
10.0918106
21
84.9562701
0
LINE
8
DEFAULT_255_2_778
10
10.9856106
20
86.3948701
11
10.7255106
21
85.6521701
0
LINE
8
DEFAULT_255_2_778
10
10.7255106
20
85.6521701
11
11.2510106
21
85.6521701
0
LINE
8
DEFAULT_255_2_778
10
11.2510106
20
85.6521701
11
10.9909106
21
86.3948701
0
LINE
8
DEFAULT_255_2_778
10
10.9909106
20
86.3948701
11
10.9856106
21
86.3948701
0
LINE
8
DEFAULT_255_2_778
10
6.2673106
20
86.7559701
11
6.2673106
21
85.0327701
0
LINE
8
DEFAULT_255_2_778
10
6.2673106
20
85.0327701
11
5.8453106
21
85.0327701
0
LINE
8
DEFAULT_255_2_778
10
5.8453106
20
85.0327701
11
5.1859106
21
86.3218701
0
LINE
8
DEFAULT_255_2_778
10
5.1859106
20
86.3218701
11
5.1812106
21
86.3218701
0
LINE
8
DEFAULT_255_2_778
10
5.1812106
20
86.3218701
11
5.1812106
21
85.0327701
0
LINE
8
DEFAULT_255_2_778
10
5.1812106
20
85.0327701
11
4.8505106
21
85.0327701
0
LINE
8
DEFAULT_255_2_778
10
4.8505106
20
85.0327701
11
4.8505106
21
86.7559701
0
LINE
8
DEFAULT_255_2_778
10
4.8505106
20
86.7559701
11
5.2751106
21
86.7559701
0
LINE
8
DEFAULT_255_2_778
10
5.2751106
20
86.7559701
11
5.9318106
21
85.4677701
0
LINE
8
DEFAULT_255_2_778
10
5.9318106
20
85.4677701
11
5.9366106
21
85.4677701
0
LINE
8
DEFAULT_255_2_778
10
5.9366106
20
85.4677701
11
5.9366106
21
86.7559701
0
LINE
8
DEFAULT_255_2_778
10
5.9366106
20
86.7559701
11
6.2673106
21
86.7559701
0
LINE
8
DEFAULT_255_2_778
10
2.1091106
20
85.7495701
11
2.0054106
21
85.7495701
0
LINE
8
DEFAULT_255_2_778
10
2.0054106
20
85.7495701
11
2.0054106
21
85.0332701
0
LINE
8
DEFAULT_255_2_778
10
2.0054106
20
85.0332701
11
1.6598106
21
85.0332701
0
LINE
8
DEFAULT_255_2_778
10
1.6598106
20
85.0332701
11
1.6598106
21
86.7565701
0
LINE
8
DEFAULT_255_2_778
10
1.6598106
20
86.7565701
11
2.0308106
21
86.7565701
0
LINE
8
DEFAULT_255_2_778
10
2.3665106
20
85.5442701
11
2.5637106
21
85.0330701
0
LINE
8
DEFAULT_255_2_778
10
2.5637106
20
85.0330701
11
2.9486106
21
85.0330701
0
LINE
8
DEFAULT_255_2_778
10
2.9486106
20
85.0330701
11
2.6721106
21
85.7071701
0
LINE
8
DEFAULT_255_2_778
10
2.4896106
20
85.8849701
11
2.4896106
21
85.8852701
0
LINE
8
DEFAULT_255_2_778
10
2.2295106
20
86.4821701
11
2.0057106
21
86.4850701
0
LINE
8
DEFAULT_255_2_778
10
2.0057106
20
86.4850701
11
2.0057106
21
86.0217701
0
LINE
8
DEFAULT_255_2_778
10
2.0057106
20
86.0217701
11
2.2081106
21
86.0260701
0
LINE
8
DEFAULT_255_2_778
10
3.4754106
20
85.7601701
11
3.4754106
21
86.7559701
0
LINE
8
DEFAULT_255_2_778
10
3.4754106
20
86.7559701
11
3.1299106
21
86.7559701
0
LINE
8
DEFAULT_255_2_778
10
3.1299106
20
86.7559701
11
3.1299106
21
85.7601701
0
LINE
8
DEFAULT_255_2_778
10
4.5369106
20
85.7601701
11
4.5369106
21
86.7559701
0
LINE
8
DEFAULT_255_2_778
10
4.5369106
20
86.7559701
11
4.1911106
21
86.7559701
0
LINE
8
DEFAULT_255_2_778
10
4.1911106
20
86.7559701
11
4.1911106
21
85.7601701
0
LINE
8
DEFAULT_255_2_778
10
1.5318106
20
78.3401701
11
1.5318106
21
78.1512701
0
LINE
8
DEFAULT_255_2_778
10
1.5318106
20
78.1512701
11
1.1701106
21
78.1512701
0
LINE
8
DEFAULT_255_2_778
10
1.1701106
20
78.1512701
11
1.1701106
21
78.3401701
0
LINE
8
DEFAULT_255_2_778
10
1.1701106
20
78.3401701
11
1.5318106
21
78.3401701
0
LINE
8
DEFAULT_255_2_778
10
3.2643106
20
78.3417701
11
3.3354106
21
78.1607701
0
LINE
8
DEFAULT_255_2_778
10
3.4675106
20
78.3078701
11
3.4675106
21
78.3073701
0
LINE
8
DEFAULT_255_2_778
10
4.1136104
20
78.7010104
11
4.3941104
21
78.9828104
0
LINE
8
DEFAULT_255_2_778
10
4.3941104
20
78.9828104
11
4.5650104
21
78.9828104
0
LINE
8
DEFAULT_255_2_778
10
4.5650104
20
78.9828104
11
4.5650104
21
77.7832104
0
LINE
8
DEFAULT_255_2_778
10
4.5650104
20
77.7832104
11
4.3724104
21
77.7832104
0
LINE
8
DEFAULT_255_2_778
10
4.3724104
20
77.7832104
11
4.3724104
21
78.7095104
0
LINE
8
DEFAULT_255_2_778
10
4.3724104
20
78.7095104
11
4.2102104
21
78.5444104
0
LINE
8
DEFAULT_255_2_778
10
4.2102104
20
78.5444104
11
4.1136104
21
78.7008104
0
LINE
8
DEFAULT_255_2_778
10
1.5686104
20
78.7010104
11
1.8491104
21
78.9828104
0
LINE
8
DEFAULT_255_2_778
10
1.8491104
20
78.9828104
11
2.0200104
21
78.9828104
0
LINE
8
DEFAULT_255_2_778
10
2.0200104
20
78.9828104
11
2.0200104
21
77.7832104
0
LINE
8
DEFAULT_255_2_778
10
2.0200104
20
77.7832104
11
1.8274104
21
77.7832104
0
LINE
8
DEFAULT_255_2_778
10
1.8274104
20
77.7832104
11
1.8274104
21
78.7095104
0
LINE
8
DEFAULT_255_2_778
10
1.8274104
20
78.7095104
11
1.6652104
21
78.5444104
0
LINE
8
DEFAULT_255_2_778
10
1.6652104
20
78.5444104
11
1.5686104
21
78.7008104
0
LINE
8
DEFAULT_255_2_778
10
6.5271031
20
78.9828104
11
6.2035031
21
77.7832104
0
LINE
8
DEFAULT_255_2_778
10
6.2035031
20
77.7832104
11
5.9672031
21
77.7832104
0
LINE
8
DEFAULT_255_2_778
10
5.9672031
20
77.7832104
11
5.6373031
21
78.9828104
0
LINE
8
DEFAULT_255_2_778
10
5.6373031
20
78.9828104
11
5.8434031
21
78.9828104
0
LINE
8
DEFAULT_255_2_778
10
5.8434031
20
78.9828104
11
6.0900031
21
78.0409104
0
LINE
8
DEFAULT_255_2_778
10
6.0900031
20
78.0409104
11
6.0926031
21
78.0409104
0
LINE
8
DEFAULT_255_2_778
10
6.0926031
20
78.0409104
11
6.3358031
21
78.9828104
0
LINE
8
DEFAULT_255_2_778
10
6.3358031
20
78.9828104
11
6.5271031
21
78.9828104
0
ARC
8
DEFAULT_255_2_778
10
1.1879726
20
78.3909011
40
1.7475368
50
359.6191593
51
7.0973932
0
ARC
8
DEFAULT_255_2_778
10
2.0902493
20
78.5092258
40
0.8375752
50
6.6913237
51
20.1761301
0
ARC
8
DEFAULT_255_2_778
10
2.5474434
20
78.6847697
40
0.3479615
50
19.0098495
51
49.6446079
0
ARC
8
DEFAULT_255_2_778
10
2.6185259
20
78.7512722
40
0.2515012
50
52.1754676
51
91.5162955
0
ARC
8
DEFAULT_255_2_778
10
2.6050632
20
78.7156356
40
0.2871305
50
88.6414419
51
163.513564
0
ARC
8
DEFAULT_255_2_778
10
3.0560021
20
78.523822
40
0.7759845
50
159.3783703
51
173.7397236
0
ARC
8
DEFAULT_255_2_778
10
3.801549
20
78.4279739
40
1.5276013
50
173.2154333
51
180.31463
0
ARC
8
DEFAULT_255_2_778
10
4.2338967
20
78.4072416
40
1.9599648
50
179.6391503
51
186.7818308
0
ARC
8
DEFAULT_255_2_778
10
3.2403677
20
78.2838145
40
0.9588265
50
186.4687928
51
198.6158509
0
ARC
8
DEFAULT_255_2_778
10
2.7225197
20
78.1022557
40
0.4101704
50
197.6727191
51
223.5304688
0
ARC
8
DEFAULT_255_2_778
10
2.6047905
20
78.0009295
40
0.2551423
50
225.2424437
51
271.5901837
0
ARC
8
DEFAULT_255_2_778
10
2.6141619
20
78.0095793
40
0.2637039
50
269.5022127
51
340.0095637
0
ARC
8
DEFAULT_255_2_778
10
2.204545
20
78.2099913
40
0.7187796
50
336.1562096
51
351.1302691
0
ARC
8
DEFAULT_255_2_778
10
1.3982934
20
78.3478376
40
1.5366899
50
350.6871983
51
358.983552
0
ARC
8
DEFAULT_255_2_778
10
0.62802
20
78.3785953
40
2.3074511
50
358.5592232
51
0.0171348
0
ARC
8
DEFAULT_255_2_778
10
2.6135122
20
78.7029275
40
0.0790539
50
96.421357
51
165.1412647
0
ARC
8
DEFAULT_255_2_778
10
2.947674
20
78.5553514
40
0.4435569
50
157.7644812
51
172.530411
0
ARC
8
DEFAULT_255_2_778
10
3.8562853
20
78.4146676
40
1.362914
50
171.6319755
51
177.9919123
0
ARC
8
DEFAULT_255_2_778
10
5.1540267
20
78.3532301
40
2.6620589
50
177.6491281
51
180.087054
0
ARC
8
DEFAULT_255_2_778
10
4.3159137
20
78.3384433
40
1.8239745
50
179.6625593
51
184.9232403
0
ARC
8
DEFAULT_255_2_778
10
3.1565952
20
78.2318775
40
0.6598215
50
184.3432903
51
195.5371554
0
ARC
8
DEFAULT_255_2_778
10
2.6656518
20
78.0873392
40
0.1483048
50
192.5413857
51
227.0760739
0
ARC
8
DEFAULT_255_2_778
10
2.598982
20
78.0222858
40
0.0554492
50
231.7480255
51
270.1580397
0
ARC
8
DEFAULT_255_2_778
10
2.5990956
20
78.0294259
40
0.0625892
50
270.036058
51
275.1104953
0
ARC
8
DEFAULT_255_2_778
10
2.5965961
20
78.0498935
40
0.0832009
50
275.5694224
51
345.4133961
0
ARC
8
DEFAULT_255_2_778
10
2.2623288
20
78.1936788
40
0.4463033
50
338.3387234
51
353.5899199
0
ARC
8
DEFAULT_255_2_778
10
1.3370675
20
78.3193166
40
1.3799752
50
352.6950309
51
359.3943864
0
ARC
8
DEFAULT_255_2_778
10
0.3521672
20
78.3485253
40
2.3652038
50
358.9390349
51
0.0159894
0
ARC
8
DEFAULT_255_2_778
10
-0.1409057
20
78.3974868
40
2.8586847
50
359.0318624
51
359.9857581
0
ARC
8
DEFAULT_255_2_778
10
0.9676871
20
78.4075721
40
1.750125
50
359.6465617
51
5.1637099
0
ARC
8
DEFAULT_255_2_778
10
2.068394
20
78.5132094
40
0.644407
50
4.6175131
51
15.9689058
0
ARC
8
DEFAULT_255_2_778
10
2.5384955
20
78.6555959
40
0.1534599
50
13.1452776
51
47.3255031
0
ARC
8
DEFAULT_255_2_778
10
2.6049236
20
78.7208679
40
0.0606181
50
51.6734116
51
90.2389346
0
LINE
8
DEFAULT_255_2_778
10
2.9354708
20
78.3792854
11
2.9354708
21
78.3792854
0
LINE
8
DEFAULT_255_2_778
10
2.6046708
20
78.7814854
11
2.6046708
21
78.7814854
0
ARC
8
DEFAULT_255_2_778
10
3.7329726
20
78.3909011
40
1.7475368
50
359.6191593
51
7.0973932
0
ARC
8
DEFAULT_255_2_778
10
4.6352493
20
78.5092258
40
0.8375752
50
6.6913237
51
20.1761301
0
ARC
8
DEFAULT_255_2_778
10
5.0924434
20
78.6847697
40
0.3479615
50
19.0098495
51
49.6446079
0
ARC
8
DEFAULT_255_2_778
10
5.1635259
20
78.7512722
40
0.2515012
50
52.1754676
51
91.5162955
0
ARC
8
DEFAULT_255_2_778
10
5.1500632
20
78.7156356
40
0.2871305
50
88.6414419
51
163.513564
0
ARC
8
DEFAULT_255_2_778
10
5.6010021
20
78.523822
40
0.7759845
50
159.3783703
51
173.7397236
0
ARC
8
DEFAULT_255_2_778
10
6.346549
20
78.4279739
40
1.5276013
50
173.2154333
51
180.31463
0
ARC
8
DEFAULT_255_2_778
10
6.7788967
20
78.4072416
40
1.9599648
50
179.6391503
51
186.7818308
0
ARC
8
DEFAULT_255_2_778
10
5.7853677
20
78.2838145
40
0.9588265
50
186.4687928
51
198.6158509
0
ARC
8
DEFAULT_255_2_778
10
5.2675197
20
78.1022557
40
0.4101704
50
197.6727191
51
223.5304688
0
ARC
8
DEFAULT_255_2_778
10
5.1497905
20
78.0009295
40
0.2551423
50
225.2424437
51
271.5901837
0
ARC
8
DEFAULT_255_2_778
10
5.1591619
20
78.0095793
40
0.2637039
50
269.5022127
51
340.0095637
0
ARC
8
DEFAULT_255_2_778
10
4.749545
20
78.2099913
40
0.7187796
50
336.1562096
51
351.1302691
0
ARC
8
DEFAULT_255_2_778
10
3.9432934
20
78.3478376
40
1.5366899
50
350.6871983
51
358.983552
0
ARC
8
DEFAULT_255_2_778
10
3.17302
20
78.3785953
40
2.3074511
50
358.5592232
51
0.0171348
0
ARC
8
DEFAULT_255_2_778
10
5.1585122
20
78.7029275
40
0.0790539
50
96.421357
51
165.1412647
0
ARC
8
DEFAULT_255_2_778
10
5.492674
20
78.5553514
40
0.4435569
50
157.7644812
51
172.530411
0
ARC
8
DEFAULT_255_2_778
10
6.4012853
20
78.4146676
40
1.362914
50
171.6319755
51
177.9919123
0
ARC
8
DEFAULT_255_2_778
10
7.6990267
20
78.3532301
40
2.6620589
50
177.6491281
51
180.087054
0
ARC
8
DEFAULT_255_2_778
10
6.8609137
20
78.3384433
40
1.8239745
50
179.6625593
51
184.9232403
0
ARC
8
DEFAULT_255_2_778
10
5.7015952
20
78.2318775
40
0.6598215
50
184.3432903
51
195.5371554
0
ARC
8
DEFAULT_255_2_778
10
5.2106518
20
78.0873392
40
0.1483048
50
192.5413857
51
227.0760739
0
ARC
8
DEFAULT_255_2_778
10
5.143982
20
78.0222858
40
0.0554492
50
231.7480255
51
270.1580397
0
ARC
8
DEFAULT_255_2_778
10
5.1440956
20
78.0294259
40
0.0625892
50
270.036058
51
275.1104953
0
ARC
8
DEFAULT_255_2_778
10
5.1415961
20
78.0498935
40
0.0832009
50
275.5694224
51
345.4133961
0
ARC
8
DEFAULT_255_2_778
10
4.8073288
20
78.1936788
40
0.4463033
50
338.3387234
51
353.5899199
0
ARC
8
DEFAULT_255_2_778
10
3.8820675
20
78.3193166
40
1.3799752
50
352.6950309
51
359.3943864
0
ARC
8
DEFAULT_255_2_778
10
2.8971672
20
78.3485253
40
2.3652038
50
358.9390349
51
0.0159894
0
ARC
8
DEFAULT_255_2_778
10
2.4040943
20
78.3974868
40
2.8586847
50
359.0318624
51
359.9857581
0
ARC
8
DEFAULT_255_2_778
10
3.5126871
20
78.4075721
40
1.750125
50
359.6465617
51
5.1637099
0
ARC
8
DEFAULT_255_2_778
10
4.613394
20
78.5132094
40
0.644407
50
4.6175131
51
15.9689058
0
ARC
8
DEFAULT_255_2_778
10
5.0834955
20
78.6555959
40
0.1534599
50
13.1452776
51
47.3255031
0
ARC
8
DEFAULT_255_2_778
10
5.1499236
20
78.7208679
40
0.0606181
50
51.6734116
51
90.2389346
0
LINE
8
DEFAULT_255_2_778
10
5.4804708
20
78.3792854
11
5.4804708
21
78.3792854
0
LINE
8
DEFAULT_255_2_778
10
5.1496708
20
78.7814854
11
5.1496708
21
78.7814854
0
ARC
8
DEFAULT_255_2_778
10
5.3068038
20
76.8221302
40
0.5329485
50
164.1309468
51
180.8915589
0
ARC
8
DEFAULT_255_2_778
10
5.0061179
20
76.9133964
40
0.2188372
50
135.1730989
51
165.5890547
0
ARC
8
DEFAULT_255_2_778
10
4.9084811
20
77.0089496
40
0.0822343
50
91.9242632
51
134.4340699
0
ARC
8
DEFAULT_255_2_778
10
4.9057198
20
76.9540756
40
0.1370619
50
89.5622971
51
89.9999966
0
ARC
8
DEFAULT_255_2_778
10
4.9093756
20
76.9999986
40
0.0911722
50
21.6963094
51
91.6396261
0
ARC
8
DEFAULT_255_2_778
10
4.7321097
20
76.9172115
40
0.2867115
50
4.6463955
51
23.9729218
0
ARC
8
DEFAULT_255_2_778
10
4.3098976
20
76.865217
40
0.7119662
50
359.6831409
51
6.0646744
0
ARC
8
DEFAULT_255_2_778
10
3.9445949
20
76.8618918
40
1.0772582
50
358.1525154
51
359.9674402
0
ARC
8
DEFAULT_255_2_778
10
3.8187379
20
76.8652405
40
1.2031579
50
357.9421795
51
358.1863539
0
ARC
8
DEFAULT_255_2_778
10
5.8605935
20
76.8312307
40
0.6501387
50
169.0542002
51
180.8102117
0
ARC
8
DEFAULT_255_2_778
10
5.4456206
20
76.9171705
40
0.2264659
50
144.7145143
51
170.4663556
0
ARC
8
DEFAULT_255_2_778
10
5.3277199
20
77.0013638
40
0.0815935
50
91.2641304
51
145.1500734
0
ARC
8
DEFAULT_255_2_778
10
5.3261427
20
77.331121
40
0.2481837
50
269.9485334
51
270.1543092
0
ARC
8
DEFAULT_255_2_778
10
5.3232582
20
77.8330295
40
0.7500993
50
270.2713884
51
271.0618607
0
ARC
8
DEFAULT_255_2_778
10
5.3502353
20
76.3951083
40
0.688075
50
90.1594352
51
91.0889286
0
ARC
8
DEFAULT_255_2_778
10
5.3584261
20
77.0108242
40
0.0730587
50
17.6576191
51
97.9506285
0
ARC
8
DEFAULT_255_2_778
10
5.1536846
20
76.9312909
40
0.2925989
50
4.110026
51
20.3378114
0
ARC
8
DEFAULT_255_2_778
10
4.5535961
20
76.8686711
40
0.8958433
50
359.6204977
51
5.3540434
0
ARC
8
DEFAULT_255_2_778
10
5.0217051
20
76.9265396
40
0.6099574
50
3.1858121
51
17.2587279
0
ARC
8
DEFAULT_255_2_778
10
5.3673823
20
77.0396727
40
0.2463402
50
15.9837311
51
47.5942539
0
ARC
8
DEFAULT_255_2_778
10
5.4213925
20
77.0867851
40
0.1753174
50
50.2453148
51
91.5599734
0
ARC
8
DEFAULT_255_2_778
10
5.4035926
20
77.0370593
40
0.2253551
50
86.6860254
51
124.225223
0
ARC
8
DEFAULT_255_2_778
10
5.4687836
20
76.9829329
40
0.3076707
50
128.5980808
51
152.5139848
0
ARC
8
DEFAULT_255_2_778
10
5.8860553
20
76.7263012
40
0.7970584
50
149.9914942
51
151.4498572
0
ARC
8
DEFAULT_255_2_778
10
4.9857994
20
77.0521206
40
0.2075718
50
15.3985447
51
90.448355
0
ARC
8
DEFAULT_255_2_778
10
4.984216
20
77.0478214
40
0.2118647
50
90.0110614
51
102.7364288
0
ARC
8
DEFAULT_255_2_778
10
4.9905831
20
77.0273807
40
0.2332123
50
103.1550552
51
130.6287493
0
ARC
8
DEFAULT_255_2_778
10
5.046551
20
76.9612529
40
0.319844
50
130.5243198
51
147.9967488
0
ARC
8
DEFAULT_255_2_778
10
5.1140297
20
76.9147362
40
0.4017362
50
147.4711152
51
150.0274572
0
LINE
8
DEFAULT_255_2_778
10
4.5927198
20
77.2541375
11
4.5927198
21
76.3571375
0
LINE
8
DEFAULT_255_2_778
10
4.5927198
20
76.3571375
11
4.7739198
21
76.3571375
0
LINE
8
DEFAULT_255_2_778
10
4.7739198
20
76.3571375
11
4.7739198
21
76.8138375
0
LINE
8
DEFAULT_255_2_778
10
5.0211198
20
76.8220375
11
5.0211198
21
76.3571375
0
LINE
8
DEFAULT_255_2_778
10
5.0211198
20
76.3571375
11
5.2105198
21
76.3571375
0
LINE
8
DEFAULT_255_2_778
10
5.2105198
20
76.3571375
11
5.2105198
21
76.8220375
0
LINE
8
DEFAULT_255_2_778
10
5.4494198
20
76.8627375
11
5.4494198
21
76.3571375
0
LINE
8
DEFAULT_255_2_778
10
5.4494198
20
76.3571375
11
5.6307198
21
76.3571375
0
LINE
8
DEFAULT_255_2_778
10
5.6307198
20
76.3571375
11
5.6307198
21
76.9604375
0
LINE
8
DEFAULT_255_2_778
10
4.7660198
20
77.1154375
11
4.7660198
21
77.2541375
0
LINE
8
DEFAULT_255_2_778
10
4.7660198
20
77.2541375
11
4.5927198
21
77.2541375
0
ARC
8
DEFAULT_255_2_778
10
3.1346309
20
77.2086817
40
0.2283323
50
359.844003
51
9.484809
0
ARC
8
DEFAULT_255_2_778
10
2.9713453
20
77.2207763
40
0.3918234
50
335.3133062
51
358.1401856
0
ARC
8
DEFAULT_255_2_778
10
2.4561215
20
77.4413181
40
0.9521839
50
325.2856218
51
336.2039615
0
ARC
8
DEFAULT_255_2_778
10
1.6205578
20
78.0078399
40
1.9616708
50
319.2024943
51
325.5823751
0
ARC
8
DEFAULT_255_2_778
10
0.4784484
20
78.9813603
40
3.4623732
50
315.5036372
51
319.3557689
0
LINE
8
DEFAULT_255_2_778
10
2.9481417
20
76.5547077
11
2.9481417
21
76.3571077
0
LINE
8
DEFAULT_255_2_778
10
2.9481417
20
76.3571077
11
3.5852417
21
76.3571077
0
LINE
8
DEFAULT_255_2_778
10
3.5852417
20
76.3571077
11
3.5852417
21
76.5436077
0
LINE
8
DEFAULT_255_2_778
10
3.5852417
20
76.5436077
11
3.1931417
21
76.5436077
0
ARC
8
DEFAULT_255_2_778
10
1.9453187
20
77.7874176
40
1.7618528
50
315.0922794
51
324.2157631
0
ARC
8
DEFAULT_255_2_778
10
2.5114762
20
77.3841379
40
1.0667673
50
324.0062212
51
338.4065067
0
ARC
8
DEFAULT_255_2_778
10
2.859326
20
77.246511
40
0.6926809
50
338.4026002
51
359.5201337
0
ARC
8
DEFAULT_255_2_778
10
2.9410702
20
77.2408064
40
0.6109127
50
359.9909259
51
10.8599357
0
ARC
8
DEFAULT_255_2_778
10
3.1953893
20
77.2680309
40
0.3566482
50
14.2643621
51
37.1925492
0
ARC
8
DEFAULT_255_2_778
10
3.2854061
20
77.326583
40
0.2496664
50
38.9763473
51
91.4358774
0
ARC
8
DEFAULT_255_2_778
10
3.2696916
20
77.1852386
40
0.391047
50
88.6140446
51
90.0055463
0
ARC
8
DEFAULT_255_2_778
10
3.2747577
20
77.0552089
40
0.5211018
50
90.5611939
51
102.6331161
0
ARC
8
DEFAULT_255_2_778
10
3.3498277
20
76.7072898
40
0.8770208
50
102.4475865
51
110.2645165
0
ARC
8
DEFAULT_255_2_778
10
3.4899127
20
76.3139522
40
1.2945402
50
110.0511809
51
113.7886526
0
ARC
8
DEFAULT_255_2_778
10
1.3333123
20
77.2671318
40
1.6507253
50
5.0846958
51
8.0574632
0
ARC
8
DEFAULT_255_2_778
10
-2.0218197
20
76.9543796
40
5.0203928
50
3.8332507
51
5.246321
0
ARC
8
DEFAULT_255_2_778
10
3.4460614
20
76.5726334
40
0.8514984
50
115.1638318
51
122.5965833
0
ARC
8
DEFAULT_255_2_778
10
3.264376
20
76.964969
40
0.4191498
50
102.7944336
51
115.4893854
0
ARC
8
DEFAULT_255_2_778
10
3.2197866
20
77.1537358
40
0.2252016
50
90.4647486
51
102.3672285
0
ARC
8
DEFAULT_255_2_778
10
3.2205721
20
77.2453424
40
0.133613
50
14.610437
51
91.1202027
0
ARC
8
DEFAULT_255_2_778
10
3.06887
20
77.1759488
40
0.2993106
50
13.5563535
51
20.148098
0
LINE
8
DEFAULT_255_2_778
10
3.3598417
20
77.2461077
11
3.3598417
21
77.2463077
0
ARC
8
DEFAULT_255_2_778
10
2.2697665
20
76.791931
40
0.0895515
50
90.4084338
51
118.4331068
0
ARC
8
DEFAULT_255_2_778
10
2.2850155
20
76.7718172
40
0.1145637
50
120.3503086
51
142.1708448
0
ARC
8
DEFAULT_255_2_778
10
2.4208236
20
76.6717168
40
0.2832549
50
143.0262506
51
162.3330026
0
ARC
8
DEFAULT_255_2_778
10
2.4160891
20
76.7884749
40
0.3369824
50
138.5195154
51
159.0288429
0
ARC
8
DEFAULT_255_2_778
10
2.2860921
20
76.899299
40
0.1662136
50
117.3893181
51
137.4583991
0
ARC
8
DEFAULT_255_2_778
10
2.2680587
20
76.9269658
40
0.1333926
50
94.9346269
51
115.9785255
0
ARC
8
DEFAULT_255_2_778
10
2.2681928
20
76.9295998
40
0.1307803
50
90.028313
51
95.092419
0
ARC
8
DEFAULT_255_2_778
10
2.2675084
20
76.8273652
40
0.2330159
50
67.1406479
51
89.847616
0
ARC
8
DEFAULT_255_2_778
10
2.2005116
20
76.6860574
40
0.3893118
50
54.1663215
51
66.1337849
0
ARC
8
DEFAULT_255_2_778
10
2.5924447
20
77.1608781
40
0.2220311
50
234.6955036
51
265.0348887
0
ARC
8
DEFAULT_255_2_778
10
2.5615985
20
77.0285977
40
0.0896748
50
277.4514894
51
326.5592277
0
ARC
8
DEFAULT_255_2_778
10
2.3358784
20
77.2129688
40
0.3807719
50
322.1217195
51
334.2486407
0
ARC
8
DEFAULT_255_2_778
10
5.2556124
20
75.7097797
40
2.9033383
50
152.2061945
51
152.5635219
0
ARC
8
DEFAULT_255_2_778
10
2.3884769
20
77.0576625
40
0.3764818
50
326.8394828
51
328.0220054
0
ARC
8
DEFAULT_255_2_778
10
2.552647
20
76.9283258
40
0.1693136
50
278.9639267
51
333.1036525
0
ARC
8
DEFAULT_255_2_778
10
2.5790517
20
76.9522912
40
0.191211
50
267.8773735
51
269.9929346
0
ARC
8
DEFAULT_255_2_778
10
2.5827985
20
76.9903271
40
0.2293714
50
246.8784253
51
267.2939834
0
ARC
8
DEFAULT_255_2_778
10
2.6576314
20
77.1527988
40
0.4082089
50
236.4589332
51
246.1735499
0
ARC
8
DEFAULT_255_2_778
10
26.9234971
20
115.5328031
40
45.8157898
50
237.6690478
51
237.6857359
0
ARC
8
DEFAULT_255_2_778
10
1.1884133
20
74.8687194
40
2.3076175
50
57.7202376
51
57.7753428
0
ARC
8
DEFAULT_255_2_778
10
2.8242543
20
77.4594537
40
0.7563501
50
237.1607907
51
237.595201
0
ARC
8
DEFAULT_255_2_778
10
41.0702361
20
136.0206956
40
70.7004181
50
236.8316222
51
236.8550039
0
ARC
8
DEFAULT_255_2_778
10
2.2158031
20
76.5787158
40
0.313791
50
56.2921677
51
64.8162738
0
ARC
8
DEFAULT_255_2_778
10
2.2645688
20
76.681435
40
0.2000849
50
64.9368396
51
85.6691957
0
ARC
8
DEFAULT_255_2_778
10
2.2693756
20
76.7210705
40
0.1602096
50
86.3129419
51
89.9811939
0
ARC
8
DEFAULT_255_2_778
10
4.8793575
20
76.8484377
40
0.9606451
50
181.6856074
51
190.311643
0
ARC
8
DEFAULT_255_2_778
10
4.3798543
20
76.7583672
40
0.4530873
50
190.4123567
51
198.7562632
0
ARC
8
DEFAULT_255_2_778
10
4.1529193
20
76.6794224
40
0.2128271
50
198.276219
51
213.782977
0
ARC
8
DEFAULT_255_2_778
10
4.0727029
20
76.6236918
40
0.1151791
50
212.9292174
51
237.5654193
0
ARC
8
DEFAULT_255_2_778
10
4.0446149
20
76.6238023
40
0.1146013
50
301.8726378
51
326.817455
0
ARC
8
DEFAULT_255_2_778
10
3.9634465
20
76.6802995
40
0.213474
50
326.0497944
51
341.5331204
0
ARC
8
DEFAULT_255_2_778
10
3.7399241
20
76.7603586
40
0.4508751
50
340.8806399
51
349.2785388
0
ARC
8
DEFAULT_255_2_778
10
3.2377845
20
76.8497758
40
0.9608995
50
349.6100111
51
358.235016
0
ARC
8
DEFAULT_255_2_778
10
3.2066122
20
77.0550159
40
0.992144
50
1.8693531
51
10.3450089
0
ARC
8
DEFAULT_255_2_778
10
3.746726
20
77.1534311
40
0.4431372
50
10.3677075
51
18.9969539
0
ARC
8
DEFAULT_255_2_778
10
3.9508104
20
77.225859
40
0.2266008
50
18.4785906
51
33.2432104
0
ARC
8
DEFAULT_255_2_778
10
4.0432707
20
77.2868592
40
0.115832
50
33.0792669
51
57.8973421
0
ARC
8
DEFAULT_255_2_778
10
4.0749377
20
77.2860883
40
0.1176372
50
122.7910004
51
147.0452534
0
ARC
8
DEFAULT_255_2_778
10
4.1580846
20
77.231942
40
0.2168603
50
146.991307
51
162.3539379
0
ARC
8
DEFAULT_255_2_778
10
4.3934531
20
77.1488209
40
0.4664174
50
161.3881837
51
169.5797565
0
ARC
8
DEFAULT_255_2_778
10
4.8147794
20
77.0701316
40
0.895028
50
169.5037314
51
176.8145423
0
ARC
8
DEFAULT_255_2_778
10
5.5472551
20
77.0181745
40
1.6292974
50
176.4215767
51
177.5655857
0
ARC
8
DEFAULT_255_2_778
10
3.7178341
20
76.7884521
40
0.6614095
50
337.8033314
51
346.4849532
0
ARC
8
DEFAULT_255_2_778
10
3.9210132
20
76.7026707
40
0.4408884
50
326.0236877
51
338.1497768
0
ARC
8
DEFAULT_255_2_778
10
4.0377555
20
76.6238127
40
0.3000079
50
309.3378829
51
326.0529285
0
ARC
8
DEFAULT_255_2_778
10
4.0841894
20
76.6294915
40
0.309191
50
212.3645338
51
229.0457357
0
ARC
8
DEFAULT_255_2_778
10
4.1977428
20
76.7016504
40
0.4437321
50
200.0968801
51
212.3857207
0
ARC
8
DEFAULT_255_2_778
10
4.4508568
20
76.7970775
40
0.7142293
50
192.1887485
51
200.3090373
0
ARC
8
DEFAULT_255_2_778
10
4.4215203
20
77.11095
40
0.6809394
50
157.0396683
51
165.5142008
0
ARC
8
DEFAULT_255_2_778
10
4.201561
20
77.2058241
40
0.4413993
50
145.2405281
51
157.2412475
0
ARC
8
DEFAULT_255_2_778
10
4.091662
20
77.2830027
40
0.3071105
50
129.3520856
51
145.3803269
0
ARC
8
DEFAULT_255_2_778
10
4.0275559
20
77.2774816
40
0.3136874
50
33.799049
51
49.943246
0
ARC
8
DEFAULT_255_2_778
10
3.9141536
20
77.2037188
40
0.4489604
50
21.5160287
51
33.5709647
0
ARC
8
DEFAULT_255_2_778
10
3.6867664
20
77.1115968
40
0.6942927
50
13.3391373
51
21.7062959
0
LINE
8
DEFAULT_255_2_778
10
2.1509282
20
76.7576802
11
2.1014282
21
76.9090802
0
LINE
8
DEFAULT_255_2_778
10
2.4284282
20
77.0016802
11
2.4641282
21
76.9796802
0
LINE
8
DEFAULT_255_2_778
10
2.6872282
20
77.0635802
11
2.7369282
21
76.9121802
0
LINE
8
DEFAULT_255_2_778
10
2.7369282
20
76.9121802
11
2.7078282
21
76.8582802
0
LINE
8
DEFAULT_255_2_778
10
3.9170282
20
76.9523802
11
3.9191282
21
76.8201802
0
LINE
8
DEFAULT_255_2_778
10
4.0109282
20
76.5264802
11
4.0326282
21
76.5171802
0
LINE
8
DEFAULT_255_2_778
10
4.0326282
20
76.5171802
11
4.0575282
21
76.5139802
0
LINE
8
DEFAULT_255_2_778
10
4.0575282
20
76.5139802
11
4.0829282
21
76.5171802
0
LINE
8
DEFAULT_255_2_778
10
4.0829282
20
76.5171802
11
4.1051282
21
76.5264802
0
LINE
8
DEFAULT_255_2_778
10
4.1982282
20
76.8201802
11
4.2003282
21
76.9523802
0
LINE
8
DEFAULT_255_2_778
10
4.2003282
20
76.9523802
11
4.1982282
21
77.0873802
0
LINE
8
DEFAULT_255_2_778
10
4.1048282
20
77.3849802
11
4.0829282
21
77.3945802
0
LINE
8
DEFAULT_255_2_778
10
4.0829282
20
77.3945802
11
4.0577282
21
77.3976802
0
LINE
8
DEFAULT_255_2_778
10
4.0577282
20
77.3976802
11
4.0329282
21
77.3945802
0
LINE
8
DEFAULT_255_2_778
10
4.0329282
20
77.3945802
11
4.0112282
21
77.3849802
0
LINE
8
DEFAULT_255_2_778
10
3.9194282
20
77.0873802
11
3.9172282
21
76.9523802
0
LINE
8
DEFAULT_255_2_778
10
4.3940282
20
76.9515802
11
4.3932282
21
76.8986802
0
LINE
8
DEFAULT_255_2_778
10
4.3932282
20
76.8986802
11
4.3908282
21
76.8449802
0
LINE
8
DEFAULT_255_2_778
10
4.3908282
20
76.8449802
11
4.3805282
21
76.7375802
0
LINE
8
DEFAULT_255_2_778
10
4.3805282
20
76.7375802
11
4.3609282
21
76.6338802
0
LINE
8
DEFAULT_255_2_778
10
4.2279282
20
76.3917802
11
4.1924282
21
76.3676802
0
LINE
8
DEFAULT_255_2_778
10
4.1924282
20
76.3676802
11
4.1524282
21
76.3496802
0
LINE
8
DEFAULT_255_2_778
10
4.1524282
20
76.3496802
11
4.1077282
21
76.3385802
0
LINE
8
DEFAULT_255_2_778
10
4.1077282
20
76.3385802
11
4.0837282
21
76.3356802
0
LINE
8
DEFAULT_255_2_778
10
4.0837282
20
76.3356802
11
4.0583282
21
76.3345802
0
LINE
8
DEFAULT_255_2_778
10
4.0583282
20
76.3345802
11
4.0313282
21
76.3356802
0
LINE
8
DEFAULT_255_2_778
10
4.0313282
20
76.3356802
11
4.0059282
21
76.3388802
0
LINE
8
DEFAULT_255_2_778
10
4.0059282
20
76.3388802
11
3.9590282
21
76.3509802
0
LINE
8
DEFAULT_255_2_778
10
3.9590282
20
76.3509802
11
3.9178282
21
76.3703802
0
LINE
8
DEFAULT_255_2_778
10
3.9178282
20
76.3703802
11
3.8815282
21
76.3959802
0
LINE
8
DEFAULT_255_2_778
10
3.7527282
20
76.6462802
11
3.7429282
21
76.6975802
0
LINE
8
DEFAULT_255_2_778
10
3.7429282
20
76.6975802
11
3.7357282
21
76.7497802
0
LINE
8
DEFAULT_255_2_778
10
3.7357282
20
76.7497802
11
3.7307282
21
76.8018802
0
LINE
8
DEFAULT_255_2_778
10
3.7307282
20
76.8018802
11
3.7275282
21
76.8534802
0
LINE
8
DEFAULT_255_2_778
10
3.7275282
20
76.8534802
11
3.7265282
21
76.8788802
0
LINE
8
DEFAULT_255_2_778
10
3.7265282
20
76.8788802
11
3.7257282
21
76.9037802
0
LINE
8
DEFAULT_255_2_778
10
3.7257282
20
76.9037802
11
3.7254282
21
76.9158802
0
LINE
8
DEFAULT_255_2_778
10
3.7254282
20
76.9158802
11
3.7251282
21
76.9280802
0
LINE
8
DEFAULT_255_2_778
10
3.7251282
20
76.9280802
11
3.7251282
21
76.9399802
0
LINE
8
DEFAULT_255_2_778
10
3.7251282
20
76.9399802
11
3.7251282
21
76.9457802
0
LINE
8
DEFAULT_255_2_778
10
3.7251282
20
76.9457802
11
3.7251282
21
76.9515802
0
LINE
8
DEFAULT_255_2_778
10
3.7251282
20
76.9515802
11
3.7251282
21
76.9587802
0
LINE
8
DEFAULT_255_2_778
10
3.7251282
20
76.9587802
11
3.7251282
21
76.9658802
0
LINE
8
DEFAULT_255_2_778
10
3.7251282
20
76.9658802
11
3.7254282
21
76.9799802
0
LINE
8
DEFAULT_255_2_778
10
3.7254282
20
76.9799802
11
3.7262282
21
77.0082802
0
LINE
8
DEFAULT_255_2_778
10
3.7262282
20
77.0082802
11
3.7273282
21
77.0365802
0
LINE
8
DEFAULT_255_2_778
10
3.7273282
20
77.0365802
11
3.7289282
21
77.0648802
0
LINE
8
DEFAULT_255_2_778
10
3.7289282
20
77.0648802
11
3.7336282
21
77.1209802
0
LINE
8
DEFAULT_255_2_778
10
3.7336282
20
77.1209802
11
3.7408282
21
77.1759802
0
LINE
8
DEFAULT_255_2_778
10
3.7408282
20
77.1759802
11
3.7503282
21
77.2296802
0
LINE
8
DEFAULT_255_2_778
10
3.7503282
20
77.2296802
11
3.7622282
21
77.2812802
0
LINE
8
DEFAULT_255_2_778
10
3.8969282
20
77.5204802
11
3.9313282
21
77.5437802
0
LINE
8
DEFAULT_255_2_778
10
3.9313282
20
77.5437802
11
3.9696282
21
77.5611802
0
LINE
8
DEFAULT_255_2_778
10
3.9696282
20
77.5611802
11
4.0120282
21
77.5720802
0
LINE
8
DEFAULT_255_2_778
10
4.0120282
20
77.5720802
11
4.0347282
21
77.5746802
0
LINE
8
DEFAULT_255_2_778
10
4.0347282
20
77.5746802
11
4.0585282
21
77.5757802
0
LINE
8
DEFAULT_255_2_778
10
4.0585282
20
77.5757802
11
4.0842282
21
77.5746802
0
LINE
8
DEFAULT_255_2_778
10
4.0842282
20
77.5746802
11
4.1085282
21
77.5717802
0
LINE
8
DEFAULT_255_2_778
10
4.1085282
20
77.5717802
11
4.1535282
21
77.5604802
0
LINE
8
DEFAULT_255_2_778
10
4.1535282
20
77.5604802
11
4.1937282
21
77.5421802
0
LINE
8
DEFAULT_255_2_778
10
4.1937282
20
77.5421802
11
4.2294282
21
77.5175802
0
LINE
8
DEFAULT_255_2_778
10
4.3623282
20
77.2717802
11
4.3816282
21
77.1669802
0
LINE
8
DEFAULT_255_2_778
10
4.3816282
20
77.1669802
11
4.3916282
21
77.0587802
0
LINE
8
DEFAULT_255_2_778
10
4.3916282
20
77.0587802
11
4.3937282
21
77.0047802
0
LINE
8
DEFAULT_255_2_778
10
4.3937282
20
77.0047802
11
4.3945282
21
76.9518802
0
ARC
8
DEFAULT_255_2_778
10
0.0851726
20
76.9637011
40
1.7475368
50
359.6191593
51
7.0973932
0
ARC
8
DEFAULT_255_2_778
10
0.9874493
20
77.0820258
40
0.8375752
50
6.6913237
51
20.1761301
0
ARC
8
DEFAULT_255_2_778
10
1.4446434
20
77.2575697
40
0.3479615
50
19.0098495
51
49.6446079
0
ARC
8
DEFAULT_255_2_778
10
1.5157259
20
77.3240722
40
0.2515012
50
52.1754676
51
91.5162955
0
ARC
8
DEFAULT_255_2_778
10
1.5022632
20
77.2884356
40
0.2871305
50
88.6414419
51
163.513564
0
ARC
8
DEFAULT_255_2_778
10
1.9532021
20
77.096622
40
0.7759845
50
159.3783703
51
173.7397236
0
ARC
8
DEFAULT_255_2_778
10
2.698749
20
77.0007739
40
1.5276013
50
173.2154333
51
180.31463
0
ARC
8
DEFAULT_255_2_778
10
3.1310967
20
76.9800416
40
1.9599648
50
179.6391503
51
186.7818308
0
ARC
8
DEFAULT_255_2_778
10
2.1375677
20
76.8566145
40
0.9588265
50
186.4687928
51
198.6158509
0
ARC
8
DEFAULT_255_2_778
10
1.6197197
20
76.6750557
40
0.4101704
50
197.6727191
51
223.5304688
0
ARC
8
DEFAULT_255_2_778
10
1.5019905
20
76.5737295
40
0.2551423
50
225.2424437
51
271.5901837
0
ARC
8
DEFAULT_255_2_778
10
1.5113619
20
76.5823793
40
0.2637039
50
269.5022127
51
340.0095637
0
ARC
8
DEFAULT_255_2_778
10
1.101745
20
76.7827913
40
0.7187796
50
336.1562096
51
351.1302691
0
ARC
8
DEFAULT_255_2_778
10
0.2954934
20
76.9206376
40
1.5366899
50
350.6871983
51
358.983552
0
ARC
8
DEFAULT_255_2_778
10
-0.47478
20
76.9513953
40
2.3074511
50
358.5592232
51
0.0171348
0
ARC
8
DEFAULT_255_2_778
10
1.5107122
20
77.2757275
40
0.0790539
50
96.421357
51
165.1412647
0
ARC
8
DEFAULT_255_2_778
10
1.844874
20
77.1281514
40
0.4435569
50
157.7644812
51
172.530411
0
ARC
8
DEFAULT_255_2_778
10
2.7534853
20
76.9874676
40
1.362914
50
171.6319755
51
177.9919123
0
ARC
8
DEFAULT_255_2_778
10
4.0512267
20
76.9260301
40
2.6620589
50
177.6491281
51
180.087054
0
ARC
8
DEFAULT_255_2_778
10
3.2131137
20
76.9112433
40
1.8239745
50
179.6625593
51
184.9232403
0
ARC
8
DEFAULT_255_2_778
10
2.0537952
20
76.8046775
40
0.6598215
50
184.3432903
51
195.5371554
0
ARC
8
DEFAULT_255_2_778
10
1.5628518
20
76.6601392
40
0.1483048
50
192.5413857
51
227.0760739
0
ARC
8
DEFAULT_255_2_778
10
1.496182
20
76.5950858
40
0.0554492
50
231.7480255
51
270.1580397
0
ARC
8
DEFAULT_255_2_778
10
1.4962956
20
76.6022259
40
0.0625892
50
270.036058
51
275.1104953
0
ARC
8
DEFAULT_255_2_778
10
1.4937961
20
76.6226935
40
0.0832009
50
275.5694224
51
345.4133961
0
ARC
8
DEFAULT_255_2_778
10
1.1595288
20
76.7664788
40
0.4463033
50
338.3387234
51
353.5899199
0
ARC
8
DEFAULT_255_2_778
10
0.2342675
20
76.8921166
40
1.3799752
50
352.6950309
51
359.3943864
0
ARC
8
DEFAULT_255_2_778
10
-0.7506328
20
76.9213253
40
2.3652038
50
358.9390349
51
0.0159894
0
ARC
8
DEFAULT_255_2_778
10
-1.2437057
20
76.9702868
40
2.8586847
50
359.0318624
51
359.9857581
0
ARC
8
DEFAULT_255_2_778
10
-0.1351129
20
76.9803721
40
1.750125
50
359.6465617
51
5.1637099
0
ARC
8
DEFAULT_255_2_778
10
0.965594
20
77.0860094
40
0.644407
50
4.6175131
51
15.9689058
0
ARC
8
DEFAULT_255_2_778
10
1.4356955
20
77.2283959
40
0.1534599
50
13.1452776
51
47.3255031
0
ARC
8
DEFAULT_255_2_778
10
1.5021236
20
77.2936679
40
0.0606181
50
51.6734116
51
90.2389346
0
LINE
8
DEFAULT_255_2_778
10
1.8326708
20
76.9520854
11
1.8326708
21
76.9520854
0
LINE
8
DEFAULT_255_2_778
10
1.5018708
20
77.3542854
11
1.5018708
21
77.3542854
0
LINE
8
DEFAULT_255_2_778
10
5.7756771
20
76.3563104
11
6.1497771
21
77.5559104
0
LINE
8
DEFAULT_255_2_778
10
6.1497771
20
77.5559104
11
6.3667771
21
77.5559104
0
LINE
8
DEFAULT_255_2_778
10
6.3667771
20
77.5559104
11
6.7434771
21
76.3563104
0
LINE
8
DEFAULT_255_2_778
10
6.7434771
20
76.3563104
11
6.5305771
21
76.3563104
0
LINE
8
DEFAULT_255_2_778
10
6.5305771
20
76.3563104
11
6.4479771
21
76.6312104
0
LINE
8
DEFAULT_255_2_778
10
6.4479771
20
76.6312104
11
6.0587771
21
76.6312104
0
LINE
8
DEFAULT_255_2_778
10
6.0587771
20
76.6312104
11
5.9751771
21
76.3563104
0
LINE
8
DEFAULT_255_2_778
10
5.9751771
20
76.3563104
11
5.7756771
21
76.3563104
0
LINE
8
DEFAULT_255_2_778
10
6.2526771
20
77.3154104
11
6.1137771
21
76.8204104
0
LINE
8
DEFAULT_255_2_778
10
6.1137771
20
76.8204104
11
6.3942771
21
76.8204104
0
LINE
8
DEFAULT_255_2_778
10
6.3942771
20
76.8204104
11
6.2553771
21
77.3154104
0
LINE
8
DEFAULT_255_2_778
10
6.2553771
20
77.3154104
11
6.2526771
21
77.3154104
0
ARC
8
DEFAULT_255_2_778
10
3.942246
20
82.2253933
40
0.1837166
50
358.1479102
51
81.1552332
0
ARC
8
DEFAULT_255_2_778
10
3.82463
20
81.8353535
40
0.5898903
50
75.6838038
51
90.3008152
0
ARC
8
DEFAULT_255_2_778
10
3.8098769
20
81.4791423
40
0.9461652
50
89.2941393
51
90.0023284
0
ARC
8
DEFAULT_255_2_778
10
3.8114361
20
81.3040871
40
1.1212216
50
90.0816411
51
93.4008525
0
ARC
8
DEFAULT_255_2_778
10
3.8267545
20
81.0245715
40
1.4011542
50
93.3481111
51
95.0644156
0
LINE
8
DEFAULT_255_2_778
10
3.7030667
20
82.4202557
11
3.7030667
21
82.0183557
0
ARC
8
DEFAULT_255_2_778
10
3.8380459
20
83.2762225
40
1.2650882
50
263.8751377
51
267.3916865
0
ARC
8
DEFAULT_255_2_778
10
3.8238966
20
82.9862016
40
0.9747243
50
267.4467321
51
269.9573375
0
ARC
8
DEFAULT_255_2_778
10
3.8335409
20
82.5769357
40
0.5655532
50
268.94936
51
284.0864791
0
ARC
8
DEFAULT_255_2_778
10
3.9272965
20
82.2328445
40
0.2091136
50
282.1162486
51
323.6547279
0
ARC
8
DEFAULT_255_2_778
10
3.9320295
20
82.2129225
40
0.1939473
50
327.5695237
51
1.9303785
0
ARC
8
DEFAULT_255_2_778
10
3.7404631
20
80.8037929
40
0.8692909
50
90.0281769
51
91.9972696
0
ARC
8
DEFAULT_255_2_778
10
3.7511823
20
81.1949477
40
0.4782659
50
74.5662192
51
91.3354854
0
ARC
8
DEFAULT_255_2_778
10
3.8418544
20
81.5021003
40
0.1581609
50
31.0407978
51
76.6176015
0
ARC
8
DEFAULT_255_2_778
10
4.154291
20
81.6282629
40
0.2377304
50
25.88707
51
69.4431999
0
ARC
8
DEFAULT_255_2_778
10
4.1402018
20
82.2470059
40
0.4079877
50
283.835598
51
321.6656344
0
ARC
8
DEFAULT_255_2_778
10
4.1032153
20
82.249184
40
0.4388648
50
324.4387043
51
356.3944911
0
ARC
8
DEFAULT_255_2_778
10
3.8253655
20
82.2880709
40
0.7189267
50
354.6937653
51
0.0983506
0
ARC
8
DEFAULT_255_2_778
10
3.7217788
20
82.2892392
40
0.8225123
50
0.0045813
51
0.9973266
0
ARC
8
DEFAULT_255_2_778
10
4.0721375
20
82.2952477
40
0.4721023
50
1.0083307
51
30.8983148
0
ARC
8
DEFAULT_255_2_778
10
4.1233077
20
82.3040591
40
0.4240824
50
33.427746
51
72.2064998
0
ARC
8
DEFAULT_255_2_778
10
3.9739294
20
81.8947467
40
0.8596344
50
71.063221
51
86.2041637
0
ARC
8
DEFAULT_255_2_778
10
3.9209734
20
81.3566748
40
1.4001374
50
85.4995274
51
90.1074287
0
ARC
8
DEFAULT_255_2_778
10
3.9186549
20
81.0661129
40
1.6906969
50
90.0103971
51
91.3281635
0
LINE
8
DEFAULT_255_2_778
10
3.8794667
20
82.7563557
11
3.2865667
21
82.7563557
0
LINE
8
DEFAULT_255_2_778
10
4.1258667
20
82.2194557
11
4.1258667
21
82.2194557
0
LINE
8
DEFAULT_255_2_778
10
3.2865667
20
82.7560557
11
3.2865667
21
80.9600557
0
LINE
8
DEFAULT_255_2_778
10
3.2865667
20
80.9600557
11
3.7101667
21
80.9600557
0
LINE
8
DEFAULT_255_2_778
10
3.7101667
20
80.9600557
11
3.7101667
21
81.6725557
0
LINE
8
DEFAULT_255_2_778
10
3.9773667
20
81.5836557
11
4.1792667
21
80.9677557
0
LINE
8
DEFAULT_255_2_778
10
4.1792667
20
80.9677557
11
4.6158667
21
80.9603557
0
LINE
8
DEFAULT_255_2_778
10
4.6158667
20
80.9603557
11
4.3681667
21
81.7320557
0
LINE
8
DEFAULT_255_2_778
10
3.2865667
20
82.7563557
11
3.2865667
21
82.7560557
0
ARC
8
DEFAULT_255_2_778
10
5.515446
20
82.2253933
40
0.1837166
50
358.1479102
51
81.1552332
0
ARC
8
DEFAULT_255_2_778
10
5.39783
20
81.8353535
40
0.5898903
50
75.6838038
51
90.3008152
0
ARC
8
DEFAULT_255_2_778
10
5.3830769
20
81.4791423
40
0.9461652
50
89.2941393
51
90.0023284
0
ARC
8
DEFAULT_255_2_778
10
5.3846361
20
81.3040871
40
1.1212216
50
90.0816411
51
93.4008525
0
ARC
8
DEFAULT_255_2_778
10
5.3999545
20
81.0245715
40
1.4011542
50
93.3481111
51
95.0644156
0
LINE
8
DEFAULT_255_2_778
10
5.2762667
20
82.4202557
11
5.2762667
21
82.0183557
0
ARC
8
DEFAULT_255_2_778
10
5.4112459
20
83.2762225
40
1.2650882
50
263.8751377
51
267.3916865
0
ARC
8
DEFAULT_255_2_778
10
5.3970966
20
82.9862016
40
0.9747243
50
267.4467321
51
269.9573375
0
ARC
8
DEFAULT_255_2_778
10
5.4067409
20
82.5769357
40
0.5655532
50
268.94936
51
284.0864791
0
ARC
8
DEFAULT_255_2_778
10
5.5004965
20
82.2328445
40
0.2091136
50
282.1162486
51
323.6547279
0
ARC
8
DEFAULT_255_2_778
10
5.5052295
20
82.2129225
40
0.1939473
50
327.5695237
51
1.9303785
0
ARC
8
DEFAULT_255_2_778
10
5.3136631
20
80.8037929
40
0.8692909
50
90.0281769
51
91.9972696
0
ARC
8
DEFAULT_255_2_778
10
5.3243823
20
81.1949477
40
0.4782659
50
74.5662192
51
91.3354854
0
ARC
8
DEFAULT_255_2_778
10
5.4150544
20
81.5021003
40
0.1581609
50
31.0407978
51
76.6176015
0
ARC
8
DEFAULT_255_2_778
10
5.727491
20
81.6282629
40
0.2377304
50
25.88707
51
69.4431999
0
ARC
8
DEFAULT_255_2_778
10
5.7134018
20
82.2470059
40
0.4079877
50
283.835598
51
321.6656344
0
ARC
8
DEFAULT_255_2_778
10
5.6764153
20
82.249184
40
0.4388648
50
324.4387043
51
356.3944911
0
ARC
8
DEFAULT_255_2_778
10
5.3985655
20
82.2880709
40
0.7189267
50
354.6937653
51
0.0983506
0
ARC
8
DEFAULT_255_2_778
10
5.2949788
20
82.2892392
40
0.8225123
50
0.0045813
51
0.9973266
0
ARC
8
DEFAULT_255_2_778
10
5.6453375
20
82.2952477
40
0.4721023
50
1.0083307
51
30.8983148
0
ARC
8
DEFAULT_255_2_778
10
5.6965077
20
82.3040591
40
0.4240824
50
33.427746
51
72.2064998
0
ARC
8
DEFAULT_255_2_778
10
5.5471294
20
81.8947467
40
0.8596344
50
71.063221
51
86.2041637
0
ARC
8
DEFAULT_255_2_778
10
5.4941734
20
81.3566748
40
1.4001374
50
85.4995274
51
90.1074287
0
ARC
8
DEFAULT_255_2_778
10
5.4918549
20
81.0661129
40
1.6906969
50
90.0103971
51
91.3281635
0
LINE
8
DEFAULT_255_2_778
10
5.4526667
20
82.7563557
11
4.8597667
21
82.7563557
0
LINE
8
DEFAULT_255_2_778
10
5.6990667
20
82.2194557
11
5.6990667
21
82.2194557
0
LINE
8
DEFAULT_255_2_778
10
4.8597667
20
82.7560557
11
4.8597667
21
80.9600557
0
LINE
8
DEFAULT_255_2_778
10
4.8597667
20
80.9600557
11
5.2833667
21
80.9600557
0
LINE
8
DEFAULT_255_2_778
10
5.2833667
20
80.9600557
11
5.2833667
21
81.6725557
0
LINE
8
DEFAULT_255_2_778
10
5.5505667
20
81.5836557
11
5.7524667
21
80.9677557
0
LINE
8
DEFAULT_255_2_778
10
5.7524667
20
80.9677557
11
6.1890667
21
80.9603557
0
LINE
8
DEFAULT_255_2_778
10
6.1890667
20
80.9603557
11
5.9413667
21
81.7320557
0
LINE
8
DEFAULT_255_2_778
10
4.8597667
20
82.7563557
11
4.8597667
21
82.7560557
0
LINE
8
DEFAULT_255_2_778
10
2.9515938
20
81.2431281
11
2.9515938
21
80.9600281
0
LINE
8
DEFAULT_255_2_778
10
2.9515938
20
80.9600281
11
1.8863938
21
80.9600281
0
LINE
8
DEFAULT_255_2_778
10
1.8863938
20
80.9600281
11
1.8863938
21
82.7563281
0
LINE
8
DEFAULT_255_2_778
10
1.8863938
20
82.7563281
11
2.9465938
21
82.7563281
0
LINE
8
DEFAULT_255_2_778
10
2.9465938
20
82.7563281
11
2.9465938
21
82.4732281
0
LINE
8
DEFAULT_255_2_778
10
2.9465938
20
82.4732281
11
2.2464938
21
82.4732281
0
LINE
8
DEFAULT_255_2_778
10
2.2464938
20
82.4732281
11
2.2464938
21
82.0305281
0
LINE
8
DEFAULT_255_2_778
10
2.2464938
20
82.0305281
11
2.8872938
21
82.0305281
0
LINE
8
DEFAULT_255_2_778
10
2.8872938
20
82.0305281
11
2.8872938
21
81.7474281
0
LINE
8
DEFAULT_255_2_778
10
2.8872938
20
81.7474281
11
2.2464938
21
81.7474281
0
LINE
8
DEFAULT_255_2_778
10
2.2464938
20
81.7474281
11
2.2464938
21
81.2429281
0
LINE
8
DEFAULT_255_2_778
10
2.2464938
20
81.2429281
11
2.9515938
21
81.2429281
0
ARC
8
DEFAULT_255_2_778
10
11.8468396
20
90.190068
40
3.1650418
50
306.7416363
51
311.6609691
0
ARC
8
DEFAULT_255_2_778
10
12.605639
20
89.3424253
40
2.0273879
50
311.5635832
51
318.7376799
0
ARC
8
DEFAULT_255_2_778
10
13.2153305
20
88.8120269
40
1.2192869
50
318.5780689
51
329.4359517
0
ARC
8
DEFAULT_255_2_778
10
13.6600257
20
88.5540611
40
0.7052126
50
329.110663
51
347.7723306
0
ARC
8
DEFAULT_255_2_778
10
13.8464664
20
88.507552
40
0.5131858
50
348.4384811
51
359.8814255
0
ARC
8
DEFAULT_255_2_778
10
13.870188
20
88.5050582
40
0.4894652
50
0.1676024
51
27.028022
0
ARC
8
DEFAULT_255_2_778
10
13.7966617
20
88.4732738
40
0.5694278
50
26.5149269
51
27.2941448
0
ARC
8
DEFAULT_255_2_778
10
13.8474412
20
88.4154917
40
0.5558318
50
35.0108394
51
80.4669575
0
ARC
8
DEFAULT_255_2_778
10
13.7766609
20
88.1047037
40
0.8742425
50
79.2654806
51
90.3330231
0
ARC
8
DEFAULT_255_2_778
10
13.7767161
20
87.7197653
40
1.2591766
50
90.2337282
51
97.9210341
0
ARC
8
DEFAULT_255_2_778
10
13.8473386
20
87.1997997
40
1.7839144
50
97.8662136
51
103.6363744
0
ARC
8
DEFAULT_255_2_778
10
13.9997042
20
86.5617283
40
2.4399222
50
103.5809437
51
107.712215
0
ARC
8
DEFAULT_255_2_778
10
14.2132545
20
85.9889071
40
2.7204935
50
107.1980085
51
110.1255432
0
ARC
8
DEFAULT_255_2_778
10
13.9304368
20
86.9074625
40
1.7593864
50
103.2065035
51
107.2442892
0
ARC
8
DEFAULT_255_2_778
10
13.7726185
20
87.5861669
40
1.0625774
50
97.5497018
51
103.2827087
0
ARC
8
DEFAULT_255_2_778
10
13.714873
20
88.0242387
40
0.6207164
50
90.3389305
51
97.5784745
0
ARC
8
DEFAULT_255_2_778
10
13.7170798
20
88.3302669
40
0.314732
50
74.3327253
51
91.0702405
0
ARC
8
DEFAULT_255_2_778
10
13.7697852
20
88.501706
40
0.1355023
50
1.0617477
51
76.2146868
0
ARC
8
DEFAULT_255_2_778
10
13.6659428
20
88.4850289
40
0.2400895
50
359.9296112
51
4.5839752
0
ARC
8
DEFAULT_255_2_778
10
13.5749934
20
88.486796
40
0.3310451
50
350.6375888
51
359.6431073
0
ARC
8
DEFAULT_255_2_778
10
13.3958624
20
88.5153255
40
0.512432
50
344.5535612
51
350.7484317
0
ARC
8
DEFAULT_255_2_778
10
13.2568688
20
88.5514035
40
0.6560179
50
343.5369386
51
344.7495837
0
ARC
8
DEFAULT_255_2_778
10
12.5363505
20
89.0571567
40
1.5165534
50
318.5496521
51
332.8656756
0
ARC
8
DEFAULT_255_2_778
10
11.9439912
20
89.5703848
40
2.3002984
50
309.7464888
51
318.7350881
0
ARC
8
DEFAULT_255_2_778
10
11.3725952
20
90.2399534
40
3.1804826
50
305.60586
51
309.9485954
0
LINE
8
DEFAULT_255_2_778
10
13.2242917
20
87.6540899
11
13.2242917
21
87.3510899
0
LINE
8
DEFAULT_255_2_778
10
13.2242917
20
87.3510899
11
14.3820917
21
87.3510899
0
ARC
8
DEFAULT_255_2_778
10
14.4226608
20
87.3669643
40
0.0435643
50
175.9681092
51
201.3700773
0
ARC
8
DEFAULT_255_2_778
10
15.9846117
20
87.4579039
40
1.6078108
50
180.7590449
51
183.1331203
0
ARC
8
DEFAULT_255_2_778
10
21.9030074
20
87.5715362
40
7.527275
50
180.3260385
51
181.0271222
0
ARC
8
DEFAULT_255_2_778
10
33.4210314
20
87.6464727
40
19.0455413
50
179.9770847
51
180.3542957
0
LINE
8
DEFAULT_255_2_778
10
14.3754917
20
87.6540899
11
13.7401917
21
87.6540899
0
LINE
8
DEFAULT_255_2_778
10
13.2573917
20
88.8859899
11
13.2771917
21
88.5432899
0
LINE
8
DEFAULT_255_2_778
10
13.7401917
20
87.6540899
11
13.7401917
21
87.6537899
0
ARC
8
DEFAULT_255_2_778
10
7.0642396
20
90.190068
40
3.1650418
50
306.7416363
51
311.6609691
0
ARC
8
DEFAULT_255_2_778
10
7.823039
20
89.3424253
40
2.0273879
50
311.5635832
51
318.7376799
0
ARC
8
DEFAULT_255_2_778
10
8.4327305
20
88.8120269
40
1.2192869
50
318.5780689
51
329.4359517
0
ARC
8
DEFAULT_255_2_778
10
8.8774257
20
88.5540611
40
0.7052126
50
329.110663
51
347.7723306
0
ARC
8
DEFAULT_255_2_778
10
9.0638664
20
88.507552
40
0.5131858
50
348.4384811
51
359.8814255
0
ARC
8
DEFAULT_255_2_778
10
9.087588
20
88.5050582
40
0.4894652
50
0.1676024
51
27.028022
0
ARC
8
DEFAULT_255_2_778
10
9.0140617
20
88.4732738
40
0.5694278
50
26.5149269
51
27.2941448
0
ARC
8
DEFAULT_255_2_778
10
9.0648412
20
88.4154917
40
0.5558318
50
35.0108394
51
80.4669575
0
ARC
8
DEFAULT_255_2_778
10
8.9940609
20
88.1047037
40
0.8742425
50
79.2654806
51
90.3330231
0
ARC
8
DEFAULT_255_2_778
10
8.9941161
20
87.7197653
40
1.2591766
50
90.2337282
51
97.9210341
0
ARC
8
DEFAULT_255_2_778
10
9.0647386
20
87.1997997
40
1.7839144
50
97.8662136
51
103.6363744
0
ARC
8
DEFAULT_255_2_778
10
9.2171042
20
86.5617283
40
2.4399222
50
103.5809437
51
107.712215
0
ARC
8
DEFAULT_255_2_778
10
9.4306545
20
85.9889071
40
2.7204935
50
107.1980085
51
110.1255432
0
ARC
8
DEFAULT_255_2_778
10
9.1478368
20
86.9074625
40
1.7593864
50
103.2065035
51
107.2442892
0
ARC
8
DEFAULT_255_2_778
10
8.9900185
20
87.5861669
40
1.0625774
50
97.5497018
51
103.2827087
0
ARC
8
DEFAULT_255_2_778
10
8.932273
20
88.0242387
40
0.6207164
50
90.3389305
51
97.5784745
0
ARC
8
DEFAULT_255_2_778
10
8.9344798
20
88.3302669
40
0.314732
50
74.3327253
51
91.0702405
0
ARC
8
DEFAULT_255_2_778
10
8.9871852
20
88.501706
40
0.1355023
50
1.0617477
51
76.2146868
0
ARC
8
DEFAULT_255_2_778
10
8.8833428
20
88.4850289
40
0.2400895
50
359.9296112
51
4.5839752
0
ARC
8
DEFAULT_255_2_778
10
8.7923934
20
88.486796
40
0.3310451
50
350.6375888
51
359.6431073
0
ARC
8
DEFAULT_255_2_778
10
8.6132624
20
88.5153255
40
0.512432
50
344.5535612
51
350.7484317
0
ARC
8
DEFAULT_255_2_778
10
8.4742688
20
88.5514035
40
0.6560179
50
343.5369386
51
344.7495837
0
ARC
8
DEFAULT_255_2_778
10
7.7537505
20
89.0571567
40
1.5165534
50
318.5496521
51
332.8656756
0
ARC
8
DEFAULT_255_2_778
10
7.1613912
20
89.5703848
40
2.3002984
50
309.7464888
51
318.7350881
0
ARC
8
DEFAULT_255_2_778
10
6.5899952
20
90.2399534
40
3.1804826
50
305.60586
51
309.9485954
0
LINE
8
DEFAULT_255_2_778
10
8.4416917
20
87.6540899
11
8.4416917
21
87.3510899
0
LINE
8
DEFAULT_255_2_778
10
8.4416917
20
87.3510899
11
9.5994917
21
87.3510899
0
ARC
8
DEFAULT_255_2_778
10
9.6400608
20
87.3669643
40
0.0435643
50
175.9681092
51
201.3700773
0
ARC
8
DEFAULT_255_2_778
10
11.2020117
20
87.4579039
40
1.6078108
50
180.7590449
51
183.1331203
0
ARC
8
DEFAULT_255_2_778
10
17.1204074
20
87.5715362
40
7.527275
50
180.3260385
51
181.0271222
0
ARC
8
DEFAULT_255_2_778
10
28.6384314
20
87.6464727
40
19.0455413
50
179.9770847
51
180.3542957
0
LINE
8
DEFAULT_255_2_778
10
9.5928917
20
87.6540899
11
8.9575917
21
87.6540899
0
LINE
8
DEFAULT_255_2_778
10
8.4747917
20
88.8859899
11
8.4945917
21
88.5432899
0
LINE
8
DEFAULT_255_2_778
10
8.9575917
20
87.6540899
11
8.9575917
21
87.6537899
0
ARC
8
DEFAULT_255_2_778
10
2.9368831
20
87.1675062
40
1.8264953
50
73.785866
51
77.99312
0
ARC
8
DEFAULT_255_2_778
10
3.0192391
20
87.5584308
40
1.4269909
50
77.9622256
51
83.4185099
0
ARC
8
DEFAULT_255_2_778
10
3.0555772
20
87.8753962
40
1.1079495
50
83.4065738
51
89.8659782
0
ARC
8
DEFAULT_255_2_778
10
3.0478804
20
88.2206897
40
0.7627223
50
89.2271139
51
109.1570595
0
ARC
8
DEFAULT_255_2_778
10
3.0100905
20
88.3617343
40
0.6171782
50
110.1400308
51
150.2423728
0
ARC
8
DEFAULT_255_2_778
10
3.348081
20
88.1518943
40
1.0148514
50
149.4286
51
163.4207181
0
ARC
8
DEFAULT_255_2_778
10
3.7938934
20
88.0072832
40
1.4834367
50
162.9807848
51
168.2784198
0
ARC
8
DEFAULT_255_2_778
10
4.9729718
20
88.0969041
40
2.6400854
50
175.3996459
51
177.5558668
0
ARC
8
DEFAULT_255_2_778
10
4.5638428
20
88.1142315
40
2.2305898
50
177.5523799
51
179.9652035
0
ARC
8
DEFAULT_255_2_778
10
3.9087786
20
88.105088
40
1.57556
50
179.6182257
51
188.70745
0
ARC
8
DEFAULT_255_2_778
10
3.2345027
20
87.996816
40
0.8926782
50
188.3900056
51
203.8981984
0
ARC
8
DEFAULT_255_2_778
10
2.881829
20
87.8323078
40
0.5036522
50
203.0413438
51
263.1289355
0
ARC
8
DEFAULT_255_2_778
10
2.9436092
20
88.1346806
40
0.8116345
50
261.3523895
51
270.2246664
0
ARC
8
DEFAULT_255_2_778
10
2.9173286
20
88.2382524
40
0.9156741
50
271.8438912
51
287.5247739
0
ARC
8
DEFAULT_255_2_778
10
3.0559202
20
87.8313325
40
0.4860035
50
286.3896234
51
349.2732362
0
ARC
8
DEFAULT_255_2_778
10
2.7350448
20
87.9187261
40
0.817956
50
347.4416455
51
357.451271
0
ARC
8
DEFAULT_255_2_778
10
2.9002155
20
87.855128
40
0.6525444
50
2.3910975
51
22.7508656
0
ARC
8
DEFAULT_255_2_778
10
3.1170124
20
87.9371464
40
0.4209767
50
23.8674833
51
81.2681163
0
ARC
8
DEFAULT_255_2_778
10
3.0380331
20
87.6654915
40
0.7024389
50
78.263138
51
82.3953385
0
ARC
8
DEFAULT_255_2_778
10
3.0460571
20
87.8548555
40
0.5139633
50
80.4879932
51
89.8216436
0
ARC
8
DEFAULT_255_2_778
10
3.0455104
20
87.9670884
40
0.4017337
50
89.6938391
51
141.849255
0
ARC
8
DEFAULT_255_2_778
10
3.4239353
20
88.237862
40
0.6947116
50
180.011307
51
181.8650364
0
ARC
8
DEFAULT_255_2_778
10
3.189067
20
88.2509881
40
0.4600344
50
152.1045656
51
181.6521222
0
ARC
8
DEFAULT_255_2_778
10
3.1300499
20
88.2614978
40
0.4033741
50
109.2253426
51
149.5010111
0
ARC
8
DEFAULT_255_2_778
10
3.2434189
20
88.0084636
40
0.6800414
50
104.0529969
51
111.2247697
0
ARC
8
DEFAULT_255_2_778
10
3.1986922
20
88.0621701
40
0.6178275
50
91.3185706
51
101.237546
0
ARC
8
DEFAULT_255_2_778
10
3.1929307
20
88.1820012
40
0.4979046
50
90.0040051
51
90.9730584
0
ARC
8
DEFAULT_255_2_778
10
3.2038639
20
88.3386742
40
0.3414078
50
55.7811547
51
91.8409961
0
ARC
8
DEFAULT_255_2_778
10
3.220938
20
88.374906
40
0.3019111
50
48.6515233
51
54.5937022
0
ARC
8
DEFAULT_255_2_778
10
19.0492312
20
87.5016751
40
15.6674935
50
175.3394213
51
175.9744548
0
ARC
8
DEFAULT_255_2_778
10
12.9072272
20
88.0043126
40
9.5049575
50
174.4646933
51
175.3509991
0
ARC
8
DEFAULT_255_2_778
10
2.9757588
20
87.8640178
40
0.2397027
50
115.0610289
51
181.9282292
0
ARC
8
DEFAULT_255_2_778
10
2.9467344
20
87.9070822
40
0.1885703
50
89.9825859
51
112.6141824
0
ARC
8
DEFAULT_255_2_778
10
2.9342124
20
87.8739917
40
0.2220173
50
2.4681311
51
86.7519253
0
ARC
8
DEFAULT_255_2_778
10
2.8795482
20
87.8560172
40
0.2778434
50
359.9866404
51
5.6875836
0
ARC
8
DEFAULT_255_2_778
10
2.9175022
20
87.8479274
40
0.2400237
50
295.4293612
51
1.9159864
0
ARC
8
DEFAULT_255_2_778
10
2.9468443
20
87.8047551
40
0.1886027
50
269.984033
51
293.0101091
0
ARC
8
DEFAULT_255_2_778
10
2.9593887
20
87.8378267
40
0.2220319
50
182.450735
51
266.7475948
0
ARC
8
DEFAULT_255_2_778
10
3.0144157
20
87.8558869
40
0.2782238
50
179.986513
51
185.6836997
0
ARC
8
DEFAULT_255_2_778
10
3.2357115
20
88.1712484
40
1.678026
50
359.5767387
51
8.9893185
0
ARC
8
DEFAULT_255_2_778
10
3.9868444
20
88.2953283
40
0.9167463
50
8.664875
51
24.5863172
0
ARC
8
DEFAULT_255_2_778
10
4.3575978
20
88.472966
40
0.5057507
50
23.7620864
51
85.9905684
0
ARC
8
DEFAULT_255_2_778
10
4.305216
20
88.1736884
40
0.8085656
50
83.7700834
51
90.1150934
0
ARC
8
DEFAULT_255_2_778
10
4.2906739
20
88.2186338
40
0.7637278
50
89.0308403
51
108.5419354
0
ARC
8
DEFAULT_255_2_778
10
4.2210688
20
88.4529145
40
0.5195439
50
109.4803568
51
163.1070027
0
ARC
8
DEFAULT_255_2_778
10
4.6985603
20
88.2746714
40
1.0287178
50
161.3355902
51
175.8395783
0
ARC
8
DEFAULT_255_2_778
10
5.2852215
20
88.2152183
40
1.6182327
50
175.2470577
51
180.1120941
0
ARC
8
DEFAULT_255_2_778
10
5.5782856
20
88.200189
40
1.9113307
50
179.6443709
51
188.051888
0
ARC
8
DEFAULT_255_2_778
10
4.7518141
20
88.078008
40
1.0759056
50
187.7742853
51
201.7140446
0
ARC
8
DEFAULT_255_2_778
10
4.2953415
20
87.8885942
40
0.5817884
50
201.0157771
51
231.1613804
0
ARC
8
DEFAULT_255_2_778
10
4.2653679
20
87.8837983
40
0.5596253
50
233.2442228
51
266.8395107
0
ARC
8
DEFAULT_255_2_778
10
4.3026638
20
88.1612737
40
0.8390219
50
265.341008
51
270.0633667
0
ARC
8
DEFAULT_255_2_778
10
4.3168042
20
87.9642373
40
0.6421209
50
268.8209819
51
292.5763601
0
ARC
8
DEFAULT_255_2_778
10
4.3536717
20
87.8356333
40
0.5094488
50
294.300799
51
338.022632
0
ARC
8
DEFAULT_255_2_778
10
3.9359094
20
88.0264122
40
0.9684687
50
336.8054871
51
351.7869949
0
ARC
8
DEFAULT_255_2_778
10
3.165835
20
88.1470029
40
1.747897
50
351.4806327
51
0.3884265
0
ARC
8
DEFAULT_255_2_778
10
4.2954917
20
88.5347911
40
0.1554449
50
91.8801309
51
158.3178356
0
ARC
8
DEFAULT_255_2_778
10
4.6334688
20
88.3552375
40
0.5374889
50
153.8380808
51
169.9578522
0
ARC
8
DEFAULT_255_2_778
10
5.4496652
20
88.1942286
40
1.3693526
50
169.2791679
51
177.283703
0
ARC
8
DEFAULT_255_2_778
10
6.5863684
20
88.1236051
40
2.5081809
50
176.9027798
51
180.1062835
0
ARC
8
DEFAULT_255_2_778
10
5.8434726
20
88.1072613
40
1.7653196
50
179.6205486
51
186.2213305
0
ARC
8
DEFAULT_255_2_778
10
4.8379726
20
87.9918468
40
0.7532559
50
185.7824874
51
198.0699583
0
ARC
8
DEFAULT_255_2_778
10
4.3630141
20
87.8292235
40
0.2513865
50
196.4103034
51
226.8783748
0
ARC
8
DEFAULT_255_2_778
10
4.2779724
20
87.7473314
40
0.133622
50
229.4927479
51
270.8602876
0
ARC
8
DEFAULT_255_2_778
10
4.2799087
20
87.7814013
40
0.1676768
50
270.0239091
51
273.5844423
0
ARC
8
DEFAULT_255_2_778
10
4.2866966
20
87.7788205
40
0.1648095
50
271.2847274
51
340.2582838
0
ARC
8
DEFAULT_255_2_778
10
3.9345532
20
87.9522301
40
0.5565933
50
335.6962782
51
351.7430971
0
ARC
8
DEFAULT_255_2_778
10
3.1132382
20
88.0874659
40
1.3889071
50
351.0878561
51
359.1336069
0
ARC
8
DEFAULT_255_2_778
10
2.2871854
20
88.1182576
40
2.2154067
50
358.6603825
51
0.0179696
0
ARC
8
DEFAULT_255_2_778
10
1.8135861
20
88.1817571
40
2.689739
50
358.6620369
51
359.8116378
0
ARC
8
DEFAULT_255_2_778
10
2.076311
20
88.1803534
40
2.427011
50
359.8243841
51
0.001213
0
ARC
8
DEFAULT_255_2_778
10
2.7771457
20
88.1914274
40
1.7262115
50
359.6341408
51
6.2390662
0
ARC
8
DEFAULT_255_2_778
10
3.7326216
20
88.3013259
40
0.7644704
50
5.8336524
51
17.9036119
0
ARC
8
DEFAULT_255_2_778
10
4.2009277
20
88.4599231
40
0.270176
50
16.4291375
51
45.4004392
0
ARC
8
DEFAULT_255_2_778
10
4.2928599
20
88.5450451
40
0.1451283
50
47.6475605
51
90.974442
0
LINE
8
DEFAULT_255_2_778
10
2.2596917
20
87.6680524
11
2.2596917
21
87.3508524
0
LINE
8
DEFAULT_255_2_778
10
2.2596917
20
87.3508524
11
1.1695917
21
87.3508524
0
LINE
8
DEFAULT_255_2_778
10
1.1695917
20
87.3508524
11
1.1695917
21
88.9557524
0
LINE
8
DEFAULT_255_2_778
10
1.1695917
20
88.9557524
11
1.5973917
21
88.9557524
0
LINE
8
DEFAULT_255_2_778
10
1.5973917
20
88.9557524
11
1.5973917
21
87.6680524
0
LINE
8
DEFAULT_255_2_778
10
1.5973917
20
87.6680524
11
2.2596917
21
87.6680524
0
LINE
8
DEFAULT_255_2_778
10
3.4465917
20
88.9211524
11
3.4468917
21
88.9213524
0
LINE
8
DEFAULT_255_2_778
10
2.7361917
20
87.8559524
11
2.7361917
21
87.8559524
0
LINE
8
DEFAULT_255_2_778
10
4.9136917
20
88.1588524
11
4.9136917
21
88.1588524
0
LINE
8
DEFAULT_255_2_778
10
4.2903917
20
88.6901524
11
4.2903917
21
88.6901524
0
LINE
8
DEFAULT_255_2_778
10
4.8927917
20
87.3508524
11
5.5021917
21
88.9557524
0
LINE
8
DEFAULT_255_2_778
10
5.5021917
20
88.9557524
11
6.0265917
21
88.9557524
0
LINE
8
DEFAULT_255_2_778
10
6.0265917
20
88.9557524
11
6.6453917
21
87.3508524
0
LINE
8
DEFAULT_255_2_778
10
6.6453917
20
87.3508524
11
6.1762917
21
87.3508524
0
LINE
8
DEFAULT_255_2_778
10
6.1762917
20
87.3508524
11
6.0566917
21
87.6937524
0
LINE
8
DEFAULT_255_2_778
10
6.0566917
20
87.6937524
11
5.4542917
21
87.6937524
0
LINE
8
DEFAULT_255_2_778
10
5.4542917
20
87.6937524
11
5.3277917
21
87.3508524
0
LINE
8
DEFAULT_255_2_778
10
5.3277917
20
87.3508524
11
4.8927917
21
87.3508524
0
LINE
8
DEFAULT_255_2_778
10
5.7598917
20
88.6247524
11
5.5526917
21
87.9966524
0
LINE
8
DEFAULT_255_2_778
10
5.5526917
20
87.9966524
11
5.9550917
21
87.9966524
0
LINE
8
DEFAULT_255_2_778
10
5.9550917
20
87.9966524
11
5.7643917
21
88.6247524
0
LINE
8
DEFAULT_255_2_778
10
5.7643917
20
88.6247524
11
5.7598917
21
88.6247524
0
ARC
8
DEFAULT_255_2_778
10
7.2038837
20
88.1519293
40
0.6599709
50
0.814301
51
18.3314147
0
ARC
8
DEFAULT_255_2_778
10
7.4572698
20
88.2304974
40
0.3947657
50
19.0734078
51
81.1887033
0
ARC
8
DEFAULT_255_2_778
10
7.3182555
20
87.6788819
40
0.9626188
50
78.0398521
51
90.7169451
0
ARC
8
DEFAULT_255_2_778
10
7.307489
20
87.1036405
40
1.5377854
50
90.0476352
51
92.7080539
0
ARC
8
DEFAULT_255_2_778
10
7.3183747
20
86.8491462
40
1.7925101
50
92.6712782
51
93.7548354
0
ARC
8
DEFAULT_255_2_778
10
7.3292156
20
89.1205005
40
1.4562483
50
264.9483706
51
267.3526221
0
ARC
8
DEFAULT_255_2_778
10
7.3200601
20
88.9214431
40
1.2569806
50
267.3504085
51
269.9678897
0
ARC
8
DEFAULT_255_2_778
10
7.3280688
20
88.5463261
40
0.8819065
50
269.4339132
51
281.9928314
0
ARC
8
DEFAULT_255_2_778
10
7.4100946
20
88.1765073
40
0.5031268
50
281.606657
51
303.550001
0
ARC
8
DEFAULT_255_2_778
10
7.4260681
20
88.1093502
40
0.4389756
50
306.6583349
51
4.1093746
0
ARC
8
DEFAULT_255_2_778
10
7.0984167
20
88.1407541
40
0.7654985
50
0.0039944
51
1.0445244
0
ARC
8
DEFAULT_255_2_778
10
7.3794244
20
88.769331
40
1.41931
50
268.3512581
51
290.4491261
0
ARC
8
DEFAULT_255_2_778
10
7.6443956
20
88.0457071
40
0.6487283
50
290.8503704
51
337.940655
0
ARC
8
DEFAULT_255_2_778
10
7.4418931
20
88.1187768
40
0.8638894
50
338.4933026
51
355.2234153
0
ARC
8
DEFAULT_255_2_778
10
7.091534
20
88.1592781
40
1.2164556
50
354.6965437
51
0.0956417
0
ARC
8
DEFAULT_255_2_778
10
7.0138826
20
88.1778098
40
1.2942106
50
359.2694579
51
359.9990041
0
ARC
8
DEFAULT_255_2_778
10
7.3083373
20
88.1874224
40
0.9998024
50
359.4478336
51
13.6251208
0
ARC
8
DEFAULT_255_2_778
10
7.6461132
20
88.2719474
40
0.6516259
50
13.3985377
51
38.8260112
0
ARC
8
DEFAULT_255_2_778
10
7.5872898
20
88.1785639
40
0.7568505
50
41.5425598
51
81.1465869
0
ARC
8
DEFAULT_255_2_778
10
7.397762
20
87.3422382
40
1.6134443
50
79.066819
51
90.4899031
0
ARC
8
DEFAULT_255_2_778
10
7.3841256
20
86.775294
40
2.1803293
50
90.0041807
51
90.9733406
0
LINE
8
DEFAULT_255_2_778
10
7.200988
20
88.6378086
11
7.200988
21
87.6699086
0
LINE
8
DEFAULT_255_2_778
10
7.347088
20
88.9553086
11
6.773688
21
88.9553086
0
LINE
8
DEFAULT_255_2_778
10
6.773688
20
88.9553086
11
6.773688
21
87.3506086
0
LINE
8
DEFAULT_255_2_778
10
6.773688
20
87.3506086
11
7.338588
21
87.3506086
0
ARC
8
DEFAULT_255_2_778
10
10.2968837
20
88.1519293
40
0.6599709
50
0.814301
51
18.3314147
0
ARC
8
DEFAULT_255_2_778
10
10.5502698
20
88.2304974
40
0.3947657
50
19.0734078
51
81.1887033
0
ARC
8
DEFAULT_255_2_778
10
10.4112555
20
87.6788819
40
0.9626188
50
78.0398521
51
90.7169451
0
ARC
8
DEFAULT_255_2_778
10
10.400489
20
87.1036405
40
1.5377854
50
90.0476352
51
92.7080539
0
ARC
8
DEFAULT_255_2_778
10
10.4113747
20
86.8491462
40
1.7925101
50
92.6712782
51
93.7548354
0
ARC
8
DEFAULT_255_2_778
10
10.4222156
20
89.1205005
40
1.4562483
50
264.9483706
51
267.3526221
0
ARC
8
DEFAULT_255_2_778
10
10.4130601
20
88.9214431
40
1.2569806
50
267.3504085
51
269.9678897
0
ARC
8
DEFAULT_255_2_778
10
10.4210688
20
88.5463261
40
0.8819065
50
269.4339132
51
281.9928314
0
ARC
8
DEFAULT_255_2_778
10
10.5030946
20
88.1765073
40
0.5031268
50
281.606657
51
303.550001
0
ARC
8
DEFAULT_255_2_778
10
10.5190681
20
88.1093502
40
0.4389756
50
306.6583349
51
4.1093746
0
ARC
8
DEFAULT_255_2_778
10
10.1914167
20
88.1407541
40
0.7654985
50
0.0039944
51
1.0445244
0
ARC
8
DEFAULT_255_2_778
10
10.4724244
20
88.769331
40
1.41931
50
268.3512581
51
290.4491261
0
ARC
8
DEFAULT_255_2_778
10
10.7373956
20
88.0457071
40
0.6487283
50
290.8503704
51
337.940655
0
ARC
8
DEFAULT_255_2_778
10
10.5348931
20
88.1187768
40
0.8638894
50
338.4933026
51
355.2234153
0
ARC
8
DEFAULT_255_2_778
10
10.184534
20
88.1592781
40
1.2164556
50
354.6965437
51
0.0956417
0
ARC
8
DEFAULT_255_2_778
10
10.1068826
20
88.1778098
40
1.2942106
50
359.2694579
51
359.9990041
0
ARC
8
DEFAULT_255_2_778
10
10.4013373
20
88.1874224
40
0.9998024
50
359.4478336
51
13.6251208
0
ARC
8
DEFAULT_255_2_778
10
10.7391132
20
88.2719474
40
0.6516259
50
13.3985377
51
38.8260112
0
ARC
8
DEFAULT_255_2_778
10
10.6802898
20
88.1785639
40
0.7568505
50
41.5425598
51
81.1465869
0
ARC
8
DEFAULT_255_2_778
10
10.490762
20
87.3422382
40
1.6134443
50
79.066819
51
90.4899031
0
ARC
8
DEFAULT_255_2_778
10
10.4771256
20
86.775294
40
2.1803293
50
90.0041807
51
90.9733406
0
LINE
8
DEFAULT_255_2_778
10
10.293988
20
88.6378086
11
10.293988
21
87.6699086
0
LINE
8
DEFAULT_255_2_778
10
10.440088
20
88.9553086
11
9.866688
21
88.9553086
0
LINE
8
DEFAULT_255_2_778
10
9.866688
20
88.9553086
11
9.866688
21
87.3506086
0
LINE
8
DEFAULT_255_2_778
10
9.866688
20
87.3506086
11
10.431588
21
87.3506086
0
ARC
8
DEFAULT_255_2_778
10
22.4698525
20
3.756364
40
3.2500256
50
222.5990747
51
269.9952412
0
ARC
8
DEFAULT_255_2_778
10
22.4697118
20
3.7554547
40
3.2491163
50
269.9977202
51
317.4079635
0
ARC
8
DEFAULT_255_2_778
10
22.4744344
20
3.7602837
40
3.006208
50
227.1607642
51
240.1903991
0
ARC
8
DEFAULT_255_2_778
10
22.4639216
20
3.7450656
40
2.9877778
50
240.2202486
51
259.4528727
0
ARC
8
DEFAULT_255_2_778
10
22.4691527
20
3.7692302
40
3.0124918
50
259.4391872
51
270.0024684
0
ARC
8
DEFAULT_255_2_778
10
22.4706355
20
3.757493
40
3.0007549
50
269.9741658
51
295.0271992
0
ARC
8
DEFAULT_255_2_778
10
22.4733225
20
3.7467171
40
2.9898551
50
295.0679035
51
309.1919929
0
ARC
8
DEFAULT_255_2_778
10
22.444368
20
3.7837245
40
3.0368342
50
309.1741622
51
312.811932
0
LINE
8
DEFAULT_255_2_778
10
11.3255825
20
87.3508384
11
11.9346825
21
88.9557384
0
LINE
8
DEFAULT_255_2_778
10
11.9346825
20
88.9557384
11
12.4590825
21
88.9557384
0
LINE
8
DEFAULT_255_2_778
10
12.4590825
20
88.9557384
11
13.0778825
21
87.3508384
0
LINE
8
DEFAULT_255_2_778
10
13.0778825
20
87.3508384
11
12.6087825
21
87.3508384
0
LINE
8
DEFAULT_255_2_778
10
12.6087825
20
87.3508384
11
12.4894825
21
87.6937384
0
LINE
8
DEFAULT_255_2_778
10
12.4894825
20
87.6937384
11
11.8864825
21
87.6937384
0
LINE
8
DEFAULT_255_2_778
10
11.8864825
20
87.6937384
11
11.7602825
21
87.3508384
0
LINE
8
DEFAULT_255_2_778
10
11.7602825
20
87.3508384
11
11.3255825
21
87.3508384
0
LINE
8
DEFAULT_255_2_778
10
12.1923825
20
88.6247384
11
11.9856825
21
87.9966384
0
LINE
8
DEFAULT_255_2_778
10
11.9856825
20
87.9966384
11
12.3881825
21
87.9966384
0
LINE
8
DEFAULT_255_2_778
10
12.3881825
20
87.9966384
11
12.1973825
21
88.6247384
0
LINE
8
DEFAULT_255_2_778
10
12.1973825
20
88.6247384
11
12.1923825
21
88.6247384
0
LINE
8
DEFAULT_255_2_778
10
27.6701825
20
88.9560384
11
27.6701825
21
87.3561384
0
LINE
8
DEFAULT_255_2_778
10
27.6701825
20
87.3561384
11
22.3705825
21
87.3561384
0
LINE
8
DEFAULT_255_2_778
10
22.3705825
20
87.3561384
11
22.3705825
21
88.9560384
0
LINE
8
DEFAULT_255_2_778
10
22.3705825
20
88.9560384
11
27.6701825
21
88.9560384
0
LINE
8
DEFAULT_255_2_778
10
27.3701825
20
87.6561384
11
27.3701825
21
88.6560384
0
LINE
8
DEFAULT_255_2_778
10
27.3701825
20
88.6560384
11
25.0206825
21
88.6560384
0
LINE
8
DEFAULT_255_2_778
10
25.0206825
20
88.6560384
11
25.0206825
21
87.6561384
0
LINE
8
DEFAULT_255_2_778
10
25.0206825
20
87.6561384
11
27.3701825
21
87.6561384
0
LINE
8
DEFAULT_255_2_778
10
21.9692825
20
1.5565384
11
21.9692825
21
0.7984384
0
LINE
8
DEFAULT_255_2_778
10
22.9690825
20
0.7984384
11
22.9690825
21
1.5565384
0
LINE
8
DEFAULT_255_2_778
10
26.0718825
20
2.5563384
11
26.0718825
21
72.9561384
0
LINE
8
DEFAULT_255_2_778
10
26.0718825
20
72.9561384
11
15.0498825
21
72.9561384
0
LINE
8
DEFAULT_255_2_778
10
15.0498825
20
72.9561384
11
15.0498825
21
2.5563384
0
LINE
8
DEFAULT_255_2_778
10
15.0498825
20
2.5563384
11
26.0718825
21
2.5563384
0
LINE
8
DEFAULT_255_2_778
10
19.833826
20
3.4781583
11
19.833826
21
3.6834583
0
LINE
8
DEFAULT_255_2_778
10
19.833826
20
3.6834583
11
19.403926
21
3.6834583
0
LINE
8
DEFAULT_255_2_778
10
19.403926
20
3.6834583
11
19.403926
21
3.4781583
0
LINE
8
DEFAULT_255_2_778
10
19.403926
20
3.4781583
11
19.833826
21
3.4781583
0
ARC
8
DEFAULT_255_2_778
10
23.7743319
20
4.8538743
40
0.7972956
50
268.3629092
51
269.9836641
0
ARC
8
DEFAULT_255_2_778
10
23.7856666
20
4.518762
40
0.4623279
50
268.5669814
51
287.6020232
0
ARC
8
DEFAULT_255_2_778
10
23.8750327
20
4.2535053
40
0.1825336
50
286.0426006
51
357.9903194
0
LINE
8
DEFAULT_255_2_778
10
24.0574542
20
4.2471042
11
24.2394542
21
4.2471042
0
LINE
8
DEFAULT_255_2_778
10
24.2394542
20
4.2471042
11
24.2394542
21
3.1475042
0
LINE
8
DEFAULT_255_2_778
10
24.2394542
20
3.1475042
11
24.0161542
21
3.1475042
0
LINE
8
DEFAULT_255_2_778
10
24.0161542
20
3.1475042
11
24.0161542
21
3.9082042
0
LINE
8
DEFAULT_255_2_778
10
24.0161542
20
3.9082042
11
23.7515542
21
3.9082042
0
LINE
8
DEFAULT_255_2_778
10
23.7515542
20
3.9082042
11
23.7515542
21
4.0569042
0
LINE
8
DEFAULT_255_2_778
10
23.7515542
20
4.0569042
11
23.7515542
21
4.0569042
0
ARC
8
DEFAULT_255_2_778
10
22.0357319
20
4.8538743
40
0.7972956
50
268.3629092
51
269.9836641
0
ARC
8
DEFAULT_255_2_778
10
22.0470666
20
4.518762
40
0.4623279
50
268.5669814
51
287.6020232
0
ARC
8
DEFAULT_255_2_778
10
22.1364327
20
4.2535053
40
0.1825336
50
286.0426006
51
357.9903194
0
LINE
8
DEFAULT_255_2_778
10
22.3188542
20
4.2471042
11
22.5008542
21
4.2471042
0
LINE
8
DEFAULT_255_2_778
10
22.5008542
20
4.2471042
11
22.5008542
21
3.1475042
0
LINE
8
DEFAULT_255_2_778
10
22.5008542
20
3.1475042
11
22.2775542
21
3.1475042
0
LINE
8
DEFAULT_255_2_778
10
22.2775542
20
3.1475042
11
22.2775542
21
3.9082042
0
LINE
8
DEFAULT_255_2_778
10
22.2775542
20
3.9082042
11
22.0129542
21
3.9082042
0
LINE
8
DEFAULT_255_2_778
10
22.0129542
20
3.9082042
11
22.0129542
21
4.0569042
0
LINE
8
DEFAULT_255_2_778
10
22.0129542
20
4.0569042
11
22.0129542
21
4.0569042
0
ARC
8
DEFAULT_255_2_778
10
18.774238
20
3.6045799
40
0.2894666
50
268.3046278
51
304.9165462
0
ARC
8
DEFAULT_255_2_778
10
18.6811208
20
3.6708526
40
0.3989626
50
310.4429023
51
357.996367
0
ARC
8
DEFAULT_255_2_778
10
18.3662186
20
3.7312861
40
0.7174868
50
354.0494155
51
356.9709153
0
ARC
8
DEFAULT_255_2_778
10
18.3177496
20
3.7338654
40
0.7660244
50
356.9698352
51
0.0130577
0
ARC
8
DEFAULT_255_2_778
10
18.760302
20
3.8307951
40
0.2893719
50
88.3024904
51
124.9225403
0
ARC
8
DEFAULT_255_2_778
10
18.8533061
20
3.7646342
40
0.3987126
50
130.4465883
51
177.9709496
0
ARC
8
DEFAULT_255_2_778
10
19.1686907
20
3.7040309
40
0.7177472
50
174.024467
51
176.9749784
0
ARC
8
DEFAULT_255_2_778
10
19.2174616
20
3.7014223
40
0.7665876
50
176.9726443
51
180.0136278
0
ARC
8
DEFAULT_255_2_778
10
18.759502
20
3.6044848
40
0.2893719
50
235.0774597
51
271.6975096
0
ARC
8
DEFAULT_255_2_778
10
18.8525061
20
3.6706457
40
0.3987126
50
182.0290504
51
229.5534117
0
ARC
8
DEFAULT_255_2_778
10
19.1678907
20
3.731249
40
0.7177472
50
183.0250216
51
185.975533
0
ARC
8
DEFAULT_255_2_778
10
19.2166616
20
3.7338576
40
0.7665876
50
179.9863722
51
183.0273557
0
ARC
8
DEFAULT_255_2_778
10
18.774238
20
3.8323
40
0.2894666
50
55.0834538
51
91.6953722
0
ARC
8
DEFAULT_255_2_778
10
18.6811208
20
3.7660273
40
0.3989626
50
2.003633
51
49.5570977
0
ARC
8
DEFAULT_255_2_778
10
18.3662186
20
3.7055938
40
0.7174868
50
3.0290847
51
5.9505845
0
ARC
8
DEFAULT_255_2_778
10
18.3177496
20
3.7030145
40
0.7660244
50
359.9869423
51
3.0301648
0
ARC
8
DEFAULT_255_2_778
10
18.7365526
20
3.7204441
40
0.5788989
50
86.7993624
51
89.9974601
0
ARC
8
DEFAULT_255_2_778
10
18.7234352
20
3.8024107
40
0.4971062
50
88.4849783
51
154.084991
0
ARC
8
DEFAULT_255_2_778
10
18.8338679
20
3.7602033
40
0.6149667
50
155.0446814
51
177.1502766
0
ARC
8
DEFAULT_255_2_778
10
19.0163041
20
3.7411595
40
0.798186
50
176.4360136
51
180.0280163
0
ARC
8
DEFAULT_255_2_778
10
19.0686561
20
3.7408084
40
0.8505379
50
180.0026391
51
181.0959784
0
ARC
8
DEFAULT_255_2_778
10
18.7697111
20
3.8642525
40
0.7276237
50
269.6821036
51
269.9999063
0
ARC
8
DEFAULT_255_2_778
10
18.7998778
20
3.642231
40
0.5065014
50
266.5853645
51
334.7851483
0
ARC
8
DEFAULT_255_2_778
10
18.6428203
20
3.6967829
40
0.672063
50
336.2819115
51
356.2800515
0
ARC
8
DEFAULT_255_2_778
10
18.385769
20
3.7260181
40
0.9305535
50
355.5106152
51
359.4164007
0
ARC
8
DEFAULT_255_2_778
10
18.7487966
20
3.7391938
40
0.6028883
50
270.000485
51
271.9084199
0
ARC
8
DEFAULT_255_2_778
10
18.7330005
20
3.6451822
40
0.509122
50
205.8127531
51
271.7785255
0
ARC
8
DEFAULT_255_2_778
10
18.8382553
20
3.6807596
40
0.6195201
50
182.2267947
51
204.5360246
0
ARC
8
DEFAULT_255_2_778
10
19.0215198
20
3.698425
40
0.8034016
50
179.9795527
51
182.9778687
0
ARC
8
DEFAULT_255_2_778
10
19.0685824
20
3.6986721
40
0.8504642
50
178.9039661
51
179.9973317
0
ARC
8
DEFAULT_255_2_778
10
18.7697533
20
3.5699501
40
0.7298013
50
89.9973074
51
90.3202578
0
ARC
8
DEFAULT_255_2_778
10
18.8016609
20
3.7952823
40
0.5054748
50
25.4254009
51
93.6152501
0
ARC
8
DEFAULT_255_2_778
10
18.6475652
20
3.7432827
40
0.667247
50
3.8349875
51
23.7768775
0
ARC
8
DEFAULT_255_2_778
10
18.386697
20
3.71324
40
0.9296247
50
0.5793584
51
4.6071335
0
ARC
8
DEFAULT_255_2_778
10
20.4481212
20
3.8530169
40
0.5086035
50
3.1133511
51
28.2982512
0
ARC
8
DEFAULT_255_2_778
10
20.5681266
20
3.9010179
40
0.3804656
50
30.5012955
51
78.9478347
0
ARC
8
DEFAULT_255_2_778
10
20.4689836
20
3.5273477
40
0.7666412
50
77.0289467
51
90.6473795
0
LINE
8
DEFAULT_255_2_778
10
20.4603215
20
4.29394
11
20.459874
21
4.2939399
0
ARC
8
DEFAULT_255_2_778
10
20.4877482
20
3.696709
40
0.597881
50
92.6721922
51
116.4607462
0
ARC
8
DEFAULT_255_2_778
10
20.4354342
20
3.8345351
40
0.4514187
50
118.3115624
51
165.6463023
0
ARC
8
DEFAULT_255_2_778
10
20.8654972
20
3.6995096
40
0.9018552
50
164.1089951
51
179.0196498
0
ARC
8
DEFAULT_255_2_778
10
21.2501097
20
3.6781908
40
1.2868606
50
178.3635707
51
179.9869049
0
ARC
8
DEFAULT_255_2_778
10
20.835616
20
3.666282
40
0.8724522
50
179.1985852
51
194.1483117
0
ARC
8
DEFAULT_255_2_778
10
20.4114265
20
3.5509834
40
0.4330231
50
193.0744492
51
230.1539897
0
ARC
8
DEFAULT_255_2_778
10
20.4149865
20
3.5870562
40
0.4634478
50
232.6743222
51
263.4838928
0
ARC
8
DEFAULT_255_2_778
10
20.4670602
20
3.8699062
40
0.7506369
50
261.9847041
51
268.1993841
0
ARC
8
DEFAULT_255_2_778
10
20.4746529
20
3.9356563
40
0.8166118
50
267.8118685
51
269.9836326
0
ARC
8
DEFAULT_255_2_778
10
20.4872355
20
3.6639108
40
0.545017
50
268.6525902
51
293.378867
0
ARC
8
DEFAULT_255_2_778
10
20.5230499
20
3.5435292
40
0.4205708
50
295.4084182
51
341.7968505
0
ARC
8
DEFAULT_255_2_778
10
20.224593
20
3.6698248
40
0.7440252
50
339.737141
51
349.4219062
0
LINE
8
DEFAULT_255_2_778
10
20.955974
20
3.5332399
11
20.724374
21
3.5332399
0
ARC
8
DEFAULT_255_2_778
10
20.4939928
20
3.536972
40
0.2304114
50
316.0551867
51
359.0719119
0
ARC
8
DEFAULT_255_2_778
10
20.5038155
20
3.5579792
40
0.238927
50
270.4871914
51
310.7859691
0
ARC
8
DEFAULT_255_2_778
10
20.4769134
20
3.7730792
40
0.4549394
50
269.9446596
51
273.6464139
0
ARC
8
DEFAULT_255_2_778
10
20.4635523
20
3.5497819
40
0.2320021
50
192.1580805
51
273.1928407
0
ARC
8
DEFAULT_255_2_778
10
20.8602553
20
3.678014
40
0.6481637
50
180.1077967
51
195.8562087
0
ARC
8
DEFAULT_255_2_778
10
21.2575821
20
3.6981759
40
1.0457081
50
179.9910097
51
181.1715955
0
ARC
8
DEFAULT_255_2_778
10
20.8821567
20
3.7106091
40
0.670395
50
165.36536
51
181.0486475
0
ARC
8
DEFAULT_255_2_778
10
20.4880336
20
3.8231765
40
0.2607853
50
121.6655805
51
167.4175002
0
ARC
8
DEFAULT_255_2_778
10
20.4847
20
3.7958578
40
0.2828092
50
88.2829568
51
118.1831553
0
ARC
8
DEFAULT_255_2_778
10
20.4831509
20
3.8325835
40
0.2461606
50
11.1391666
51
87.6663975
0
LINE
8
DEFAULT_255_2_778
10
17.634074
20
3.8047399
11
18.099974
21
4.2664399
0
LINE
8
DEFAULT_255_2_778
10
18.099974
20
4.2664399
11
17.792574
21
4.2664399
0
LINE
8
DEFAULT_255_2_778
10
17.792574
20
4.2664399
11
17.353374
21
3.8068399
0
LINE
8
DEFAULT_255_2_778
10
17.353374
20
3.8068399
11
17.353374
21
4.2664399
0
LINE
8
DEFAULT_255_2_778
10
17.353374
20
4.2664399
11
17.118674
21
4.2664399
0
LINE
8
DEFAULT_255_2_778
10
17.118674
20
4.2664399
11
17.118674
21
3.1474399
0
LINE
8
DEFAULT_255_2_778
10
17.118674
20
3.1474399
11
17.353374
21
3.1474399
0
LINE
8
DEFAULT_255_2_778
10
17.353374
20
3.1474399
11
17.353374
21
3.5215399
0
LINE
8
DEFAULT_255_2_778
10
17.353374
20
3.5215399
11
17.466874
21
3.6353399
0
LINE
8
DEFAULT_255_2_778
10
17.466874
20
3.6353399
11
17.817674
21
3.1474399
0
LINE
8
DEFAULT_255_2_778
10
17.817674
20
3.1474399
11
18.123874
21
3.1474399
0
LINE
8
DEFAULT_255_2_778
10
18.123874
20
3.1474399
11
17.634074
21
3.8047399
0
LINE
8
DEFAULT_255_2_778
10
20.724374
20
3.8806399
11
20.955974
21
3.8806399
0
LINE
8
DEFAULT_255_2_778
10
20.724674
20
3.8801399
11
20.724374
21
3.8806399
0
ARC
8
DEFAULT_255_2_778
10
21.1607319
20
4.8511743
40
0.7972956
50
268.3629092
51
269.9836641
0
ARC
8
DEFAULT_255_2_778
10
21.1720666
20
4.516062
40
0.4623279
50
268.5669814
51
287.6020232
0
ARC
8
DEFAULT_255_2_778
10
21.2614327
20
4.2508053
40
0.1825336
50
286.0426006
51
357.9903194
0
LINE
8
DEFAULT_255_2_778
10
21.4438542
20
4.2444042
11
21.6258542
21
4.2444042
0
LINE
8
DEFAULT_255_2_778
10
21.6258542
20
4.2444042
11
21.6258542
21
3.1448042
0
LINE
8
DEFAULT_255_2_778
10
21.6258542
20
3.1448042
11
21.4025542
21
3.1448042
0
LINE
8
DEFAULT_255_2_778
10
21.4025542
20
3.1448042
11
21.4025542
21
3.9055042
0
LINE
8
DEFAULT_255_2_778
10
21.4025542
20
3.9055042
11
21.1379542
21
3.9055042
0
LINE
8
DEFAULT_255_2_778
10
21.1379542
20
3.9055042
11
21.1379542
21
4.0542042
0
LINE
8
DEFAULT_255_2_778
10
21.1379542
20
4.0542042
11
21.1379542
21
4.0542042
0
LINE
8
DEFAULT_255_2_778
10
22.8082437
20
4.2443886
11
23.6019437
21
4.2443886
0
LINE
8
DEFAULT_255_2_778
10
23.6019437
20
4.2443886
11
23.6019437
21
4.0789886
0
ARC
8
DEFAULT_255_2_778
10
24.8725499
20
2.9413651
40
1.7054699
50
138.1606684
51
158.1848742
0
ARC
8
DEFAULT_255_2_778
10
24.740917
20
3.0062464
40
1.5591941
50
158.6008009
51
174.5996632
0
LINE
8
DEFAULT_255_2_778
10
23.1886437
20
3.1529886
11
22.9738437
21
3.1529886
0
ARC
8
DEFAULT_255_2_778
10
24.3417827
20
3.0462644
40
1.3720959
50
149.4865736
51
175.5389197
0
ARC
8
DEFAULT_255_2_778
10
24.8052225
20
2.7881469
40
1.9024547
50
138.9393519
51
149.8761733
0
ARC
8
DEFAULT_255_2_778
10
23.3539642
20
4.0853105
40
0.0503972
50
266.6000005
51
289.4475944
0
ARC
8
DEFAULT_255_2_778
10
23.2531333
20
5.8411923
40
1.8088385
50
271.0076553
51
273.1007042
0
ARC
8
DEFAULT_255_2_778
10
23.1150297
20
11.8317002
40
7.8009173
50
270.6605975
51
271.248073
0
ARC
8
DEFAULT_255_2_778
10
22.961488
20
25.0729873
40
21.0430945
50
270.2364965
51
270.6629613
0
ARC
8
DEFAULT_255_2_778
10
22.8311138
20
53.4940369
40
49.4644419
50
270.0126759
51
270.251626
0
ARC
8
DEFAULT_255_2_778
10
22.8091288
20
77.2592441
40
73.2296553
50
269.9994639
51
270.0257634
0
LINE
8
DEFAULT_255_2_778
10
22.8084437
20
4.0295886
11
22.8084437
21
4.2443886
0
ARC
8
DEFAULT_255_2_778
10
25.0610697
20
3.4983803
40
0.2464696
50
355.286958
51
71.3361556
0
ARC
8
DEFAULT_255_2_778
10
24.8385495
20
3.4719482
40
0.4681972
50
359.9979419
51
0.7564042
0
ARC
8
DEFAULT_255_2_778
10
24.7816698
20
3.4725524
40
0.5250771
50
355.8100568
51
359.9322349
0
ARC
8
DEFAULT_255_2_778
10
24.952475
20
3.4593066
40
0.3537615
50
320.2468541
51
355.9284329
0
ARC
8
DEFAULT_255_2_778
10
24.9768513
20
3.4659278
40
0.3398845
50
278.2629451
51
316.7588143
0
ARC
8
DEFAULT_255_2_778
10
24.91241
20
3.7436224
40
0.6244139
50
272.6742598
51
280.4531432
0
ARC
8
DEFAULT_255_2_778
10
24.9289583
20
3.6388023
40
0.5190663
50
250.2443637
51
271.3893459
0
ARC
8
DEFAULT_255_2_778
10
24.8583906
20
3.4236687
40
0.2928103
50
183.1942211
51
249.0109422
0
ARC
8
DEFAULT_255_2_778
10
25.1513671
20
3.4816382
40
0.5900269
50
179.800888
51
187.2328034
0
LINE
8
DEFAULT_255_2_778
10
24.5613437
20
3.4836886
11
24.7597437
21
3.4836886
0
ARC
8
DEFAULT_255_2_778
10
25.0184905
20
3.4715447
40
0.2590316
50
177.3128717
51
206.6813152
0
ARC
8
DEFAULT_255_2_778
10
24.9118207
20
3.4302947
40
0.1456169
50
211.0294333
51
275.2495459
0
ARC
8
DEFAULT_255_2_778
10
24.9425848
20
3.4297078
40
0.1454685
50
263.1139016
51
357.9401721
0
ARC
8
DEFAULT_255_2_778
10
24.7594053
20
3.4657886
40
0.3311407
50
352.8337587
51
0.2249355
0
ARC
8
DEFAULT_255_2_778
10
24.9383014
20
3.4707279
40
0.1522857
50
358.6306475
51
86.2807962
0
ARC
8
DEFAULT_255_2_778
10
24.8489593
20
3.1219202
40
0.5105076
50
78.7928724
51
90.7088396
0
LINE
8
DEFAULT_255_2_778
10
24.8426437
20
3.6323886
11
24.8426437
21
3.7810886
0
ARC
8
DEFAULT_255_2_778
10
24.9478296
20
4.1886985
40
0.4209631
50
255.5302062
51
264.233568
0
ARC
8
DEFAULT_255_2_778
10
24.9311603
20
4.0394508
40
0.2708003
50
264.5698681
51
269.8739339
0
ARC
8
DEFAULT_255_2_778
10
24.9415272
20
3.8869151
40
0.118771
50
264.7039777
51
321.732708
0
ARC
8
DEFAULT_255_2_778
10
24.9167859
20
3.891248
40
0.1413831
50
326.5695064
51
355.5542219
0
ARC
8
DEFAULT_255_2_778
10
24.6760958
20
3.9159881
40
0.383314
50
354.6560749
51
359.8668656
0
ARC
8
DEFAULT_255_2_778
10
24.8857971
20
3.9268002
40
0.1740056
50
356.143654
51
37.8207984
0
ARC
8
DEFAULT_255_2_778
10
24.9172485
20
3.932835
40
0.1461835
50
43.5207217
51
86.7862443
0
ARC
8
DEFAULT_255_2_778
10
24.9080855
20
3.934281
40
0.1455464
50
83.1504707
51
177.996919
0
ARC
8
DEFAULT_255_2_778
10
25.0922684
20
3.897991
40
0.3322271
50
172.8455039
51
180.2246074
0
LINE
8
DEFAULT_255_2_778
10
24.7600437
20
3.8966886
11
24.5616437
21
3.8966886
0
ARC
8
DEFAULT_255_2_778
10
25.0338059
20
3.9091511
40
0.4723266
50
158.712097
51
181.5119468
0
ARC
8
DEFAULT_255_2_778
10
24.8579876
20
3.9673609
40
0.2875315
50
94.7633618
51
156.8000386
0
ARC
8
DEFAULT_255_2_778
10
24.9224828
20
3.6652686
40
0.5952275
50
89.7149914
51
98.5381405
0
ARC
8
DEFAULT_255_2_778
10
24.9154098
20
3.786481
40
0.4741138
50
65.9479112
51
88.7873296
0
ARC
8
DEFAULT_255_2_778
10
24.9829603
20
3.9612476
40
0.2871486
50
1.92212
51
64.0432958
0
ARC
8
DEFAULT_255_2_778
10
24.7191114
20
3.9143056
40
0.5537335
50
359.8740793
51
5.863965
0
ARC
8
DEFAULT_255_2_778
10
25.0094011
20
3.926911
40
0.263805
50
327.993897
51
356.9965483
0
ARC
8
DEFAULT_255_2_778
10
25.1251006
20
3.8611073
40
0.1309326
50
276.7736438
51
325.5772414
0
LINE
8
DEFAULT_255_2_778
10
16.2100437
20
3.3349886
11
16.5243437
21
3.3349886
0
ARC
8
DEFAULT_255_2_778
10
16.5389061
20
3.4363012
40
0.1023538
50
261.8204605
51
8.0805831
0
ARC
8
DEFAULT_255_2_778
10
16.5202292
20
3.4624237
40
0.1205868
50
354.4153606
51
95.6014637
0
ARC
8
DEFAULT_255_2_778
10
16.4917924
20
3.2766764
40
0.3062122
50
86.8799542
51
90.0465328
0
LINE
8
DEFAULT_255_2_778
10
16.4915437
20
3.5828886
11
16.1939437
21
3.5828886
0
LINE
8
DEFAULT_255_2_778
10
16.1939437
20
3.5828886
11
16.1939437
21
3.3347886
0
LINE
8
DEFAULT_255_2_778
10
16.2105437
20
3.8308886
11
16.5249437
21
3.8308886
0
ARC
8
DEFAULT_255_2_778
10
16.5394936
20
3.9321137
40
0.1022654
50
261.8204178
51
8.0805403
0
ARC
8
DEFAULT_255_2_778
10
16.5206868
20
3.9582721
40
0.1206338
50
354.3944446
51
95.5790119
0
ARC
8
DEFAULT_255_2_778
10
16.4922854
20
3.7725838
40
0.3062049
50
86.8785612
51
90.0452178
0
LINE
8
DEFAULT_255_2_778
10
16.4920437
20
4.0787886
11
16.1944437
21
4.0787886
0
LINE
8
DEFAULT_255_2_778
10
16.1944437
20
4.0787886
11
16.1944437
21
3.8305886
0
LINE
8
DEFAULT_255_2_778
10
15.9793437
20
3.1526886
11
15.9793437
21
4.2604886
0
LINE
8
DEFAULT_255_2_778
10
15.9793437
20
4.2604886
11
16.5415437
21
4.2604886
0
ARC
8
DEFAULT_255_2_778
10
16.5539916
20
3.7964798
40
0.4641758
50
69.8152128
51
91.5366968
0
ARC
8
DEFAULT_255_2_778
10
16.6220934
20
4.0005762
40
0.2492006
50
358.7018442
51
68.3196644
0
ARC
8
DEFAULT_255_2_778
10
16.3792288
20
3.9633266
40
0.4930151
50
359.9490969
51
3.675365
0
ARC
8
DEFAULT_255_2_778
10
16.5499172
20
3.95096
40
0.3225471
50
339.5297117
51
2.1194287
0
ARC
8
DEFAULT_255_2_778
10
16.746332
20
3.8768238
40
0.1126108
50
266.7988626
51
339.9185853
0
ARC
8
DEFAULT_255_2_778
10
16.6897131
20
3.556706
40
0.2136942
50
5.2499544
51
76.3773462
0
ARC
8
DEFAULT_255_2_778
10
16.4020757
20
3.488829
40
0.5080151
50
359.568571
51
9.9100349
0
ARC
8
DEFAULT_255_2_778
10
16.1321193
20
3.4869169
40
0.7779594
50
354.8614837
51
359.8590971
0
ARC
8
DEFAULT_255_2_778
10
15.9610508
20
3.5002035
40
0.9495326
50
353.9780518
51
354.9874976
0
ARC
8
DEFAULT_255_2_778
10
16.6431769
20
3.4351976
40
0.2644413
50
280.755863
51
352.4797896
0
ARC
8
DEFAULT_255_2_778
10
16.5157037
20
3.8316598
40
0.6796624
50
272.1788445
51
285.0798615
0
LINE
8
DEFAULT_255_2_778
10
16.5415437
20
3.1524886
11
15.9793437
21
3.1524886
0
ARC
8
DEFAULT_255_2_778
10
14.3231344
20
69.5866675
40
3.7159095
50
309.3642554
51
314.2964371
0
ARC
8
DEFAULT_255_2_778
10
15.181284
20
68.7107643
40
2.4896886
50
314.2388229
51
320.8669758
0
ARC
8
DEFAULT_255_2_778
10
15.8670665
20
68.156642
40
1.6080224
50
320.760439
51
330.2722911
0
ARC
8
DEFAULT_255_2_778
10
16.3861425
20
67.8641255
40
1.0122141
50
330.0809828
51
345.0094968
0
ARC
8
DEFAULT_255_2_778
10
16.6608981
20
67.7867134
40
0.7267949
50
345.3019429
51
359.7755526
0
ARC
8
DEFAULT_255_2_778
10
16.7223038
20
67.7828592
40
0.6653845
50
0.0867179
51
25.545231
0
ARC
8
DEFAULT_255_2_778
10
16.7830194
20
67.7354861
40
0.6347855
50
31.7786202
51
80.7501263
0
ARC
8
DEFAULT_255_2_778
10
16.7201484
20
67.4442057
40
0.9325087
50
79.8141336
51
90.2736023
0
ARC
8
DEFAULT_255_2_778
10
16.7208553
20
67.0798463
40
1.2968677
50
90.2279625
51
98.1726929
0
ARC
8
DEFAULT_255_2_778
10
16.7912115
20
66.5773322
40
1.804281
50
98.1157144
51
104.0214449
0
ARC
8
DEFAULT_255_2_778
10
16.9484781
20
65.9413614
40
2.459407
50
103.9863749
51
108.5794739
0
ARC
8
DEFAULT_255_2_778
10
17.0931209
20
65.4938089
40
2.9297253
50
108.4720165
51
109.2287503
0
ARC
8
DEFAULT_255_2_778
10
17.2547414
20
65.0859549
40
2.9577725
50
108.9839733
51
111.9101192
0
ARC
8
DEFAULT_255_2_778
10
16.9306908
20
66.031985
40
1.9577828
50
105.0891272
51
109.0226538
0
ARC
8
DEFAULT_255_2_778
10
16.7443647
20
66.7264357
40
1.2387709
50
99.9920428
51
105.129754
0
ARC
8
DEFAULT_255_2_778
10
16.6582529
20
67.2265182
40
0.7313349
50
92.0756268
51
100.1459403
0
ARC
8
DEFAULT_255_2_778
10
16.6468892
20
67.4400026
40
0.5175918
50
90.0130788
51
91.6744393
0
ARC
8
DEFAULT_255_2_778
10
16.6527045
20
67.6206241
40
0.3370226
50
74.0297781
51
91.0087677
0
ARC
8
DEFAULT_255_2_778
10
16.7031921
20
67.7863225
40
0.1638548
50
4.3270002
51
75.0611016
0
ARC
8
DEFAULT_255_2_778
10
16.5613344
20
67.7577572
40
0.307977
50
359.7919502
51
7.6367841
0
ARC
8
DEFAULT_255_2_778
10
16.4242735
20
67.7586916
40
0.4450405
50
352.22418
51
359.73572
0
ARC
8
DEFAULT_255_2_778
10
16.2131658
20
67.7866913
40
0.657996
50
346.8441415
51
352.2955943
0
ARC
8
DEFAULT_255_2_778
10
16.0181359
20
67.8302086
40
0.8578141
50
344.9030709
51
346.9786463
0
ARC
8
DEFAULT_255_2_778
10
15.1067544
20
68.4158092
40
1.9185112
50
321.518993
51
335.0585515
0
ARC
8
DEFAULT_255_2_778
10
14.4495278
20
68.9312071
40
2.7537122
50
312.5254811
51
321.6334666
0
ARC
8
DEFAULT_255_2_778
10
13.79901
20
69.6229428
40
3.7032211
50
308.2262029
51
312.7089757
0
LINE
8
DEFAULT_255_2_778
10
16.0904437
20
66.7137886
11
16.0904437
21
66.3333886
0
LINE
8
DEFAULT_255_2_778
10
16.0904437
20
66.3333886
11
17.4133437
21
66.3333886
0
ARC
8
DEFAULT_255_2_778
10
17.4681273
20
66.3532749
40
0.0582812
50
176.1864819
51
199.9507227
0
ARC
8
DEFAULT_255_2_778
10
18.9077808
20
66.4396064
40
1.5000738
50
181.2775515
51
183.1509916
0
ARC
8
DEFAULT_255_2_778
10
24.2456634
20
66.568003
40
6.8394985
50
180.3995288
51
181.3559053
0
ARC
8
DEFAULT_255_2_778
10
38.8912849
20
66.6909264
40
21.485631
50
180.0138959
51
180.4549855
0
ARC
8
DEFAULT_255_2_778
10
52.7112119
20
66.7130785
40
35.3055681
50
179.9991722
51
180.0444062
0
LINE
8
DEFAULT_255_2_778
10
17.4056437
20
66.7135886
11
16.6799437
21
66.7135886
0
LINE
8
DEFAULT_255_2_778
10
25.1405437
20
3.7310886
11
25.1399437
21
3.7318886
0
LINE
8
DEFAULT_255_2_778
10
15.9793437
20
3.1524886
11
15.9793437
21
3.1526886
0
LINE
8
DEFAULT_255_2_778
10
15.0498437
20
11.5061886
11
15.8570437
21
12.3501886
0
LINE
8
DEFAULT_255_2_778
10
15.8570437
20
12.3501886
11
18.1108437
21
12.3501886
0
LINE
8
DEFAULT_255_2_778
10
18.1108437
20
12.3501886
11
18.1108437
21
8.8478886
0
LINE
8
DEFAULT_255_2_778
10
18.1108437
20
8.8478886
11
15.8570437
21
8.8478886
0
LINE
8
DEFAULT_255_2_778
10
15.8570437
20
8.8478886
11
15.0498437
21
9.6183886
0
LINE
8
DEFAULT_255_2_778
10
15.0498437
20
5.9175886
11
15.8570437
21
5.1471886
0
LINE
8
DEFAULT_255_2_778
10
15.8570437
20
5.1471886
11
18.1108437
21
5.1471886
0
LINE
8
DEFAULT_255_2_778
10
18.1108437
20
5.1471886
11
18.1108437
21
8.6483886
0
LINE
8
DEFAULT_255_2_778
10
18.1108437
20
8.6483886
11
15.8570437
21
8.6483886
0
LINE
8
DEFAULT_255_2_778
10
15.8570437
20
8.6483886
11
15.0498437
21
7.8043886
0
LINE
8
DEFAULT_255_2_778
10
15.0498437
20
19.2030886
11
15.8570437
21
20.0471886
0
LINE
8
DEFAULT_255_2_778
10
15.8570437
20
20.0471886
11
18.1108437
21
20.0471886
0
LINE
8
DEFAULT_255_2_778
10
18.1108437
20
20.0471886
11
18.1108437
21
16.5472886
0
LINE
8
DEFAULT_255_2_778
10
18.1108437
20
16.5472886
11
15.8570437
21
16.5472886
0
LINE
8
DEFAULT_255_2_778
10
15.8570437
20
16.5472886
11
15.0498437
21
17.3176886
0
LINE
8
DEFAULT_255_2_778
10
15.0498437
20
13.6198886
11
15.8570437
21
12.8493886
0
LINE
8
DEFAULT_255_2_778
10
15.8570437
20
12.8493886
11
18.1108437
21
12.8493886
0
LINE
8
DEFAULT_255_2_778
10
18.1108437
20
12.8493886
11
18.1108437
21
16.3477886
0
LINE
8
DEFAULT_255_2_778
10
18.1108437
20
16.3477886
11
15.8570437
21
16.3477886
0
LINE
8
DEFAULT_255_2_778
10
15.8570437
20
16.3477886
11
15.0498437
21
15.5036886
0
LINE
8
DEFAULT_255_2_778
10
15.0498437
20
24.7223886
11
15.8570437
21
23.9518886
0
LINE
8
DEFAULT_255_2_778
10
15.8570437
20
23.9518886
11
18.1108437
21
23.9518886
0
LINE
8
DEFAULT_255_2_778
10
18.1108437
20
23.9518886
11
18.1108437
21
27.4509886
0
LINE
8
DEFAULT_255_2_778
10
18.1108437
20
27.4509886
11
15.8570437
21
27.4509886
0
LINE
8
DEFAULT_255_2_778
10
15.8570437
20
27.4509886
11
15.0498437
21
26.6069886
0
LINE
8
DEFAULT_255_2_778
10
15.0498437
20
22.9083886
11
15.8570437
21
23.7523886
0
LINE
8
DEFAULT_255_2_778
10
15.8570437
20
23.7523886
11
18.1108437
21
23.7523886
0
LINE
8
DEFAULT_255_2_778
10
18.1108437
20
23.7523886
11
18.1108437
21
20.2466886
0
LINE
8
DEFAULT_255_2_778
10
18.1108437
20
20.2466886
11
15.8570437
21
20.2466886
0
LINE
8
DEFAULT_255_2_778
10
15.8570437
20
20.2466886
11
15.0498437
21
21.0170886
0
LINE
8
DEFAULT_255_2_778
10
15.0498437
20
32.4230886
11
15.8570437
21
31.6525886
0
LINE
8
DEFAULT_255_2_778
10
15.8570437
20
31.6525886
11
18.1108437
21
31.6525886
0
LINE
8
DEFAULT_255_2_778
10
18.1108437
20
31.6525886
11
18.1108437
21
35.1513886
0
LINE
8
DEFAULT_255_2_778
10
18.1108437
20
35.1513886
11
15.8570437
21
35.1513886
0
LINE
8
DEFAULT_255_2_778
10
15.8570437
20
35.1513886
11
15.0498437
21
34.3073886
0
LINE
8
DEFAULT_255_2_778
10
15.0498437
20
30.6090886
11
15.8570437
21
31.4530886
0
LINE
8
DEFAULT_255_2_778
10
15.8570437
20
31.4530886
11
18.1108437
21
31.4530886
0
LINE
8
DEFAULT_255_2_778
10
18.1108437
20
31.4530886
11
18.1108437
21
27.9499886
0
LINE
8
DEFAULT_255_2_778
10
18.1108437
20
27.9499886
11
15.8570437
21
27.9499886
0
LINE
8
DEFAULT_255_2_778
10
15.8570437
20
27.9499886
11
15.0498437
21
28.7204886
0
LINE
8
DEFAULT_255_2_778
10
15.0498437
20
39.8218886
11
15.8570437
21
39.0513886
0
LINE
8
DEFAULT_255_2_778
10
15.8570437
20
39.0513886
11
18.1108437
21
39.0513886
0
LINE
8
DEFAULT_255_2_778
10
18.1108437
20
39.0513886
11
18.1108437
21
42.5517886
0
LINE
8
DEFAULT_255_2_778
10
18.1108437
20
42.5517886
11
15.8570437
21
42.5517886
0
LINE
8
DEFAULT_255_2_778
10
15.8570437
20
42.5517886
11
15.0498437
21
41.7077886
0
LINE
8
DEFAULT_255_2_778
10
15.0498437
20
36.1210886
11
15.8570437
21
35.3506886
0
LINE
8
DEFAULT_255_2_778
10
15.8570437
20
35.3506886
11
18.1108437
21
35.3506886
0
LINE
8
DEFAULT_255_2_778
10
18.1108437
20
35.3506886
11
18.1108437
21
38.8515886
0
LINE
8
DEFAULT_255_2_778
10
18.1108437
20
38.8515886
11
15.8570437
21
38.8515886
0
LINE
8
DEFAULT_255_2_778
10
15.8570437
20
38.8515886
11
15.0498437
21
38.0075886
0
LINE
8
DEFAULT_255_2_778
10
15.0498437
20
47.5254886
11
15.8570437
21
46.7549886
0
LINE
8
DEFAULT_255_2_778
10
15.8570437
20
46.7549886
11
18.1108437
21
46.7549886
0
LINE
8
DEFAULT_255_2_778
10
18.1108437
20
46.7549886
11
18.1108437
21
50.2535886
0
LINE
8
DEFAULT_255_2_778
10
18.1108437
20
50.2535886
11
15.8570437
21
50.2535886
0
LINE
8
DEFAULT_255_2_778
10
15.8570437
20
50.2535886
11
15.0498437
21
49.4095886
0
LINE
8
DEFAULT_255_2_778
10
15.0498437
20
43.8149886
11
15.8570437
21
43.0499886
0
LINE
8
DEFAULT_255_2_778
10
15.8570437
20
43.0499886
11
18.1108437
21
43.0499886
0
LINE
8
DEFAULT_255_2_778
10
18.1108437
20
43.0499886
11
18.1108437
21
46.5554886
0
LINE
8
DEFAULT_255_2_778
10
18.1108437
20
46.5554886
11
15.8570437
21
46.5554886
0
LINE
8
DEFAULT_255_2_778
10
15.8570437
20
46.5554886
11
15.0498437
21
45.7114886
0
LINE
8
DEFAULT_255_2_778
10
15.0498437
20
56.8109886
11
15.8570437
21
57.6549886
0
LINE
8
DEFAULT_255_2_778
10
15.8570437
20
57.6549886
11
18.1108437
21
57.6549886
0
LINE
8
DEFAULT_255_2_778
10
18.1108437
20
57.6549886
11
18.1108437
21
54.1548886
0
LINE
8
DEFAULT_255_2_778
10
18.1108437
20
54.1548886
11
15.8581437
21
54.1548886
0
LINE
8
DEFAULT_255_2_778
10
15.8581437
20
54.1548886
11
15.0498437
21
54.9263886
0
LINE
8
DEFAULT_255_2_778
10
15.0498437
20
53.1102886
11
15.8581437
21
53.9553886
0
LINE
8
DEFAULT_255_2_778
10
15.8581437
20
53.9553886
11
18.1108437
21
53.9553886
0
LINE
8
DEFAULT_255_2_778
10
18.1108437
20
53.9553886
11
18.1108437
21
50.4527886
0
LINE
8
DEFAULT_255_2_778
10
18.1108437
20
50.4527886
11
15.8570437
21
50.4527886
0
LINE
8
DEFAULT_255_2_778
10
15.8570437
20
50.4527886
11
15.0498437
21
51.2232886
0
LINE
8
DEFAULT_255_2_778
10
15.0498437
20
62.6251886
11
15.8570437
21
61.8547886
0
LINE
8
DEFAULT_255_2_778
10
15.8570437
20
61.8547886
11
18.1108437
21
61.8547886
0
LINE
8
DEFAULT_255_2_778
10
18.1108437
20
61.8547886
11
18.1108437
21
65.3578886
0
LINE
8
DEFAULT_255_2_778
10
18.1108437
20
65.3578886
11
15.8570437
21
65.3578886
0
LINE
8
DEFAULT_255_2_778
10
15.8570437
20
65.3578886
11
15.0498437
21
64.5137886
0
LINE
8
DEFAULT_255_2_778
10
15.0498437
20
58.9257886
11
15.8570437
21
58.1553886
0
LINE
8
DEFAULT_255_2_778
10
15.8570437
20
58.1553886
11
18.1108437
21
58.1553886
0
LINE
8
DEFAULT_255_2_778
10
18.1108437
20
58.1553886
11
18.1108437
21
61.6554886
0
LINE
8
DEFAULT_255_2_778
10
18.1108437
20
61.6554886
11
15.8570437
21
61.6554886
0
LINE
8
DEFAULT_255_2_778
10
15.8570437
20
61.6554886
11
15.0498437
21
60.8114886
0
LINE
8
DEFAULT_255_2_778
10
15.0498437
20
71.9178886
11
15.8560437
21
72.7608886
0
LINE
8
DEFAULT_255_2_778
10
15.8560437
20
72.7608886
11
18.1108437
21
72.7608886
0
LINE
8
DEFAULT_255_2_778
10
18.1108437
20
72.7608886
11
18.1108437
21
69.2548886
0
LINE
8
DEFAULT_255_2_778
10
18.1108437
20
69.2548886
11
15.8570437
21
69.2548886
0
LINE
8
DEFAULT_255_2_778
10
15.8570437
20
69.2548886
11
15.0498437
21
70.0253886
0
LINE
8
DEFAULT_255_2_778
10
15.0498437
20
66.3275886
11
15.8570437
21
65.5570886
0
LINE
8
DEFAULT_255_2_778
10
15.8570437
20
65.5570886
11
18.1108437
21
65.5570886
0
LINE
8
DEFAULT_255_2_778
10
18.1108437
20
65.5570886
11
18.1108437
21
69.0556886
0
LINE
8
DEFAULT_255_2_778
10
18.1108437
20
69.0556886
11
15.8570437
21
69.0556886
0
LINE
8
DEFAULT_255_2_778
10
15.8570437
20
69.0556886
11
15.0498437
21
68.2116886
0
LINE
8
DEFAULT_255_2_778
10
16.9992437
20
49.1441886
11
16.2423437
21
47.4598886
0
LINE
8
DEFAULT_255_2_778
10
16.2423437
20
47.4598886
11
16.6868437
21
47.4598886
0
LINE
8
DEFAULT_255_2_778
10
16.6868437
20
47.4598886
11
17.4115437
21
49.1272886
0
LINE
8
DEFAULT_255_2_778
10
17.4115437
20
49.1272886
11
17.4115437
21
49.4592886
0
LINE
8
DEFAULT_255_2_778
10
17.4115437
20
49.4592886
11
16.0952437
21
49.4592886
0
LINE
8
DEFAULT_255_2_778
10
16.0952437
20
49.4592886
11
16.0952437
21
49.1441886
0
LINE
8
DEFAULT_255_2_778
10
16.0952437
20
49.1441886
11
16.9992437
21
49.1441886
0
LINE
8
DEFAULT_255_2_778
10
16.1282437
20
68.2600886
11
16.1510437
21
67.8300886
0
LINE
8
DEFAULT_255_2_778
10
16.6799437
20
66.7135886
11
16.6799437
21
66.7137886
0
ARC
8
DEFAULT_255_2_778
10
16.673023
20
62.8719244
40
1.3622779
50
89.4726382
51
99.9343004
0
ARC
8
DEFAULT_255_2_778
10
16.5515361
20
63.5344996
40
0.6886993
50
99.4884873
51
118.1722871
0
ARC
8
DEFAULT_255_2_778
10
16.4657422
20
63.7145277
40
0.4895829
50
119.26841
51
120.8263356
0
ARC
8
DEFAULT_255_2_778
10
18.2182953
20
64.458258
40
2.0293542
50
182.562852
51
189.1673362
0
ARC
8
DEFAULT_255_2_778
10
19.456803
20
64.5274203
40
3.2697446
50
179.9224741
51
182.8031437
0
ARC
8
DEFAULT_255_2_778
10
16.7184324
20
63.002914
40
1.6186363
50
95.3453521
51
109.1645979
0
ARC
8
DEFAULT_255_2_778
10
16.6919052
20
63.2163905
40
1.403632
50
90.0195454
51
95.0790175
0
ARC
8
DEFAULT_255_2_778
10
16.692211
20
63.2788429
40
1.3411797
50
79.5894955
51
90.033521
0
ARC
8
DEFAULT_255_2_778
10
16.7572851
20
63.9265523
40
0.6944022
50
56.9745357
51
75.2090201
0
ARC
8
DEFAULT_255_2_778
10
16.8897087
20
64.1381376
40
0.4448512
50
358.5852832
51
56.4221448
0
ARC
8
DEFAULT_255_2_778
10
16.6479573
20
64.1103114
40
0.6866737
50
359.993782
51
1.4055374
0
ARC
8
DEFAULT_255_2_778
10
16.5369453
20
64.1121806
40
0.797688
50
353.3464043
51
359.8603899
0
ARC
8
DEFAULT_255_2_778
10
16.3638429
20
64.1306504
40
0.9717662
50
350.4570683
51
353.4473085
0
ARC
8
DEFAULT_255_2_778
10
16.7577964
20
64.0617103
40
0.5718413
50
331.2494464
51
350.7249718
0
ARC
8
DEFAULT_255_2_778
10
17.0074525
20
63.9221746
40
0.2858549
50
277.6207992
51
331.7004655
0
ARC
8
DEFAULT_255_2_778
10
16.7760307
20
63.0185933
40
0.6762031
50
49.1576452
51
66.5281416
0
ARC
8
DEFAULT_255_2_778
10
16.9353942
20
63.2033012
40
0.4322489
50
358.5443088
51
49.1265038
0
ARC
8
DEFAULT_255_2_778
10
16.7030704
20
63.1959312
40
0.664443
50
348.8986348
51
359.6886349
0
ARC
8
DEFAULT_255_2_778
10
16.4303483
20
63.2480393
40
0.9420963
50
341.3232616
51
348.9824589
0
ARC
8
DEFAULT_255_2_778
10
16.1995666
20
63.3214856
40
1.1842527
50
341.4299824
51
341.5324728
0
ARC
8
DEFAULT_255_2_778
10
16.7683374
20
63.1496602
40
0.5906569
50
306.6186467
51
339.6590658
0
ARC
8
DEFAULT_255_2_778
10
16.7442272
20
63.2065502
40
0.6508631
50
281.6471968
51
305.334822
0
ARC
8
DEFAULT_255_2_778
10
16.6562693
20
63.5992178
40
1.0532252
50
269.5106713
51
282.0211018
0
ARC
8
DEFAULT_255_2_778
10
16.651187
20
64.1088901
40
1.562864
50
264.2066262
51
269.8565626
0
ARC
8
DEFAULT_255_2_778
10
16.7028919
20
64.6294093
40
2.0859439
50
259.7883328
51
264.2368706
0
ARC
8
DEFAULT_255_2_778
10
16.8178393
20
65.2723747
40
2.7391031
50
256.154818
51
259.8063571
0
ARC
8
DEFAULT_255_2_778
10
17.0136563
20
66.0871886
40
3.5771053
50
256.1862179
51
256.232607
0
LINE
8
DEFAULT_255_2_778
10
16.1595615
20
62.6135446
11
16.1595615
21
63.0435446
0
ARC
8
DEFAULT_255_2_778
10
16.8880712
20
65.1193883
40
2.1999667
50
250.6616658
51
254.734733
0
ARC
8
DEFAULT_255_2_778
10
16.6933712
20
64.4017916
40
1.4564269
50
254.6912842
51
260.0456453
0
ARC
8
DEFAULT_255_2_778
10
16.6024539
20
63.8753849
40
0.9222297
50
259.9556912
51
267.5432342
0
ARC
8
DEFAULT_255_2_778
10
16.588634
20
63.6363763
40
0.6828574
50
267.8421042
51
269.9800469
0
ARC
8
DEFAULT_255_2_778
10
16.5961954
20
63.4071949
40
0.453743
50
269.0151257
51
286.9286922
0
ARC
8
DEFAULT_255_2_778
10
16.6532998
20
63.2194185
40
0.2574756
50
286.9391656
51
350.2566465
0
ARC
8
DEFAULT_255_2_778
10
16.5905502
20
63.1593033
40
0.3169432
50
2.9916257
51
30.6079191
0
ARC
8
DEFAULT_255_2_778
10
16.6669135
20
63.1903684
40
0.2357154
50
33.5611771
51
84.0259232
0
ARC
8
DEFAULT_255_2_778
10
16.6210079
20
62.9712785
40
0.4589626
50
81.1717375
51
90.2932986
0
ARC
8
DEFAULT_255_2_778
10
16.6217159
20
62.7410747
40
0.6891672
50
90.2541824
51
97.3931717
0
ARC
8
DEFAULT_255_2_778
10
16.6639409
20
62.4072068
40
1.0256935
50
97.3324359
51
102.6368044
0
ARC
8
DEFAULT_255_2_778
10
16.7106597
20
62.1823758
40
1.2553041
50
102.4725275
51
102.6216151
0
LINE
8
DEFAULT_255_2_778
10
16.4363615
20
63.4073446
11
16.4363615
21
63.7711446
0
ARC
8
DEFAULT_255_2_778
10
16.5831238
20
64.6174936
40
0.8589795
50
260.1623719
51
265.8234552
0
ARC
8
DEFAULT_255_2_778
10
16.568056
20
64.4256563
40
0.6665552
50
265.9142545
51
269.9356367
0
ARC
8
DEFAULT_255_2_778
10
16.5779677
20
64.1696779
40
0.4107147
50
268.5126726
51
293.6123723
0
ARC
8
DEFAULT_255_2_778
10
16.6104908
20
64.0655104
40
0.3024765
50
295.871582
51
345.719346
0
ARC
8
DEFAULT_255_2_778
10
16.4489608
20
64.1304536
40
0.4755957
50
342.9363821
51
344.411018
0
ARC
8
DEFAULT_255_2_778
10
16.6311902
20
64.0152994
40
0.2761614
50
357.3735475
51
28.6965631
0
ARC
8
DEFAULT_255_2_778
10
16.7146477
20
64.0429168
40
0.1903544
50
33.472447
51
90.7453897
0
ARC
8
DEFAULT_255_2_778
10
16.6859664
20
63.8478291
40
0.3863157
50
86.1104584
51
90.0600507
0
ARC
8
DEFAULT_255_2_778
10
16.7556948
20
54.5706619
40
1.6004088
50
90.1253464
51
95.3324546
0
ARC
8
DEFAULT_255_2_778
10
16.7615547
20
55.0916048
40
1.0795027
50
78.1285558
51
90.4968585
0
ARC
8
DEFAULT_255_2_778
10
16.8203943
20
55.3980122
40
0.7675638
50
70.5436213
51
77.7215865
0
ARC
8
DEFAULT_255_2_778
10
16.9280226
20
55.5896324
40
0.5523213
50
35.3952648
51
74.4529032
0
ARC
8
DEFAULT_255_2_778
10
16.847414
20
55.5303563
40
0.6523671
50
358.7920589
51
35.5384961
0
ARC
8
DEFAULT_255_2_778
10
16.6253018
20
55.5169958
40
0.8743346
50
356.560767
51
359.9743112
0
ARC
8
DEFAULT_255_2_778
10
16.735584
20
55.5554666
40
0.7678794
50
309.3511792
51
353.1998446
0
ARC
8
DEFAULT_255_2_778
10
16.4962173
20
55.8012487
40
1.1100975
50
305.3168128
51
310.8611749
0
ARC
8
DEFAULT_255_2_778
10
16.7071502
20
55.6757853
40
0.8913641
50
274.595191
51
298.9022549
0
ARC
8
DEFAULT_255_2_778
10
16.6596063
20
56.0382804
40
1.2566371
50
269.9158857
51
275.431865
0
ARC
8
DEFAULT_255_2_778
10
16.7834603
20
57.5160675
40
2.7373105
50
261.5962709
51
267.3680207
0
ARC
8
DEFAULT_255_2_778
10
16.5944997
20
56.271302
40
1.4783027
50
252.5759074
51
261.7905403
0
ARC
8
DEFAULT_255_2_778
10
16.466645
20
55.8312436
40
1.0201985
50
251.1876282
51
252.0264227
0
ARC
8
DEFAULT_255_2_778
10
16.5473582
20
56.0979411
40
0.8872849
50
243.0740547
51
262.6666826
0
ARC
8
DEFAULT_255_2_778
10
16.5119394
20
55.8934137
40
0.6799693
50
263.4269985
51
269.9597289
0
ARC
8
DEFAULT_255_2_778
10
16.5608007
20
56.3550316
40
1.1426527
50
267.5252265
51
269.9741404
0
ARC
8
DEFAULT_255_2_778
10
16.5715528
20
55.9924957
40
0.7801981
50
269.1724917
51
285.7401033
0
ARC
8
DEFAULT_255_2_778
10
16.6307502
20
55.7556706
40
0.5362439
50
286.5165693
51
293.5914371
0
ARC
8
DEFAULT_255_2_778
10
16.6302421
20
55.5576122
40
0.3637869
50
306.2516901
51
344.361054
0
ARC
8
DEFAULT_255_2_778
10
16.6120089
20
55.5210034
40
0.3736418
50
350.5326314
51
359.7856594
0
ARC
8
DEFAULT_255_2_778
10
16.7206283
20
55.5227915
40
0.265039
50
359.3112589
51
61.9253204
0
ARC
8
DEFAULT_255_2_778
10
16.5655734
20
55.1201345
40
0.6952887
50
66.2713498
51
84.0443149
0
ARC
8
DEFAULT_255_2_778
10
16.5068223
20
54.6840387
40
1.1352033
50
83.378829
51
90.1945718
0
ARC
8
DEFAULT_255_2_778
10
16.5047684
20
54.3054011
40
1.5138354
50
90.0681676
51
93.6626645
0
LINE
8
DEFAULT_255_2_778
10
16.6466615
20
71.9996446
11
16.0495615
21
71.5300446
0
LINE
8
DEFAULT_255_2_778
10
16.0495615
20
71.5300446
11
16.2545615
21
71.2691446
0
LINE
8
DEFAULT_255_2_778
10
16.2545615
20
71.2691446
11
16.5995615
21
71.5443446
0
LINE
8
DEFAULT_255_2_778
10
16.5995615
20
71.5443446
11
16.5995615
21
69.9999446
0
LINE
8
DEFAULT_255_2_778
10
16.5995615
20
69.9999446
11
17.0088615
21
69.9999446
0
LINE
8
DEFAULT_255_2_778
10
17.0088615
20
69.9999446
11
17.0088615
21
71.9999446
0
LINE
8
DEFAULT_255_2_778
10
17.0088615
20
71.9999446
11
16.6466615
21
71.9999446
0
LINE
8
DEFAULT_255_2_778
10
16.1595615
20
64.5193446
11
16.1828615
21
64.1981446
0
LINE
8
DEFAULT_255_2_778
10
16.6855615
20
64.2341446
11
16.6855615
21
64.2341446
0
LINE
8
DEFAULT_255_2_778
10
17.3118615
20
59.6309446
11
17.3118615
21
60.8879446
0
LINE
8
DEFAULT_255_2_778
10
17.3118615
20
60.8879446
11
16.7220615
21
60.8879446
0
LINE
8
DEFAULT_255_2_778
10
16.7220615
20
60.8879446
11
15.9206615
21
59.6939446
0
LINE
8
DEFAULT_255_2_778
10
15.9206615
20
59.6939446
11
15.9206615
21
59.2700446
0
LINE
8
DEFAULT_255_2_778
10
15.9206615
20
59.2700446
11
16.8136615
21
59.2700446
0
LINE
8
DEFAULT_255_2_778
10
16.8136615
20
59.2700446
11
16.8136615
21
58.8890446
0
LINE
8
DEFAULT_255_2_778
10
16.8136615
20
58.8890446
11
17.3118615
21
58.8890446
0
LINE
8
DEFAULT_255_2_778
10
17.3118615
20
58.8890446
11
17.3118615
21
59.2700446
0
LINE
8
DEFAULT_255_2_778
10
17.3118615
20
59.2700446
11
17.5957615
21
59.2700446
0
LINE
8
DEFAULT_255_2_778
10
17.5957615
20
59.2700446
11
17.5957615
21
59.6306446
0
LINE
8
DEFAULT_255_2_778
10
17.5957615
20
59.6306446
11
17.3118615
21
59.6309446
0
LINE
8
DEFAULT_255_2_778
10
16.9088615
20
60.4757446
11
16.9144615
21
59.6309446
0
LINE
8
DEFAULT_255_2_778
10
16.9144615
20
59.6309446
11
16.3646615
21
59.6309446
0
LINE
8
DEFAULT_255_2_778
10
16.3646615
20
59.6309446
11
16.9088615
21
60.4757446
0
LINE
8
DEFAULT_255_2_778
10
16.1534615
20
55.7820446
11
16.1775615
21
56.8684446
0
LINE
8
DEFAULT_255_2_778
10
16.1775615
20
56.8684446
11
17.4181615
21
56.8684446
0
LINE
8
DEFAULT_255_2_778
10
17.4181615
20
56.8684446
11
17.4181615
21
56.4969446
0
LINE
8
DEFAULT_255_2_778
10
17.4181615
20
56.4969446
11
16.6149615
21
56.5035446
0
LINE
8
DEFAULT_255_2_778
10
16.6149615
20
56.5035446
11
16.6069615
21
56.1641446
0
LINE
8
DEFAULT_255_2_778
10
16.1376615
20
54.8655446
11
16.1455615
21
55.3068446
0
LINE
8
DEFAULT_255_2_778
10
16.4080615
20
55.8161446
11
16.1534615
21
55.7823446
0
LINE
8
DEFAULT_255_2_778
10
16.1534615
20
55.7823446
11
16.1534615
21
55.7820446
0
ARC
8
DEFAULT_255_2_778
10
16.7935014
20
51.3051953
40
1.9395483
50
72.4051885
51
76.9112171
0
ARC
8
DEFAULT_255_2_778
10
16.8892353
20
51.7193119
40
1.5145104
50
76.8910029
51
82.4214766
0
ARC
8
DEFAULT_255_2_778
10
16.9332143
20
52.0540296
40
1.1769162
50
82.3947301
51
89.3475597
0
ARC
8
DEFAULT_255_2_778
10
16.937516
20
52.2009544
40
1.0299553
50
89.4937766
51
90.0005901
0
ARC
8
DEFAULT_255_2_778
10
16.9268639
20
52.4229499
40
0.80803
50
89.245411
51
110.0970701
0
ARC
8
DEFAULT_255_2_778
10
16.8990458
20
52.5353831
40
0.6929969
50
111.131351
51
146.890225
0
ARC
8
DEFAULT_255_2_778
10
17.2268108
20
52.3067726
40
1.0924896
50
146.2372685
51
159.7652662
0
ARC
8
DEFAULT_255_2_778
10
17.8182707
20
52.0839811
40
1.7245089
50
159.616583
51
168.6538587
0
ARC
8
DEFAULT_255_2_778
10
18.2909665
20
51.9764013
40
2.2091667
50
168.3301534
51
169.122106
0
ARC
8
DEFAULT_255_2_778
10
19.7175694
20
52.1275254
40
3.6058829
50
175.7730115
51
177.497787
0
ARC
8
DEFAULT_255_2_778
10
19.2352181
20
52.1485687
40
3.1230727
50
177.4971406
51
179.3275706
0
ARC
8
DEFAULT_255_2_778
10
18.9474578
20
52.1529019
40
2.8352816
50
179.3468841
51
179.9977151
0
ARC
8
DEFAULT_255_2_778
10
18.292088
20
52.1420686
40
2.1799394
50
179.7122953
51
187.177235
0
ARC
8
DEFAULT_255_2_778
10
17.4205956
20
52.0281338
40
1.3010473
50
186.9940958
51
198.552322
0
ARC
8
DEFAULT_255_2_778
10
16.8980868
20
51.8477056
40
0.7482999
50
198.1844011
51
218.7097641
0
ARC
8
DEFAULT_255_2_778
10
16.7549741
20
51.7478727
40
0.5743097
50
219.866829
51
264.9044351
0
ARC
8
DEFAULT_255_2_778
10
16.8086793
20
52.0531159
40
0.8835104
50
263.1932978
51
270.1307186
0
ARC
8
DEFAULT_255_2_778
10
16.7741942
20
52.1497612
40
0.9808329
50
272.1327048
51
287.9855232
0
ARC
8
DEFAULT_255_2_778
10
16.9035999
20
51.7676672
40
0.5774751
50
287.4794565
51
347.0565703
0
ARC
8
DEFAULT_255_2_778
10
16.4600808
20
51.9020503
40
1.0403063
50
345.3145084
51
357.9098137
0
ARC
8
DEFAULT_255_2_778
10
16.5862353
20
51.8253171
40
0.914283
50
2.431636
51
18.2596474
0
ARC
8
DEFAULT_255_2_778
10
16.9844343
20
51.9657611
40
0.4922055
50
17.2576975
51
79.9228921
0
ARC
8
DEFAULT_255_2_778
10
16.9122314
20
51.7220375
40
0.7453456
50
77.7358411
51
81.6636157
0
ARC
8
DEFAULT_255_2_778
10
16.9239884
20
51.9302568
40
0.5379419
50
79.68686
51
89.8026984
0
ARC
8
DEFAULT_255_2_778
10
16.9261941
20
52.0314627
40
0.4367328
50
90.0463508
51
141.9719367
0
ARC
8
DEFAULT_255_2_778
10
17.0856396
20
51.8720598
40
0.6610949
50
139.6020021
51
142.1826419
0
ARC
8
DEFAULT_255_2_778
10
17.5040703
20
52.3054474
40
0.9410932
50
180.0099021
51
181.7073719
0
ARC
8
DEFAULT_255_2_778
10
17.2119687
20
52.3181008
40
0.649118
50
159.1801449
51
181.1313098
0
ARC
8
DEFAULT_255_2_778
10
17.0424126
20
52.3695092
40
0.4725192
50
108.5255734
51
157.6989603
0
ARC
8
DEFAULT_255_2_778
10
17.1599446
20
52.1125125
40
0.7541304
50
105.359467
51
110.7892362
0
ARC
8
DEFAULT_255_2_778
10
17.0989427
20
52.1938812
40
0.6605625
50
92.4060684
51
102.1249734
0
ARC
8
DEFAULT_255_2_778
10
17.0905669
20
52.3251995
40
0.529016
50
90.0120908
51
92.0968078
0
ARC
8
DEFAULT_255_2_778
10
17.1036393
20
52.4956311
40
0.3588267
50
46.7075186
51
92.1056319
0
ARC
8
DEFAULT_255_2_778
10
37.9003158
20
51.4336335
40
20.5931738
50
175.716324
51
176.3160335
0
ARC
8
DEFAULT_255_2_778
10
29.8191791
20
52.0413425
40
12.4892198
50
174.8901212
51
175.7273065
0
ARC
8
DEFAULT_255_2_778
10
16.8980974
20
51.8383182
40
0.3271819
50
136.0890771
51
181.2628069
0
ARC
8
DEFAULT_255_2_778
10
16.8134928
20
51.917182
40
0.2115441
50
90.7577841
51
135.5848438
0
ARC
8
DEFAULT_255_2_778
10
16.7960364
20
51.8863948
40
0.2427558
50
16.2148884
51
86.5381438
0
ARC
8
DEFAULT_255_2_778
10
16.6907826
20
51.8323635
40
0.3596145
50
359.7999203
51
19.8006017
0
ARC
8
DEFAULT_255_2_778
10
16.7229709
20
51.8239076
40
0.3275033
50
316.2187885
51
1.2597365
0
ARC
8
DEFAULT_255_2_778
10
16.807868
20
51.7450277
40
0.2116389
50
270.7653705
51
315.7340238
0
ARC
8
DEFAULT_255_2_778
10
16.8253043
20
51.775603
40
0.2426355
50
196.2858168
51
266.5480752
0
ARC
8
DEFAULT_255_2_778
10
16.9308232
20
51.8298344
40
0.3598304
50
179.7972526
51
199.8652185
0
ARC
8
DEFAULT_255_2_778
10
16.7930745
20
44.3771428
40
0.2810305
50
271.4926515
51
312.1472835
0
ARC
8
DEFAULT_255_2_778
10
16.7709071
20
44.369164
40
0.2908075
50
316.4443503
51
354.4990591
0
ARC
8
DEFAULT_255_2_778
10
16.5422359
20
44.4154781
40
0.5234242
50
351.8513069
51
356.015566
0
ARC
8
DEFAULT_255_2_778
10
16.8077687
20
44.3501239
40
0.2582578
50
6.4437764
51
61.695701
0
ARC
8
DEFAULT_255_2_778
10
16.6006418
20
44.0319805
40
0.6373542
50
58.861537
51
73.5061093
0
ARC
8
DEFAULT_255_2_778
10
16.8312542
20
44.3514389
40
0.295866
50
99.6624642
51
174.3094884
0
ARC
8
DEFAULT_255_2_778
10
17.0407879
20
44.3040202
40
0.5097535
50
171.3398387
51
171.5294141
0
ARC
8
DEFAULT_255_2_778
10
17.0595642
20
44.3765203
40
0.5229756
50
179.7165357
51
179.9996714
0
ARC
8
DEFAULT_255_2_778
10
16.8547542
20
44.3636996
40
0.3184238
50
177.691922
51
208.6408156
0
ARC
8
DEFAULT_255_2_778
10
16.7774273
20
44.3404775
40
0.2400083
50
212.6267674
51
263.9695172
0
ARC
8
DEFAULT_255_2_778
10
16.829784
20
44.5615551
40
0.4662557
50
260.4231221
51
266.4230765
0
ARC
8
DEFAULT_255_2_778
10
16.7809961
20
45.2289476
40
0.2238709
50
89.4372217
51
171.4293153
0
ARC
8
DEFAULT_255_2_778
10
16.9773064
20
45.1755107
40
0.426605
50
168.2601906
51
176.0890476
0
ARC
8
DEFAULT_255_2_778
10
16.7434991
20
45.2114757
40
0.1919271
50
182.050738
51
239.5521949
0
ARC
8
DEFAULT_255_2_778
10
16.9653432
20
45.5225094
40
0.5734738
50
236.1900463
51
252.0031843
0
ARC
8
DEFAULT_255_2_778
10
17.0965043
20
45.8656225
40
0.9405104
50
250.8618218
51
251.6168146
0
ARC
8
DEFAULT_255_2_778
10
16.6405617
20
45.388218
40
0.4446388
50
290.998483
51
313.3828427
0
ARC
8
DEFAULT_255_2_778
10
16.7865426
20
45.230766
40
0.229945
50
313.8943873
51
353.467953
0
ARC
8
DEFAULT_255_2_778
10
16.5650669
20
45.2352361
40
0.4509694
50
356.1056561
51
359.9351409
0
ARC
8
DEFAULT_255_2_778
10
16.7833217
20
45.2470142
40
0.2330386
50
356.9772632
51
33.8252313
0
ARC
8
DEFAULT_255_2_778
10
16.8227436
20
45.2512326
40
0.1987982
50
39.1475908
51
87.1687959
0
ARC
8
DEFAULT_255_2_778
10
16.7848344
20
45.0326318
40
0.4198778
50
83.4729301
51
90.1827704
0
ARC
8
DEFAULT_255_2_778
10
16.8544053
20
44.4359283
40
1.3808469
50
90.8925685
51
101.858826
0
ARC
8
DEFAULT_255_2_778
10
16.7161913
20
45.0665357
40
0.7353175
50
101.4167281
51
121.2304393
0
ARC
8
DEFAULT_255_2_778
10
16.5979502
20
45.2780393
40
0.4932315
50
122.2241575
51
176.7662717
0
ARC
8
DEFAULT_255_2_778
10
16.8058028
20
45.2335808
40
0.7040191
50
174.1070878
51
174.2751474
0
ARC
8
DEFAULT_255_2_778
10
16.6524929
20
45.2977741
40
0.5472311
50
179.3682669
51
238.5466514
0
ARC
8
DEFAULT_255_2_778
10
16.8527655
20
45.5448923
40
0.8635591
50
235.7656686
51
238.6118298
0
ARC
8
DEFAULT_255_2_778
10
16.5375409
20
44.2616378
40
0.5624011
50
103.8413864
51
128.8730314
0
ARC
8
DEFAULT_255_2_778
10
16.4865811
20
44.3487569
40
0.4628364
50
130.73043
51
172.1694885
0
ARC
8
DEFAULT_255_2_778
10
16.7898123
20
44.2852425
40
0.7721956
50
170.5659249
51
180.2833894
0
ARC
8
DEFAULT_255_2_778
10
17.0399532
20
44.2826947
40
1.0223279
50
180.0712628
51
184.3227163
0
ARC
8
DEFAULT_255_2_778
10
17.1861394
20
44.2924857
40
1.1688368
50
184.2611745
51
185.5566353
0
ARC
8
DEFAULT_255_2_778
10
16.588944
20
44.3441972
40
0.5896721
50
196.2380687
51
254.5569787
0
ARC
8
DEFAULT_255_2_778
10
16.7263091
20
44.7674763
40
1.0344342
50
253.4660406
51
267.9847324
0
ARC
8
DEFAULT_255_2_778
10
16.7569195
20
45.1941972
40
1.4620507
50
267.3739465
51
270.0290883
0
ARC
8
DEFAULT_255_2_778
10
16.7573835
20
45.3582678
40
1.6261212
50
270.0098063
51
271.5050984
0
ARC
8
DEFAULT_255_2_778
10
16.7782129
20
45.3248489
40
1.5922916
50
270.7874132
51
280.5174608
0
ARC
8
DEFAULT_255_2_778
10
16.916923
20
44.6055984
40
0.8598205
50
280.1782004
51
296.7294694
0
ARC
8
DEFAULT_255_2_778
10
17.086155
20
44.2770057
40
0.4902356
50
296.3374667
51
359.210847
0
ARC
8
DEFAULT_255_2_778
10
16.8172387
20
44.3180411
40
0.7606081
50
356.3978573
51
358.2571172
0
ARC
8
DEFAULT_255_2_778
10
16.7943135
20
44.3265966
40
0.7838223
50
357.6829721
51
359.983278
0
ARC
8
DEFAULT_255_2_778
10
17.0463115
20
44.3397172
40
0.5319917
50
358.5621218
51
26.5428575
0
ARC
8
DEFAULT_255_2_778
10
17.113121
20
44.3530444
40
0.4666132
50
28.7453354
51
67.4801095
0
ARC
8
DEFAULT_255_2_778
10
16.974162
20
44.0758821
40
0.7761806
50
65.8404992
51
74.5759898
0
ARC
8
DEFAULT_255_2_778
10
16.847279
20
45.5173418
40
0.7692029
50
295.678858
51
312.8547228
0
ARC
8
DEFAULT_255_2_778
10
17.0742505
20
45.2785875
40
0.4398222
50
312.3334146
51
0.5077309
0
ARC
8
DEFAULT_255_2_778
10
16.9707314
20
45.2819037
40
0.5433243
50
0.0612952
51
5.778548
0
ARC
8
DEFAULT_255_2_778
10
16.9716153
20
45.2559673
40
0.5456712
50
8.4984121
51
42.6464952
0
ARC
8
DEFAULT_255_2_778
10
16.967127
20
45.223163
40
0.5715858
50
44.7608757
51
74.7375515
0
ARC
8
DEFAULT_255_2_778
10
16.8253071
20
44.7527762
40
1.0627945
50
74.0370787
51
87.9510414
0
ARC
8
DEFAULT_255_2_778
10
16.7925314
20
44.3238806
40
1.4926894
50
87.2823656
51
88.4274461
0
ARC
8
DEFAULT_255_2_778
10
16.5627271
20
40.4814764
40
0.4452366
50
269.5839429
51
285.0975723
0
ARC
8
DEFAULT_255_2_778
10
16.568908
20
40.7376268
40
0.7014385
50
253.975764
51
269.2310086
0
ARC
8
DEFAULT_255_2_778
10
16.6903644
20
41.1943594
40
1.1739894
50
247.0235829
51
254.4316545
0
ARC
8
DEFAULT_255_2_778
10
30.2162727
20
37.789616
40
14.175955
50
170.5648062
51
171.8841509
0
ARC
8
DEFAULT_255_2_778
10
16.5972166
20
40.8063345
40
1.0969282
50
247.7741966
51
267.5508491
0
ARC
8
DEFAULT_255_2_778
10
16.5884153
20
40.7254605
40
1.0157661
50
267.8519055
51
270.0000179
0
ARC
8
DEFAULT_255_2_778
10
16.5848892
20
40.7744943
40
1.0648056
50
270.1897545
51
288.7349545
0
ARC
8
DEFAULT_255_2_778
10
16.7369791
20
40.3212415
40
0.586721
50
288.8862444
51
331.6914953
0
ARC
8
DEFAULT_255_2_778
10
16.334631
20
40.5605278
40
1.0546124
50
330.6120149
51
345.1924864
0
ARC
8
DEFAULT_255_2_778
10
15.5885944
20
40.7660444
40
1.8284149
50
344.9410138
51
353.9374261
0
ARC
8
DEFAULT_255_2_778
10
14.4308231
20
40.8957731
40
2.9934197
50
353.8086933
51
359.8778232
0
ARC
8
DEFAULT_255_2_778
10
13.6126566
20
40.9122581
40
3.8116479
50
359.6562496
51
0.0003396
0
ARC
8
DEFAULT_255_2_778
10
13.3851149
20
40.9117617
40
4.0391895
50
0.0073609
51
1.0071627
0
ARC
8
DEFAULT_255_2_778
10
13.1354075
20
40.9078188
40
4.2889276
50
1.0011934
51
1.3211741
0
ARC
8
DEFAULT_255_2_778
10
15.9253414
20
41.0189173
40
1.4979033
50
359.5329687
51
10.0391405
0
ARC
8
DEFAULT_255_2_778
10
16.5783708
20
41.1398131
40
0.8338142
50
9.6812663
51
27.9121105
0
ARC
8
DEFAULT_255_2_778
10
16.8292793
20
41.2660994
40
0.5530091
50
28.5191961
51
83.8334519
0
ARC
8
DEFAULT_255_2_778
10
16.748121
20
40.8731124
40
0.9532169
50
81.5202089
51
90.2322999
0
ARC
8
DEFAULT_255_2_778
10
16.7445599
20
40.6502153
40
1.1761062
50
90.0147923
51
91.996072
0
ARC
8
DEFAULT_255_2_778
10
16.7636089
20
40.9201377
40
0.9074567
50
93.7919761
51
110.4778482
0
ARC
8
DEFAULT_255_2_778
10
16.6406353
20
41.2494536
40
0.5559292
50
110.4785754
51
170.7143402
0
ARC
8
DEFAULT_255_2_778
10
17.104419
20
41.1299918
40
1.0338086
50
168.3270821
51
179.2675284
0
ARC
8
DEFAULT_255_2_778
10
17.3557725
20
41.1570159
40
1.2851516
50
180.6156211
51
191.7012597
0
ARC
8
DEFAULT_255_2_778
10
16.7419779
20
41.0241022
40
0.6571811
50
191.2070416
51
211.5905474
0
ARC
8
DEFAULT_255_2_778
10
16.5377543
20
40.9056242
40
0.4212001
50
212.4149788
51
265.5256095
0
ARC
8
DEFAULT_255_2_778
10
16.624644
20
41.3071046
40
0.83008
50
261.7054547
51
269.2995075
0
ARC
8
DEFAULT_255_2_778
10
16.6215202
20
41.2070016
40
0.7299488
50
269.4486204
51
270.0009545
0
ARC
8
DEFAULT_255_2_778
10
16.6368016
20
41.0273081
40
0.5504671
50
268.4104889
51
319.7594942
0
ARC
8
DEFAULT_255_2_778
10
16.1306408
20
40.670372
40
0.9263551
50
343.8073105
51
0.0826159
0
ARC
8
DEFAULT_255_2_778
10
16.5088484
20
40.5541846
40
0.5307854
50
288.6623911
51
344.4666515
0
ARC
8
DEFAULT_255_2_778
10
16.7443885
20
41.2693941
40
0.2461429
50
90.8830575
51
169.8976498
0
ARC
8
DEFAULT_255_2_778
10
17.1532704
20
41.1409764
40
0.6734366
50
165.238153
51
178.7465629
0
ARC
8
DEFAULT_255_2_778
10
17.1736252
20
41.167486
40
0.6937302
50
180.9728277
51
196.405699
0
ARC
8
DEFAULT_255_2_778
10
16.7604534
20
41.0290203
40
0.2587758
50
192.8313043
51
265.5988133
0
ARC
8
DEFAULT_255_2_778
10
16.7456535
20
41.0346549
40
0.2636958
50
268.9008157
51
346.4623102
0
ARC
8
DEFAULT_255_2_778
10
16.4123716
20
41.143608
40
0.6138569
50
343.8563994
51
358.8051672
0
ARC
8
DEFAULT_255_2_778
10
16.3914293
20
41.1432017
40
0.6347867
50
358.8812438
51
15.744243
0
ARC
8
DEFAULT_255_2_778
10
16.7476443
20
41.2533629
40
0.2622119
50
13.6960548
51
91.4537837
0
ARC
8
DEFAULT_255_2_778
10
16.7321456
20
41.3182888
40
0.1973998
50
87.4315008
51
87.5467947
0
ARC
8
DEFAULT_255_2_778
10
17.0877629
20
6.3253123
40
0.2288107
50
272.9641594
51
354.3167652
0
ARC
8
DEFAULT_255_2_778
10
16.7803192
20
6.4102283
40
0.5458353
50
348.6335728
51
356.7841007
0
ARC
8
DEFAULT_255_2_778
10
17.0495089
20
6.3550764
40
0.2768749
50
5.0831088
51
64.5119425
0
ARC
8
DEFAULT_255_2_778
10
16.8882165
20
6.1009907
40
0.5767801
50
60.9080185
51
70.210435
0
ARC
8
DEFAULT_255_2_778
10
17.1537998
20
6.3740417
40
0.2786799
50
104.6123546
51
176.1382695
0
ARC
8
DEFAULT_255_2_778
10
17.3864562
20
6.3142237
40
0.5167146
50
171.2519702
51
172.7304237
0
ARC
8
DEFAULT_255_2_778
10
17.4909912
20
6.3773303
40
0.6171005
50
179.7885539
51
180.0047091
0
ARC
8
DEFAULT_255_2_778
10
17.2459811
20
6.364841
40
0.3722983
50
178.0853678
51
203.1566323
0
ARC
8
DEFAULT_255_2_778
10
17.0979382
20
6.3127438
40
0.2159425
50
205.8951802
51
270.4396019
0
ARC
8
DEFAULT_255_2_778
10
17.0972606
20
7.2495086
40
0.2041619
50
93.4161695
51
177.1593808
0
ARC
8
DEFAULT_255_2_778
10
17.3856478
20
7.1764444
40
0.4992762
50
170.409501
51
176.7088591
0
ARC
8
DEFAULT_255_2_778
10
17.0981914
20
7.2107164
40
0.211071
50
181.5226723
51
240.560059
0
ARC
8
DEFAULT_255_2_778
10
17.2872841
20
7.4735892
40
0.5341197
50
236.7522833
51
249.4041776
0
ARC
8
DEFAULT_255_2_778
10
16.9583881
20
7.2933893
40
0.3494899
50
293.7949568
51
324.9999287
0
ARC
8
DEFAULT_255_2_778
10
17.0380656
20
7.2268003
40
0.246187
50
327.0589516
51
354.9448657
0
ARC
8
DEFAULT_255_2_778
10
16.7559558
20
7.2353669
40
0.5282067
50
356.7159226
51
359.94607
0
ARC
8
DEFAULT_255_2_778
10
17.0109387
20
7.2466026
40
0.2734754
50
357.5410841
51
26.7401153
0
ARC
8
DEFAULT_255_2_778
10
17.1079441
20
7.2809903
40
0.1718591
50
31.0572001
51
92.5277012
0
ARC
8
DEFAULT_255_2_778
10
17.0854387
20
7.1107613
40
0.3422464
50
87.5004226
51
90.0240519
0
ARC
8
DEFAULT_255_2_778
10
17.1432291
20
6.8298388
40
0.9873958
50
90.9188449
51
105.3678307
0
ARC
8
DEFAULT_255_2_778
10
17.0103
20
7.2840979
40
0.5142101
50
104.4997211
51
137.9943081
0
ARC
8
DEFAULT_255_2_778
10
17.0294095
20
7.2949972
40
0.5215344
50
140.289589
51
172.2481682
0
ARC
8
DEFAULT_255_2_778
10
17.2953799
20
7.2375838
40
0.7930967
50
170.7298827
51
175.1739556
0
ARC
8
DEFAULT_255_2_778
10
17.082399
20
7.2872011
40
0.5775574
50
178.3027132
51
236.0313466
0
ARC
8
DEFAULT_255_2_778
10
16.877596
20
6.3892107
40
0.435269
50
105.7159961
51
168.8870064
0
ARC
8
DEFAULT_255_2_778
10
17.2504875
20
6.2899391
40
0.8206999
50
167.10387
51
180.5953569
0
ARC
8
DEFAULT_255_2_778
10
17.6257384
20
6.2826616
40
1.1959071
50
180.059897
51
183.6717716
0
ARC
8
DEFAULT_255_2_778
10
17.7906715
20
6.2920108
40
1.3611009
50
183.6198932
51
184.7243534
0
ARC
8
DEFAULT_255_2_778
10
17.0603895
20
6.3382383
40
0.6459011
50
194.1896006
51
219.2149408
0
ARC
8
DEFAULT_255_2_778
10
16.9729373
20
6.2887059
40
0.5470904
50
220.986527
51
260.4946983
0
ARC
8
DEFAULT_255_2_778
10
17.0563828
20
6.6560995
40
0.9234731
50
259.1526368
51
270.3808277
0
ARC
8
DEFAULT_255_2_778
10
17.0622753
20
6.9219676
40
1.1893208
50
270.0118274
51
271.7596201
0
ARC
8
DEFAULT_255_2_778
10
17.0827964
20
6.8693155
40
1.1362204
50
270.8067826
51
283.6539293
0
ARC
8
DEFAULT_255_2_778
10
17.2168583
20
6.3441775
40
0.5943104
50
283.0455087
51
308.5357725
0
ARC
8
DEFAULT_255_2_778
10
17.2705071
20
6.2495828
40
0.4871887
50
310.5316583
51
352.8714396
0
ARC
8
DEFAULT_255_2_778
10
16.9671922
20
6.3134839
40
0.7965056
50
351.0176004
51
358.7067934
0
ARC
8
DEFAULT_255_2_778
10
16.846322
20
6.3267931
40
0.9177064
50
358.046356
51
359.9857928
0
ARC
8
DEFAULT_255_2_778
10
17.139072
20
6.339054
40
0.6250811
50
358.8552189
51
20.6875102
0
ARC
8
DEFAULT_255_2_778
10
17.3097273
20
6.3912922
40
0.4471211
50
22.1507712
51
72.4443646
0
ARC
8
DEFAULT_255_2_778
10
17.2134793
20
6.1822759
40
0.6760441
50
70.009631
51
71.8567751
0
ARC
8
DEFAULT_255_2_778
10
17.1173086
20
7.3744792
40
0.6295278
50
299.1546693
51
322.2688452
0
ARC
8
DEFAULT_255_2_778
10
17.2310274
20
7.2741789
40
0.4783081
50
323.4351425
51
1.0579434
0
ARC
8
DEFAULT_255_2_778
10
17.0747799
20
7.2824432
40
0.6344744
50
0.0511942
51
4.9425675
0
ARC
8
DEFAULT_255_2_778
10
17.0869002
20
7.2560142
40
0.6252757
50
7.4518206
51
31.3858232
0
ARC
8
DEFAULT_255_2_778
10
17.2117654
20
7.3142023
40
0.4886179
50
33.1867329
51
78.1052856
0
ARC
8
DEFAULT_255_2_778
10
17.1057414
20
6.933519
40
0.8833421
50
76.4651176
51
88.6277923
0
LINE
8
DEFAULT_255_2_778
10
17.379595
20
53.1537077
11
17.379795
21
53.1540077
0
LINE
8
DEFAULT_255_2_778
10
16.570995
20
51.8311077
11
16.570995
21
51.8311077
0
LINE
8
DEFAULT_255_2_778
10
16.800695
20
44.0962077
11
16.800395
21
44.0962077
0
LINE
8
DEFAULT_255_2_778
10
16.783495
20
45.4525077
11
16.783195
21
45.4528077
0
LINE
8
DEFAULT_255_2_778
10
16.833495
20
45.8160077
11
16.832895
21
45.8166077
0
LINE
8
DEFAULT_255_2_778
10
16.678695
20
40.0513077
11
16.678695
21
40.0516077
0
LINE
8
DEFAULT_255_2_778
10
16.740595
20
41.5155077
11
16.740595
21
41.5155077
0
LINE
8
DEFAULT_255_2_778
10
15.906395
20
7.8192077
11
15.309195
21
7.3501077
0
LINE
8
DEFAULT_255_2_778
10
15.309195
20
7.3501077
11
15.513995
21
7.0890077
0
LINE
8
DEFAULT_255_2_778
10
15.513995
20
7.0890077
11
15.859495
21
7.3639077
0
LINE
8
DEFAULT_255_2_778
10
15.859495
20
7.3639077
11
15.859495
21
5.8198077
0
LINE
8
DEFAULT_255_2_778
10
15.859495
20
5.8198077
11
16.269095
21
5.8198077
0
LINE
8
DEFAULT_255_2_778
10
16.269095
20
5.8198077
11
16.269095
21
7.8192077
0
LINE
8
DEFAULT_255_2_778
10
16.269095
20
7.8192077
11
15.906395
21
7.8192077
0
LINE
8
DEFAULT_255_2_778
10
17.099595
20
6.0968077
11
17.099595
21
6.0968077
0
LINE
8
DEFAULT_255_2_778
10
17.085295
20
7.4530077
11
17.085095
21
7.4533077
0
LINE
8
DEFAULT_255_2_778
10
17.126895
20
7.8166077
11
17.127395
21
7.8171077
0
ARC
8
DEFAULT_255_2_778
10
17.2224669
20
13.8136165
40
1.7690241
50
71.5369957
51
76.2767009
0
ARC
8
DEFAULT_255_2_778
10
17.3160892
20
14.1989921
40
1.3724397
50
76.2569033
51
82.0464194
0
ARC
8
DEFAULT_255_2_778
10
17.3588525
20
14.5101526
40
1.0583554
50
82.0083253
51
89.5682311
0
ARC
8
DEFAULT_255_2_778
10
17.3624723
20
14.638607
40
0.9298813
50
89.7316198
51
89.9971642
0
ARC
8
DEFAULT_255_2_778
10
17.351681
20
14.8435042
40
0.7250648
50
89.1435868
51
112.6157086
0
ARC
8
DEFAULT_255_2_778
10
17.3402402
20
14.9082163
40
0.6610843
50
113.8572483
51
146.4517601
0
ARC
8
DEFAULT_255_2_778
10
17.6621611
20
14.6815354
40
1.05471
50
145.8533936
51
159.3397007
0
ARC
8
DEFAULT_255_2_778
10
18.2504173
20
14.4549026
40
1.6851028
50
159.1865125
51
168.1801362
0
ARC
8
DEFAULT_255_2_778
10
18.7928402
20
14.3287797
40
2.2418928
50
167.8647313
51
169.6675053
0
ARC
8
DEFAULT_255_2_778
10
20.373904
20
14.4653507
40
3.7958997
50
175.9887013
51
177.6256366
0
ARC
8
DEFAULT_255_2_778
10
19.8680125
20
14.4863055
40
3.2895747
50
177.6252618
51
179.361748
0
ARC
8
DEFAULT_255_2_778
10
19.5653735
20
14.4906536
40
2.9869061
50
179.3804812
51
179.9978542
0
ARC
8
DEFAULT_255_2_778
10
18.8729537
20
14.4797809
40
2.2945127
50
179.7257073
51
186.8173904
0
ARC
8
DEFAULT_255_2_778
10
17.9491529
20
14.3651783
40
1.3636458
50
186.643769
51
197.5486778
0
ARC
8
DEFAULT_255_2_778
10
17.3866347
20
14.1822187
40
0.7721564
50
197.1897826
51
216.2491152
0
ARC
8
DEFAULT_255_2_778
10
17.1987009
20
14.0543305
40
0.5450349
50
217.0889552
51
267.5361632
0
ARC
8
DEFAULT_255_2_778
10
17.2410787
20
14.3369217
40
0.8297361
50
265.450968
51
270.0569334
0
ARC
8
DEFAULT_255_2_778
10
17.2085135
20
14.3839554
40
0.877405
50
272.1809175
51
289.8408307
0
ARC
8
DEFAULT_255_2_778
10
17.3108979
20
14.088493
40
0.5647456
50
290.2441792
51
347.4880089
0
ARC
8
DEFAULT_255_2_778
10
16.8182666
20
14.2383075
40
1.0788582
50
345.3881401
51
358.0547385
0
ARC
8
DEFAULT_255_2_778
10
16.935671
20
14.1625119
40
0.9616304
50
2.3347129
51
17.2063243
0
ARC
8
DEFAULT_255_2_778
10
17.3756589
20
14.3076871
40
0.4984619
50
16.2265263
51
53.0311533
0
ARC
8
DEFAULT_255_2_778
10
17.3709387
20
14.2700104
40
0.5317383
50
55.0666627
51
82.406668
0
ARC
8
DEFAULT_255_2_778
10
17.3496632
20
14.3193549
40
0.4864222
50
79.1528043
51
89.7886504
0
ARC
8
DEFAULT_255_2_778
10
17.3527716
20
14.4042703
40
0.4015055
50
90.1875282
51
141.4589436
0
ARC
8
DEFAULT_255_2_778
10
17.5176671
20
14.2393994
40
0.6337497
50
139.0883767
51
143.655297
0
ARC
8
DEFAULT_255_2_778
10
17.9969851
20
14.6431569
40
0.9901828
50
180.0098783
51
181.6302974
0
ARC
8
DEFAULT_255_2_778
10
17.6895718
20
14.6556305
40
0.6828864
50
160.5807086
51
181.0609496
0
ARC
8
DEFAULT_255_2_778
10
17.4834531
20
14.7181862
40
0.4677926
50
106.2040199
51
159.413007
0
ARC
8
DEFAULT_255_2_778
10
17.5865057
20
14.4807614
40
0.725281
50
106.1881243
51
108.788396
0
ARC
8
DEFAULT_255_2_778
10
17.5154366
20
14.5996251
40
0.592358
50
92.184235
51
102.7898249
0
ARC
8
DEFAULT_255_2_778
10
17.5079617
20
14.7185355
40
0.4732582
50
90.0074528
51
91.8286
0
ARC
8
DEFAULT_255_2_778
10
17.5191446
20
14.8601245
40
0.3318598
50
44.9026866
51
91.9417375
0
ARC
8
DEFAULT_255_2_778
10
38.4304381
20
13.8345307
40
20.7145824
50
175.9170802
51
176.5131343
0
ARC
8
DEFAULT_255_2_778
10
30.298395
20
14.417457
40
12.5616739
50
175.0961114
51
175.9282306
0
ARC
8
DEFAULT_255_2_778
10
17.3554648
20
14.1759944
40
0.3411399
50
140.3405812
51
181.2275744
0
ARC
8
DEFAULT_255_2_778
10
17.2467734
20
14.2668777
40
0.1994607
50
91.3129295
51
140.5121797
0
ARC
8
DEFAULT_255_2_778
10
17.227726
20
14.2415512
40
0.2252006
50
19.5780975
51
86.3141652
0
ARC
8
DEFAULT_255_2_778
10
17.1002997
20
14.1708888
40
0.36971
50
359.6586057
51
23.2810996
0
ARC
8
DEFAULT_255_2_778
10
17.1285608
20
14.161395
40
0.3415202
50
320.4654629
51
1.2232828
0
ARC
8
DEFAULT_255_2_778
10
17.2375895
20
14.0705221
40
0.1995894
50
271.3245435
51
320.6616362
0
ARC
8
DEFAULT_255_2_778
10
17.2566814
20
14.0957068
40
0.2251867
50
199.5673807
51
266.3136694
0
ARC
8
DEFAULT_255_2_778
10
17.3843836
20
14.1664706
40
0.3699871
50
179.6569226
51
203.2722714
0
LINE
8
DEFAULT_255_2_778
10
15.9621032
20
11.496386
11
15.3655032
21
11.026486
0
LINE
8
DEFAULT_255_2_778
10
15.3655032
20
11.026486
11
15.5703032
21
10.765286
0
LINE
8
DEFAULT_255_2_778
10
15.5703032
20
10.765286
11
15.9158032
21
11.040986
0
LINE
8
DEFAULT_255_2_778
10
15.9158032
20
11.040986
11
15.9158032
21
9.496086
0
LINE
8
DEFAULT_255_2_778
10
15.9158032
20
9.496086
11
16.3246032
21
9.496086
0
LINE
8
DEFAULT_255_2_778
10
16.3246032
20
9.496086
11
16.3246032
21
11.496386
0
LINE
8
DEFAULT_255_2_778
10
16.3246032
20
11.496386
11
15.9624032
21
11.496386
0
LINE
8
DEFAULT_255_2_778
10
17.5451032
20
11.181486
11
16.7882032
21
9.496086
0
LINE
8
DEFAULT_255_2_778
10
16.7882032
20
9.496086
11
17.2324032
21
9.496086
0
LINE
8
DEFAULT_255_2_778
10
17.2324032
20
9.496086
11
17.9571032
21
11.164286
0
LINE
8
DEFAULT_255_2_778
10
17.9571032
20
11.164286
11
17.9571032
21
11.496386
0
LINE
8
DEFAULT_255_2_778
10
17.9571032
20
11.496386
11
16.6418032
21
11.496386
0
LINE
8
DEFAULT_255_2_778
10
16.6418032
20
11.496386
11
16.6418032
21
11.181486
0
LINE
8
DEFAULT_255_2_778
10
16.6418032
20
11.181486
11
17.5451032
21
11.181486
0
LINE
8
DEFAULT_255_2_778
10
17.7827032
20
15.491286
11
17.7827032
21
15.491586
0
LINE
8
DEFAULT_255_2_778
10
17.0144032
20
14.168686
11
17.0144032
21
14.168686
0
ARC
8
DEFAULT_255_2_778
10
17.2073222
20
17.0959091
40
1.4484011
50
90.1284888
51
95.4609362
0
ARC
8
DEFAULT_255_2_778
10
17.2134751
20
17.5774592
40
0.9668931
50
77.1871131
51
90.5570896
0
ARC
8
DEFAULT_255_2_778
10
17.2685394
20
17.8463811
40
0.6924815
50
70.1056211
51
76.6952189
0
ARC
8
DEFAULT_255_2_778
10
17.3624736
20
18.0052509
40
0.5122756
50
34.6126344
51
73.9410898
0
ARC
8
DEFAULT_255_2_778
10
17.2652343
20
17.9362428
40
0.6315049
50
358.759169
51
34.75418
0
ARC
8
DEFAULT_255_2_778
10
17.0442686
20
17.9229261
40
0.8523226
50
356.7049425
51
359.9759022
0
ARC
8
DEFAULT_255_2_778
10
17.1586506
20
17.9597517
40
0.7415139
50
308.1829989
51
353.3542746
0
ARC
8
DEFAULT_255_2_778
10
16.9378619
20
18.1904243
40
1.05977
50
306.0536856
51
309.8566822
0
ARC
8
DEFAULT_255_2_778
10
17.1582486
20
18.049374
40
0.8215584
50
273.7019165
51
299.4021964
0
ARC
8
DEFAULT_255_2_778
10
17.117799
20
18.3795867
40
1.153851
50
269.9395738
51
274.647648
0
ARC
8
DEFAULT_255_2_778
10
17.2291073
20
19.6576864
40
2.4345519
50
261.0198375
51
267.3508404
0
ARC
8
DEFAULT_255_2_778
10
17.0461378
20
18.5266049
40
1.2887812
50
251.3724657
51
261.205375
0
ARC
8
DEFAULT_255_2_778
10
17.0120941
20
18.4328306
40
0.7995652
50
242.4180616
51
263.3461093
0
ARC
8
DEFAULT_255_2_778
10
16.9811003
20
18.2472049
40
0.6116688
50
264.2150615
51
269.9701891
0
ARC
8
DEFAULT_255_2_778
10
17.0256846
20
18.6721013
40
1.037537
50
267.5195785
51
269.9745889
0
ARC
8
DEFAULT_255_2_778
10
17.0364419
20
18.3357831
40
0.7013085
50
269.0835151
51
286.8823204
0
ARC
8
DEFAULT_255_2_778
10
17.091643
20
18.1280017
40
0.4865092
50
287.7678712
51
294.1106566
0
ARC
8
DEFAULT_255_2_778
10
17.0820825
20
17.9594915
40
0.3454264
50
307.0866293
51
344.8364228
0
ARC
8
DEFAULT_255_2_778
10
17.0567909
20
17.9274087
40
0.3633938
50
350.7724512
51
359.7929118
0
ARC
8
DEFAULT_255_2_778
10
17.1671665
20
17.9302119
40
0.2530492
50
359.0678642
51
60.8614409
0
ARC
8
DEFAULT_255_2_778
10
17.0281568
20
17.5659043
40
0.6413858
50
65.8679047
51
84.5731095
0
ARC
8
DEFAULT_255_2_778
10
16.9763621
20
17.1682529
40
1.0422467
50
83.8059613
51
90.166972
0
ARC
8
DEFAULT_255_2_778
10
16.9750029
20
16.8399702
40
1.370526
50
90.0701544
51
93.7660911
0
LINE
8
DEFAULT_255_2_778
10
15.9383821
20
15.5342364
11
15.3411821
21
15.0643364
0
LINE
8
DEFAULT_255_2_778
10
15.3411821
20
15.0643364
11
15.5462821
21
14.8039364
0
LINE
8
DEFAULT_255_2_778
10
15.5462821
20
14.8039364
11
15.8912821
21
15.0788364
0
LINE
8
DEFAULT_255_2_778
10
15.8912821
20
15.0788364
11
15.8912821
21
13.5347364
0
LINE
8
DEFAULT_255_2_778
10
15.8912821
20
13.5347364
11
16.3002821
21
13.5347364
0
LINE
8
DEFAULT_255_2_778
10
16.3002821
20
13.5347364
11
16.3002821
21
15.5342364
0
LINE
8
DEFAULT_255_2_778
10
16.3002821
20
15.5342364
11
15.9380821
21
15.5342364
0
LINE
8
DEFAULT_255_2_778
10
15.9523821
20
19.2066364
11
15.3549821
21
18.7359364
0
LINE
8
DEFAULT_255_2_778
10
15.3549821
20
18.7359364
11
15.5599821
21
18.4756364
0
LINE
8
DEFAULT_255_2_778
10
15.5599821
20
18.4756364
11
15.9049821
21
18.7505364
0
LINE
8
DEFAULT_255_2_778
10
15.9049821
20
18.7505364
11
15.9049821
21
17.2056364
0
LINE
8
DEFAULT_255_2_778
10
15.9049821
20
17.2056364
11
16.3145821
21
17.2056364
0
LINE
8
DEFAULT_255_2_778
10
16.3145821
20
17.2056364
11
16.3145821
21
19.2066364
0
LINE
8
DEFAULT_255_2_778
10
16.3145821
20
19.2066364
11
15.9523821
21
19.2066364
0
LINE
8
DEFAULT_255_2_778
10
16.6495821
20
18.1755364
11
16.6717821
21
19.2066364
0
LINE
8
DEFAULT_255_2_778
10
16.6717821
20
19.2066364
11
17.8210821
21
19.2066364
0
LINE
8
DEFAULT_255_2_778
10
17.8210821
20
19.2066364
11
17.8210821
21
18.8539364
0
LINE
8
DEFAULT_255_2_778
10
17.8210821
20
18.8539364
11
17.0768821
21
18.8600364
0
LINE
8
DEFAULT_255_2_778
10
17.0768821
20
18.8600364
11
17.0694821
21
18.5377364
0
LINE
8
DEFAULT_255_2_778
10
16.6344821
20
17.3053364
11
16.6418821
21
17.7241364
0
LINE
8
DEFAULT_255_2_778
10
16.8849821
20
18.2075364
11
16.6492821
21
18.1753364
0
LINE
8
DEFAULT_255_2_778
10
16.6492821
20
18.1753364
11
16.6495821
21
18.1755364
0
ARC
8
DEFAULT_255_2_778
10
17.1369871
20
24.6167543
40
1.6584631
50
89.5664782
51
98.5340792
0
ARC
8
DEFAULT_255_2_778
10
17.0124725
20
25.4109691
40
0.8545806
50
98.180323
51
113.5346772
0
ARC
8
DEFAULT_255_2_778
10
16.907495
20
25.6740767
40
0.5715086
50
114.4184051
51
118.5752125
0
ARC
8
DEFAULT_255_2_778
10
18.4657895
20
26.4994932
40
1.8600064
50
182.8042873
51
190.0167855
0
ARC
8
DEFAULT_255_2_778
10
19.5956836
20
26.5684387
40
2.9919513
50
179.9151425
51
183.0644096
0
ARC
8
DEFAULT_255_2_778
10
17.1835498
20
24.740197
40
1.9222056
50
94.8588764
51
107.5561371
0
ARC
8
DEFAULT_255_2_778
10
17.1568252
20
24.9771088
40
1.6838944
50
90.017414
51
94.6356063
0
ARC
8
DEFAULT_255_2_778
10
17.1573313
20
25.0563546
40
1.604649
50
80.4941776
51
90.0363449
0
ARC
8
DEFAULT_255_2_778
10
17.2276281
20
25.8376614
40
0.824625
50
61.2514678
51
76.3425635
0
ARC
8
DEFAULT_255_2_778
10
17.4231121
20
26.1727266
40
0.4369588
50
0.6255438
51
62.5934304
0
ARC
8
DEFAULT_255_2_778
10
17.2404982
20
26.1510689
40
0.6201101
50
359.9844987
51
2.4426079
0
ARC
8
DEFAULT_255_2_778
10
17.1306945
20
26.1528579
40
0.7299165
50
352.7423515
51
359.8463969
0
ARC
8
DEFAULT_255_2_778
10
16.9691948
20
26.171669
40
0.8925005
50
349.6009385
51
352.854194
0
ARC
8
DEFAULT_255_2_778
10
17.3238193
20
26.1040902
40
0.5315085
50
327.8788406
51
349.8658983
0
ARC
8
DEFAULT_255_2_778
10
17.5102822
20
25.9921962
40
0.3141235
50
276.1318029
51
327.0801799
0
ARC
8
DEFAULT_255_2_778
10
17.2541329
20
24.9528978
40
0.7825702
50
53.9742147
51
68.2724241
0
ARC
8
DEFAULT_255_2_778
10
17.4761218
20
25.2392076
40
0.4206013
50
359.1974953
51
55.4920835
0
ARC
8
DEFAULT_255_2_778
10
17.2896252
20
25.2369029
40
0.6070672
50
348.0253902
51
359.6615325
0
ARC
8
DEFAULT_255_2_778
10
17.0352107
20
25.2893552
40
0.8668296
50
340.0448842
51
348.1228504
0
ARC
8
DEFAULT_255_2_778
10
16.8678023
20
25.3456613
40
1.0434116
50
339.7998105
51
340.2759752
0
ARC
8
DEFAULT_255_2_778
10
17.2830529
20
25.221959
40
0.611597
50
285.2889532
51
337.2420935
0
ARC
8
DEFAULT_255_2_778
10
17.1466875
20
25.6307486
40
1.0421471
50
273.5594909
51
286.5946217
0
ARC
8
DEFAULT_255_2_778
10
17.1093582
20
26.0522898
40
1.4652345
50
269.9344903
51
273.9929964
0
ARC
8
DEFAULT_255_2_778
10
17.1111767
20
26.4366612
40
1.8496082
50
265.1596445
51
269.8917705
0
ARC
8
DEFAULT_255_2_778
10
17.1590706
20
27.0067662
40
2.4217211
50
261.0913807
51
265.168687
0
ARC
8
DEFAULT_255_2_778
10
17.2615767
20
27.6725036
40
3.0953019
50
258.182804
51
261.1251796
0
ARC
8
DEFAULT_255_2_778
10
17.3582771
20
28.1492322
40
3.5817312
50
257.3408024
51
258.2304461
0
LINE
8
DEFAULT_255_2_778
10
16.5733356
20
24.6545699
11
16.5733356
21
25.0845699
0
ARC
8
DEFAULT_255_2_778
10
17.3647752
20
27.5566977
40
2.5957259
50
252.247788
51
255.9112755
0
ARC
8
DEFAULT_255_2_778
10
17.1597833
20
26.7346835
40
1.7485383
50
255.8695803
51
260.7219106
0
ARC
8
DEFAULT_255_2_778
10
17.0604396
20
26.1174847
40
1.1233982
50
260.6472054
51
267.4065941
0
ARC
8
DEFAULT_255_2_778
10
17.043487
20
25.8231507
40
0.8286066
50
267.6567176
51
269.9735461
0
ARC
8
DEFAULT_255_2_778
10
17.0508096
20
25.5480152
40
0.5535246
50
269.2024098
51
284.3017855
0
ARC
8
DEFAULT_255_2_778
10
17.1242573
20
25.2821798
40
0.2778387
50
283.1670174
51
322.4105487
0
ARC
8
DEFAULT_255_2_778
10
17.1080597
20
25.2834379
40
0.2915764
50
324.156473
51
346.802759
0
ARC
8
DEFAULT_255_2_778
10
17.1012189
20
25.200626
40
0.2911702
50
3.1981019
51
35.4227017
0
ARC
8
DEFAULT_255_2_778
10
17.1393872
20
25.2095617
40
0.2553193
50
38.7549906
51
81.0948885
0
ARC
8
DEFAULT_255_2_778
10
17.0805298
20
24.9558204
40
0.5154584
50
78.997016
51
90.4858844
0
ARC
8
DEFAULT_255_2_778
10
17.0792659
20
24.6511442
40
0.8201221
50
90.2170851
51
96.5642538
0
ARC
8
DEFAULT_255_2_778
10
17.1203506
20
24.282776
40
1.1907728
50
96.5019173
51
101.1117318
0
ARC
8
DEFAULT_255_2_778
10
17.1665505
20
24.0308033
40
1.4469291
50
100.9839425
51
101.5623854
0
LINE
8
DEFAULT_255_2_778
10
16.8765356
20
25.4483699
11
16.8765356
21
25.8121699
0
ARC
8
DEFAULT_255_2_778
10
17.037081
20
26.8269409
40
1.0273923
50
261.009834
51
266.1889284
0
ARC
8
DEFAULT_255_2_778
10
17.0208204
20
26.5998988
40
0.7997724
50
266.2701556
51
269.9414622
0
ARC
8
DEFAULT_255_2_778
10
17.0304141
20
26.302226
40
0.502207
50
268.8121716
51
289.52741
0
ARC
8
DEFAULT_255_2_778
10
17.0892866
20
26.1218779
40
0.3125905
50
290.4066118
51
345.5110696
0
ARC
8
DEFAULT_255_2_778
10
17.1400136
20
26.0566668
40
0.252257
50
357.0466645
51
32.8650404
0
ARC
8
DEFAULT_255_2_778
10
17.1889051
20
26.0656035
40
0.2072161
50
38.1329748
51
87.6689487
0
ARC
8
DEFAULT_255_2_778
10
17.1505599
20
25.8404374
40
0.4347342
50
83.8235425
51
90.1613547
0
ARC
8
DEFAULT_255_2_778
10
14.7907896
20
31.9201953
40
3.7063066
50
309.1671247
51
314.096413
0
ARC
8
DEFAULT_255_2_778
10
15.6471751
20
31.0399873
40
2.4782378
50
314.0381116
51
320.6712968
0
ARC
8
DEFAULT_255_2_778
10
16.3313121
20
30.4833477
40
1.5962643
50
320.5632171
51
330.0996382
0
ARC
8
DEFAULT_255_2_778
10
16.8487817
20
30.1897092
40
1.0013022
50
329.9049879
51
344.9072594
0
ARC
8
DEFAULT_255_2_778
10
17.1221623
20
30.1121412
40
0.7171639
50
345.2035739
51
359.7729032
0
ARC
8
DEFAULT_255_2_778
10
17.1821283
20
30.108218
40
0.6571931
50
0.0942115
51
25.7149176
0
ARC
8
DEFAULT_255_2_778
10
17.2359569
20
30.0567362
40
0.634875
50
32.0214193
51
80.8660777
0
ARC
8
DEFAULT_255_2_778
10
17.1718815
20
29.7597632
40
0.9383924
50
79.8817448
51
90.2721438
0
ARC
8
DEFAULT_255_2_778
10
17.1725773
20
29.393053
40
1.3051021
50
90.2262241
51
98.1208573
0
ARC
8
DEFAULT_255_2_778
10
17.2427911
20
28.8882515
40
1.814761
50
98.0640483
51
103.9346283
0
ARC
8
DEFAULT_255_2_778
10
17.4013219
20
28.2437853
40
2.4784381
50
103.9038469
51
108.5483866
0
ARC
8
DEFAULT_255_2_778
10
17.54657
20
27.7928344
40
2.9521744
50
108.4368552
51
109.1129444
0
ARC
8
DEFAULT_255_2_778
10
17.7044742
20
27.3967764
40
2.9703727
50
108.8607137
51
111.771702
0
ARC
8
DEFAULT_255_2_778
10
17.3815724
20
28.3461077
40
1.9676302
50
104.9881302
51
108.899287
0
ARC
8
DEFAULT_255_2_778
10
17.1958419
20
29.043232
40
1.2461894
50
99.9234467
51
105.0284863
0
ARC
8
DEFAULT_255_2_778
10
17.1098895
20
29.5459114
40
0.7362208
50
92.0605457
51
100.0760874
0
ARC
8
DEFAULT_255_2_778
10
17.0985416
20
29.760569
40
0.5213067
50
90.0129776
51
91.6624132
0
ARC
8
DEFAULT_255_2_778
10
17.1043655
20
29.9426963
40
0.3392315
50
74.136967
51
91.003651
0
ARC
8
DEFAULT_255_2_778
10
17.155708
20
30.1113121
40
0.1630364
50
4.4822837
51
75.2960683
0
ARC
8
DEFAULT_255_2_778
10
17.0171681
20
30.0834047
40
0.3038093
50
359.7906988
51
7.6890589
0
ARC
8
DEFAULT_255_2_778
10
16.8820093
20
30.0843359
40
0.4389709
50
352.1747433
51
359.7335999
0
ARC
8
DEFAULT_255_2_778
10
16.6735527
20
30.1121684
40
0.6492765
50
346.7618178
51
352.2460939
0
ARC
8
DEFAULT_255_2_778
10
16.4810368
20
30.155404
40
0.8465799
50
344.8091144
51
346.8971352
0
ARC
8
DEFAULT_255_2_778
10
15.5735522
20
30.7414894
40
1.9043574
50
321.3223894
51
334.896935
0
ARC
8
DEFAULT_255_2_778
10
14.9155657
20
31.2610314
40
2.742718
50
312.3288233
51
321.4395258
0
ARC
8
DEFAULT_255_2_778
10
14.26479
20
31.957777
40
3.6960583
50
308.035907
51
312.5138516
0
LINE
8
DEFAULT_255_2_778
10
16.5421356
20
29.0466699
11
16.5421356
21
28.6688699
0
LINE
8
DEFAULT_255_2_778
10
16.5421356
20
28.6688699
11
17.8650356
21
28.6688699
0
ARC
8
DEFAULT_255_2_778
10
17.9191281
20
28.6886333
40
0.0575899
50
176.167736
51
200.0704413
0
ARC
8
DEFAULT_255_2_778
10
19.3406399
20
28.7744183
40
1.481241
50
181.2856738
51
183.1709759
0
ARC
8
DEFAULT_255_2_778
10
24.6113031
20
28.9020035
40
6.7534463
50
180.4020672
51
181.3645173
0
ARC
8
DEFAULT_255_2_778
10
39.0726193
20
29.0241509
40
21.2152736
50
180.0139846
51
180.4578754
0
ARC
8
DEFAULT_255_2_778
10
52.718333
20
29.046163
40
34.8609973
50
179.9991668
51
180.0446885
0
LINE
8
DEFAULT_255_2_778
10
17.8573356
20
29.0466699
11
17.1316356
21
29.0466699
0
ARC
8
DEFAULT_255_2_778
10
15.4335351
20
37.1205647
40
2.4632326
50
359.7070375
51
6.9072457
0
ARC
8
DEFAULT_255_2_778
10
16.4518308
20
37.2476612
40
1.4370475
50
6.7592716
51
17.4378933
0
ARC
8
DEFAULT_255_2_778
10
17.0625813
20
37.4457051
40
0.7950395
50
17.0114336
51
36.4106981
0
ARC
8
DEFAULT_255_2_778
10
17.2680805
20
37.5864302
40
0.5461968
50
37.325964
51
90.1578559
0
ARC
8
DEFAULT_255_2_778
10
17.2339425
20
37.3074555
40
0.8258145
50
87.7352899
51
90.0143545
0
ARC
8
DEFAULT_255_2_778
10
17.2203855
20
37.3991231
40
0.7342682
50
88.9582211
51
111.1265386
0
ARC
8
DEFAULT_255_2_778
10
17.1757075
20
37.5549091
40
0.5730327
50
112.5739757
51
156.912905
0
ARC
8
DEFAULT_255_2_778
10
17.6103603
20
37.3454512
40
1.0552433
50
155.7051551
51
170.2969903
0
ARC
8
DEFAULT_255_2_778
10
18.3967228
20
37.2025532
40
1.8544594
50
170.0399533
51
179.0312133
0
ARC
8
DEFAULT_255_2_778
10
19.0770234
20
37.1746414
40
2.5351878
50
178.6604445
51
180.0106567
0
ARC
8
DEFAULT_255_2_778
10
19.3318871
20
37.1617449
40
2.7900792
50
179.7448447
51
186.3131319
0
ARC
8
DEFAULT_255_2_778
10
18.2059528
20
37.0329815
40
1.6568189
50
186.1688441
51
195.9790823
0
ARC
8
DEFAULT_255_2_778
10
17.5067459
20
36.8271982
40
0.9279939
50
195.6487515
51
212.3998659
0
ARC
8
DEFAULT_255_2_778
10
17.2036232
20
36.6347209
40
0.5689243
50
212.3904452
51
271.9743975
0
ARC
8
DEFAULT_255_2_778
10
17.2337319
20
36.9206685
40
0.8545988
50
269.29551
51
270.000243
0
ARC
8
DEFAULT_255_2_778
10
17.2480075
20
36.6805395
40
0.6146354
50
268.6694595
51
297.0150009
0
ARC
8
DEFAULT_255_2_778
10
17.2518329
20
36.6296816
40
0.5679306
50
299.0021261
51
334.1661145
0
ARC
8
DEFAULT_255_2_778
10
16.8367528
20
36.8481746
40
1.0368594
50
333.2940772
51
347.6427236
0
ARC
8
DEFAULT_255_2_778
10
16.0570409
20
37.0270712
40
1.8368091
50
347.3966653
51
356.3410145
0
ARC
8
DEFAULT_255_2_778
10
15.086533
20
37.1028332
40
2.8102069
50
356.0622672
51
0.1006507
0
ARC
8
DEFAULT_255_2_778
10
17.2256033
20
37.6137207
40
0.1558713
50
92.2677665
51
155.7488236
0
ARC
8
DEFAULT_255_2_778
10
17.5515781
20
37.4233718
40
0.5327418
50
151.4793522
51
167.4784039
0
ARC
8
DEFAULT_255_2_778
10
18.3258514
20
37.2347273
40
1.3295978
50
166.7764466
51
174.5478035
0
ARC
8
DEFAULT_255_2_778
10
19.6761934
20
37.0963362
40
2.6869965
50
174.3460434
51
179.0307287
0
ARC
8
DEFAULT_255_2_778
10
20.9864103
20
37.0595501
40
3.9976749
50
178.8212335
51
180.0183484
0
ARC
8
DEFAULT_255_2_778
10
19.6043001
20
37.0464036
40
2.6155915
50
179.7400627
51
184.7731896
0
ARC
8
DEFAULT_255_2_778
10
18.2276396
20
36.9261274
40
1.2337083
50
184.5268112
51
193.1267515
0
ARC
8
DEFAULT_255_2_778
10
17.4887565
20
36.7475614
40
0.4736179
50
192.3893555
51
209.8375366
0
ARC
8
DEFAULT_255_2_778
10
17.2115812
20
36.5789166
40
0.1495124
50
206.6234454
51
268.6042499
0
ARC
8
DEFAULT_255_2_778
10
17.2078566
20
36.5887308
40
0.1592823
50
270.0297831
51
274.1687684
0
ARC
8
DEFAULT_255_2_778
10
17.214711
20
36.5953436
40
0.1655412
50
271.6354449
51
336.6115444
0
ARC
8
DEFAULT_255_2_778
10
16.8846422
20
36.7802104
40
0.5432518
50
332.5315393
51
348.7870908
0
ARC
8
DEFAULT_255_2_778
10
16.0835643
20
36.9546945
40
1.3630545
50
348.1405987
51
356.3761647
0
ARC
8
DEFAULT_255_2_778
10
14.8039037
20
37.0503662
40
2.6462438
50
356.0600803
51
0.1711296
0
ARC
8
DEFAULT_255_2_778
10
13.5754701
20
37.1368161
40
3.8754615
50
358.8386743
51
359.6901981
0
ARC
8
DEFAULT_255_2_778
10
13.8877912
20
37.1346243
40
3.5631331
50
359.6982872
51
359.9982901
0
ARC
8
DEFAULT_255_2_778
10
14.8609662
20
37.1447852
40
2.5899783
50
359.7728665
51
4.5489962
0
ARC
8
DEFAULT_255_2_778
10
16.1584728
20
37.253397
40
1.2879561
50
4.3104436
51
12.5609672
0
ARC
8
DEFAULT_255_2_778
10
16.9035983
20
37.4253836
40
0.5232941
50
11.9235615
51
28.1731843
0
ARC
8
DEFAULT_255_2_778
10
17.2150833
20
37.6048843
40
0.1643433
50
24.2758236
51
88.4824576
0
LINE
8
DEFAULT_255_2_778
10
15.8989356
20
22.9485699
11
15.3017356
21
22.4786699
0
LINE
8
DEFAULT_255_2_778
10
15.3017356
20
22.4786699
11
15.5068356
21
22.2182699
0
LINE
8
DEFAULT_255_2_778
10
15.5068356
20
22.2182699
11
15.8520356
21
22.4931699
0
LINE
8
DEFAULT_255_2_778
10
15.8520356
20
22.4931699
11
15.8520356
21
20.9490699
0
LINE
8
DEFAULT_255_2_778
10
15.8520356
20
20.9490699
11
16.2611356
21
20.9490699
0
LINE
8
DEFAULT_255_2_778
10
16.2611356
20
20.9490699
11
16.2611356
21
22.9485699
0
LINE
8
DEFAULT_255_2_778
10
16.2611356
20
22.9485699
11
15.8989356
21
22.9485699
0
LINE
8
DEFAULT_255_2_778
10
17.6528356
20
21.6915699
11
17.6528356
21
22.9485699
0
LINE
8
DEFAULT_255_2_778
10
17.6528356
20
22.9485699
11
17.1464356
21
22.9485699
0
LINE
8
DEFAULT_255_2_778
10
17.1464356
20
22.9485699
11
16.4585356
21
21.7544699
0
LINE
8
DEFAULT_255_2_778
10
16.4585356
20
21.7544699
11
16.4585356
21
21.3306699
0
LINE
8
DEFAULT_255_2_778
10
16.4585356
20
21.3306699
11
17.2252356
21
21.3306699
0
LINE
8
DEFAULT_255_2_778
10
17.2252356
20
21.3306699
11
17.2252356
21
20.9496699
0
LINE
8
DEFAULT_255_2_778
10
17.2252356
20
20.9496699
11
17.6531356
21
20.9496699
0
LINE
8
DEFAULT_255_2_778
10
17.6531356
20
20.9496699
11
17.6531356
21
21.3306699
0
LINE
8
DEFAULT_255_2_778
10
17.6531356
20
21.3306699
11
17.8967356
21
21.3306699
0
LINE
8
DEFAULT_255_2_778
10
17.8967356
20
21.3306699
11
17.8967356
21
21.6912699
0
LINE
8
DEFAULT_255_2_778
10
17.8967356
20
21.6912699
11
17.6528356
21
21.6915699
0
LINE
8
DEFAULT_255_2_778
10
17.3067356
20
22.5363699
11
17.3115356
21
21.6915699
0
LINE
8
DEFAULT_255_2_778
10
17.3115356
20
21.6915699
11
16.8395356
21
21.6915699
0
LINE
8
DEFAULT_255_2_778
10
16.8395356
20
21.6915699
11
17.3067356
21
22.5363699
0
LINE
8
DEFAULT_255_2_778
10
15.9288356
20
26.6265699
11
15.3316356
21
26.1566699
0
LINE
8
DEFAULT_255_2_778
10
15.3316356
20
26.1566699
11
15.5364356
21
25.8954699
0
LINE
8
DEFAULT_255_2_778
10
15.5364356
20
25.8954699
11
15.8819356
21
26.1703699
0
LINE
8
DEFAULT_255_2_778
10
15.8819356
20
26.1703699
11
15.8819356
21
24.6262699
0
LINE
8
DEFAULT_255_2_778
10
15.8819356
20
24.6262699
11
16.2915356
21
24.6262699
0
LINE
8
DEFAULT_255_2_778
10
16.2915356
20
24.6262699
11
16.2915356
21
26.6265699
0
LINE
8
DEFAULT_255_2_778
10
16.2915356
20
26.6265699
11
15.9288356
21
26.6265699
0
LINE
8
DEFAULT_255_2_778
10
17.1493356
20
26.2751699
11
17.1495356
21
26.2751699
0
LINE
8
DEFAULT_255_2_778
10
16.5799356
20
30.5822699
11
16.6027356
21
30.1552699
0
LINE
8
DEFAULT_255_2_778
10
17.1316356
20
29.0466699
11
17.1316356
21
29.0466699
0
LINE
8
DEFAULT_255_2_778
10
15.9298356
20
30.6627699
11
15.3324356
21
30.1928699
0
LINE
8
DEFAULT_255_2_778
10
15.3324356
20
30.1928699
11
15.5374356
21
29.9324699
0
LINE
8
DEFAULT_255_2_778
10
15.5374356
20
29.9324699
11
15.8825356
21
30.2081699
0
LINE
8
DEFAULT_255_2_778
10
15.8825356
20
30.2081699
11
15.8825356
21
28.6632699
0
LINE
8
DEFAULT_255_2_778
10
15.8825356
20
28.6632699
11
16.2920356
21
28.6632699
0
LINE
8
DEFAULT_255_2_778
10
16.2920356
20
28.6632699
11
16.2920356
21
30.6627699
0
LINE
8
DEFAULT_255_2_778
10
16.2920356
20
30.6627699
11
15.9298356
21
30.6627699
0
LINE
8
DEFAULT_255_2_778
10
17.2956356
20
34.4214699
11
16.6995356
21
33.9507699
0
LINE
8
DEFAULT_255_2_778
10
16.6995356
20
33.9507699
11
16.9040356
21
33.6903699
0
LINE
8
DEFAULT_255_2_778
10
16.9040356
20
33.6903699
11
17.2493356
21
33.9652699
0
LINE
8
DEFAULT_255_2_778
10
17.2493356
20
33.9652699
11
17.2493356
21
32.4211699
0
LINE
8
DEFAULT_255_2_778
10
17.2493356
20
32.4211699
11
17.6583356
21
32.4211699
0
LINE
8
DEFAULT_255_2_778
10
17.6583356
20
32.4211699
11
17.6583356
21
34.4214699
0
LINE
8
DEFAULT_255_2_778
10
17.6583356
20
34.4214699
11
17.2959356
21
34.4214699
0
LINE
8
DEFAULT_255_2_778
10
16.0367356
20
34.4214699
11
15.4401356
21
33.9507699
0
LINE
8
DEFAULT_255_2_778
10
15.4401356
20
33.9507699
11
15.6449356
21
33.6903699
0
LINE
8
DEFAULT_255_2_778
10
15.6449356
20
33.6903699
11
15.9904356
21
33.9652699
0
LINE
8
DEFAULT_255_2_778
10
15.9904356
20
33.9652699
11
15.9904356
21
32.4211699
0
LINE
8
DEFAULT_255_2_778
10
15.9904356
20
32.4211699
11
16.3995356
21
32.4211699
0
LINE
8
DEFAULT_255_2_778
10
16.3995356
20
32.4211699
11
16.3995356
21
34.4214699
0
LINE
8
DEFAULT_255_2_778
10
16.3995356
20
34.4214699
11
16.0367356
21
34.4214699
0
LINE
8
DEFAULT_255_2_778
10
15.9063356
20
38.0980699
11
15.3091356
21
37.6281699
0
LINE
8
DEFAULT_255_2_778
10
15.3091356
20
37.6281699
11
15.5139356
21
37.3678699
0
LINE
8
DEFAULT_255_2_778
10
15.5139356
20
37.3678699
11
15.8594356
21
37.6427699
0
LINE
8
DEFAULT_255_2_778
10
15.8594356
20
37.6427699
11
15.8594356
21
36.0978699
0
LINE
8
DEFAULT_255_2_778
10
15.8594356
20
36.0978699
11
16.2690356
21
36.0978699
0
LINE
8
DEFAULT_255_2_778
10
16.2690356
20
36.0978699
11
16.2690356
21
38.0980699
0
LINE
8
DEFAULT_255_2_778
10
16.2690356
20
38.0980699
11
15.9063356
21
38.0980699
0
LINE
8
DEFAULT_255_2_778
10
17.8967356
20
37.1077699
11
17.8967356
21
37.1079699
0
LINE
8
DEFAULT_255_2_778
10
17.2194356
20
37.7691699
11
17.2194356
21
37.7694699
0
LINE
8
DEFAULT_255_2_778
10
26.0718356
20
9.6161699
11
25.2826356
21
8.8478699
0
LINE
8
DEFAULT_255_2_778
10
25.2826356
20
8.8478699
11
18.3142356
21
8.8478699
0
LINE
8
DEFAULT_255_2_778
10
18.3142356
20
8.8478699
11
18.3142356
21
12.3501699
0
LINE
8
DEFAULT_255_2_778
10
18.3142356
20
12.3501699
11
25.2826356
21
12.3501699
0
LINE
8
DEFAULT_255_2_778
10
25.2826356
20
12.3501699
11
26.0718356
21
11.5082699
0
LINE
8
DEFAULT_255_2_778
10
26.0718356
20
7.8067699
11
25.2826356
21
8.6483699
0
LINE
8
DEFAULT_255_2_778
10
25.2826356
20
8.6483699
11
18.3142356
21
8.6483699
0
LINE
8
DEFAULT_255_2_778
10
18.3142356
20
8.6483699
11
18.3142356
21
5.1471699
0
LINE
8
DEFAULT_255_2_778
10
18.3142356
20
5.1471699
11
25.2826356
21
5.1471699
0
LINE
8
DEFAULT_255_2_778
10
25.2826356
20
5.1471699
11
26.0718356
21
5.9154699
0
LINE
8
DEFAULT_255_2_778
10
26.0718356
20
17.3155699
11
25.2826356
21
16.5472699
0
LINE
8
DEFAULT_255_2_778
10
25.2826356
20
16.5472699
11
18.3142356
21
16.5472699
0
LINE
8
DEFAULT_255_2_778
10
18.3142356
20
16.5472699
11
18.3142356
21
20.0471699
0
LINE
8
DEFAULT_255_2_778
10
18.3142356
20
20.0471699
11
25.2826356
21
20.0471699
0
LINE
8
DEFAULT_255_2_778
10
25.2826356
20
20.0471699
11
26.0718356
21
19.2054699
0
LINE
8
DEFAULT_255_2_778
10
26.0718356
20
13.6177699
11
25.2826356
21
12.8491699
0
LINE
8
DEFAULT_255_2_778
10
25.2826356
20
12.8491699
11
18.3142356
21
12.8491699
0
LINE
8
DEFAULT_255_2_778
10
18.3142356
20
12.8491699
11
18.3142356
21
16.3477699
0
LINE
8
DEFAULT_255_2_778
10
18.3142356
20
16.3477699
11
25.2826356
21
16.3477699
0
LINE
8
DEFAULT_255_2_778
10
25.2826356
20
16.3477699
11
26.0718356
21
15.5060699
0
LINE
8
DEFAULT_255_2_778
10
26.0718356
20
24.7201699
11
25.2826356
21
23.9518699
0
LINE
8
DEFAULT_255_2_778
10
25.2826356
20
23.9518699
11
18.3142356
21
23.9518699
0
LINE
8
DEFAULT_255_2_778
10
18.3142356
20
23.9518699
11
18.3142356
21
27.4509699
0
LINE
8
DEFAULT_255_2_778
10
18.3142356
20
27.4509699
11
25.2826356
21
27.4509699
0
LINE
8
DEFAULT_255_2_778
10
25.2826356
20
27.4509699
11
26.0718356
21
26.6090699
0
LINE
8
DEFAULT_255_2_778
10
26.0718356
20
21.0149699
11
25.2826356
21
20.2466699
0
LINE
8
DEFAULT_255_2_778
10
25.2826356
20
20.2466699
11
18.3142356
21
20.2466699
0
LINE
8
DEFAULT_255_2_778
10
18.3142356
20
20.2466699
11
18.3142356
21
23.7523699
0
LINE
8
DEFAULT_255_2_778
10
18.3142356
20
23.7523699
11
25.2826356
21
23.7523699
0
LINE
8
DEFAULT_255_2_778
10
25.2826356
20
23.7523699
11
26.0718356
21
22.9107699
0
LINE
8
DEFAULT_255_2_778
10
26.0718356
20
32.4208699
11
25.2826356
21
31.6525699
0
LINE
8
DEFAULT_255_2_778
10
25.2826356
20
31.6525699
11
18.3142356
21
31.6525699
0
LINE
8
DEFAULT_255_2_778
10
18.3142356
20
31.6525699
11
18.3142356
21
35.1513699
0
LINE
8
DEFAULT_255_2_778
10
18.3142356
20
35.1513699
11
25.2826356
21
35.1513699
0
LINE
8
DEFAULT_255_2_778
10
25.2826356
20
35.1513699
11
26.0718356
21
34.3097699
0
LINE
8
DEFAULT_255_2_778
10
26.0718356
20
28.7185699
11
25.2826356
21
27.9499699
0
LINE
8
DEFAULT_255_2_778
10
25.2826356
20
27.9499699
11
18.3142356
21
27.9499699
0
LINE
8
DEFAULT_255_2_778
10
18.3142356
20
27.9499699
11
18.3142356
21
31.4530699
0
LINE
8
DEFAULT_255_2_778
10
18.3142356
20
31.4530699
11
25.2826356
21
31.4530699
0
LINE
8
DEFAULT_255_2_778
10
25.2826356
20
31.4530699
11
26.0718356
21
30.6114699
0
LINE
8
DEFAULT_255_2_778
10
26.0718356
20
39.8196699
11
25.2826356
21
39.0513699
0
LINE
8
DEFAULT_255_2_778
10
25.2826356
20
39.0513699
11
18.3142356
21
39.0513699
0
LINE
8
DEFAULT_255_2_778
10
18.3142356
20
39.0513699
11
18.3142356
21
42.5517699
0
LINE
8
DEFAULT_255_2_778
10
18.3142356
20
42.5517699
11
25.2826356
21
42.5517699
0
LINE
8
DEFAULT_255_2_778
10
25.2826356
20
42.5517699
11
26.0718356
21
41.7101699
0
LINE
8
DEFAULT_255_2_778
10
26.0718356
20
36.1192699
11
25.2826356
21
35.3508699
0
LINE
8
DEFAULT_255_2_778
10
25.2826356
20
35.3508699
11
18.3142356
21
35.3508699
0
LINE
8
DEFAULT_255_2_778
10
18.3142356
20
35.3508699
11
18.3142356
21
38.8518699
0
LINE
8
DEFAULT_255_2_778
10
18.3142356
20
38.8518699
11
25.2826356
21
38.8518699
0
LINE
8
DEFAULT_255_2_778
10
25.2826356
20
38.8518699
11
26.0718356
21
38.0102699
0
LINE
8
DEFAULT_255_2_778
10
26.0718356
20
47.5233699
11
25.2826356
21
46.7549699
0
LINE
8
DEFAULT_255_2_778
10
25.2826356
20
46.7549699
11
18.3142356
21
46.7549699
0
LINE
8
DEFAULT_255_2_778
10
18.3142356
20
46.7549699
11
18.3142356
21
50.2535699
0
LINE
8
DEFAULT_255_2_778
10
18.3142356
20
50.2535699
11
25.2826356
21
50.2535699
0
LINE
8
DEFAULT_255_2_778
10
25.2826356
20
50.2535699
11
26.0718356
21
49.4119699
0
LINE
8
DEFAULT_255_2_778
10
26.0718356
20
43.8130699
11
25.2826356
21
43.0502699
0
LINE
8
DEFAULT_255_2_778
10
25.2826356
20
43.0502699
11
18.3142356
21
43.0502699
0
LINE
8
DEFAULT_255_2_778
10
18.3142356
20
43.0502699
11
18.3142356
21
46.5557699
0
LINE
8
DEFAULT_255_2_778
10
18.3142356
20
46.5557699
11
25.2826356
21
46.5557699
0
LINE
8
DEFAULT_255_2_778
10
25.2826356
20
46.5557699
11
26.0718356
21
45.7140699
0
LINE
8
DEFAULT_255_2_778
10
26.0718356
20
54.9221699
11
25.2834356
21
54.1548699
0
LINE
8
DEFAULT_255_2_778
10
25.2834356
20
54.1548699
11
18.3142356
21
54.1548699
0
LINE
8
DEFAULT_255_2_778
10
18.3142356
20
54.1548699
11
18.3142356
21
57.6549699
0
LINE
8
DEFAULT_255_2_778
10
18.3142356
20
57.6549699
11
25.2826356
21
57.6549699
0
LINE
8
DEFAULT_255_2_778
10
25.2826356
20
57.6549699
11
26.0718356
21
56.8133699
0
LINE
8
DEFAULT_255_2_778
10
26.0718356
20
51.2211699
11
25.2826356
21
50.4527699
0
LINE
8
DEFAULT_255_2_778
10
25.2826356
20
50.4527699
11
18.3142356
21
50.4527699
0
LINE
8
DEFAULT_255_2_778
10
18.3142356
20
50.4527699
11
18.3142356
21
53.9553699
0
LINE
8
DEFAULT_255_2_778
10
18.3142356
20
53.9553699
11
25.2834356
21
53.9553699
0
LINE
8
DEFAULT_255_2_778
10
25.2834356
20
53.9553699
11
26.0718356
21
53.1147699
0
LINE
8
DEFAULT_255_2_778
10
26.0718356
20
62.6233699
11
25.2826356
21
61.8549699
0
LINE
8
DEFAULT_255_2_778
10
25.2826356
20
61.8549699
11
18.3142356
21
61.8549699
0
LINE
8
DEFAULT_255_2_778
10
18.3142356
20
61.8549699
11
18.3142356
21
65.3580699
0
LINE
8
DEFAULT_255_2_778
10
18.3142356
20
65.3580699
11
25.2826356
21
65.3580699
0
LINE
8
DEFAULT_255_2_778
10
25.2826356
20
65.3580699
11
26.0718356
21
64.5164699
0
LINE
8
DEFAULT_255_2_778
10
26.0718356
20
58.9239699
11
25.2826356
21
58.1555699
0
LINE
8
DEFAULT_255_2_778
10
25.2826356
20
58.1555699
11
18.3142356
21
58.1555699
0
LINE
8
DEFAULT_255_2_778
10
18.3142356
20
58.1555699
11
18.3142356
21
61.6557699
0
LINE
8
DEFAULT_255_2_778
10
18.3142356
20
61.6557699
11
25.2826356
21
61.6557699
0
LINE
8
DEFAULT_255_2_778
10
25.2826356
20
61.6557699
11
26.0718356
21
60.8141699
0
LINE
8
DEFAULT_255_2_778
10
26.0718356
20
70.0232699
11
25.2826356
21
69.2548699
0
LINE
8
DEFAULT_255_2_778
10
25.2826356
20
69.2548699
11
18.3142356
21
69.2548699
0
LINE
8
DEFAULT_255_2_778
10
18.3142356
20
69.2548699
11
18.3142356
21
72.7608699
0
LINE
8
DEFAULT_255_2_778
10
18.3142356
20
72.7608699
11
25.2815356
21
72.7608699
0
LINE
8
DEFAULT_255_2_778
10
25.2815356
20
72.7608699
11
26.0718356
21
71.9178699
0
LINE
8
DEFAULT_255_2_778
10
26.0718356
20
66.3253699
11
25.2826356
21
65.5570699
0
LINE
8
DEFAULT_255_2_778
10
25.2826356
20
65.5570699
11
18.3142356
21
65.5570699
0
LINE
8
DEFAULT_255_2_778
10
18.3142356
20
65.5570699
11
18.3142356
21
69.0556699
0
LINE
8
DEFAULT_255_2_778
10
18.3142356
20
69.0556699
11
25.2826356
21
69.0556699
0
LINE
8
DEFAULT_255_2_778
10
25.2826356
20
69.0556699
11
26.0718356
21
68.2139699
0
ENDSEC
0
EOF