0
SECTION
2
HEADER
9
$MEASUREMENT
70
1
0
ENDSEC
0
SECTION
2
TABLES
0
TABLE
2
LTYPE
0
LTYPE
72
65
70
64
2
CONTINUOUS
3
______
73
0
40
0
0
ENDTAB
0
TABLE
2
LAYER
0
LAYER
2
DEFAULT_255_2_778
70
0
62
255
6
CONTINUOUS
0
LAYER
2
DEFAULT_255_1_234
70
0
62
255
6
CONTINUOUS
0
LAYER
2
DEFAULT_255_2_778_1
70
0
62
255
6
CONTINUOUS
0
ENDTAB
0
ENDSEC
0
SECTION
2
ENTITIES
0
ARC
8
DEFAULT_255_2_778
10
3.5700693
20
91.6802028
40
0.7914215
50
129.1312896
51
180.1450914
0
ARC
8
DEFAULT_255_2_778
10
3.5703345
20
91.6806899
40
0.7912112
50
89.854026
51
129.1684493
0
ARC
8
DEFAULT_255_2_778
10
25.7993937
20
91.6803765
40
0.7915249
50
39.4792447
51
90.147911
0
ARC
8
DEFAULT_255_2_778
10
25.7999935
20
91.6802231
40
0.7911595
50
359.8533901
51
39.5154338
0
ARC
8
DEFAULT_255_2_778
10
25.7996693
20
-1.9863495
40
0.7914836
50
309.4761667
51
0.1482649
0
ARC
8
DEFAULT_255_2_778
10
25.799398
20
-1.9867805
40
0.7913235
50
269.8517415
51
309.511178
0
ARC
8
DEFAULT_255_2_778
10
3.570342
20
-1.9867224
40
0.7913815
50
219.1282118
51
270.1454017
0
ARC
8
DEFAULT_255_2_778
10
3.5700247
20
-1.9863399
40
0.7913769
50
179.8524075
51
219.1641908
0
LINE
8
DEFAULT_255_2_778
10
3.5723503
20
92.4718987
11
25.7973503
21
92.4718987
0
LINE
8
DEFAULT_255_2_778
10
26.5911503
20
91.6781987
11
26.5911503
21
-1.9843013
0
LINE
8
DEFAULT_255_2_778
10
25.7973503
20
-2.7781013
11
3.5723503
21
-2.7781013
0
LINE
8
DEFAULT_255_2_778
10
2.7786503
20
-1.9843013
11
2.7786503
21
91.6781987
0
LINE
8
DEFAULT_255_1_234
10
10.6381489
20
0.5181211
11
10.6381489
21
-0.5252017
0
LINE
8
DEFAULT_255_1_234
10
10.6381489
20
-0.5252017
11
11.1923389
21
-0.5252017
0
LINE
8
DEFAULT_255_1_234
10
11.1923389
20
-0.5252017
11
11.1923389
21
-0.6513
0
LINE
8
DEFAULT_255_1_234
10
11.1923389
20
-0.6513
11
10.4831364
21
-0.6513
0
LINE
8
DEFAULT_255_1_234
10
10.4831364
20
-0.6513
11
10.4831364
21
0.5181211
0
LINE
8
DEFAULT_255_1_234
10
10.4831364
20
0.5181211
11
10.6381489
21
0.5181211
0
LINE
8
DEFAULT_255_1_234
10
11.8862811
20
0.5189243
11
11.9127858
21
0.5189243
0
LINE
8
DEFAULT_255_1_234
10
11.9127858
20
0.5189243
11
11.9127858
21
0.392826
0
LINE
8
DEFAULT_255_1_234
10
11.9127858
20
0.392826
11
11.8854779
21
0.392826
0
LINE
8
DEFAULT_255_1_234
10
11.3385165
20
-0.2063417
11
11.3385165
21
-0.1493164
0
LINE
8
DEFAULT_255_1_234
10
11.4879068
20
-0.1685925
11
11.4879068
21
-0.2232083
0
ARC
8
DEFAULT_255_1_234
10
11.8907127
20
-0.1069545
40
0.4998079
50
90.6001036
51
104.514704
0
ARC
8
DEFAULT_255_1_234
10
11.8518642
20
0.0375131
40
0.3502176
50
104.2855254
51
133.862935
0
ARC
8
DEFAULT_255_1_234
10
11.86824
20
0.026683
40
0.3693984
50
134.5302688
51
161.6210873
0
ARC
8
DEFAULT_255_1_234
10
12.0335588
20
-0.0316105
40
0.5446739
50
161.2849839
51
174.2076652
0
ARC
8
DEFAULT_255_1_234
10
12.1742525
20
-0.0510213
40
0.6866274
50
173.7810589
51
174.9254635
0
ARC
8
DEFAULT_255_1_234
10
11.7192357
20
-0.1893161
40
0.3033419
50
95.8330959
51
138.9954921
0
ARC
8
DEFAULT_255_1_234
10
11.7415713
20
-0.3171625
40
0.4328947
50
89.8753725
51
97.0544009
0
ARC
8
DEFAULT_255_1_234
10
11.7463179
20
-0.2336252
40
0.3493769
50
71.6407809
51
90.6240094
0
ARC
8
DEFAULT_255_1_234
10
11.7613753
20
-0.1781918
40
0.2920396
50
39.6367836
51
71.019018
0
ARC
8
DEFAULT_255_1_234
10
11.6977226
20
-0.2332002
40
0.3761538
50
10.658731
51
39.9043955
0
ARC
8
DEFAULT_255_1_234
10
11.5429309
20
-0.2668314
40
0.5345136
50
359.682601
51
11.132623
0
ARC
8
DEFAULT_255_1_234
10
11.538944
20
-0.273899
40
0.5385081
50
347.2486944
51
0.4369317
0
ARC
8
DEFAULT_255_1_234
10
11.7056917
20
-0.3140193
40
0.3670249
50
318.1409698
51
347.6118597
0
ARC
8
DEFAULT_255_1_234
10
11.738191
20
-0.3407298
40
0.3250007
50
275.6342139
51
317.8248465
0
ARC
8
DEFAULT_255_1_234
10
11.7161021
20
-0.2107781
40
0.4565864
50
269.8874292
51
276.7917694
0
ARC
8
DEFAULT_255_1_234
10
11.7106091
20
-0.3133257
40
0.3540676
50
246.9140195
51
270.7437342
0
ARC
8
DEFAULT_255_1_234
10
11.7112482
20
-0.3275616
40
0.3412781
50
218.1665114
51
245.878116
0
ARC
8
DEFAULT_255_1_234
10
11.7991943
20
-0.2539721
40
0.455911
50
191.4115814
51
218.6077802
0
ARC
8
DEFAULT_255_1_234
10
11.9930032
20
-0.2105167
40
0.6545001
50
179.6345085
51
191.7836486
0
ARC
8
DEFAULT_255_1_234
10
12.5512368
20
-0.1426303
40
1.2127388
50
171.4525249
51
180.3158839
0
ARC
8
DEFAULT_255_1_234
10
12.1117244
20
-0.0742392
40
0.7679464
50
157.9802646
51
171.6246686
0
ARC
8
DEFAULT_255_1_234
10
11.8903265
20
0.0140421
40
0.5296008
50
141.4298019
51
157.854097
0
ARC
8
DEFAULT_255_1_234
10
11.8261586
20
0.0594381
40
0.4511509
50
102.8715806
51
140.8564722
0
ARC
8
DEFAULT_255_1_234
10
11.8909201
20
-0.1845448
40
0.7034845
50
90.3778349
51
103.5869322
0
ARC
8
DEFAULT_255_1_234
10
11.7170978
20
-0.245027
40
0.2370698
50
89.8751008
51
126.2071704
0
ARC
8
DEFAULT_255_1_234
10
11.7216767
20
-0.2604697
40
0.2522934
50
124.9745049
51
144.895901
0
ARC
8
DEFAULT_255_1_234
10
11.7040958
20
-0.246144
40
0.2296779
50
145.2974905
51
160.2660252
0
ARC
8
DEFAULT_255_1_234
10
12.0113497
20
-0.2263929
40
0.5234525
50
179.6514266
51
190.2855912
0
ARC
8
DEFAULT_255_1_234
10
11.8419634
20
-0.2583214
40
0.3510893
50
190.0945431
51
207.5098196
0
ARC
8
DEFAULT_255_1_234
10
11.7853904
20
-0.2852377
40
0.288489
50
207.9583163
51
216.3251085
0
ARC
8
DEFAULT_255_1_234
10
11.7514012
20
-0.3131895
40
0.2445587
50
215.7661442
51
232.5456785
0
ARC
8
DEFAULT_255_1_234
10
11.7130994
20
-0.3618518
40
0.1826382
50
232.8005391
51
270.6605633
0
ARC
8
DEFAULT_255_1_234
10
11.7176695
20
-0.3254388
40
0.2190529
50
269.35537
51
288.4744281
0
ARC
8
DEFAULT_255_1_234
10
11.7269592
20
-0.3603882
40
0.1829749
50
289.1833337
51
322.9683818
0
ARC
8
DEFAULT_255_1_234
10
11.6658115
20
-0.3121609
40
0.2608399
50
322.6007884
51
346.5182367
0
ARC
8
DEFAULT_255_1_234
10
11.5500711
20
-0.2826384
40
0.3802777
50
346.2582162
51
358.7741648
0
ARC
8
DEFAULT_255_1_234
10
11.448238
20
-0.2771035
40
0.4822176
50
358.3755224
51
0.0098023
0
ARC
8
DEFAULT_255_1_234
10
11.5238567
20
-0.2743343
40
0.4066078
50
359.6214041
51
11.2839074
0
ARC
8
DEFAULT_255_1_234
10
11.6515714
20
-0.2476934
40
0.2761514
50
11.0482309
51
31.8146458
0
ARC
8
DEFAULT_255_1_234
10
11.6824757
20
-0.2309416
40
0.2410679
50
32.3035391
51
38.082671
0
ARC
8
DEFAULT_255_1_234
10
11.7245416
20
-0.1928338
40
0.1844966
50
36.825067
51
85.7415724
0
ARC
8
DEFAULT_255_1_234
10
11.717825
20
-0.2428699
40
0.2349122
50
85.0140713
51
90.0513278
0
LINE
8
DEFAULT_255_1_234
10
12.9866292
20
0.0402327
11
12.9866292
21
-0.1525291
0
LINE
8
DEFAULT_255_1_234
10
12.2485125
20
-0.1726084
11
12.2485125
21
0.0257755
0
LINE
8
DEFAULT_255_1_234
10
12.838042
20
-0.1926877
11
12.838042
21
0.0506739
0
LINE
8
DEFAULT_255_1_234
10
12.3970996
20
0.0619184
11
12.3970996
21
-0.1758211
0
ARC
8
DEFAULT_255_1_234
10
11.7619182
20
-0.1574195
40
1.2247208
50
353.8441951
51
0.2287902
0
ARC
8
DEFAULT_255_1_234
10
12.2258685
20
-0.2092194
40
0.7578929
50
344.4934747
51
353.9765454
0
ARC
8
DEFAULT_255_1_234
10
12.5251275
20
-0.2943019
40
0.4467846
50
329.2803592
51
344.7472793
0
ARC
8
DEFAULT_255_1_234
10
12.62441
20
-0.3487982
40
0.3336173
50
324.9352394
51
328.6160465
0
ARC
8
DEFAULT_255_1_234
10
12.6621209
20
-0.3751573
40
0.2876076
50
280.580143
51
324.9173126
0
ARC
8
DEFAULT_255_1_234
10
12.6220002
20
-0.2080901
40
0.4592847
50
269.5977311
51
281.6734359
0
ARC
8
DEFAULT_255_1_234
10
12.6147907
20
-0.2200827
40
0.4472986
50
256.6228859
51
270.51044
0
ARC
8
DEFAULT_255_1_234
10
12.5745885
20
-0.3749123
40
0.2873874
50
215.8618325
51
257.2788573
0
ARC
8
DEFAULT_255_1_234
10
12.6766917
20
-0.3064023
40
0.4102928
50
197.9693508
51
215.2623606
0
ARC
8
DEFAULT_255_1_234
10
12.9252032
20
-0.2225291
40
0.6725652
50
187.8816417
51
198.2346507
0
ARC
8
DEFAULT_255_1_234
10
13.3210241
20
-0.1653921
40
1.0724845
50
180.8976217
51
188.0055519
0
ARC
8
DEFAULT_255_1_234
10
13.6010429
20
-0.1550223
40
1.3526448
50
180.7449369
51
181.1510016
0
ARC
8
DEFAULT_255_1_234
10
13.4433158
20
0.0306042
40
1.1948131
50
173.7675579
51
180.231553
0
ARC
8
DEFAULT_255_1_234
10
12.9915304
20
0.0816666
40
0.7401564
50
164.3058563
51
173.9002247
0
ARC
8
DEFAULT_255_1_234
10
12.7003373
20
0.1655656
40
0.4371288
50
148.7922025
51
164.568378
0
ARC
8
DEFAULT_255_1_234
10
12.6051825
20
0.2186929
40
0.3282386
50
144.5883898
51
148.1176286
0
ARC
8
DEFAULT_255_1_234
10
12.5708723
20
0.2426315
40
0.2864044
50
101.6440918
51
144.514236
0
ARC
8
DEFAULT_255_1_234
10
12.613379
20
0.0737069
40
0.4604934
50
89.5284041
51
102.5819763
0
ARC
8
DEFAULT_255_1_234
10
12.6212878
20
0.0698018
40
0.464401
50
77.0437873
51
90.5081339
0
ARC
8
DEFAULT_255_1_234
10
12.6614879
20
0.2340615
40
0.2953195
50
48.2778575
51
77.4994676
0
ARC
8
DEFAULT_255_1_234
10
12.6687511
20
0.2469746
40
0.2808655
50
36.3142134
51
47.6305865
0
ARC
8
DEFAULT_255_1_234
10
12.5818818
20
0.1884515
40
0.3855453
50
18.2931786
51
35.6769206
0
ARC
8
DEFAULT_255_1_234
10
12.3275577
20
0.1011593
40
0.654423
50
8.024666
51
18.5605216
0
ARC
8
DEFAULT_255_1_234
10
11.9112497
20
0.0396792
40
1.0752407
50
1.1274072
51
8.1718305
0
ARC
8
DEFAULT_255_1_234
10
11.5876687
20
0.0269885
40
1.3990231
50
0.5424119
51
1.3863029
0
ARC
8
DEFAULT_255_1_234
10
11.7698065
20
0.0542342
40
1.0682415
50
359.8090433
51
4.9407866
0
ARC
8
DEFAULT_255_1_234
10
12.1908079
20
0.0918113
40
0.6455691
50
4.8362157
51
12.2904523
0
ARC
8
DEFAULT_255_1_234
10
12.4663194
20
0.1531965
40
0.3633074
50
12.0805627
51
23.8173984
0
ARC
8
DEFAULT_255_1_234
10
12.5836899
20
0.2028919
40
0.2358723
50
24.2871213
51
31.3935614
0
ARC
8
DEFAULT_255_1_234
10
12.6361596
20
0.2372233
40
0.1732111
50
30.7407893
51
82.4657128
0
ARC
8
DEFAULT_255_1_234
10
12.6181731
20
0.1488691
40
0.263235
50
81.1060089
51
90.2184952
0
ARC
8
DEFAULT_255_1_234
10
12.614603
20
0.1746924
40
0.2374236
50
89.3806855
51
105.6762551
0
ARC
8
DEFAULT_255_1_234
10
12.596266
20
0.2413567
40
0.1682847
50
105.7981136
51
149.7388061
0
ARC
8
DEFAULT_255_1_234
10
12.7026739
20
0.177395
40
0.2924306
50
149.4208916
51
163.6286378
0
ARC
8
DEFAULT_255_1_234
10
12.9117627
20
0.113625
40
0.5110213
50
163.3763315
51
172.1410975
0
ARC
8
DEFAULT_255_1_234
10
13.2418346
20
0.0663518
40
0.8444586
50
172.0259487
51
178.0703232
0
ARC
8
DEFAULT_255_1_234
10
13.5448435
20
0.0519906
40
1.1477868
50
177.8631668
51
179.5044149
0
ARC
8
DEFAULT_255_1_234
10
13.4375839
20
-0.1794611
40
1.0404907
50
179.7995573
51
185.2460446
0
ARC
8
DEFAULT_255_1_234
10
13.0332879
20
-0.2177487
40
0.6343885
50
185.1411642
51
193.0079639
0
ARC
8
DEFAULT_255_1_234
10
12.7689351
20
-0.2802359
40
0.3627568
50
192.7897626
51
205.2507664
0
ARC
8
DEFAULT_255_1_234
10
12.6642898
20
-0.3269585
40
0.2481908
50
205.8005384
51
211.2537509
0
ARC
8
DEFAULT_255_1_234
10
12.6119339
20
-0.362042
40
0.1852521
50
210.3789793
51
238.4008143
0
ARC
8
DEFAULT_255_1_234
10
12.6099861
20
-0.3573624
40
0.1882621
50
239.6520629
51
265.9793761
0
ARC
8
DEFAULT_255_1_234
10
12.6185061
20
-0.2901573
40
0.2559272
50
265.1315437
51
270.060332
0
ARC
8
DEFAULT_255_1_234
10
12.621384
20
-0.3225466
40
0.2235528
50
269.3314664
51
287.2178029
0
ARC
8
DEFAULT_255_1_234
10
12.6351692
20
-0.3728721
40
0.1714108
50
287.7958004
51
329.080874
0
ARC
8
DEFAULT_255_1_234
10
12.5394148
20
-0.313107
40
0.2842745
50
328.6634704
51
343.3325132
0
ARC
8
DEFAULT_255_1_234
10
12.3221168
20
-0.2454137
40
0.5118644
50
343.0499468
51
351.9393422
0
ARC
8
DEFAULT_255_1_234
10
11.9754468
20
-0.1943051
40
0.8622784
50
351.8069023
51
357.7959224
0
ARC
8
DEFAULT_255_1_234
10
11.6519024
20
-0.1775279
40
1.1862365
50
357.5871873
51
359.2677531
0
LINE
8
DEFAULT_255_1_234
10
14.0235266
20
0.5181211
11
14.0235266
21
0.3912196
0
LINE
8
DEFAULT_255_1_234
10
14.0235266
20
0.3912196
11
13.6476413
21
0.3912196
0
LINE
8
DEFAULT_255_1_234
10
13.6476413
20
0.3912196
11
13.6476413
21
-0.6513
0
LINE
8
DEFAULT_255_1_234
10
13.6476413
20
-0.6513
11
13.4942351
21
-0.6513
0
LINE
8
DEFAULT_255_1_234
10
13.4942351
20
-0.6513
11
13.4942351
21
0.3912196
0
LINE
8
DEFAULT_255_1_234
10
13.4942351
20
0.3912196
11
13.1191529
21
0.3912196
0
LINE
8
DEFAULT_255_1_234
10
13.1191529
20
0.3912196
11
13.1191529
21
0.5181211
0
LINE
8
DEFAULT_255_1_234
10
13.1191529
20
0.5181211
11
14.0235266
21
0.5181211
0
LINE
8
DEFAULT_255_1_234
10
14.8797099
20
-0.2802337
11
15.0347225
21
-0.2802337
0
LINE
8
DEFAULT_255_1_234
10
14.1343646
20
-0.1212053
11
14.1343646
21
-0.0087609
0
LINE
8
DEFAULT_255_1_234
10
15.0347225
20
0.1422357
11
14.8797099
21
0.1422357
0
LINE
8
DEFAULT_255_1_234
10
14.2893771
20
-0.0127768
11
14.2893771
21
-0.1260243
0
ARC
8
DEFAULT_255_1_234
10
14.4866612
20
-0.2205154
40
0.5513052
50
340.1774281
51
353.7814284
0
ARC
8
DEFAULT_255_1_234
10
14.6437964
20
-0.2790418
40
0.3836379
50
311.4558989
51
340.4421614
0
ARC
8
DEFAULT_255_1_234
10
14.6404632
20
-0.2679472
40
0.3941894
50
282.4333181
51
310.7513653
0
ARC
8
DEFAULT_255_1_234
10
14.5965371
20
-0.0864321
40
0.5809175
50
269.9358511
51
282.809604
0
ARC
8
DEFAULT_255_1_234
10
14.5913438
20
0.0593212
40
0.7266847
50
270.0021091
51
270.3581957
0
ARC
8
DEFAULT_255_1_234
10
14.5860854
20
-0.2007415
40
0.4666519
50
250.7884749
51
270.6489167
0
ARC
8
DEFAULT_255_1_234
10
14.5692689
20
-0.2644681
40
0.4009729
50
219.3627325
51
250.0611886
0
ARC
8
DEFAULT_255_1_234
10
14.65219
20
-0.1939958
40
0.5097822
50
193.5479632
51
219.5756669
0
ARC
8
DEFAULT_255_1_234
10
14.8893521
20
-0.1324081
40
0.7547848
50
181.1218675
51
193.87563
0
ARC
8
DEFAULT_255_1_234
10
15.0963702
20
-0.121342
40
0.9620055
50
179.9918545
51
181.5394234
0
ARC
8
DEFAULT_255_1_234
10
14.9112804
20
-0.0050212
40
0.7769248
50
169.5837241
51
180.2757934
0
ARC
8
DEFAULT_255_1_234
10
14.7275742
20
0.0289229
40
0.590109
50
155.0365899
51
169.6003176
0
ARC
8
DEFAULT_255_1_234
10
14.6140206
20
0.0836677
40
0.4640625
50
136.783148
51
155.2472683
0
ARC
8
DEFAULT_255_1_234
10
14.5750683
20
0.1167562
40
0.4130255
50
121.7633186
51
136.428115
0
ARC
8
DEFAULT_255_1_234
10
14.5885645
20
0.0918227
40
0.4413323
50
95.6459699
51
121.5490577
0
ARC
8
DEFAULT_255_1_234
10
14.6042927
20
-0.0190051
40
0.55319
50
89.924208
51
96.1377933
0
ARC
8
DEFAULT_255_1_234
10
14.609336
20
-0.0071458
40
0.5413475
50
76.6779277
51
90.4563316
0
ARC
8
DEFAULT_255_1_234
10
14.6486983
20
0.1519114
40
0.3775041
50
47.485847
51
76.9287264
0
ARC
8
DEFAULT_255_1_234
10
14.6339956
20
0.1419159
40
0.3948286
50
16.5424086
51
46.8933463
0
ARC
8
DEFAULT_255_1_234
10
14.4732113
20
0.0890861
40
0.564021
50
5.4072051
51
17.0365086
0
ARC
8
DEFAULT_255_1_234
10
14.329313
20
0.0659679
40
0.5556559
50
7.8891745
51
15.9239216
0
ARC
8
DEFAULT_255_1_234
10
14.5280144
20
0.1236631
40
0.3487515
50
15.7653144
51
27.9410532
0
ARC
8
DEFAULT_255_1_234
10
14.6384361
20
0.182779
40
0.2235026
50
27.8166557
51
46.4008329
0
ARC
8
DEFAULT_255_1_234
10
14.6434004
20
0.1822082
40
0.2205286
50
47.4371857
51
75.0698205
0
ARC
8
DEFAULT_255_1_234
10
14.6125399
20
0.0747765
40
0.3322915
50
74.7008593
51
87.8124495
0
ARC
8
DEFAULT_255_1_234
10
14.6052086
20
-0.0308156
40
0.4380987
50
87.3814673
51
90.0240855
0
ARC
8
DEFAULT_255_1_234
10
14.601363
20
0.0869291
40
0.3203749
50
89.3451631
51
108.5745436
0
ARC
8
DEFAULT_255_1_234
10
14.5876735
20
0.1382908
40
0.2673494
50
109.2998449
51
143.3037509
0
ARC
8
DEFAULT_255_1_234
10
14.6638807
20
0.0796881
40
0.3634757
50
143.0753173
51
163.1916937
0
ARC
8
DEFAULT_255_1_234
10
14.8590535
20
0.0180967
40
0.5681262
50
162.9373603
51
174.6208611
0
ARC
8
DEFAULT_255_1_234
10
15.1216577
20
-0.010699
40
0.8322832
50
174.3419979
51
180.1430411
0
ARC
8
DEFAULT_255_1_234
10
15.0285733
20
-0.1301302
40
0.7392076
50
179.6817502
51
189.150529
0
ARC
8
DEFAULT_255_1_234
10
14.7784982
20
-0.171781
40
0.4856932
50
188.9910863
51
203.5773039
0
ARC
8
DEFAULT_255_1_234
10
14.6705314
20
-0.2165789
40
0.3688271
50
203.9077269
51
215.1312379
0
ARC
8
DEFAULT_255_1_234
10
14.5782408
20
-0.2881059
40
0.2522457
50
213.9071664
51
263.8849284
0
ARC
8
DEFAULT_255_1_234
10
14.5907737
20
-0.2096482
40
0.3316174
50
263.1758525
51
270.1031083
0
ARC
8
DEFAULT_255_1_234
10
14.5939829
20
-0.0849635
40
0.4563091
50
269.6719807
51
279.0609165
0
ARC
8
DEFAULT_255_1_234
10
14.6206597
20
-0.2462093
40
0.2928759
50
278.8750225
51
293.6346586
0
ARC
8
DEFAULT_255_1_234
10
14.6526805
20
-0.32141
40
0.2111472
50
293.8553404
51
310.0518804
0
ARC
8
DEFAULT_255_1_234
10
14.6531659
20
-0.3276484
40
0.2060917
50
311.0646779
51
332.0108348
0
ARC
8
DEFAULT_255_1_234
10
14.5339386
20
-0.2619022
40
0.3422352
50
331.6588543
51
343.2878891
0
ARC
8
DEFAULT_255_1_234
10
14.3276901
20
-0.1985202
40
0.5580003
50
343.1446044
51
351.010618
0
ARC
8
DEFAULT_255_1_234
10
14.1735547
20
-0.1704129
40
0.7146438
50
350.7157277
51
351.1602153
0
LINE
8
DEFAULT_255_1_234
10
15.9278518
20
-0.6513
11
15.6740488
21
-0.1782306
0
LINE
8
DEFAULT_255_1_234
10
15.6740488
20
-0.1782306
11
15.3993634
21
-0.1782306
0
LINE
8
DEFAULT_255_1_234
10
15.3993634
20
-0.1782306
11
15.3993634
21
-0.6513
0
LINE
8
DEFAULT_255_1_234
10
15.3993634
20
-0.6513
11
15.2443508
21
-0.6513
0
LINE
8
DEFAULT_255_1_234
10
15.2443508
20
-0.6513
11
15.2443508
21
0.5181211
0
LINE
8
DEFAULT_255_1_234
10
15.2443508
20
0.5181211
11
15.6314806
21
0.5181211
0
LINE
8
DEFAULT_255_1_234
10
15.8186201
20
-0.1453005
11
16.0933056
21
-0.6416619
0
LINE
8
DEFAULT_255_1_234
10
16.0933056
20
-0.6416619
11
16.0933056
21
-0.6513
0
LINE
8
DEFAULT_255_1_234
10
16.0933056
20
-0.6513
11
15.9278518
21
-0.6513
0
LINE
8
DEFAULT_255_1_234
10
15.3993634
20
0.3912196
11
15.3993634
21
-0.0521323
0
LINE
8
DEFAULT_255_1_234
10
15.3993634
20
-0.0521323
11
15.6362997
21
-0.0521323
0
LINE
8
DEFAULT_255_1_234
10
15.6354965
20
0.3912196
11
15.3993634
21
0.3912196
0
ARC
8
DEFAULT_255_1_234
10
15.6356446
20
-0.1780239
40
0.6961575
50
80.653586
51
90.3427061
0
ARC
8
DEFAULT_255_1_234
10
15.677592
20
0.0682348
40
0.4463577
50
65.6987447
51
80.8329603
0
ARC
8
DEFAULT_255_1_234
10
15.7253561
20
0.1777322
40
0.3269094
50
50.0017161
51
65.4305835
0
ARC
8
DEFAULT_255_1_234
10
15.7472025
20
0.2072482
40
0.2902647
50
11.628416
51
49.5603263
0
ARC
8
DEFAULT_255_1_234
10
15.5936361
20
0.1697299
40
0.4482792
50
359.5655735
51
12.3691
0
ARC
8
DEFAULT_255_1_234
10
15.7013221
20
0.1634644
40
0.3405924
50
341.9983148
51
0.4822259
0
ARC
8
DEFAULT_255_1_234
10
15.7408061
20
0.1527471
40
0.2997359
50
323.8609373
51
341.61416
0
ARC
8
DEFAULT_255_1_234
10
15.7106305
20
0.1760484
40
0.3378487
50
296.7018614
51
323.6876402
0
ARC
8
DEFAULT_255_1_234
10
15.6665201
20
0.2549235
40
0.4281516
50
290.8086567
51
297.2323311
0
ARC
8
DEFAULT_255_1_234
10
15.638873
20
0.3072351
40
0.3593766
50
269.589728
51
281.8058135
0
ARC
8
DEFAULT_255_1_234
10
15.6639629
20
0.1924743
40
0.2419125
50
281.5501019
51
303.9357432
0
ARC
8
DEFAULT_255_1_234
10
15.6776817
20
0.1686936
40
0.2145323
50
304.4415616
51
311.2106213
0
ARC
8
DEFAULT_255_1_234
10
15.6908922
20
0.1547632
40
0.1953505
50
310.9875673
51
356.2715578
0
ARC
8
DEFAULT_255_1_234
10
15.6152571
20
0.1660422
40
0.2716331
50
354.9348262
51
0.0609027
0
ARC
8
DEFAULT_255_1_234
10
15.5965445
20
0.1687435
40
0.2903554
50
359.5239371
51
12.8808918
0
ARC
8
DEFAULT_255_1_234
10
15.6943001
20
0.1926728
40
0.1897315
50
12.4173452
51
43.1022135
0
ARC
8
DEFAULT_255_1_234
10
15.7004605
20
0.1963724
40
0.1827118
50
43.5751728
51
48.203944
0
ARC
8
DEFAULT_255_1_234
10
15.6835097
20
0.1742302
40
0.2105272
50
48.7809703
51
72.6969569
0
ARC
8
DEFAULT_255_1_234
10
15.6480722
20
0.066682
40
0.3237537
50
72.3702241
51
84.8791103
0
ARC
8
DEFAULT_255_1_234
10
15.6333198
20
-0.0675231
40
0.4587478
50
84.5400526
51
89.7281406
0
LINE
8
DEFAULT_255_1_234
10
17.0016952
20
0.5181211
11
17.0016952
21
0.3912196
0
LINE
8
DEFAULT_255_1_234
10
17.0016952
20
0.3912196
11
16.6258098
21
0.3912196
0
LINE
8
DEFAULT_255_1_234
10
16.6258098
20
0.3912196
11
16.6258098
21
-0.6513
0
LINE
8
DEFAULT_255_1_234
10
16.6258098
20
-0.6513
11
16.4724036
21
-0.6513
0
LINE
8
DEFAULT_255_1_234
10
16.4724036
20
-0.6513
11
16.4724036
21
0.3912196
0
LINE
8
DEFAULT_255_1_234
10
16.4724036
20
0.3912196
11
16.0973214
21
0.3912196
0
LINE
8
DEFAULT_255_1_234
10
16.0973214
20
0.3912196
11
16.0973214
21
0.5181211
0
LINE
8
DEFAULT_255_1_234
10
16.0973214
20
0.5181211
11
17.0016952
21
0.5181211
0
LINE
8
DEFAULT_255_1_234
10
17.7639071
20
0.5181211
11
17.7639071
21
-0.258548
0
LINE
8
DEFAULT_255_1_234
10
17.7639071
20
-0.258548
11
17.9261482
21
-0.258548
0
LINE
8
DEFAULT_255_1_234
10
17.9261482
20
-0.258548
11
17.9261482
21
-0.3798272
0
LINE
8
DEFAULT_255_1_234
10
17.9261482
20
-0.3798272
11
17.7639071
21
-0.3798272
0
LINE
8
DEFAULT_255_1_234
10
17.7639071
20
-0.3798272
11
17.7639071
21
-0.6513
0
LINE
8
DEFAULT_255_1_234
10
17.7639071
20
-0.6513
11
17.6145168
21
-0.6513
0
LINE
8
DEFAULT_255_1_234
10
17.6145168
20
-0.6513
11
17.6145168
21
-0.3798272
0
LINE
8
DEFAULT_255_1_234
10
17.6145168
20
-0.3798272
11
17.0820125
21
-0.3798272
0
LINE
8
DEFAULT_255_1_234
10
17.0820125
20
-0.3798272
11
17.0820125
21
-0.2922813
0
LINE
8
DEFAULT_255_1_234
10
17.0820125
20
-0.2922813
11
17.6056819
21
0.5181211
0
LINE
8
DEFAULT_255_1_234
10
17.6056819
20
0.5181211
11
17.7639071
21
0.5181211
0
LINE
8
DEFAULT_255_1_234
10
17.596847
20
0.2827912
11
17.2506791
21
-0.258548
0
LINE
8
DEFAULT_255_1_234
10
17.2506791
20
-0.258548
11
17.6145168
21
-0.258548
0
LINE
8
DEFAULT_255_1_234
10
17.6145168
20
-0.258548
11
17.6145168
21
0.3149181
0
LINE
8
DEFAULT_255_1_234
10
17.6145168
20
0.3149181
11
17.596847
21
0.2827912
0
LINE
8
DEFAULT_255_2_778
10
10.5738396
20
88.5243073
11
9.3932396
21
88.5243073
0
LINE
8
DEFAULT_255_2_778
10
9.3932396
20
88.5243073
11
9.9837396
21
89.5469073
0
LINE
8
DEFAULT_255_2_778
10
9.9837396
20
89.5469073
11
11.1643396
21
89.5469073
0
LINE
8
DEFAULT_255_2_778
10
11.1643396
20
89.5469073
11
10.5738396
21
88.5243073
0
LINE
8
DEFAULT_255_2_778
10
10.5738396
20
88.5243073
11
10.5738396
21
88.5243073
0
LINE
8
DEFAULT_255_2_778
10
11.7546396
20
88.5243073
11
12.9354396
21
88.5243073
0
LINE
8
DEFAULT_255_2_778
10
12.9354396
20
88.5243073
11
12.3451396
21
89.5469073
0
LINE
8
DEFAULT_255_2_778
10
12.3451396
20
89.5469073
11
11.1643396
21
89.5469073
0
LINE
8
DEFAULT_255_2_778
10
11.1643396
20
89.5469073
11
11.7546396
21
88.5243073
0
LINE
8
DEFAULT_255_2_778
10
11.7546396
20
88.5243073
11
11.7546396
21
88.5243073
0
LINE
8
DEFAULT_255_2_778
10
11.7545823
20
90.5695146
11
11.1642823
21
91.5921146
0
LINE
8
DEFAULT_255_2_778
10
11.1642823
20
91.5921146
11
10.5737823
21
90.5695146
0
LINE
8
DEFAULT_255_2_778
10
10.5737823
20
90.5695146
11
11.1642823
21
89.5469146
0
LINE
8
DEFAULT_255_2_778
10
11.1642823
20
89.5469146
11
11.7545823
21
90.5695146
0
LINE
8
DEFAULT_255_2_778
10
11.7545823
20
90.5695146
11
11.7545823
21
90.5695146
0
ARC
8
DEFAULT_255_2_778
10
16.5183731
20
90.2157426
40
0.5650491
50
268.7543645
51
289.1417717
0
ARC
8
DEFAULT_255_2_778
10
16.606208
20
89.9605531
40
0.2951681
50
289.2776255
51
3.7648372
0
ARC
8
DEFAULT_255_2_778
10
16.3901618
20
89.9871085
40
0.5106278
50
359.1949826
51
0.0020862
0
ARC
8
DEFAULT_255_2_778
10
16.547449
20
89.9730832
40
0.1541914
50
280.2616216
51
358.5297855
0
ARC
8
DEFAULT_255_2_778
10
16.5080075
20
90.085655
40
0.2726346
50
269.5969454
51
284.2065679
0
ARC
8
DEFAULT_255_2_778
10
16.4981967
20
90.0700316
40
0.2571258
50
246.5290903
51
271.7590909
0
ARC
8
DEFAULT_255_2_778
10
16.4527148
20
89.9620009
40
0.1399248
50
188.1071678
51
245.9934684
0
ARC
8
DEFAULT_255_2_778
10
16.4829007
20
89.9689617
40
0.1708111
50
179.9445314
51
188.990814
0
ARC
8
DEFAULT_255_2_778
10
16.4924507
20
89.9757849
40
0.3763411
50
178.2272621
51
205.8283807
0
ARC
8
DEFAULT_255_2_778
10
16.4132476
20
89.9580833
40
0.2979176
50
209.4028057
51
263.0375728
0
ARC
8
DEFAULT_255_2_778
10
16.5005111
20
90.3327629
40
0.6816586
50
259.5722942
51
270.4689037
0
ARC
8
DEFAULT_255_2_778
10
17.411252
20
90.3889767
40
0.1217154
50
2.0482843
51
87.015299
0
ARC
8
DEFAULT_255_2_778
10
17.4060617
20
90.3933852
40
0.126828
50
353.0600847
51
359.9737428
0
ARC
8
DEFAULT_255_2_778
10
17.4110442
20
90.3902555
40
0.1215295
50
270.5739762
51
354.2410513
0
ARC
8
DEFAULT_255_2_778
10
17.4065059
20
90.4264297
40
0.1578027
50
269.9941256
51
272.0902921
0
ARC
8
DEFAULT_255_2_778
10
17.414084
20
89.9755295
40
0.1400686
50
358.2807293
51
95.6106825
0
ARC
8
DEFAULT_255_2_778
10
17.4103233
20
89.9716963
40
0.1437669
50
266.9962473
51
359.8528392
0
ARC
8
DEFAULT_255_2_778
10
17.4725249
20
90.0119988
40
0.3335288
50
268.2414507
51
302.0223478
0
ARC
8
DEFAULT_255_2_778
10
17.5091261
20
89.936683
40
0.2504234
50
304.0600275
51
2.0468005
0
ARC
8
DEFAULT_255_2_778
10
17.4832788
20
89.9433521
40
0.2761203
50
0.4720601
51
65.8403529
0
ARC
8
DEFAULT_255_2_778
10
17.5191655
20
90.0081061
40
0.2024466
50
67.606893
51
75.8693222
0
ARC
8
DEFAULT_255_2_778
10
17.5042026
20
90.415722
40
0.2208874
50
286.9473417
51
358.0074963
0
ARC
8
DEFAULT_255_2_778
10
17.4710866
20
90.4245045
40
0.2544031
50
356.2897886
51
0.0050857
0
ARC
8
DEFAULT_255_2_778
10
17.497262
20
90.4295946
40
0.2282839
50
358.7280137
51
81.8073164
0
ARC
8
DEFAULT_255_2_778
10
17.4216369
20
90.1781283
40
0.4895182
50
77.2355086
51
90.5088275
0
ARC
8
DEFAULT_255_2_778
10
17.5842742
20
89.2136263
40
0.130243
50
89.9974494
51
92.6776592
0
ARC
8
DEFAULT_255_2_778
10
17.5843316
20
89.2141872
40
0.129682
50
45.0880141
51
90.022782
0
ARC
8
DEFAULT_255_2_778
10
17.5844118
20
89.214219
40
0.1296029
50
0.001866
51
45.1031959
0
ARC
8
DEFAULT_255_2_778
10
17.5845123
20
89.2142202
40
0.1295026
50
357.4803735
51
0.0013544
0
ARC
8
DEFAULT_255_2_778
10
17.5901979
20
89.2103512
40
0.1237052
50
339.8672523
51
359.1550732
0
ARC
8
DEFAULT_255_2_778
10
17.5794513
20
89.2075079
40
0.1329691
50
272.0853006
51
342.6124646
0
ARC
8
DEFAULT_255_2_778
10
17.6596145
20
89.2457661
40
0.2575135
50
286.787355
51
290.6121696
0
ARC
8
DEFAULT_255_2_778
10
17.6689461
20
89.2314533
40
0.24086
50
289.7330405
51
342.3216972
0
ARC
8
DEFAULT_255_2_778
10
17.641261
20
89.2362954
40
0.268735
50
343.130572
51
0.3905272
0
ARC
8
DEFAULT_255_2_778
10
17.6578783
20
89.2536767
40
0.2525904
50
356.4706028
51
80.1788963
0
ARC
8
DEFAULT_255_2_778
10
17.5921649
20
89.0267163
40
0.4881286
50
77.1212301
51
90.4900821
0
ARC
8
DEFAULT_255_2_778
10
17.5166337
20
88.729036
40
0.1865405
50
50.1507009
51
92.9634648
0
ARC
8
DEFAULT_255_2_778
10
17.5301354
20
88.7573678
40
0.1563319
50
12.621233
51
47.2950617
0
ARC
8
DEFAULT_255_2_778
10
16.8485884
20
88.6244726
40
0.8506657
50
2.8173892
51
11.3253986
0
ARC
8
DEFAULT_255_2_778
10
-29.2295733
20
85.1281175
40
47.060992
50
4.3048394
51
4.3117143
0
ARC
8
DEFAULT_255_2_778
10
18.5500859
20
88.700584
40
0.8523717
50
182.6850102
51
191.2954256
0
ARC
8
DEFAULT_255_2_778
10
17.9656837
20
88.5942399
40
0.2586603
50
193.5512904
51
195.3825538
0
ARC
8
DEFAULT_255_2_778
10
19.3415679
20
88.8518916
40
1.4608773
50
182.5958701
51
192.9049706
0
ARC
8
DEFAULT_255_2_778
10
17.6207606
20
88.7802215
40
0.261487
50
1.2064311
51
30.4123358
0
ARC
8
DEFAULT_255_2_778
10
17.6663626
20
88.795276
40
0.2147766
50
33.1081154
51
71.7312197
0
LINE
8
DEFAULT_255_2_778
10
13.4657897
20
88.9598271
11
13.9385897
21
88.9598271
0
LINE
8
DEFAULT_255_2_778
10
13.9385897
20
88.9598271
11
13.9385897
21
89.1312271
0
LINE
8
DEFAULT_255_2_778
10
13.9385897
20
89.1312271
11
13.4657897
21
89.1312271
0
LINE
8
DEFAULT_255_2_778
10
13.4657897
20
89.1312271
11
13.4657897
21
89.3421271
0
LINE
8
DEFAULT_255_2_778
10
13.4657897
20
89.3421271
11
13.9977897
21
89.3421271
0
LINE
8
DEFAULT_255_2_778
10
13.9977897
20
89.3421271
11
13.9977897
21
89.5135271
0
LINE
8
DEFAULT_255_2_778
10
13.9977897
20
89.5135271
11
13.4657897
21
89.5135271
0
LINE
8
DEFAULT_255_2_778
10
13.4657897
20
89.5135271
11
13.2651897
21
89.5135271
0
LINE
8
DEFAULT_255_2_778
10
13.2651897
20
89.5135271
11
13.2651897
21
89.3421271
0
LINE
8
DEFAULT_255_2_778
10
13.2651897
20
89.3421271
11
13.2651897
21
88.6957271
0
LINE
8
DEFAULT_255_2_778
10
13.2651897
20
88.6957271
11
13.2651897
21
88.5242271
0
LINE
8
DEFAULT_255_2_778
10
13.2651897
20
88.5242271
11
13.4657897
21
88.5242271
0
LINE
8
DEFAULT_255_2_778
10
13.4657897
20
88.5242271
11
14.0118897
21
88.5242271
0
LINE
8
DEFAULT_255_2_778
10
14.0118897
20
88.5242271
11
14.0118897
21
88.6957271
0
LINE
8
DEFAULT_255_2_778
10
14.0118897
20
88.6957271
11
13.4657897
21
88.6957271
0
LINE
8
DEFAULT_255_2_778
10
13.4657897
20
88.6957271
11
13.4657897
21
88.9595271
0
LINE
8
DEFAULT_255_2_778
10
13.4657897
20
88.9595271
11
13.4657897
21
88.9598271
0
LINE
8
DEFAULT_255_2_778
10
13.4519897
20
90.4139271
11
13.6620897
21
89.6786271
0
LINE
8
DEFAULT_255_2_778
10
13.6620897
20
89.6786271
11
13.6704897
21
89.6786271
0
LINE
8
DEFAULT_255_2_778
10
13.6704897
20
89.6786271
11
13.8464897
21
89.6786271
0
LINE
8
DEFAULT_255_2_778
10
13.8464897
20
89.6786271
11
13.8546897
21
89.6786271
0
LINE
8
DEFAULT_255_2_778
10
13.8546897
20
89.6786271
11
14.0647897
21
90.4139271
0
LINE
8
DEFAULT_255_2_778
10
14.0647897
20
90.4139271
11
14.0647897
21
89.6786271
0
LINE
8
DEFAULT_255_2_778
10
14.0647897
20
89.6786271
11
14.2515897
21
89.6786271
0
LINE
8
DEFAULT_255_2_778
10
14.2515897
20
89.6786271
11
14.2515897
21
90.6679271
0
LINE
8
DEFAULT_255_2_778
10
14.2515897
20
90.6679271
11
14.1496897
21
90.6679271
0
LINE
8
DEFAULT_255_2_778
10
14.1496897
20
90.6679271
11
14.0615897
21
90.6679271
0
LINE
8
DEFAULT_255_2_778
10
14.0615897
20
90.6679271
11
13.9655897
21
90.6679271
0
LINE
8
DEFAULT_255_2_778
10
13.9655897
20
90.6679271
11
13.7583897
21
89.9736271
0
LINE
8
DEFAULT_255_2_778
10
13.7583897
20
89.9736271
11
13.5511897
21
90.6679271
0
LINE
8
DEFAULT_255_2_778
10
13.5511897
20
90.6679271
11
13.4551897
21
90.6679271
0
LINE
8
DEFAULT_255_2_778
10
13.4551897
20
90.6679271
11
13.3669897
21
90.6679271
0
LINE
8
DEFAULT_255_2_778
10
13.3669897
20
90.6679271
11
13.2651897
21
90.6679271
0
LINE
8
DEFAULT_255_2_778
10
13.2651897
20
90.6679271
11
13.2651897
21
89.6786271
0
LINE
8
DEFAULT_255_2_778
10
13.2651897
20
89.6786271
11
13.4519897
21
89.6786271
0
LINE
8
DEFAULT_255_2_778
10
13.4519897
20
89.6786271
11
13.4519897
21
90.4139271
0
LINE
8
DEFAULT_255_2_778
10
13.4519897
20
90.4139271
11
13.4519897
21
90.4139271
0
LINE
8
DEFAULT_255_2_778
10
18.0056897
20
90.6679271
11
17.8064897
21
90.6679271
0
LINE
8
DEFAULT_255_2_778
10
17.8064897
20
90.6679271
11
17.8064897
21
89.6786271
0
LINE
8
DEFAULT_255_2_778
10
17.8064897
20
89.6786271
11
18.0056897
21
89.6786271
0
LINE
8
DEFAULT_255_2_778
10
18.0056897
20
89.6786271
11
18.0056897
21
90.6679271
0
LINE
8
DEFAULT_255_2_778
10
18.0056897
20
90.6679271
11
18.0056897
21
90.6679271
0
LINE
8
DEFAULT_255_2_778
10
18.1681897
20
89.5138271
11
17.9689897
21
89.5138271
0
LINE
8
DEFAULT_255_2_778
10
17.9689897
20
89.5138271
11
17.9689897
21
88.5245271
0
LINE
8
DEFAULT_255_2_778
10
17.9689897
20
88.5245271
11
18.1681897
21
88.5245271
0
LINE
8
DEFAULT_255_2_778
10
18.1681897
20
88.5245271
11
18.1681897
21
89.5138271
0
LINE
8
DEFAULT_255_2_778
10
18.1681897
20
89.5138271
11
18.1681897
21
89.5138271
0
LINE
8
DEFAULT_255_2_778
10
19.9765897
20
90.6679271
11
19.7773897
21
90.6679271
0
LINE
8
DEFAULT_255_2_778
10
19.7773897
20
90.6679271
11
19.7773897
21
89.6786271
0
LINE
8
DEFAULT_255_2_778
10
19.7773897
20
89.6786271
11
19.9765897
21
89.6786271
0
LINE
8
DEFAULT_255_2_778
10
19.9765897
20
89.6786271
11
19.9765897
21
90.6679271
0
LINE
8
DEFAULT_255_2_778
10
19.9765897
20
90.6679271
11
19.9765897
21
90.6679271
0
LINE
8
DEFAULT_255_2_778
10
14.5298897
20
90.6679271
11
14.3306897
21
90.6679271
0
LINE
8
DEFAULT_255_2_778
10
14.3306897
20
90.6679271
11
14.3306897
21
89.6786271
0
LINE
8
DEFAULT_255_2_778
10
14.3306897
20
89.6786271
11
14.5298897
21
89.6786271
0
LINE
8
DEFAULT_255_2_778
10
14.5298897
20
89.6786271
11
14.5298897
21
90.6679271
0
LINE
8
DEFAULT_255_2_778
10
14.5298897
20
90.6679271
11
14.5298897
21
90.6679271
0
LINE
8
DEFAULT_255_2_778
10
19.4989897
20
90.2819271
11
19.1029897
21
90.2819271
0
LINE
8
DEFAULT_255_2_778
10
19.1029897
20
90.2819271
11
19.1029897
21
90.6676271
0
LINE
8
DEFAULT_255_2_778
10
19.1029897
20
90.6676271
11
18.9068897
21
90.6676271
0
LINE
8
DEFAULT_255_2_778
10
18.9068897
20
90.6676271
11
18.9068897
21
89.6786271
0
LINE
8
DEFAULT_255_2_778
10
18.9068897
20
89.6786271
11
19.1029897
21
89.6786271
0
LINE
8
DEFAULT_255_2_778
10
19.1029897
20
89.6786271
11
19.1029897
21
90.1104271
0
LINE
8
DEFAULT_255_2_778
10
19.1029897
20
90.1104271
11
19.4989897
21
90.1104271
0
LINE
8
DEFAULT_255_2_778
10
19.4989897
20
90.1104271
11
19.4989897
21
89.6786271
0
LINE
8
DEFAULT_255_2_778
10
19.4989897
20
89.6786271
11
19.6950897
21
89.6786271
0
LINE
8
DEFAULT_255_2_778
10
19.6950897
20
89.6786271
11
19.6950897
21
90.6676271
0
LINE
8
DEFAULT_255_2_778
10
19.6950897
20
90.6676271
11
19.4989897
21
90.6676271
0
LINE
8
DEFAULT_255_2_778
10
19.4989897
20
90.6676271
11
19.4989897
21
90.2819271
0
LINE
8
DEFAULT_255_2_778
10
19.4989897
20
90.2819271
11
19.4989897
21
90.2819271
0
LINE
8
DEFAULT_255_2_778
10
14.8246897
20
89.6786271
11
15.0280897
21
89.6786271
0
LINE
8
DEFAULT_255_2_778
10
15.0280897
20
89.6786271
11
15.0280897
21
90.4965271
0
LINE
8
DEFAULT_255_2_778
10
15.0280897
20
90.4965271
11
15.2696897
21
90.4965271
0
LINE
8
DEFAULT_255_2_778
10
15.2696897
20
90.4965271
11
15.2696897
21
90.6679271
0
LINE
8
DEFAULT_255_2_778
10
15.2696897
20
90.6679271
11
15.0280897
21
90.6679271
0
LINE
8
DEFAULT_255_2_778
10
15.0280897
20
90.6679271
11
14.8246897
21
90.6679271
0
LINE
8
DEFAULT_255_2_778
10
14.8246897
20
90.6679271
11
14.5830897
21
90.6679271
0
LINE
8
DEFAULT_255_2_778
10
14.5830897
20
90.6679271
11
14.5830897
21
90.4965271
0
LINE
8
DEFAULT_255_2_778
10
14.5830897
20
90.4965271
11
14.8246897
21
90.4965271
0
LINE
8
DEFAULT_255_2_778
10
14.8246897
20
90.4965271
11
14.8246897
21
89.6786271
0
LINE
8
DEFAULT_255_2_778
10
14.8246897
20
89.6786271
11
14.8246897
21
89.6786271
0
LINE
8
DEFAULT_255_2_778
10
16.6422897
20
88.5245271
11
16.8454897
21
88.5245271
0
LINE
8
DEFAULT_255_2_778
10
16.8454897
20
88.5245271
11
16.8454897
21
89.3423271
0
LINE
8
DEFAULT_255_2_778
10
16.8454897
20
89.3423271
11
17.0873897
21
89.3423271
0
LINE
8
DEFAULT_255_2_778
10
17.0873897
20
89.3423271
11
17.0873897
21
89.5141271
0
LINE
8
DEFAULT_255_2_778
10
17.0873897
20
89.5141271
11
16.8454897
21
89.5141271
0
LINE
8
DEFAULT_255_2_778
10
16.8454897
20
89.5141271
11
16.6422897
21
89.5141271
0
LINE
8
DEFAULT_255_2_778
10
16.6422897
20
89.5141271
11
16.4004897
21
89.5141271
0
LINE
8
DEFAULT_255_2_778
10
16.4004897
20
89.5141271
11
16.4004897
21
89.3423271
0
LINE
8
DEFAULT_255_2_778
10
16.4004897
20
89.3423271
11
16.6422897
21
89.3423271
0
LINE
8
DEFAULT_255_2_778
10
16.6422897
20
89.3423271
11
16.6422897
21
88.5245271
0
LINE
8
DEFAULT_255_2_778
10
16.6422897
20
88.5245271
11
16.6422897
21
88.5245271
0
LINE
8
DEFAULT_255_2_778
10
16.9007897
20
89.9871271
11
16.9007897
21
90.6676271
0
LINE
8
DEFAULT_255_2_778
10
16.9007897
20
90.6676271
11
16.7015897
21
90.6676271
0
LINE
8
DEFAULT_255_2_778
10
16.7015897
20
90.6676271
11
16.7015897
21
89.9691271
0
LINE
8
DEFAULT_255_2_778
10
16.3120897
20
89.9691271
11
16.3120897
21
90.6676271
0
LINE
8
DEFAULT_255_2_778
10
16.3120897
20
90.6676271
11
16.1162897
21
90.6676271
0
LINE
8
DEFAULT_255_2_778
10
16.1162897
20
90.6676271
11
16.1162897
21
89.9874271
0
LINE
8
DEFAULT_255_2_778
10
15.0000897
20
88.9598271
11
15.4730897
21
88.9598271
0
LINE
8
DEFAULT_255_2_778
10
15.4730897
20
88.9598271
11
15.4730897
21
89.1312271
0
LINE
8
DEFAULT_255_2_778
10
15.4730897
20
89.1312271
11
15.0000897
21
89.1312271
0
LINE
8
DEFAULT_255_2_778
10
15.0000897
20
89.1312271
11
15.0000897
21
89.3421271
0
LINE
8
DEFAULT_255_2_778
10
15.0000897
20
89.3421271
11
15.5320897
21
89.3421271
0
LINE
8
DEFAULT_255_2_778
10
15.5320897
20
89.3421271
11
15.5320897
21
89.5135271
0
LINE
8
DEFAULT_255_2_778
10
15.5320897
20
89.5135271
11
15.0000897
21
89.5135271
0
LINE
8
DEFAULT_255_2_778
10
15.0000897
20
89.5135271
11
14.7997897
21
89.5135271
0
LINE
8
DEFAULT_255_2_778
10
14.7997897
20
89.5135271
11
14.7997897
21
89.3421271
0
LINE
8
DEFAULT_255_2_778
10
14.7997897
20
89.3421271
11
14.7997897
21
88.6957271
0
LINE
8
DEFAULT_255_2_778
10
14.7997897
20
88.6957271
11
14.7997897
21
88.5242271
0
LINE
8
DEFAULT_255_2_778
10
14.7997897
20
88.5242271
11
15.0000897
21
88.5242271
0
LINE
8
DEFAULT_255_2_778
10
15.0000897
20
88.5242271
11
15.5461897
21
88.5242271
0
LINE
8
DEFAULT_255_2_778
10
15.5461897
20
88.5242271
11
15.5461897
21
88.6957271
0
LINE
8
DEFAULT_255_2_778
10
15.5461897
20
88.6957271
11
15.0000897
21
88.6957271
0
LINE
8
DEFAULT_255_2_778
10
15.0000897
20
88.6957271
11
15.0000897
21
88.9595271
0
LINE
8
DEFAULT_255_2_778
10
15.0000897
20
88.9595271
11
15.0000897
21
88.9598271
0
LINE
8
DEFAULT_255_2_778
10
17.4064897
20
90.2686271
11
17.1690897
21
90.2686271
0
LINE
8
DEFAULT_255_2_778
10
17.1690897
20
90.2686271
11
17.1690897
21
90.5102271
0
LINE
8
DEFAULT_255_2_778
10
17.1690897
20
90.5102271
11
17.4175897
21
90.5102271
0
LINE
8
DEFAULT_255_2_778
10
17.4175897
20
90.5102271
11
17.4175897
21
90.5105271
0
LINE
8
DEFAULT_255_2_778
10
17.4027897
20
89.8278271
11
17.1690897
21
89.8278271
0
LINE
8
DEFAULT_255_2_778
10
17.1690897
20
89.8278271
11
17.1690897
21
90.1149271
0
LINE
8
DEFAULT_255_2_778
10
17.1690897
20
90.1149271
11
17.4003897
21
90.1149271
0
LINE
8
DEFAULT_255_2_778
10
17.1767897
20
89.6786271
11
17.4622897
21
89.6786271
0
LINE
8
DEFAULT_255_2_778
10
17.4172897
20
90.6676271
11
17.1770897
21
90.6676271
0
LINE
8
DEFAULT_255_2_778
10
17.1770897
20
90.6676271
11
16.9722897
21
90.6676271
0
LINE
8
DEFAULT_255_2_778
10
16.9722897
20
90.6676271
11
16.9711897
21
90.6676271
0
LINE
8
DEFAULT_255_2_778
10
16.9711897
20
90.6676271
11
16.9711897
21
89.6786271
0
LINE
8
DEFAULT_255_2_778
10
16.9711897
20
89.6786271
11
16.9722897
21
89.6786271
0
LINE
8
DEFAULT_255_2_778
10
16.9722897
20
89.6786271
11
17.1770897
21
89.6786271
0
LINE
8
DEFAULT_255_2_778
10
17.1770897
20
89.6786271
11
17.1767897
21
89.6786271
0
LINE
8
DEFAULT_255_2_778
10
17.3368897
20
89.0743271
11
17.3368897
21
89.3437271
0
LINE
8
DEFAULT_255_2_778
10
17.3368897
20
89.3437271
11
17.5781897
21
89.3437271
0
LINE
8
DEFAULT_255_2_778
10
17.5842897
20
89.0746271
11
17.3370897
21
89.0746271
0
LINE
8
DEFAULT_255_2_778
10
17.3370897
20
89.0746271
11
17.3368897
21
89.0743271
0
LINE
8
DEFAULT_255_2_778
10
17.5879897
20
89.5148271
11
17.3368897
21
89.5148271
0
LINE
8
DEFAULT_255_2_778
10
17.3368897
20
89.5148271
11
17.1383897
21
89.5148271
0
LINE
8
DEFAULT_255_2_778
10
17.1383897
20
89.5148271
11
17.1362897
21
89.5148271
0
LINE
8
DEFAULT_255_2_778
10
17.1362897
20
89.5148271
11
17.1362897
21
88.5256271
0
LINE
8
DEFAULT_255_2_778
10
17.1362897
20
88.5256271
11
17.3368897
21
88.5256271
0
LINE
8
DEFAULT_255_2_778
10
17.3368897
20
88.5256271
11
17.3368897
21
88.9153271
0
LINE
8
DEFAULT_255_2_778
10
17.3368897
20
88.9153271
11
17.5069897
21
88.9153271
0
LINE
8
DEFAULT_255_2_778
10
17.7162897
20
88.5256271
11
17.9175897
21
88.5256271
0
LINE
8
DEFAULT_255_2_778
10
14.2763897
20
89.5138271
11
14.0760897
21
89.5138271
0
LINE
8
DEFAULT_255_2_778
10
14.0760897
20
89.5138271
11
14.0760897
21
88.6960271
0
LINE
8
DEFAULT_255_2_778
10
14.0760897
20
88.6960271
11
14.0760897
21
88.5245271
0
LINE
8
DEFAULT_255_2_778
10
14.0760897
20
88.5245271
11
14.2763897
21
88.5245271
0
LINE
8
DEFAULT_255_2_778
10
14.2763897
20
88.5245271
11
14.7428897
21
88.5245271
0
LINE
8
DEFAULT_255_2_778
10
14.7428897
20
88.5245271
11
14.7428897
21
88.6960271
0
LINE
8
DEFAULT_255_2_778
10
14.7428897
20
88.6960271
11
14.2763897
21
88.6960271
0
LINE
8
DEFAULT_255_2_778
10
14.2763897
20
88.6960271
11
14.2763897
21
89.5138271
0
LINE
8
DEFAULT_255_2_778
10
14.2763897
20
89.5138271
11
14.2763897
21
89.5138271
0
ARC
8
DEFAULT_255_2_778
10
15.4584271
20
89.1396969
40
0.9681224
50
72.4822103
51
81.3184214
0
ARC
8
DEFAULT_255_2_778
10
15.7160297
20
89.9163918
40
0.1503783
50
28.8883513
51
77.0092434
0
ARC
8
DEFAULT_255_2_778
10
15.7432379
20
89.9453196
40
0.113238
50
358.9917455
51
22.7117017
0
ARC
8
DEFAULT_255_2_778
10
15.7394861
20
89.9494918
40
0.1171346
50
289.2958104
51
356.9831562
0
ARC
8
DEFAULT_255_2_778
10
15.6668261
20
90.1069882
40
0.2902651
50
268.4665462
51
292.5613311
0
ARC
8
DEFAULT_255_2_778
10
15.6496856
20
90.0479179
40
0.2312808
50
236.4956947
51
272.3225735
0
ARC
8
DEFAULT_255_2_778
10
15.6106646
20
89.9796839
40
0.1529307
50
178.9722202
51
234.5742435
0
ARC
8
DEFAULT_255_2_778
10
15.5656113
20
89.9701079
40
0.3002058
50
177.6481608
51
245.5596397
0
ARC
8
DEFAULT_255_2_778
10
15.6409971
20
90.1423561
40
0.488217
50
245.8690375
51
267.169035
0
ARC
8
DEFAULT_255_2_778
10
15.6671503
20
90.3933916
40
0.7403648
50
266.1069867
51
270.0547972
0
ARC
8
DEFAULT_255_2_778
10
15.6772894
20
90.2246135
40
0.5716642
50
269.0547216
51
287.7147747
0
ARC
8
DEFAULT_255_2_778
10
15.7598889
20
89.9789091
40
0.3125017
50
286.995984
51
325.1221533
0
ARC
8
DEFAULT_255_2_778
10
15.7678294
20
89.962361
40
0.2966627
50
326.8673922
51
0.8625726
0
ARC
8
DEFAULT_255_2_778
10
15.7898286
20
89.9709409
40
0.2746606
50
359.1417932
51
76.9739731
0
ARC
8
DEFAULT_255_2_778
10
15.6705461
20
89.6900719
40
0.577616
50
71.7185727
51
79.1315439
0
ARC
8
DEFAULT_255_2_778
10
14.2492968
20
82.336467
40
8.0673056
50
79.0662148
51
79.6216572
0
ARC
8
DEFAULT_255_2_778
10
16.4356585
20
94.2141581
40
4.0099443
50
259.1227669
51
259.4665204
0
ARC
8
DEFAULT_255_2_778
10
15.7836732
20
90.9191142
40
0.6513291
50
249.9945768
51
260.7485895
0
ARC
8
DEFAULT_255_2_778
10
15.5880401
20
90.4080999
40
0.1046098
50
178.6705173
51
254.9333545
0
ARC
8
DEFAULT_255_2_778
10
15.6049957
20
90.4046688
40
0.1216785
50
93.288632
51
177.2403935
0
ARC
8
DEFAULT_255_2_778
10
15.6585677
20
90.2176752
40
0.3143588
50
89.6189463
51
101.1057977
0
ARC
8
DEFAULT_255_2_778
10
15.6722733
20
90.329516
40
0.2028439
50
53.5634072
51
93.2825843
0
ARC
8
DEFAULT_255_2_778
10
15.7018505
20
90.3877144
40
0.1388739
50
357.1985816
51
49.1152298
0
ARC
8
DEFAULT_255_2_778
10
15.7254907
20
90.3809274
40
0.3087677
50
359.9999335
51
2.3703878
0
ARC
8
DEFAULT_255_2_778
10
15.7353555
20
90.3824337
40
0.298851
50
2.1600756
51
60.1092229
0
ARC
8
DEFAULT_255_2_778
10
15.6766212
20
90.2758133
40
0.4205645
50
60.4106856
51
86.1444419
0
ARC
8
DEFAULT_255_2_778
10
15.6536151
20
90.0991228
40
0.5985046
50
85.0843314
51
90.0628677
0
ARC
8
DEFAULT_255_2_778
10
15.6529718
20
90.2225466
40
0.4750804
50
90.001616
51
92.2300394
0
ARC
8
DEFAULT_255_2_778
10
15.6281193
20
90.327687
40
0.3696351
50
89.0131319
51
149.6364996
0
ARC
8
DEFAULT_255_2_778
10
15.5505461
20
90.3999055
40
0.2671974
50
154.5962367
51
180.4885883
0
ARC
8
DEFAULT_255_2_778
10
15.5651524
20
90.398384
40
0.281795
50
180.1539064
51
255.1120325
0
ARC
8
DEFAULT_255_2_778
10
15.7094242
20
90.721232
40
0.6333958
50
249.9962237
51
260.4976723
0
ARC
8
DEFAULT_255_2_778
10
18.2470963
20
89.1408351
40
0.967002
50
72.4685023
51
81.3064395
0
ARC
8
DEFAULT_255_2_778
10
18.5045397
20
89.916427
40
0.1503535
50
28.8782248
51
76.9904304
0
ARC
8
DEFAULT_255_2_778
10
18.5317197
20
89.9453189
40
0.1132561
50
358.9922779
51
22.7082666
0
ARC
8
DEFAULT_255_2_778
10
18.5280402
20
89.9494088
40
0.1170763
50
289.2761556
51
357.0223042
0
ARC
8
DEFAULT_255_2_778
10
18.4553612
20
90.1072836
40
0.2905613
50
268.4611814
51
292.5289055
0
ARC
8
DEFAULT_255_2_778
10
18.4381801
20
90.0488175
40
0.2321799
50
236.6698634
51
272.3149402
0
ARC
8
DEFAULT_255_2_778
10
18.39878
20
89.9796762
40
0.1528464
50
178.9687581
51
234.7686008
0
ARC
8
DEFAULT_255_2_778
10
18.3540113
20
89.9701079
40
0.3002058
50
177.6481608
51
245.5596397
0
ARC
8
DEFAULT_255_2_778
10
18.4293971
20
90.1423561
40
0.488217
50
245.8690375
51
267.169035
0
ARC
8
DEFAULT_255_2_778
10
18.4555503
20
90.3933916
40
0.7403648
50
266.1069867
51
270.0547972
0
ARC
8
DEFAULT_255_2_778
10
18.4656836
20
90.2252451
40
0.5722957
50
269.0563423
51
287.7048702
0
ARC
8
DEFAULT_255_2_778
10
18.548344
20
89.9792682
40
0.312856
50
286.9832601
51
325.0871916
0
ARC
8
DEFAULT_255_2_778
10
18.5567708
20
89.9623856
40
0.2964208
50
326.8311942
51
0.8585267
0
ARC
8
DEFAULT_255_2_778
10
18.5785756
20
89.9710282
40
0.2746149
50
359.1234265
51
76.9343785
0
ARC
8
DEFAULT_255_2_778
10
18.4596421
20
89.6911965
40
0.5764934
50
71.6999697
51
79.1198353
0
ARC
8
DEFAULT_255_2_778
10
17.0173657
20
82.2144392
40
8.1910887
50
79.0843627
51
79.6321368
0
ARC
8
DEFAULT_255_2_778
10
19.2200266
20
94.1939177
40
3.9892176
50
259.1314419
51
259.4772924
0
ARC
8
DEFAULT_255_2_778
10
18.5723251
20
90.9185131
40
0.6507003
50
249.9919323
51
260.7592458
0
ARC
8
DEFAULT_255_2_778
10
18.376901
20
90.4080546
40
0.1045718
50
178.6452075
51
254.9151907
0
ARC
8
DEFAULT_255_2_778
10
18.3939581
20
90.4046016
40
0.121744
50
93.2745253
51
177.21023
0
ARC
8
DEFAULT_255_2_778
10
18.4475726
20
90.2175052
40
0.3145287
50
89.6200387
51
101.1027534
0
ARC
8
DEFAULT_255_2_778
10
18.4613489
20
90.3308453
40
0.2015212
50
53.1490002
51
93.3256649
0
ARC
8
DEFAULT_255_2_778
10
18.4902753
20
90.3876519
40
0.1391457
50
357.2298288
51
48.6469881
0
ARC
8
DEFAULT_255_2_778
10
18.5137232
20
90.3809226
40
0.3092351
50
0.0008291
51
2.3676985
0
ARC
8
DEFAULT_255_2_778
10
18.5240744
20
90.3824868
40
0.2988304
50
2.1500394
51
60.0956838
0
ARC
8
DEFAULT_255_2_778
10
18.4654399
20
90.2759909
40
0.4203859
50
60.40452
51
86.1455285
0
ARC
8
DEFAULT_255_2_778
10
18.4424157
20
90.0991686
40
0.5984588
50
85.0841409
51
90.0629301
0
ARC
8
DEFAULT_255_2_778
10
18.4417778
20
90.2221392
40
0.4754878
50
90.0023409
51
92.3231329
0
ARC
8
DEFAULT_255_2_778
10
18.4167555
20
90.3274604
40
0.3698206
50
89.1093915
51
149.6400816
0
ARC
8
DEFAULT_255_2_778
10
18.338761
20
90.3998917
40
0.2669122
50
154.6001925
51
180.486137
0
ARC
8
DEFAULT_255_2_778
10
18.3537607
20
90.3985152
40
0.2819037
50
180.1805176
51
255.132702
0
ARC
8
DEFAULT_255_2_778
10
18.4982264
20
90.7217784
40
0.6339516
50
250.0026216
51
260.4967164
0
ARC
8
DEFAULT_255_2_778
10
16.008917
20
88.9289283
40
0.2519711
50
190.2626864
51
267.3480013
0
ARC
8
DEFAULT_255_2_778
10
16.2443543
20
89.0202548
40
0.5022041
50
179.6723028
51
195.7380858
0
ARC
8
DEFAULT_255_2_778
10
16.1790511
20
89.0357671
40
0.4370755
50
148.7005643
51
181.6572045
0
ARC
8
DEFAULT_255_2_778
10
15.9957576
20
89.1458723
40
0.2232598
50
89.6148479
51
148.4074796
0
ARC
8
DEFAULT_255_2_778
10
16.0060936
20
89.167949
40
0.201372
50
41.9769772
51
92.5146611
0
ARC
8
DEFAULT_255_2_778
10
15.9522078
20
89.1302523
40
0.2667646
50
15.1848537
51
40.2549591
0
ARC
8
DEFAULT_255_2_778
10
16.028123
20
89.1405326
40
0.3935735
50
8.7091682
51
82.0550801
0
ARC
8
DEFAULT_255_2_778
10
15.9931241
20
88.9940871
40
0.543642
50
80.5350289
51
90.1544743
0
ARC
8
DEFAULT_255_2_778
10
15.9818804
20
89.0827192
40
0.4551129
50
88.7689246
51
119.6437418
0
ARC
8
DEFAULT_255_2_778
10
16.0077717
20
89.0864647
40
0.4653013
50
122.644121
51
173.3997839
0
ARC
8
DEFAULT_255_2_778
10
16.2711934
20
89.0221568
40
0.7351371
50
170.7798304
51
180.1348114
0
ARC
8
DEFAULT_255_2_778
10
16.1377257
20
89.0067615
40
0.6018225
50
178.6988735
51
210.5289552
0
ARC
8
DEFAULT_255_2_778
10
15.970325
20
88.9159953
40
0.4115783
50
211.4828222
51
265.8686737
0
ARC
8
DEFAULT_255_2_778
10
15.9909864
20
89.0407011
40
0.5375742
50
264.6297133
51
270.0503073
0
ARC
8
DEFAULT_255_2_778
10
16.0020995
20
88.9725749
40
0.4695684
50
268.7014824
51
300.1403067
0
ARC
8
DEFAULT_255_2_778
10
16.0350333
20
88.8941852
40
0.385394
50
301.7580058
51
353.77968
0
ARC
8
DEFAULT_255_2_778
10
16.0012256
20
88.8885219
40
0.2113379
50
268.8430278
51
350.1661143
0
ARC
8
DEFAULT_255_2_778
10
18.6896799
20
88.9288824
40
0.2519281
50
190.2538303
51
267.3332171
0
ARC
8
DEFAULT_255_2_778
10
18.9252249
20
89.0202581
40
0.5022746
50
179.672724
51
195.7362088
0
ARC
8
DEFAULT_255_2_778
10
18.8600432
20
89.0357917
40
0.4372682
50
148.7196987
51
181.6596982
0
ARC
8
DEFAULT_255_2_778
10
18.676443
20
89.1459906
40
0.2231415
50
89.6108896
51
148.4244661
0
ARC
8
DEFAULT_255_2_778
10
18.686876
20
89.167967
40
0.2013576
50
42.5913083
51
92.5383066
0
ARC
8
DEFAULT_255_2_778
10
18.6345542
20
89.1315973
40
0.2646316
50
15.0085433
51
40.7215892
0
ARC
8
DEFAULT_255_2_778
10
18.708623
20
89.1405326
40
0.3935735
50
8.7091682
51
82.0550801
0
ARC
8
DEFAULT_255_2_778
10
18.6736241
20
88.9940871
40
0.543642
50
80.5350289
51
90.1544743
0
ARC
8
DEFAULT_255_2_778
10
18.6623804
20
89.0827192
40
0.4551129
50
88.7689246
51
119.6437418
0
ARC
8
DEFAULT_255_2_778
10
18.6882717
20
89.0864647
40
0.4653013
50
122.644121
51
173.3997839
0
ARC
8
DEFAULT_255_2_778
10
18.9516934
20
89.0221568
40
0.7351371
50
170.7798304
51
180.1348114
0
ARC
8
DEFAULT_255_2_778
10
18.8177822
20
89.00682
40
0.6013778
50
178.7034849
51
210.5604279
0
ARC
8
DEFAULT_255_2_778
10
18.6511312
20
88.9163377
40
0.4119265
50
211.5090145
51
265.8592607
0
ARC
8
DEFAULT_255_2_778
10
18.6716883
20
89.0404521
40
0.5373252
50
264.628472
51
270.0501277
0
ARC
8
DEFAULT_255_2_778
10
18.682837
20
88.9723685
40
0.4693629
50
268.6963312
51
300.2191972
0
ARC
8
DEFAULT_255_2_778
10
18.7155684
20
88.8944124
40
0.3856821
50
301.8465101
51
353.7503927
0
ARC
8
DEFAULT_255_2_778
10
18.6820648
20
88.8883604
40
0.2111733
50
268.8857714
51
350.2028431
0
LINE
8
DEFAULT_255_2_778
10
15.4577584
20
89.9824271
11
15.2656584
21
89.9824271
0
LINE
8
DEFAULT_255_2_778
10
15.8405584
20
90.3809271
11
16.0342584
21
90.3809271
0
LINE
8
DEFAULT_255_2_778
10
18.2459584
20
89.9824271
11
18.0540584
21
89.9824271
0
LINE
8
DEFAULT_255_2_778
10
18.6292584
20
90.3809271
11
18.8229584
21
90.3809271
0
LINE
8
DEFAULT_255_2_778
10
16.2096584
20
89.2001271
11
16.4171584
21
89.2001271
0
LINE
8
DEFAULT_255_2_778
10
16.4181584
20
88.8524271
11
16.2094584
21
88.8524271
0
LINE
8
DEFAULT_255_2_778
10
18.8901584
20
89.2001271
11
19.0976584
21
89.2001271
0
LINE
8
DEFAULT_255_2_778
10
19.0989584
20
88.8524271
11
18.8901584
21
88.8524271
0
LINE
8
DEFAULT_255_1_234
10
11.1077489
20
87.1691211
11
11.1077489
21
86.1257983
0
LINE
8
DEFAULT_255_1_234
10
11.1077489
20
86.1257983
11
11.6619389
21
86.1257983
0
LINE
8
DEFAULT_255_1_234
10
11.6619389
20
86.1257983
11
11.6619389
21
85.9997
0
LINE
8
DEFAULT_255_1_234
10
11.6619389
20
85.9997
11
10.9527364
21
85.9997
0
LINE
8
DEFAULT_255_1_234
10
10.9527364
20
85.9997
11
10.9527364
21
87.1691211
0
LINE
8
DEFAULT_255_1_234
10
10.9527364
20
87.1691211
11
11.1077489
21
87.1691211
0
LINE
8
DEFAULT_255_1_234
10
12.5309729
20
86.5571026
11
12.5309729
21
86.4358234
0
LINE
8
DEFAULT_255_1_234
10
12.5309729
20
86.4358234
11
12.1390241
21
86.4358234
0
LINE
8
DEFAULT_255_1_234
10
12.1390241
20
86.4358234
11
12.1390241
21
86.5571026
0
LINE
8
DEFAULT_255_1_234
10
12.1390241
20
86.5571026
11
12.5309729
21
86.5571026
0
LINE
8
DEFAULT_255_1_234
10
13.8819113
20
86.8309849
11
13.7268988
21
86.8309849
0
LINE
8
DEFAULT_255_1_234
10
13.0345629
20
86.3386394
11
13.1895755
21
86.3386394
0
ARC
8
DEFAULT_255_1_234
10
13.7927801
20
87.7256768
40
1.252368
50
248.9199003
51
254.1439814
0
ARC
8
DEFAULT_255_1_234
10
13.6247296
20
87.2930234
40
0.788226
50
241.633709
51
249.0064503
0
ARC
8
DEFAULT_255_1_234
10
13.471869
20
87.0129317
40
0.4691427
50
230.498225
51
241.8087113
0
ARC
8
DEFAULT_255_1_234
10
13.3934264
20
86.9129906
40
0.3421437
50
227.4064532
51
229.9881192
0
ARC
8
DEFAULT_255_1_234
10
13.3446785
20
86.8654088
40
0.2741476
50
200.6781896
51
228.1763934
0
ARC
8
DEFAULT_255_1_234
10
13.3519095
20
86.8639077
40
0.2804109
50
179.5061581
51
199.8694617
0
ARC
8
DEFAULT_255_1_234
10
13.3509847
20
86.871321
40
0.2795204
50
132.4834203
51
181.0242172
0
ARC
8
DEFAULT_255_1_234
10
13.4105429
20
86.8150704
40
0.3612768
50
129.2532479
51
133.4242687
0
ARC
8
DEFAULT_255_1_234
10
13.4251879
20
86.7930965
40
0.3875675
50
101.98776
51
128.8742646
0
ARC
8
DEFAULT_255_1_234
10
13.465049
20
86.6209741
40
0.5642249
50
89.5906553
51
102.3169264
0
ARC
8
DEFAULT_255_1_234
10
13.4720982
20
86.6528148
40
0.5323783
50
77.2360837
51
90.3248275
0
ARC
8
DEFAULT_255_1_234
10
13.4928061
20
86.74954
40
0.4334697
50
63.837784
51
77.0809408
0
ARC
8
DEFAULT_255_1_234
10
13.5205823
20
86.8012911
40
0.3747796
50
45.9864267
51
64.1607727
0
ARC
8
DEFAULT_255_1_234
10
13.5466704
20
86.8310866
40
0.3352302
50
32.2747395
51
45.6547121
0
ARC
8
DEFAULT_255_1_234
10
13.5533145
20
86.832988
40
0.328603
50
359.6507365
51
32.6130309
0
ARC
8
DEFAULT_255_1_234
10
13.459024
20
86.833466
40
0.2678863
50
359.469343
51
14.9832209
0
ARC
8
DEFAULT_255_1_234
10
13.5295302
20
86.8523539
40
0.1948938
50
14.9781179
51
48.2004265
0
ARC
8
DEFAULT_255_1_234
10
13.5130947
20
86.8316983
40
0.2212521
50
48.5927837
51
74.1241538
0
ARC
8
DEFAULT_255_1_234
10
13.4797436
20
86.7216248
40
0.3362561
50
73.7888341
51
86.6652678
0
ARC
8
DEFAULT_255_1_234
10
13.4695002
20
86.6008881
40
0.4573953
50
86.2640471
51
90.0526343
0
ARC
8
DEFAULT_255_1_234
10
13.4666714
20
86.6404192
40
0.4178709
50
89.6697524
51
99.2309573
0
ARC
8
DEFAULT_255_1_234
10
13.4424165
20
86.7848964
40
0.2713749
50
99.069534
51
113.7658566
0
ARC
8
DEFAULT_255_1_234
10
13.4150356
20
86.8494677
40
0.2012469
50
114.0401004
51
127.9850673
0
ARC
8
DEFAULT_255_1_234
10
13.390992
20
86.879073
40
0.1631167
50
127.7287463
51
176.7105154
0
ARC
8
DEFAULT_255_1_234
10
13.4588638
20
86.8689693
40
0.2315392
50
175.1779447
51
180.0581938
0
ARC
8
DEFAULT_255_1_234
10
13.3745484
20
86.8677428
40
0.1472271
50
179.6142195
51
228.1246017
0
ARC
8
DEFAULT_255_1_234
10
13.4187153
20
86.9086308
40
0.2072299
50
226.5779593
51
230.8800004
0
ARC
8
DEFAULT_255_1_234
10
13.4658232
20
86.9711636
40
0.2854818
50
231.4635071
51
241.9260842
0
ARC
8
DEFAULT_255_1_234
10
13.585541
20
87.19148
40
0.53622
50
241.7178533
51
248.3259551
0
ARC
8
DEFAULT_255_1_234
10
13.7240781
20
87.5347064
40
0.9063478
50
248.2007737
51
252.4528373
0
ARC
8
DEFAULT_255_1_234
10
13.8444506
20
87.9068441
40
1.2974635
50
252.3391078
51
254.3469452
0
ARC
8
DEFAULT_255_1_234
10
13.0902209
20
85.2091148
40
1.5037162
50
71.0197183
51
74.4087047
0
ARC
8
DEFAULT_255_1_234
10
13.2596894
20
85.6983111
40
0.9859993
50
66.1847285
51
71.086374
0
ARC
8
DEFAULT_255_1_234
10
13.4153207
20
86.04872
40
0.6025855
50
59.3536294
51
66.2691831
0
ARC
8
DEFAULT_255_1_234
10
13.5041859
20
86.1990609
40
0.4279449
50
49.1020879
51
59.3293958
0
ARC
8
DEFAULT_255_1_234
10
13.5860599
20
86.2923834
40
0.3038015
50
32.7919921
51
49.2505539
0
ARC
8
DEFAULT_255_1_234
10
13.6181689
20
86.3152191
40
0.264448
50
31.1181161
51
32.4005348
0
ARC
8
DEFAULT_255_1_234
10
13.6093227
20
86.3116779
40
0.2738556
50
8.1116974
51
30.7958831
0
ARC
8
DEFAULT_255_1_234
10
13.5282895
20
86.2978753
40
0.3560327
50
359.8389159
51
8.4706516
0
ARC
8
DEFAULT_255_1_234
10
13.5908686
20
86.2930137
40
0.2934776
50
337.4731098
51
0.7537279
0
ARC
8
DEFAULT_255_1_234
10
13.6087381
20
86.2910387
40
0.2762607
50
307.5917067
51
336.4315538
0
ARC
8
DEFAULT_255_1_234
10
13.5627209
20
86.3423102
40
0.3449979
50
307.6551545
51
308.4529766
0
ARC
8
DEFAULT_255_1_234
10
13.5396928
20
86.377825
40
0.3871988
50
284.3734338
51
307.1424381
0
ARC
8
DEFAULT_255_1_234
10
13.4901758
20
86.5599932
40
0.5759636
50
272.4382747
51
284.646547
0
ARC
8
DEFAULT_255_1_234
10
13.4774967
20
86.7399893
40
0.7563528
50
269.9708387
51
272.8178037
0
ARC
8
DEFAULT_255_1_234
10
13.4732006
20
86.5361716
40
0.5525489
50
248.2707594
51
270.4055579
0
ARC
8
DEFAULT_255_1_234
10
13.4677748
20
86.5171192
40
0.5328452
50
246.1383403
51
248.0542782
0
ARC
8
DEFAULT_255_1_234
10
13.4259126
20
86.4291843
40
0.4355005
50
233.1670131
51
246.4950969
0
ARC
8
DEFAULT_255_1_234
10
13.3705031
20
86.3543812
40
0.3424126
50
215.3403242
51
233.0843104
0
ARC
8
DEFAULT_255_1_234
10
13.3432463
20
86.3345549
40
0.3087104
50
179.2419209
51
215.2648451
0
ARC
8
DEFAULT_255_1_234
10
13.4200057
20
86.3359666
40
0.2304457
50
179.335461
51
199.1045811
0
ARC
8
DEFAULT_255_1_234
10
13.3867733
20
86.3272766
40
0.1962176
50
199.8828939
51
232.7063202
0
ARC
8
DEFAULT_255_1_234
10
13.4340001
20
86.3866788
40
0.2720938
50
232.3738199
51
255.5136649
0
ARC
8
DEFAULT_255_1_234
10
13.4680868
20
86.5110835
40
0.4010747
50
255.2446292
51
267.5320849
0
ARC
8
DEFAULT_255_1_234
10
13.4768491
20
86.6343702
40
0.5246356
50
267.1557994
51
270.0286766
0
ARC
8
DEFAULT_255_1_234
10
13.4796264
20
86.589995
40
0.4802668
50
269.7000017
51
278.1660162
0
ARC
8
DEFAULT_255_1_234
10
13.5052268
20
86.4169515
40
0.3053425
50
278.0231263
51
290.625471
0
ARC
8
DEFAULT_255_1_234
10
13.5399955
20
86.3242025
40
0.206291
50
290.6619762
51
307.0370976
0
ARC
8
DEFAULT_255_1_234
10
13.5700345
20
86.2873504
40
0.1587906
50
306.3943566
51
355.3030547
0
ARC
8
DEFAULT_255_1_234
10
13.5188276
20
86.2950113
40
0.2104809
50
354.3660432
51
0.0698737
0
ARC
8
DEFAULT_255_1_234
10
13.5330621
20
86.2972617
40
0.1962563
50
359.417946
51
16.1971788
0
ARC
8
DEFAULT_255_1_234
10
13.5785932
20
86.3097418
40
0.149053
50
16.4723299
51
52.6262157
0
ARC
8
DEFAULT_255_1_234
10
13.4964986
20
86.2013433
40
0.2850296
50
52.7386432
51
62.4979148
0
ARC
8
DEFAULT_255_1_234
10
13.3580063
20
85.9407283
40
0.5801521
50
62.2515216
51
68.1220564
0
ARC
8
DEFAULT_255_1_234
10
13.1859973
20
85.5179872
40
1.0365451
50
68.0062803
51
71.8053402
0
ARC
8
DEFAULT_255_1_234
10
13.0064345
20
84.9794758
40
1.6042013
50
71.7183119
51
73.9258742
0
LINE
8
DEFAULT_255_1_234
10
14.0208604
20
86.4101218
11
14.0208604
21
86.4374297
0
LINE
8
DEFAULT_255_1_234
10
14.758174
20
86.4534932
11
14.758174
21
86.3916488
0
LINE
8
DEFAULT_255_1_234
10
14.758174
20
86.3916488
11
14.1694476
21
86.3916488
0
LINE
8
DEFAULT_255_1_234
10
14.6561709
20
86.2221792
11
14.7469295
21
86.1514999
0
LINE
8
DEFAULT_255_1_234
10
14.1742666
20
86.5137313
11
14.6095868
21
86.5137313
0
LINE
8
DEFAULT_255_1_234
10
14.6095868
20
86.5137313
11
14.6095868
21
86.5249757
0
ARC
8
DEFAULT_255_1_234
10
14.4147969
20
86.4212332
40
0.4376191
50
252.3266134
51
270.5810217
0
ARC
8
DEFAULT_255_1_234
10
14.3943058
20
86.3471644
40
0.3608374
50
223.3000567
51
251.8561855
0
ARC
8
DEFAULT_255_1_234
10
14.4154419
20
86.3676937
40
0.3902993
50
190.9374509
51
223.3654032
0
ARC
8
DEFAULT_255_1_234
10
14.5879391
20
86.4066885
40
0.5670891
50
179.6531105
51
191.4989439
0
ARC
8
DEFAULT_255_1_234
10
14.6001403
20
86.4406417
40
0.5792888
50
167.4007466
51
180.3176909
0
ARC
8
DEFAULT_255_1_234
10
14.4949465
20
86.4628885
40
0.471777
50
154.1835823
51
167.250763
0
ARC
8
DEFAULT_255_1_234
10
14.4317932
20
86.4961417
40
0.4004528
50
134.3149965
51
154.5315275
0
ARC
8
DEFAULT_255_1_234
10
14.4100427
20
86.5152228
40
0.371612
50
122.8616532
51
133.9707695
0
ARC
8
DEFAULT_255_1_234
10
14.3997002
20
86.5374703
40
0.3473289
50
89.8249009
51
123.4199222
0
ARC
8
DEFAULT_255_1_234
10
14.4047043
20
86.4727967
40
0.4120197
50
74.7876118
51
90.5482747
0
ARC
8
DEFAULT_255_1_234
10
14.4340786
20
86.581303
40
0.2996077
50
39.8178249
51
74.7633718
0
ARC
8
DEFAULT_255_1_234
10
14.3828106
20
86.5413351
40
0.3645855
50
16.8990863
51
39.4829761
0
ARC
8
DEFAULT_255_1_234
10
14.1933402
20
86.4806526
40
0.5635218
50
4.9636328
51
17.2026414
0
ARC
8
DEFAULT_255_1_234
10
13.9515473
20
86.455134
40
0.8066286
50
359.8834553
51
5.2834307
0
ARC
8
DEFAULT_255_1_234
10
14.5552997
20
86.3982803
40
0.3859091
50
180.9846213
51
194.9401313
0
ARC
8
DEFAULT_255_1_234
10
14.4503275
20
86.3695849
40
0.2770883
50
194.80314
51
222.0412631
0
ARC
8
DEFAULT_255_1_234
10
14.4199157
20
86.3394116
40
0.2343055
50
221.5417084
51
268.8614402
0
ARC
8
DEFAULT_255_1_234
10
14.4272151
20
86.4070686
40
0.3021528
50
267.732405
51
270.0097136
0
ARC
8
DEFAULT_255_1_234
10
14.4289962
20
86.4272105
40
0.3222994
50
269.6924892
51
280.4117579
0
ARC
8
DEFAULT_255_1_234
10
14.4466368
20
86.3353193
40
0.2287344
50
280.2255091
51
298.6338936
0
ARC
8
DEFAULT_255_1_234
10
14.458316
20
86.3109223
40
0.2017294
50
299.0430333
51
300.4643464
0
ARC
8
DEFAULT_255_1_234
10
14.3903166
20
86.4243038
40
0.3339357
50
300.6577328
51
322.0378878
0
ARC
8
DEFAULT_255_1_234
10
14.3552705
20
86.4547021
40
0.3802736
50
321.6750233
51
322.3046845
0
ARC
8
DEFAULT_255_1_234
10
14.4483666
20
86.338037
40
0.3520454
50
276.9728461
51
328.0035423
0
ARC
8
DEFAULT_255_1_234
10
14.4206719
20
86.4860841
40
0.5024498
50
269.8361028
51
278.0581756
0
ARC
8
DEFAULT_255_1_234
10
14.3979456
20
86.5605757
40
0.202159
50
89.2018686
51
117.2851756
0
ARC
8
DEFAULT_255_1_234
10
14.4032625
20
86.5563752
40
0.2083484
50
118.0551165
51
137.4540413
0
ARC
8
DEFAULT_255_1_234
10
14.4407365
20
86.5223304
40
0.2589774
50
137.5109581
51
158.8516286
0
ARC
8
DEFAULT_255_1_234
10
14.5545201
20
86.4764074
40
0.38167
50
158.5845963
51
170.1721436
0
ARC
8
DEFAULT_255_1_234
10
14.671459
20
86.4531823
40
0.5008657
50
169.8376422
51
173.0566086
0
ARC
8
DEFAULT_255_1_234
10
14.2017664
20
86.5042509
40
0.4083467
50
2.9091802
51
12.8847116
0
ARC
8
DEFAULT_255_1_234
10
14.3388341
20
86.5365101
40
0.2675383
50
12.6957781
51
28.6404489
0
ARC
8
DEFAULT_255_1_234
10
14.3930011
20
86.5645458
40
0.2065654
50
29.0169854
51
41.1487595
0
ARC
8
DEFAULT_255_1_234
10
14.4132797
20
86.5822003
40
0.1796786
50
41.1646065
51
85.0013516
0
ARC
8
DEFAULT_255_1_234
10
14.4011893
20
86.5087431
40
0.2539726
50
83.7280015
51
90.0964893
0
LINE
8
DEFAULT_255_1_234
10
15.3501131
20
86.8735531
11
15.3501131
21
86.7354072
0
LINE
8
DEFAULT_255_1_234
10
15.0786403
20
86.6165375
11
15.0786403
21
85.9997
0
LINE
8
DEFAULT_255_1_234
10
15.0786403
20
85.9997
11
14.9300532
21
85.9997
0
LINE
8
DEFAULT_255_1_234
10
14.9300532
20
85.9997
11
14.9300532
21
86.8687341
0
LINE
8
DEFAULT_255_1_234
10
14.9300532
20
86.8687341
11
15.0746245
21
86.8687341
0
LINE
8
DEFAULT_255_1_234
10
15.0746245
20
86.8687341
11
15.077034
21
86.7683374
0
ARC
8
DEFAULT_255_1_234
10
15.2834536
20
86.3294342
40
0.4114092
50
80.6754243
51
86.8932892
0
ARC
8
DEFAULT_255_1_234
10
15.2774071
20
86.23267
40
0.5083596
50
86.8038578
51
90.0431435
0
ARC
8
DEFAULT_255_1_234
10
15.2737051
20
86.4783866
40
0.2626638
50
89.2759698
51
106.6213787
0
ARC
8
DEFAULT_255_1_234
10
15.2532615
20
86.552683
40
0.1856317
50
107.1346045
51
157.6458115
0
ARC
8
DEFAULT_255_1_234
10
15.3224217
20
86.5143311
40
0.2643398
50
155.6586782
51
157.2539184
0
ARC
8
DEFAULT_255_1_234
10
15.3019419
20
86.6312157
40
0.2634121
50
127.8165941
51
148.6302098
0
ARC
8
DEFAULT_255_1_234
10
15.2765888
20
86.6572218
40
0.2273596
50
91.3329982
51
126.7875809
0
ARC
8
DEFAULT_255_1_234
10
15.2841829
20
86.5857195
40
0.299078
50
89.986594
51
92.4688449
0
ARC
8
DEFAULT_255_1_234
10
15.2850223
20
86.6132078
40
0.2715908
50
85.3589899
51
90.1623399
0
ARC
8
DEFAULT_255_1_234
10
15.2934739
20
86.7136164
40
0.1708278
50
78.401942
51
85.4594656
0
ARC
8
DEFAULT_255_1_234
10
15.3079623
20
86.7827236
40
0.1002194
50
67.7858312
51
78.5728455
0
ARC
8
DEFAULT_255_1_234
10
15.3187476
20
86.8106887
40
0.0702548
50
63.4835954
51
67.3062642
0
LINE
8
DEFAULT_255_1_234
10
15.6480906
20
86.8687341
11
15.6480906
21
85.9997
0
LINE
8
DEFAULT_255_1_234
10
15.6480906
20
85.9997
11
15.4995034
21
85.9997
0
LINE
8
DEFAULT_255_1_234
10
15.4995034
20
85.9997
11
15.4995034
21
86.8687341
0
LINE
8
DEFAULT_255_1_234
10
15.4995034
20
86.8687341
11
15.6480906
21
86.8687341
0
ARC
8
DEFAULT_255_1_234
10
15.5853183
20
87.1001889
40
0.097867
50
161.415052
51
180.5526306
0
ARC
8
DEFAULT_255_1_234
10
15.5728961
20
87.1036077
40
0.0850062
50
138.1827368
51
160.9307106
0
ARC
8
DEFAULT_255_1_234
10
15.5618907
20
87.1131588
40
0.0704362
50
104.6368899
51
138.0039868
0
ARC
8
DEFAULT_255_1_234
10
15.5726061
20
87.0764963
40
0.1086221
50
92.0600725
51
105.2189128
0
ARC
8
DEFAULT_255_1_234
10
15.574941
20
87.0422117
40
0.1429728
50
89.9756393
51
92.5012496
0
ARC
8
DEFAULT_255_1_234
10
15.5759429
20
87.0647731
40
0.1204151
50
78.0235316
51
90.4478182
0
ARC
8
DEFAULT_255_1_234
10
15.5851521
20
87.1061295
40
0.0780493
50
55.051506
51
78.3369085
0
ARC
8
DEFAULT_255_1_234
10
15.5901795
20
87.1145711
40
0.0682538
50
42.0501187
51
54.4513741
0
ARC
8
DEFAULT_255_1_234
10
15.5766663
20
87.1021798
40
0.0865878
50
1.7497075
51
42.1496013
0
ARC
8
DEFAULT_255_1_234
10
15.5511995
20
87.0992738
40
0.1121515
50
359.9852656
51
2.8364544
0
ARC
8
DEFAULT_255_1_234
10
15.5677988
20
87.0983229
40
0.0955566
50
342.1070653
51
0.552888
0
ARC
8
DEFAULT_255_1_234
10
15.5820685
20
87.0943904
40
0.0807713
50
316.7107116
51
341.6516965
0
ARC
8
DEFAULT_255_1_234
10
15.5887722
20
87.0883823
40
0.0717724
50
285.4397031
51
316.5324284
0
ARC
8
DEFAULT_255_1_234
10
15.5777639
20
87.1249554
40
0.1099597
50
272.3547054
51
285.8953117
0
ARC
8
DEFAULT_255_1_234
10
15.5750797
20
87.1615048
40
0.1465932
50
269.9695369
51
272.8160237
0
ARC
8
DEFAULT_255_1_234
10
15.5740979
20
87.1395863
40
0.1246779
50
258.8431134
51
270.4153935
0
ARC
8
DEFAULT_255_1_234
10
15.5651021
20
87.0960414
40
0.0802162
50
238.5431189
51
259.1288175
0
ARC
8
DEFAULT_255_1_234
10
15.5582906
20
87.0836856
40
0.0661247
50
222.5062634
51
237.9906969
0
ARC
8
DEFAULT_255_1_234
10
15.5710493
20
87.0952889
40
0.0833707
50
184.1069131
51
222.460413
0
ARC
8
DEFAULT_255_1_234
10
15.5979734
20
87.0991349
40
0.1105176
50
179.9429482
51
185.0960898
0
LINE
8
DEFAULT_255_1_234
10
15.8480809
20
86.4101218
11
15.8480809
21
86.4374297
0
LINE
8
DEFAULT_255_1_234
10
16.5853944
20
86.4534932
11
16.5853944
21
86.3916488
0
LINE
8
DEFAULT_255_1_234
10
16.5853944
20
86.3916488
11
15.996668
21
86.3916488
0
LINE
8
DEFAULT_255_1_234
10
16.4833914
20
86.2221792
11
16.57415
21
86.1514999
0
LINE
8
DEFAULT_255_1_234
10
16.0014871
20
86.5137313
11
16.4368073
21
86.5137313
0
LINE
8
DEFAULT_255_1_234
10
16.4368073
20
86.5137313
11
16.4368073
21
86.5249757
0
ARC
8
DEFAULT_255_1_234
10
16.2420174
20
86.4212332
40
0.4376191
50
252.3266134
51
270.5810217
0
ARC
8
DEFAULT_255_1_234
10
16.2215263
20
86.3471644
40
0.3608374
50
223.3000567
51
251.8561855
0
ARC
8
DEFAULT_255_1_234
10
16.2426623
20
86.3676937
40
0.3902993
50
190.9374509
51
223.3654032
0
ARC
8
DEFAULT_255_1_234
10
16.4151596
20
86.4066885
40
0.5670891
50
179.6531105
51
191.4989439
0
ARC
8
DEFAULT_255_1_234
10
16.4273608
20
86.4406417
40
0.5792888
50
167.4007466
51
180.3176909
0
ARC
8
DEFAULT_255_1_234
10
16.3221669
20
86.4628885
40
0.471777
50
154.1835823
51
167.250763
0
ARC
8
DEFAULT_255_1_234
10
16.2590137
20
86.4961417
40
0.4004528
50
134.3149965
51
154.5315275
0
ARC
8
DEFAULT_255_1_234
10
16.2372632
20
86.5152228
40
0.371612
50
122.8616532
51
133.9707695
0
ARC
8
DEFAULT_255_1_234
10
16.2269206
20
86.5374703
40
0.3473289
50
89.8249009
51
123.4199222
0
ARC
8
DEFAULT_255_1_234
10
16.2319247
20
86.4727967
40
0.4120197
50
74.7876118
51
90.5482747
0
ARC
8
DEFAULT_255_1_234
10
16.2612991
20
86.581303
40
0.2996077
50
39.8178249
51
74.7633718
0
ARC
8
DEFAULT_255_1_234
10
16.2100311
20
86.5413351
40
0.3645855
50
16.8990863
51
39.4829761
0
ARC
8
DEFAULT_255_1_234
10
16.0205607
20
86.4806526
40
0.5635218
50
4.9636328
51
17.2026414
0
ARC
8
DEFAULT_255_1_234
10
15.7787677
20
86.455134
40
0.8066286
50
359.8834553
51
5.2834307
0
ARC
8
DEFAULT_255_1_234
10
16.3825202
20
86.3982803
40
0.3859091
50
180.9846213
51
194.9401313
0
ARC
8
DEFAULT_255_1_234
10
16.277548
20
86.3695849
40
0.2770883
50
194.80314
51
222.0412631
0
ARC
8
DEFAULT_255_1_234
10
16.2471361
20
86.3394116
40
0.2343055
50
221.5417084
51
268.8614402
0
ARC
8
DEFAULT_255_1_234
10
16.2544356
20
86.4070686
40
0.3021528
50
267.732405
51
270.0097136
0
ARC
8
DEFAULT_255_1_234
10
16.2562166
20
86.4272105
40
0.3222994
50
269.6924892
51
280.4117579
0
ARC
8
DEFAULT_255_1_234
10
16.2738573
20
86.3353193
40
0.2287344
50
280.2255091
51
298.6338936
0
ARC
8
DEFAULT_255_1_234
10
16.2855365
20
86.3109223
40
0.2017294
50
299.0430333
51
300.4643464
0
ARC
8
DEFAULT_255_1_234
10
16.217537
20
86.4243038
40
0.3339357
50
300.6577328
51
322.0378878
0
ARC
8
DEFAULT_255_1_234
10
16.1824909
20
86.4547021
40
0.3802736
50
321.6750233
51
322.3046845
0
ARC
8
DEFAULT_255_1_234
10
16.2755871
20
86.338037
40
0.3520454
50
276.9728461
51
328.0035423
0
ARC
8
DEFAULT_255_1_234
10
16.2478924
20
86.4860841
40
0.5024498
50
269.8361028
51
278.0581756
0
ARC
8
DEFAULT_255_1_234
10
16.2251661
20
86.5605757
40
0.202159
50
89.2018686
51
117.2851756
0
ARC
8
DEFAULT_255_1_234
10
16.230483
20
86.5563752
40
0.2083484
50
118.0551165
51
137.4540413
0
ARC
8
DEFAULT_255_1_234
10
16.267957
20
86.5223304
40
0.2589774
50
137.5109581
51
158.8516286
0
ARC
8
DEFAULT_255_1_234
10
16.3817405
20
86.4764074
40
0.38167
50
158.5845963
51
170.1721436
0
ARC
8
DEFAULT_255_1_234
10
16.4986795
20
86.4531823
40
0.5008657
50
169.8376422
51
173.0566086
0
ARC
8
DEFAULT_255_1_234
10
16.0289869
20
86.5042509
40
0.4083467
50
2.9091802
51
12.8847116
0
ARC
8
DEFAULT_255_1_234
10
16.1660545
20
86.5365101
40
0.2675383
50
12.6957781
51
28.6404489
0
ARC
8
DEFAULT_255_1_234
10
16.2202216
20
86.5645458
40
0.2065654
50
29.0169854
51
41.1487595
0
ARC
8
DEFAULT_255_1_234
10
16.2405001
20
86.5822003
40
0.1796786
50
41.1646065
51
85.0013516
0
ARC
8
DEFAULT_255_1_234
10
16.2284098
20
86.5087431
40
0.2539726
50
83.7280015
51
90.0964893
0
LINE
8
DEFAULT_255_1_234
10
17.4038286
20
86.6133248
11
17.2544382
21
86.6133248
0
LINE
8
DEFAULT_255_1_234
10
16.7211308
20
86.2671569
11
16.869718
21
86.2671569
0
ARC
8
DEFAULT_255_1_234
10
17.1356201
20
86.2316959
40
0.1276617
50
359.3334982
51
18.5871358
0
ARC
8
DEFAULT_255_1_234
10
17.1564838
20
86.2372133
40
0.1061371
50
19.3540742
51
54.6485071
0
ARC
8
DEFAULT_255_1_234
10
17.106074
20
86.1676919
40
0.1920087
50
54.3827097
51
65.0622807
0
ARC
8
DEFAULT_255_1_234
10
17.0292137
20
86.00599
40
0.3710447
50
64.8282493
51
71.4200025
0
ARC
8
DEFAULT_255_1_234
10
16.9390012
20
85.7413107
40
0.6506741
50
71.3164301
51
75.8006402
0
ARC
8
DEFAULT_255_1_234
10
16.8548832
20
85.4172561
40
0.9854641
50
75.6809531
51
78.0061883
0
ARC
8
DEFAULT_255_1_234
10
17.2997365
20
87.515177
40
1.1591028
50
254.6901892
51
258.0466452
0
ARC
8
DEFAULT_255_1_234
10
17.1959273
20
87.1392781
40
0.7691345
50
249.9010773
51
254.755261
0
ARC
8
DEFAULT_255_1_234
10
17.0955616
20
86.8666982
40
0.478665
50
243.3097214
51
249.9709442
0
ARC
8
DEFAULT_255_1_234
10
17.0326637
20
86.7412778
40
0.3383568
50
234.4047477
51
243.2862168
0
ARC
8
DEFAULT_255_1_234
10
16.970416
20
86.6553232
40
0.2322322
50
220.8667099
51
234.5493881
0
ARC
8
DEFAULT_255_1_234
10
16.9362101
20
86.6241817
40
0.1859923
50
214.3062465
51
220.5065136
0
ARC
8
DEFAULT_255_1_234
10
16.933618
20
86.621088
40
0.1821108
50
186.912965
51
213.9618616
0
ARC
8
DEFAULT_255_1_234
10
16.9868275
20
86.6297009
40
0.2359799
50
179.8808832
51
187.4339886
0
ARC
8
DEFAULT_255_1_234
10
16.9713409
20
86.6317088
40
0.2204978
50
132.005434
51
180.3942919
0
ARC
8
DEFAULT_255_1_234
10
17.0370022
20
86.5711083
40
0.3095791
50
129.2319861
51
133.5302299
0
ARC
8
DEFAULT_255_1_234
10
17.042353
20
86.5616928
40
0.3202615
50
100.4410011
51
128.9081242
0
ARC
8
DEFAULT_255_1_234
10
17.0697414
20
86.4331455
40
0.4516583
50
89.6985377
51
100.9026564
0
ARC
8
DEFAULT_255_1_234
10
17.0754456
20
86.4171166
40
0.4676928
50
77.6965325
51
90.4076836
0
ARC
8
DEFAULT_255_1_234
10
17.108544
20
86.5598413
40
0.3211988
50
50.7276602
51
78.0399361
0
ARC
8
DEFAULT_255_1_234
10
17.1529898
20
86.6116296
40
0.2529778
50
25.7545084
51
51.0957453
0
ARC
8
DEFAULT_255_1_234
10
17.1531123
20
86.6166206
40
0.250738
50
359.2468627
51
24.7394243
0
ARC
8
DEFAULT_255_1_234
10
17.1246575
20
86.6137664
40
0.1297815
50
359.8050318
51
45.1544908
0
ARC
8
DEFAULT_255_1_234
10
17.0839717
20
86.5789794
40
0.1831883
50
43.8047702
51
49.6271585
0
ARC
8
DEFAULT_255_1_234
10
17.0847618
20
86.5790678
40
0.18261
50
49.7980766
51
82.1218353
0
ARC
8
DEFAULT_255_1_234
10
17.072859
20
86.5143998
40
0.2483163
50
81.4465357
51
90.1710293
0
ARC
8
DEFAULT_255_1_234
10
17.0704193
20
86.461788
40
0.300932
50
89.6766211
51
99.1264602
0
ARC
8
DEFAULT_255_1_234
10
17.0532655
20
86.5651537
40
0.1961547
50
98.968313
51
113.4570237
0
ARC
8
DEFAULT_255_1_234
10
17.033674
20
86.6119965
40
0.1453859
50
113.722589
51
127.4763106
0
ARC
8
DEFAULT_255_1_234
10
17.0168386
20
86.6320124
40
0.1192639
50
126.9083309
51
150.3165862
0
ARC
8
DEFAULT_255_1_234
10
17.0120719
20
86.6370981
40
0.112623
50
151.3635175
51
180.0701457
0
ARC
8
DEFAULT_255_1_234
10
17.0429504
20
86.634999
40
0.1435149
50
179.2169974
51
179.9954013
0
ARC
8
DEFAULT_255_1_234
10
17.0068561
20
86.6337056
40
0.1074286
50
179.3040112
51
198.4225446
0
ARC
8
DEFAULT_255_1_234
10
16.9876694
20
86.6287127
40
0.0876573
50
199.2895851
51
238.6034594
0
ARC
8
DEFAULT_255_1_234
10
17.0479541
20
86.723345
40
0.1998512
50
237.9846301
51
246.8744712
0
ARC
8
DEFAULT_255_1_234
10
17.1337486
20
86.9196205
40
0.4140547
50
246.6234531
51
251.8168941
0
ARC
8
DEFAULT_255_1_234
10
17.2368029
20
87.2290905
40
0.7402308
50
251.713434
51
255.0778414
0
ARC
8
DEFAULT_255_1_234
10
17.3567292
20
87.6757563
40
1.2027155
50
255.0367487
51
257.4705983
0
ARC
8
DEFAULT_255_1_234
10
16.8459302
20
85.3743863
40
1.1546601
50
73.6837552
51
77.5016755
0
ARC
8
DEFAULT_255_1_234
10
16.9548077
20
85.7443581
40
0.7690009
50
68.7044154
51
73.7249639
0
ARC
8
DEFAULT_255_1_234
10
17.0451098
20
85.9770654
40
0.5193873
50
63.590599
51
68.6626804
0
ARC
8
DEFAULT_255_1_234
10
17.1222116
20
86.1308123
40
0.3473927
50
54.7106439
51
63.7013633
0
ARC
8
DEFAULT_255_1_234
10
17.1846571
20
86.21804
40
0.2401192
50
41.0622434
51
54.8487496
0
ARC
8
DEFAULT_255_1_234
10
17.2187957
20
86.2493592
40
0.1938094
50
34.4950568
51
40.7105546
0
ARC
8
DEFAULT_255_1_234
10
17.2234765
20
86.2542078
40
0.1872106
50
9.3763373
51
34.0833615
0
ARC
8
DEFAULT_255_1_234
10
17.1581635
20
86.2416728
40
0.2536988
50
359.7694872
51
9.7663171
0
ARC
8
DEFAULT_255_1_234
10
17.1779136
20
86.2373764
40
0.2339696
50
335.8654732
51
0.8022045
0
ARC
8
DEFAULT_255_1_234
10
17.185418
20
86.2387197
40
0.2277108
50
307.7357725
51
334.7849066
0
ARC
8
DEFAULT_255_1_234
10
17.1453356
20
86.2837645
40
0.2878951
50
307.0241536
51
308.5578354
0
ARC
8
DEFAULT_255_1_234
10
17.1195687
20
86.3223801
40
0.3342515
50
282.9362969
51
306.5646424
0
ARC
8
DEFAULT_255_1_234
10
17.0833985
20
86.4691108
40
0.4853615
50
271.1026298
51
283.2200835
0
ARC
8
DEFAULT_255_1_234
10
17.0770229
20
86.5932418
40
0.6096052
50
269.9919117
51
271.4772449
0
ARC
8
DEFAULT_255_1_234
10
17.0743984
20
86.4854436
40
0.5018135
50
259.0723564
51
270.289833
0
ARC
8
DEFAULT_255_1_234
10
17.0531716
20
86.3737271
40
0.388099
50
245.4963068
51
259.0227342
0
ARC
8
DEFAULT_255_1_234
10
17.0253672
20
86.3155615
40
0.3236422
50
228.9684658
51
245.7044727
0
ARC
8
DEFAULT_255_1_234
10
16.9988116
20
86.2828575
40
0.2815426
50
214.4011705
51
228.6759915
0
ARC
8
DEFAULT_255_1_234
10
16.9698857
20
86.267029
40
0.2487548
50
179.9705531
51
215.1572795
0
ARC
8
DEFAULT_255_1_234
10
17.0399456
20
86.2743806
40
0.1703809
50
182.4299387
51
203.0329699
0
ARC
8
DEFAULT_255_1_234
10
17.0215114
20
86.2687396
40
0.1512226
50
203.798802
51
232.548466
0
ARC
8
DEFAULT_255_1_234
10
17.0491635
20
86.3038826
40
0.1959374
50
232.3782728
51
256.3934612
0
ARC
8
DEFAULT_255_1_234
10
17.0721997
20
86.3928842
40
0.2878639
50
256.104506
51
268.4626716
0
ARC
8
DEFAULT_255_1_234
10
17.0768481
20
86.4725487
40
0.3676329
50
268.0715632
51
270.0138206
0
ARC
8
DEFAULT_255_1_234
10
17.0787006
20
86.4453083
40
0.3403971
50
269.7031147
51
278.8341955
0
ARC
8
DEFAULT_255_1_234
10
17.0969099
20
86.3322876
40
0.2259217
50
278.6728789
51
292.8232582
0
ARC
8
DEFAULT_255_1_234
10
17.1169638
20
86.2821449
40
0.171929
50
293.1452328
51
303.6655899
0
ARC
8
DEFAULT_255_1_234
10
17.1434516
20
86.2445204
40
0.1259367
50
303.1248165
51
321.742847
0
ARC
8
DEFAULT_255_1_234
10
17.1620397
20
86.2282156
40
0.1012531
50
322.4748573
51
1.1291126
0
LINE
8
DEFAULT_255_2_778
10
9.3932417
20
76.5968579
11
10.7161417
21
76.5968579
0
LINE
8
DEFAULT_255_2_778
10
10.7161417
20
76.5968579
11
10.7161417
21
43.5239579
0
LINE
8
DEFAULT_255_2_778
10
9.3932834
20
43.5239333
11
12.0390834
21
43.5239333
0
LINE
8
DEFAULT_255_2_778
10
12.0390834
20
43.5239333
11
12.0390834
21
38.2322333
0
LINE
8
DEFAULT_255_2_778
10
12.0390834
20
38.2322333
11
9.3932834
21
38.2322333
0
LINE
8
DEFAULT_255_2_778
10
9.3932834
20
38.2322333
11
9.3932834
21
43.5239333
0
ARC
8
DEFAULT_255_2_778_1
10
13.1928591
20
38.334677
40
4.816461
50
120.9442904
51
122.351755
0
ARC
8
DEFAULT_255_2_778_1
10
12.7462523
20
39.0383039
40
3.9830657
50
122.3407904
51
124.1946752
0
ARC
8
DEFAULT_255_2_778_1
10
12.3063464
20
39.6848306
40
3.2010724
50
124.1855758
51
126.4338849
0
ARC
8
DEFAULT_255_2_778_1
10
11.9204129
20
40.2075611
40
2.5513094
50
126.4326926
51
128.8877368
0
ARC
8
DEFAULT_255_2_778_1
10
11.5855968
20
40.6219658
40
2.0185498
50
128.8749205
51
131.8726567
0
ARC
8
DEFAULT_255_2_778_1
10
11.2884677
20
40.9529854
40
1.5737356
50
131.8616166
51
135.4168838
0
ARC
8
DEFAULT_255_2_778_1
10
11.025668
20
41.2111765
40
1.2053256
50
135.3893975
51
139.9687014
0
ARC
8
DEFAULT_255_2_778_1
10
10.7927889
20
41.4060102
40
0.9016937
50
139.9301659
51
145.9260426
0
ARC
8
DEFAULT_255_2_778_1
10
10.596654
20
41.5380104
40
0.6652776
50
145.8787362
51
153.8146208
0
ARC
8
DEFAULT_255_2_778_1
10
10.4445553
20
41.6123797
40
0.4959714
50
153.770634
51
164.3484794
0
ARC
8
DEFAULT_255_2_778_1
10
10.3432387
20
41.6405786
40
0.3908039
50
164.3220276
51
179.8083066
0
ARC
8
DEFAULT_255_2_778_1
10
10.3642789
20
41.648715
40
0.4118985
50
180.9499449
51
213.8111542
0
ARC
8
DEFAULT_255_2_778_1
10
10.6401828
20
41.8182896
40
0.73561
50
212.8271214
51
224.258472
0
ARC
8
DEFAULT_255_2_778_1
10
11.0230335
20
42.1876236
40
1.267567
50
224.1376218
51
231.4508261
0
ARC
8
DEFAULT_255_2_778_1
10
11.6657195
20
42.9906168
40
2.2960809
50
231.3955893
51
236.1256478
0
ARC
8
DEFAULT_255_2_778_1
10
13.4980223
20
45.7371293
40
5.5976905
50
236.2233172
51
239.1314682
0
ARC
8
DEFAULT_255_2_778_1
10
25.447927
20
65.4648568
40
28.6623793
50
238.8606853
51
239.0711101
0
ARC
8
DEFAULT_255_2_778_1
10
6.2757281
20
33.3677653
40
8.7248518
50
57.2420924
51
59.4062964
0
ARC
8
DEFAULT_255_2_778_1
10
9.5034241
20
38.3987102
40
2.747542
50
52.8289294
51
57.079028
0
ARC
8
DEFAULT_255_2_778_1
10
10.2780783
20
39.4190488
40
1.466457
50
46.3041868
51
52.8596521
0
ARC
8
DEFAULT_255_2_778_1
10
10.7103073
20
39.8691842
40
0.8424061
50
36.2174211
51
46.4090895
0
ARC
8
DEFAULT_255_2_778_1
10
10.9948088
20
40.0740128
40
0.4918609
50
17.400375
51
36.5489745
0
ARC
8
DEFAULT_255_2_778_1
10
11.1088994
20
40.1138754
40
0.3710912
50
0.0676858
51
16.7951297
0
ARC
8
DEFAULT_255_2_778_1
10
11.0878613
20
40.1157428
40
0.3921317
50
343.8035191
51
359.7912046
0
ARC
8
DEFAULT_255_2_778_1
10
10.9815912
20
40.1462167
40
0.5026844
50
333.2506233
51
343.8465691
0
ARC
8
DEFAULT_255_2_778_1
10
10.8277757
20
40.2229313
40
0.6745679
50
325.6600948
51
333.3122657
0
ARC
8
DEFAULT_255_2_778_1
10
10.6323344
20
40.3557296
40
0.9108568
50
319.7560915
51
325.6976089
0
ARC
8
DEFAULT_255_2_778_1
10
10.404199
20
40.5475002
40
1.2088854
50
315.4577584
51
319.8037947
0
ARC
8
DEFAULT_255_2_778_1
10
10.1408127
20
40.8063507
40
1.5781764
50
311.7298824
51
315.4670864
0
ARC
8
DEFAULT_255_2_778_1
10
9.8317879
20
41.1519074
40
2.0417554
50
308.723055
51
311.7470879
0
ARC
8
DEFAULT_255_2_778_1
10
9.477589
20
41.5931492
40
2.6075745
50
306.1165163
51
308.7300151
0
ARC
8
DEFAULT_255_2_778_1
10
9.0746091
20
42.1444523
40
3.2904564
50
303.9559446
51
306.1266333
0
ARC
8
DEFAULT_255_2_778_1
10
8.6630432
20
42.753715
40
4.0257023
50
302.3733397
51
303.9712246
0
ARC
8
DEFAULT_255_2_778_1
10
8.2434347
20
43.4152058
40
4.8090549
50
300.9434827
51
302.3758078
0
LINE
8
DEFAULT_255_2_778
10
10.7161335
20
38.232249
11
10.7161335
21
5.159349
0
LINE
8
DEFAULT_255_2_778
10
10.7161335
20
5.159349
11
9.3932335
21
5.159349
0
LINE
8
DEFAULT_255_2_778
10
19.9765335
20
76.596849
11
18.6536335
21
76.596849
0
LINE
8
DEFAULT_255_2_778
10
18.6536335
20
76.596849
11
18.6536335
21
67.336449
0
LINE
8
DEFAULT_255_2_778
10
17.3307834
20
67.3364333
11
19.9765834
21
67.3364333
0
LINE
8
DEFAULT_255_2_778
10
19.9765834
20
67.3364333
11
19.9765834
21
62.0447333
0
LINE
8
DEFAULT_255_2_778
10
19.9765834
20
62.0447333
11
17.3307834
21
62.0447333
0
LINE
8
DEFAULT_255_2_778
10
17.3307834
20
62.0447333
11
17.3307834
21
67.3364333
0
ARC
8
DEFAULT_255_2_778_1
10
21.1303591
20
62.147177
40
4.816461
50
120.9442904
51
122.351755
0
ARC
8
DEFAULT_255_2_778_1
10
20.6837523
20
62.8508039
40
3.9830657
50
122.3407904
51
124.1946752
0
ARC
8
DEFAULT_255_2_778_1
10
20.2438464
20
63.4973306
40
3.2010724
50
124.1855758
51
126.4338849
0
ARC
8
DEFAULT_255_2_778_1
10
19.8579129
20
64.0200611
40
2.5513094
50
126.4326926
51
128.8877368
0
ARC
8
DEFAULT_255_2_778_1
10
19.5230968
20
64.4344658
40
2.0185498
50
128.8749205
51
131.8726567
0
ARC
8
DEFAULT_255_2_778_1
10
19.2259677
20
64.7654854
40
1.5737356
50
131.8616166
51
135.4168838
0
ARC
8
DEFAULT_255_2_778_1
10
18.963168
20
65.0236765
40
1.2053256
50
135.3893975
51
139.9687014
0
ARC
8
DEFAULT_255_2_778_1
10
18.7302889
20
65.2185102
40
0.9016937
50
139.9301659
51
145.9260426
0
ARC
8
DEFAULT_255_2_778_1
10
18.534154
20
65.3505104
40
0.6652776
50
145.8787362
51
153.8146208
0
ARC
8
DEFAULT_255_2_778_1
10
18.3820553
20
65.4248797
40
0.4959714
50
153.770634
51
164.3484794
0
ARC
8
DEFAULT_255_2_778_1
10
18.2807387
20
65.4530786
40
0.3908039
50
164.3220276
51
179.8083066
0
ARC
8
DEFAULT_255_2_778_1
10
18.3017789
20
65.461215
40
0.4118985
50
180.9499449
51
213.8111542
0
ARC
8
DEFAULT_255_2_778_1
10
18.5776828
20
65.6307896
40
0.73561
50
212.8271214
51
224.258472
0
ARC
8
DEFAULT_255_2_778_1
10
18.9605335
20
66.0001236
40
1.267567
50
224.1376218
51
231.4508261
0
ARC
8
DEFAULT_255_2_778_1
10
19.6032195
20
66.8031168
40
2.2960809
50
231.3955893
51
236.1256478
0
ARC
8
DEFAULT_255_2_778_1
10
21.4355223
20
69.5496293
40
5.5976905
50
236.2233172
51
239.1314682
0
ARC
8
DEFAULT_255_2_778_1
10
33.385427
20
89.2773568
40
28.6623793
50
238.8606853
51
239.0711101
0
ARC
8
DEFAULT_255_2_778_1
10
14.2132281
20
57.1802653
40
8.7248518
50
57.2420924
51
59.4062964
0
ARC
8
DEFAULT_255_2_778_1
10
17.4409241
20
62.2112102
40
2.747542
50
52.8289294
51
57.079028
0
ARC
8
DEFAULT_255_2_778_1
10
18.2155783
20
63.2315488
40
1.466457
50
46.3041868
51
52.8596521
0
ARC
8
DEFAULT_255_2_778_1
10
18.6478073
20
63.6816842
40
0.8424061
50
36.2174211
51
46.4090895
0
ARC
8
DEFAULT_255_2_778_1
10
18.9323088
20
63.8865128
40
0.4918609
50
17.400375
51
36.5489745
0
ARC
8
DEFAULT_255_2_778_1
10
19.0463994
20
63.9263754
40
0.3710912
50
0.0676858
51
16.7951297
0
ARC
8
DEFAULT_255_2_778_1
10
19.0253613
20
63.9282428
40
0.3921317
50
343.8035191
51
359.7912046
0
ARC
8
DEFAULT_255_2_778_1
10
18.9190912
20
63.9587167
40
0.5026844
50
333.2506233
51
343.8465691
0
ARC
8
DEFAULT_255_2_778_1
10
18.7652757
20
64.0354313
40
0.6745679
50
325.6600948
51
333.3122657
0
ARC
8
DEFAULT_255_2_778_1
10
18.5698344
20
64.1682296
40
0.9108568
50
319.7560915
51
325.6976089
0
ARC
8
DEFAULT_255_2_778_1
10
18.341699
20
64.3600002
40
1.2088854
50
315.4577584
51
319.8037947
0
ARC
8
DEFAULT_255_2_778_1
10
18.0783127
20
64.6188507
40
1.5781764
50
311.7298824
51
315.4670864
0
ARC
8
DEFAULT_255_2_778_1
10
17.7692879
20
64.9644074
40
2.0417554
50
308.723055
51
311.7470879
0
ARC
8
DEFAULT_255_2_778_1
10
17.415089
20
65.4056492
40
2.6075745
50
306.1165163
51
308.7300151
0
ARC
8
DEFAULT_255_2_778_1
10
17.0121091
20
65.9569523
40
3.2904564
50
303.9559446
51
306.1266333
0
ARC
8
DEFAULT_255_2_778_1
10
16.6005432
20
66.566215
40
4.0257023
50
302.3733397
51
303.9712246
0
ARC
8
DEFAULT_255_2_778_1
10
16.1809347
20
67.2277058
40
4.8090549
50
300.9434827
51
302.3758078
0
LINE
8
DEFAULT_255_2_778
10
18.6536417
20
62.0448082
11
18.6536417
21
52.7844082
0
LINE
8
DEFAULT_255_2_778
10
18.6536417
20
52.7844082
11
19.9765417
21
52.7844082
0
LINE
8
DEFAULT_255_1_234
10
4.9274119
20
84.1366792
11
4.9274119
21
84.0154
0
LINE
8
DEFAULT_255_1_234
10
4.9274119
20
84.0154
11
4.161184
21
84.0154
0
LINE
8
DEFAULT_255_1_234
10
4.161184
20
84.0154
11
4.161184
21
84.1222221
0
LINE
8
DEFAULT_255_1_234
10
4.161184
20
84.1222221
11
4.5659836
21
84.5719995
0
LINE
8
DEFAULT_255_1_234
10
4.2872823
20
84.8402595
11
4.1386952
21
84.8402595
0
LINE
8
DEFAULT_255_1_234
10
4.6535296
20
84.4764218
11
4.3402918
21
84.1366792
0
LINE
8
DEFAULT_255_1_234
10
4.3402918
20
84.1366792
11
4.9274119
21
84.1366792
0
ARC
8
DEFAULT_255_1_234
10
3.216967
20
85.7649527
40
1.8008286
50
318.5132453
51
320.7828378
0
ARC
8
DEFAULT_255_1_234
10
3.7456644
20
85.3346426
40
1.1191493
50
320.7372736
51
323.9737074
0
ARC
8
DEFAULT_255_1_234
10
4.1376501
20
85.0506361
40
0.6350923
50
323.8961724
51
328.6421089
0
ARC
8
DEFAULT_255_1_234
10
4.3423096
20
84.9244031
40
0.3946393
50
328.8299013
51
331.789948
0
ARC
8
DEFAULT_255_1_234
10
4.4420274
20
84.8729509
40
0.2824501
50
331.4255242
51
352.9364833
0
ARC
8
DEFAULT_255_1_234
10
4.4556775
20
84.8698976
40
0.2685315
50
353.2248685
51
0.0169286
0
ARC
8
DEFAULT_255_1_234
10
4.4766652
20
84.872195
40
0.2475536
50
359.4866256
51
15.9339782
0
ARC
8
DEFAULT_255_1_234
10
4.5273637
20
84.8858286
40
0.1950618
50
16.1714718
51
43.5284424
0
ARC
8
DEFAULT_255_1_234
10
4.5350946
20
84.8935573
40
0.184134
50
43.4415429
51
83.1661404
0
ARC
8
DEFAULT_255_1_234
10
4.5216864
20
84.8198771
40
0.258926
50
82.160215
51
90.1505798
0
ARC
8
DEFAULT_255_1_234
10
4.5185291
20
84.7661865
40
0.3126255
50
89.5460705
51
102.5418777
0
ARC
8
DEFAULT_255_1_234
10
4.4942377
20
84.8692665
40
0.2067346
50
102.1739365
51
129.2061916
0
ARC
8
DEFAULT_255_1_234
10
4.4863449
20
84.8817094
40
0.1921118
50
129.7279328
51
135.7542026
0
ARC
8
DEFAULT_255_1_234
10
4.4984977
20
84.8720045
40
0.2075944
50
136.175737
51
166.3674722
0
ARC
8
DEFAULT_255_1_234
10
4.5991896
20
84.8450182
40
0.3118201
50
165.9092917
51
178.8683903
0
ARC
8
DEFAULT_255_1_234
10
4.6856757
20
84.8403179
40
0.3983935
50
178.438168
51
180.0083905
0
ARC
8
DEFAULT_255_1_234
10
4.5455359
20
84.8442231
40
0.4068601
50
163.2878735
51
180.5581814
0
ARC
8
DEFAULT_255_1_234
10
4.4653621
20
84.866284
40
0.3237344
50
133.454115
51
162.9470031
0
ARC
8
DEFAULT_255_1_234
10
4.4832162
20
84.8473
40
0.349795
50
100.7869394
51
133.4384016
0
ARC
8
DEFAULT_255_1_234
10
4.5179934
20
84.6924319
40
0.5084616
50
89.6605301
51
101.3704185
0
ARC
8
DEFAULT_255_1_234
10
4.5246273
20
84.6985496
40
0.502348
50
78.2171172
51
90.4130393
0
ARC
8
DEFAULT_255_1_234
10
4.5601351
20
84.8609637
40
0.3361092
50
55.9268222
51
78.4888551
0
ARC
8
DEFAULT_255_1_234
10
4.5797791
20
84.8948324
40
0.2970617
50
47.9292255
51
55.4054003
0
ARC
8
DEFAULT_255_1_234
10
4.5899352
20
84.9051502
40
0.2825983
50
4.3347696
51
48.0560701
0
ARC
8
DEFAULT_255_1_234
10
4.4803745
20
84.8881601
40
0.393225
50
359.925209
51
5.5967654
0
ARC
8
DEFAULT_255_1_234
10
4.5232637
20
84.8937816
40
0.3503892
50
337.8914096
51
358.9967724
0
ARC
8
DEFAULT_255_1_234
10
4.2519049
20
84.9984706
40
0.6412172
50
326.9135351
51
338.3505194
0
ARC
8
DEFAULT_255_1_234
10
3.8533353
20
85.2539284
40
1.1146189
50
319.6472867
51
327.095818
0
ARC
8
DEFAULT_255_1_234
10
3.4700356
20
85.5701
40
1.6114559
50
317.2586784
51
319.9046139
0
LINE
8
DEFAULT_255_1_234
10
5.7121127
20
85.1848211
11
5.7121127
21
84.408152
0
LINE
8
DEFAULT_255_1_234
10
5.7121127
20
84.408152
11
5.8743538
21
84.408152
0
LINE
8
DEFAULT_255_1_234
10
5.8743538
20
84.408152
11
5.8743538
21
84.2868728
0
LINE
8
DEFAULT_255_1_234
10
5.8743538
20
84.2868728
11
5.7121127
21
84.2868728
0
LINE
8
DEFAULT_255_1_234
10
5.7121127
20
84.2868728
11
5.7121127
21
84.0154
0
LINE
8
DEFAULT_255_1_234
10
5.7121127
20
84.0154
11
5.5627224
21
84.0154
0
LINE
8
DEFAULT_255_1_234
10
5.5627224
20
84.0154
11
5.5627224
21
84.2868728
0
LINE
8
DEFAULT_255_1_234
10
5.5627224
20
84.2868728
11
5.0302181
21
84.2868728
0
LINE
8
DEFAULT_255_1_234
10
5.0302181
20
84.2868728
11
5.0302181
21
84.3744187
0
LINE
8
DEFAULT_255_1_234
10
5.0302181
20
84.3744187
11
5.5538875
21
85.1848211
0
LINE
8
DEFAULT_255_1_234
10
5.5538875
20
85.1848211
11
5.7121127
21
85.1848211
0
LINE
8
DEFAULT_255_1_234
10
5.5450525
20
84.9494912
11
5.1988846
21
84.408152
0
LINE
8
DEFAULT_255_1_234
10
5.1988846
20
84.408152
11
5.5627224
21
84.408152
0
LINE
8
DEFAULT_255_1_234
10
5.5627224
20
84.408152
11
5.5627224
21
84.9816181
0
LINE
8
DEFAULT_255_1_234
10
5.5627224
20
84.9816181
11
5.5450525
21
84.9494912
0
LINE
8
DEFAULT_255_1_234
10
6.101652
20
85.1848211
11
6.434166
21
84.2202093
0
LINE
8
DEFAULT_255_1_234
10
6.434166
20
84.2202093
11
6.7682863
21
85.1848211
0
LINE
8
DEFAULT_255_1_234
10
6.7682863
20
85.1848211
11
6.9369528
21
85.1848211
0
LINE
8
DEFAULT_255_1_234
10
6.9369528
20
85.1848211
11
6.5032389
21
84.0154
0
LINE
8
DEFAULT_255_1_234
10
6.5032389
20
84.0154
11
6.3666994
21
84.0154
0
LINE
8
DEFAULT_255_1_234
10
6.3666994
20
84.0154
11
5.9337887
21
85.1848211
0
LINE
8
DEFAULT_255_1_234
10
5.9337887
20
85.1848211
11
6.101652
21
85.1848211
0
LINE
8
DEFAULT_255_1_234
10
4.3867902
20
5.8098211
11
4.3867902
21
4.6404
0
LINE
8
DEFAULT_255_1_234
10
4.3867902
20
4.6404
11
4.2325808
21
4.6404
0
LINE
8
DEFAULT_255_1_234
10
4.2325808
20
4.6404
11
4.2325808
21
5.8098211
0
LINE
8
DEFAULT_255_1_234
10
4.2325808
20
5.8098211
11
4.3867902
21
5.8098211
0
LINE
8
DEFAULT_255_1_234
10
5.5674557
20
5.8098211
11
5.5674557
21
4.6404
0
LINE
8
DEFAULT_255_1_234
10
5.5674557
20
4.6404
11
5.4124432
21
4.6404
0
LINE
8
DEFAULT_255_1_234
10
5.4124432
20
4.6404
11
4.8237167
21
5.541561
0
LINE
8
DEFAULT_255_1_234
10
4.8237167
20
5.541561
11
4.8237167
21
4.6404
0
LINE
8
DEFAULT_255_1_234
10
4.8237167
20
4.6404
11
4.6687042
21
4.6404
0
LINE
8
DEFAULT_255_1_234
10
4.6687042
20
4.6404
11
4.6687042
21
5.8098211
0
LINE
8
DEFAULT_255_1_234
10
4.6687042
20
5.8098211
11
4.8237167
21
5.8098211
0
LINE
8
DEFAULT_255_1_234
10
4.8237167
20
5.8098211
11
5.4140495
21
4.9046442
0
LINE
8
DEFAULT_255_1_234
10
5.4140495
20
4.9046442
11
5.4140495
21
5.8098211
0
LINE
8
DEFAULT_255_1_234
10
5.4140495
20
5.8098211
11
5.5674557
21
5.8098211
0
LINE
8
DEFAULT_255_1_234
10
6.4300644
20
5.8098211
11
6.4300644
21
5.033152
0
LINE
8
DEFAULT_255_1_234
10
6.4300644
20
5.033152
11
6.5923055
21
5.033152
0
LINE
8
DEFAULT_255_1_234
10
6.5923055
20
5.033152
11
6.5923055
21
4.9118728
0
LINE
8
DEFAULT_255_1_234
10
6.5923055
20
4.9118728
11
6.4300644
21
4.9118728
0
LINE
8
DEFAULT_255_1_234
10
6.4300644
20
4.9118728
11
6.4300644
21
4.6404
0
LINE
8
DEFAULT_255_1_234
10
6.4300644
20
4.6404
11
6.2806741
21
4.6404
0
LINE
8
DEFAULT_255_1_234
10
6.2806741
20
4.6404
11
6.2806741
21
4.9118728
0
LINE
8
DEFAULT_255_1_234
10
6.2806741
20
4.9118728
11
5.7481698
21
4.9118728
0
LINE
8
DEFAULT_255_1_234
10
5.7481698
20
4.9118728
11
5.7481698
21
4.9994187
0
LINE
8
DEFAULT_255_1_234
10
5.7481698
20
4.9994187
11
6.2718392
21
5.8098211
0
LINE
8
DEFAULT_255_1_234
10
6.2718392
20
5.8098211
11
6.4300644
21
5.8098211
0
LINE
8
DEFAULT_255_1_234
10
6.2630042
20
5.5744912
11
5.9168363
21
5.033152
0
LINE
8
DEFAULT_255_1_234
10
5.9168363
20
5.033152
11
6.2806741
21
5.033152
0
LINE
8
DEFAULT_255_1_234
10
6.2806741
20
5.033152
11
6.2806741
21
5.6066181
0
LINE
8
DEFAULT_255_1_234
10
6.2806741
20
5.6066181
11
6.2630042
21
5.5744912
0
LINE
8
DEFAULT_255_1_234
10
7.0509178
20
5.1978026
11
7.0509178
21
5.0765234
0
LINE
8
DEFAULT_255_1_234
10
7.0509178
20
5.0765234
11
6.6589689
21
5.0765234
0
LINE
8
DEFAULT_255_1_234
10
6.6589689
20
5.0765234
11
6.6589689
21
5.1978026
0
LINE
8
DEFAULT_255_1_234
10
6.6589689
20
5.1978026
11
7.0509178
21
5.1978026
0
LINE
8
DEFAULT_255_1_234
10
4.3867902
20
13.7473211
11
4.3867902
21
12.5779
0
LINE
8
DEFAULT_255_1_234
10
4.3867902
20
12.5779
11
4.2325808
21
12.5779
0
LINE
8
DEFAULT_255_1_234
10
4.2325808
20
12.5779
11
4.2325808
21
13.7473211
0
LINE
8
DEFAULT_255_1_234
10
4.2325808
20
13.7473211
11
4.3867902
21
13.7473211
0
LINE
8
DEFAULT_255_1_234
10
5.5674557
20
13.7473211
11
5.5674557
21
12.5779
0
LINE
8
DEFAULT_255_1_234
10
5.5674557
20
12.5779
11
5.4124432
21
12.5779
0
LINE
8
DEFAULT_255_1_234
10
5.4124432
20
12.5779
11
4.8237167
21
13.479061
0
LINE
8
DEFAULT_255_1_234
10
4.8237167
20
13.479061
11
4.8237167
21
12.5779
0
LINE
8
DEFAULT_255_1_234
10
4.8237167
20
12.5779
11
4.6687042
21
12.5779
0
LINE
8
DEFAULT_255_1_234
10
4.6687042
20
12.5779
11
4.6687042
21
13.7473211
0
LINE
8
DEFAULT_255_1_234
10
4.6687042
20
13.7473211
11
4.8237167
21
13.7473211
0
LINE
8
DEFAULT_255_1_234
10
4.8237167
20
13.7473211
11
5.4140495
21
12.8421442
0
LINE
8
DEFAULT_255_1_234
10
5.4140495
20
12.8421442
11
5.4140495
21
13.7473211
0
LINE
8
DEFAULT_255_1_234
10
5.4140495
20
13.7473211
11
5.5674557
21
13.7473211
0
LINE
8
DEFAULT_255_1_234
10
6.0188394
20
13.1136169
11
6.0188394
21
13.2348962
0
LINE
8
DEFAULT_255_1_234
10
6.0188394
20
13.2348962
11
6.1304806
21
13.2348962
0
LINE
8
DEFAULT_255_1_234
10
5.9401284
20
13.4405087
11
5.7915412
21
13.4405087
0
LINE
8
DEFAULT_255_1_234
10
5.7811
20
12.8863188
11
5.9304903
21
12.8863188
0
LINE
8
DEFAULT_255_1_234
10
6.1304806
20
13.1136169
11
6.0188394
21
13.1136169
0
ARC
8
DEFAULT_255_1_234
10
6.1275672
20
13.5741713
40
0.3392876
50
270.4919872
51
281.8951556
0
ARC
8
DEFAULT_255_1_234
10
6.1516934
20
13.4639702
40
0.2264817
50
281.6691735
51
301.2943132
0
ARC
8
DEFAULT_255_1_234
10
6.1687144
20
13.4328304
40
0.1910381
50
301.7833094
51
311.7545298
0
ARC
8
DEFAULT_255_1_234
10
6.177872
20
13.4226748
40
0.1773635
50
311.7323931
51
354.2802411
0
ARC
8
DEFAULT_255_1_234
10
6.1052345
20
13.4351722
40
0.2509385
50
353.0937916
51
0.1181479
0
ARC
8
DEFAULT_255_1_234
10
6.059113
20
13.4399386
40
0.2970898
50
359.1805295
51
15.0453146
0
ARC
8
DEFAULT_255_1_234
10
6.1936967
20
13.4791992
40
0.1569564
50
13.9577229
51
77.6713066
0
ARC
8
DEFAULT_255_1_234
10
6.1550496
20
13.3406949
40
0.3006298
50
76.1116566
51
90.7026153
0
ARC
8
DEFAULT_255_1_234
10
6.1491334
20
13.3680545
40
0.2732568
50
89.5324876
51
103.531937
0
ARC
8
DEFAULT_255_1_234
10
6.1290779
20
13.4479884
40
0.1908508
50
103.2931773
51
133.5619022
0
ARC
8
DEFAULT_255_1_234
10
6.1246267
20
13.4539375
40
0.1834746
50
133.8349307
51
173.5344437
0
ARC
8
DEFAULT_255_1_234
10
6.196931
20
13.4411213
40
0.2568033
50
172.5096846
51
180.1366907
0
ARC
8
DEFAULT_255_1_234
10
6.1018204
20
13.4445622
40
0.3103056
50
155.3484492
51
180.7484736
0
ARC
8
DEFAULT_255_1_234
10
6.0969293
20
13.4416846
40
0.3070957
50
131.5744599
51
154.4798489
0
ARC
8
DEFAULT_255_1_234
10
6.128244
20
13.410031
40
0.3515643
50
96.9875458
51
131.9690667
0
ARC
8
DEFAULT_255_1_234
10
6.150192
20
13.2854636
40
0.4779224
50
89.8596053
51
97.7825159
0
ARC
8
DEFAULT_255_1_234
10
6.1549983
20
13.2592616
40
0.5041361
50
78.3655447
51
90.4131539
0
ARC
8
DEFAULT_255_1_234
10
6.1907901
20
13.4251887
40
0.3344039
50
56.6229102
51
78.638727
0
ARC
8
DEFAULT_255_1_234
10
6.2122845
20
13.4627805
40
0.2912001
50
47.0253525
51
56.0854072
0
ARC
8
DEFAULT_255_1_234
10
6.2142625
20
13.4667223
40
0.2869704
50
10.9208013
51
46.7778124
0
ARC
8
DEFAULT_255_1_234
10
6.0778691
20
13.4351857
40
0.426899
50
359.6364486
51
11.6087304
0
ARC
8
DEFAULT_255_1_234
10
6.2613536
20
13.4336752
40
0.243409
50
332.3549906
51
359.7179418
0
ARC
8
DEFAULT_255_1_234
10
6.1963137
20
13.4645142
40
0.3153459
50
325.2333722
51
332.8745602
0
ARC
8
DEFAULT_255_1_234
10
6.2115761
20
13.4538828
40
0.2967456
50
292.9802137
51
325.2392345
0
ARC
8
DEFAULT_255_1_234
10
6.1841135
20
13.5072863
40
0.3566604
50
292.5402179
51
293.6924929
0
ARC
8
DEFAULT_255_1_234
10
6.223373
20
12.8618091
40
0.3307468
50
57.6435486
51
72.8625112
0
ARC
8
DEFAULT_255_1_234
10
6.258823
20
12.9192549
40
0.2632492
50
36.7248896
51
57.4697979
0
ARC
8
DEFAULT_255_1_234
10
6.2576863
20
12.920522
40
0.2634081
50
8.0545065
51
36.356114
0
ARC
8
DEFAULT_255_1_234
10
6.1714048
20
12.9050174
40
0.3510261
50
359.8320645
51
8.5869982
0
ARC
8
DEFAULT_255_1_234
10
6.1338824
20
12.9002101
40
0.3885653
50
343.9829931
51
0.5571613
0
ARC
8
DEFAULT_255_1_234
10
6.2225022
20
12.8759438
40
0.2966924
50
311.6359546
51
343.7651759
0
ARC
8
DEFAULT_255_1_234
10
6.1846591
20
12.9186102
40
0.3537231
50
279.7829875
51
311.6255694
0
ARC
8
DEFAULT_255_1_234
10
6.1545367
20
13.062328
40
0.5004971
50
269.7286406
51
280.3856417
0
ARC
8
DEFAULT_255_1_234
10
6.1483439
20
13.0581996
40
0.4963778
50
256.6828919
51
270.4412052
0
ARC
8
DEFAULT_255_1_234
10
6.1144735
20
12.9197394
40
0.3538406
50
229.4223008
51
256.8556159
0
ARC
8
DEFAULT_255_1_234
10
6.0730128
20
12.8730736
40
0.2914296
50
181.818294
51
229.6455059
0
ARC
8
DEFAULT_255_1_234
10
6.1770084
20
12.8861496
40
0.3959084
50
179.9755256
51
183.2323064
0
ARC
8
DEFAULT_255_1_234
10
6.159783
20
12.8841037
40
0.2293034
50
179.4465117
51
196.2869258
0
ARC
8
DEFAULT_255_1_234
10
6.1110238
20
12.8707651
40
0.1787621
50
196.5661473
51
227.705904
0
ARC
8
DEFAULT_255_1_234
10
6.1274333
20
12.8891155
40
0.2033784
50
227.7652068
51
257.8762805
0
ARC
8
DEFAULT_255_1_234
10
6.1499303
20
12.9834156
40
0.3003081
50
257.4584385
51
270.426602
0
ARC
8
DEFAULT_255_1_234
10
6.1544869
20
13.0123996
40
0.329292
50
269.5962073
51
280.8789248
0
ARC
8
DEFAULT_255_1_234
10
6.1774398
20
12.8977685
40
0.2123908
50
280.6346389
51
299.8595945
0
ARC
8
DEFAULT_255_1_234
10
6.1965305
20
12.8615212
40
0.171457
50
300.3576302
51
314.5517981
0
ARC
8
DEFAULT_255_1_234
10
6.1882365
20
12.8675919
40
0.1816095
50
315.0728369
51
345.0431014
0
ARC
8
DEFAULT_255_1_234
10
6.0959179
20
12.8944841
40
0.2777492
50
344.5986631
51
357.9269593
0
ARC
8
DEFAULT_255_1_234
10
6.0063506
20
12.9006276
40
0.3674917
50
357.4748886
51
0.0231117
0
ARC
8
DEFAULT_255_1_234
10
6.1086615
20
12.9030679
40
0.2651907
50
359.5047933
51
13.4239635
0
ARC
8
DEFAULT_255_1_234
10
6.1953259
20
12.9252478
40
0.1757509
50
12.9498199
51
48.7551375
0
ARC
8
DEFAULT_255_1_234
10
6.1770993
20
12.90034
40
0.2065134
50
49.5088623
51
72.1836453
0
ARC
8
DEFAULT_255_1_234
10
6.1413145
20
12.7941291
40
0.3185836
50
71.9010081
51
84.3554254
0
ARC
8
DEFAULT_255_1_234
10
6.1251777
20
12.6580326
40
0.4556151
50
84.0193428
51
89.333121
0
LINE
8
DEFAULT_255_1_234
10
7.0509178
20
13.1353026
11
7.0509178
21
13.0140234
0
LINE
8
DEFAULT_255_1_234
10
7.0509178
20
13.0140234
11
6.6589689
21
13.0140234
0
LINE
8
DEFAULT_255_1_234
10
6.6589689
20
13.0140234
11
6.6589689
21
13.1353026
0
LINE
8
DEFAULT_255_1_234
10
6.6589689
20
13.1353026
11
7.0509178
21
13.1353026
0
LINE
8
DEFAULT_255_1_234
10
4.3602902
20
21.6848211
11
4.3602902
21
20.5154
0
LINE
8
DEFAULT_255_1_234
10
4.3602902
20
20.5154
11
4.2060808
21
20.5154
0
LINE
8
DEFAULT_255_1_234
10
4.2060808
20
20.5154
11
4.2060808
21
21.6848211
0
LINE
8
DEFAULT_255_1_234
10
4.2060808
20
21.6848211
11
4.3602902
21
21.6848211
0
LINE
8
DEFAULT_255_1_234
10
5.5409557
20
21.6848211
11
5.5409557
21
20.5154
0
LINE
8
DEFAULT_255_1_234
10
5.5409557
20
20.5154
11
5.3859432
21
20.5154
0
LINE
8
DEFAULT_255_1_234
10
5.3859432
20
20.5154
11
4.7972167
21
21.416561
0
LINE
8
DEFAULT_255_1_234
10
4.7972167
20
21.416561
11
4.7972167
21
20.5154
0
LINE
8
DEFAULT_255_1_234
10
4.7972167
20
20.5154
11
4.6422042
21
20.5154
0
LINE
8
DEFAULT_255_1_234
10
4.6422042
20
20.5154
11
4.6422042
21
21.6848211
0
LINE
8
DEFAULT_255_1_234
10
4.6422042
20
21.6848211
11
4.7972167
21
21.6848211
0
LINE
8
DEFAULT_255_1_234
10
4.7972167
20
21.6848211
11
5.3875495
21
20.7796442
0
LINE
8
DEFAULT_255_1_234
10
5.3875495
20
20.7796442
11
5.3875495
21
21.6848211
0
LINE
8
DEFAULT_255_1_234
10
5.3875495
20
21.6848211
11
5.5409557
21
21.6848211
0
LINE
8
DEFAULT_255_1_234
10
6.4035644
20
21.6848211
11
6.4035644
21
20.908152
0
LINE
8
DEFAULT_255_1_234
10
6.4035644
20
20.908152
11
6.5658055
21
20.908152
0
LINE
8
DEFAULT_255_1_234
10
6.5658055
20
20.908152
11
6.5658055
21
20.7868728
0
LINE
8
DEFAULT_255_1_234
10
6.5658055
20
20.7868728
11
6.4035644
21
20.7868728
0
LINE
8
DEFAULT_255_1_234
10
6.4035644
20
20.7868728
11
6.4035644
21
20.5154
0
LINE
8
DEFAULT_255_1_234
10
6.4035644
20
20.5154
11
6.2541741
21
20.5154
0
LINE
8
DEFAULT_255_1_234
10
6.2541741
20
20.5154
11
6.2541741
21
20.7868728
0
LINE
8
DEFAULT_255_1_234
10
6.2541741
20
20.7868728
11
5.7216698
21
20.7868728
0
LINE
8
DEFAULT_255_1_234
10
5.7216698
20
20.7868728
11
5.7216698
21
20.8744187
0
LINE
8
DEFAULT_255_1_234
10
5.7216698
20
20.8744187
11
6.2453392
21
21.6848211
0
LINE
8
DEFAULT_255_1_234
10
6.2453392
20
21.6848211
11
6.4035644
21
21.6848211
0
LINE
8
DEFAULT_255_1_234
10
6.2365042
20
21.4494912
11
5.8903363
21
20.908152
0
LINE
8
DEFAULT_255_1_234
10
5.8903363
20
20.908152
11
6.2541741
21
20.908152
0
LINE
8
DEFAULT_255_1_234
10
6.2541741
20
20.908152
11
6.2541741
21
21.4816181
0
LINE
8
DEFAULT_255_1_234
10
6.2541741
20
21.4816181
11
6.2365042
21
21.4494912
0
LINE
8
DEFAULT_255_1_234
10
7.140878
20
21.4840276
11
7.140878
21
21.1426788
0
LINE
8
DEFAULT_255_1_234
10
7.140878
20
21.1426788
11
7.4669666
21
21.1426788
0
LINE
8
DEFAULT_255_1_234
10
7.4669666
20
21.1426788
11
7.4669666
21
21.0021233
0
LINE
8
DEFAULT_255_1_234
10
7.4669666
20
21.0021233
11
7.140878
21
21.0021233
0
LINE
8
DEFAULT_255_1_234
10
7.140878
20
21.0021233
11
7.140878
21
20.6326634
0
LINE
8
DEFAULT_255_1_234
10
7.140878
20
20.6326634
11
6.9914876
21
20.6326634
0
LINE
8
DEFAULT_255_1_234
10
6.9914876
20
20.6326634
11
6.9914876
21
21.0021233
0
LINE
8
DEFAULT_255_1_234
10
6.9914876
20
21.0021233
11
6.6653991
21
21.0021233
0
LINE
8
DEFAULT_255_1_234
10
6.6653991
20
21.0021233
11
6.6653991
21
21.1426788
0
LINE
8
DEFAULT_255_1_234
10
6.6653991
20
21.1426788
11
6.9914876
21
21.1426788
0
LINE
8
DEFAULT_255_1_234
10
6.9914876
20
21.1426788
11
6.9914876
21
21.4840276
0
LINE
8
DEFAULT_255_1_234
10
6.9914876
20
21.4840276
11
7.140878
21
21.4840276
0
LINE
8
DEFAULT_255_1_234
10
4.3602902
20
29.6223211
11
4.3602902
21
28.4529
0
LINE
8
DEFAULT_255_1_234
10
4.3602902
20
28.4529
11
4.2060808
21
28.4529
0
LINE
8
DEFAULT_255_1_234
10
4.2060808
20
28.4529
11
4.2060808
21
29.6223211
0
LINE
8
DEFAULT_255_1_234
10
4.2060808
20
29.6223211
11
4.3602902
21
29.6223211
0
LINE
8
DEFAULT_255_1_234
10
5.5409557
20
29.6223211
11
5.5409557
21
28.4529
0
LINE
8
DEFAULT_255_1_234
10
5.5409557
20
28.4529
11
5.3859432
21
28.4529
0
LINE
8
DEFAULT_255_1_234
10
5.3859432
20
28.4529
11
4.7972167
21
29.354061
0
LINE
8
DEFAULT_255_1_234
10
4.7972167
20
29.354061
11
4.7972167
21
28.4529
0
LINE
8
DEFAULT_255_1_234
10
4.7972167
20
28.4529
11
4.6422042
21
28.4529
0
LINE
8
DEFAULT_255_1_234
10
4.6422042
20
28.4529
11
4.6422042
21
29.6223211
0
LINE
8
DEFAULT_255_1_234
10
4.6422042
20
29.6223211
11
4.7972167
21
29.6223211
0
LINE
8
DEFAULT_255_1_234
10
4.7972167
20
29.6223211
11
5.3875495
21
28.7171442
0
LINE
8
DEFAULT_255_1_234
10
5.3875495
20
28.7171442
11
5.3875495
21
29.6223211
0
LINE
8
DEFAULT_255_1_234
10
5.3875495
20
29.6223211
11
5.5409557
21
29.6223211
0
LINE
8
DEFAULT_255_1_234
10
5.9923394
20
28.9886169
11
5.9923394
21
29.1098962
0
LINE
8
DEFAULT_255_1_234
10
5.9923394
20
29.1098962
11
6.1039806
21
29.1098962
0
LINE
8
DEFAULT_255_1_234
10
5.9136284
20
29.3155087
11
5.7650412
21
29.3155087
0
LINE
8
DEFAULT_255_1_234
10
5.7546
20
28.7613188
11
5.9039903
21
28.7613188
0
LINE
8
DEFAULT_255_1_234
10
6.1039806
20
28.9886169
11
5.9923394
21
28.9886169
0
ARC
8
DEFAULT_255_1_234
10
6.1010672
20
29.4491713
40
0.3392876
50
270.4919872
51
281.8951556
0
ARC
8
DEFAULT_255_1_234
10
6.1251934
20
29.3389702
40
0.2264817
50
281.6691735
51
301.2943132
0
ARC
8
DEFAULT_255_1_234
10
6.1422144
20
29.3078304
40
0.1910381
50
301.7833094
51
311.7545298
0
ARC
8
DEFAULT_255_1_234
10
6.151372
20
29.2976748
40
0.1773635
50
311.7323931
51
354.2802411
0
ARC
8
DEFAULT_255_1_234
10
6.0787345
20
29.3101722
40
0.2509385
50
353.0937916
51
0.1181479
0
ARC
8
DEFAULT_255_1_234
10
6.032613
20
29.3149386
40
0.2970898
50
359.1805295
51
15.0453146
0
ARC
8
DEFAULT_255_1_234
10
6.1671967
20
29.3541992
40
0.1569564
50
13.9577229
51
77.6713066
0
ARC
8
DEFAULT_255_1_234
10
6.1285496
20
29.2156949
40
0.3006298
50
76.1116566
51
90.7026153
0
ARC
8
DEFAULT_255_1_234
10
6.1226334
20
29.2430545
40
0.2732568
50
89.5324876
51
103.531937
0
ARC
8
DEFAULT_255_1_234
10
6.1025779
20
29.3229884
40
0.1908508
50
103.2931773
51
133.5619022
0
ARC
8
DEFAULT_255_1_234
10
6.0981267
20
29.3289375
40
0.1834746
50
133.8349307
51
173.5344437
0
ARC
8
DEFAULT_255_1_234
10
6.170431
20
29.3161213
40
0.2568033
50
172.5096846
51
180.1366907
0
ARC
8
DEFAULT_255_1_234
10
6.0753204
20
29.3195622
40
0.3103056
50
155.3484492
51
180.7484736
0
ARC
8
DEFAULT_255_1_234
10
6.0704293
20
29.3166846
40
0.3070957
50
131.5744599
51
154.4798489
0
ARC
8
DEFAULT_255_1_234
10
6.101744
20
29.285031
40
0.3515643
50
96.9875458
51
131.9690667
0
ARC
8
DEFAULT_255_1_234
10
6.123692
20
29.1604636
40
0.4779224
50
89.8596053
51
97.7825159
0
ARC
8
DEFAULT_255_1_234
10
6.1284983
20
29.1342616
40
0.5041361
50
78.3655447
51
90.4131539
0
ARC
8
DEFAULT_255_1_234
10
6.1642901
20
29.3001887
40
0.3344039
50
56.6229102
51
78.638727
0
ARC
8
DEFAULT_255_1_234
10
6.1857845
20
29.3377805
40
0.2912001
50
47.0253525
51
56.0854072
0
ARC
8
DEFAULT_255_1_234
10
6.1877625
20
29.3417223
40
0.2869704
50
10.9208013
51
46.7778124
0
ARC
8
DEFAULT_255_1_234
10
6.0513691
20
29.3101857
40
0.426899
50
359.6364486
51
11.6087304
0
ARC
8
DEFAULT_255_1_234
10
6.2348536
20
29.3086752
40
0.243409
50
332.3549906
51
359.7179418
0
ARC
8
DEFAULT_255_1_234
10
6.1698137
20
29.3395142
40
0.3153459
50
325.2333722
51
332.8745602
0
ARC
8
DEFAULT_255_1_234
10
6.1850761
20
29.3288828
40
0.2967456
50
292.9802137
51
325.2392345
0
ARC
8
DEFAULT_255_1_234
10
6.1576135
20
29.3822863
40
0.3566604
50
292.5402179
51
293.6924929
0
ARC
8
DEFAULT_255_1_234
10
6.196873
20
28.7368091
40
0.3307468
50
57.6435486
51
72.8625112
0
ARC
8
DEFAULT_255_1_234
10
6.232323
20
28.7942549
40
0.2632492
50
36.7248896
51
57.4697979
0
ARC
8
DEFAULT_255_1_234
10
6.2311863
20
28.795522
40
0.2634081
50
8.0545065
51
36.356114
0
ARC
8
DEFAULT_255_1_234
10
6.1449048
20
28.7800174
40
0.3510261
50
359.8320645
51
8.5869982
0
ARC
8
DEFAULT_255_1_234
10
6.1073824
20
28.7752101
40
0.3885653
50
343.9829931
51
0.5571613
0
ARC
8
DEFAULT_255_1_234
10
6.1960022
20
28.7509438
40
0.2966924
50
311.6359546
51
343.7651759
0
ARC
8
DEFAULT_255_1_234
10
6.1581591
20
28.7936102
40
0.3537231
50
279.7829875
51
311.6255694
0
ARC
8
DEFAULT_255_1_234
10
6.1280367
20
28.937328
40
0.5004971
50
269.7286406
51
280.3856417
0
ARC
8
DEFAULT_255_1_234
10
6.1218439
20
28.9331996
40
0.4963778
50
256.6828919
51
270.4412052
0
ARC
8
DEFAULT_255_1_234
10
6.0879735
20
28.7947394
40
0.3538406
50
229.4223008
51
256.8556159
0
ARC
8
DEFAULT_255_1_234
10
6.0465128
20
28.7480736
40
0.2914296
50
181.818294
51
229.6455059
0
ARC
8
DEFAULT_255_1_234
10
6.1505084
20
28.7611496
40
0.3959084
50
179.9755256
51
183.2323064
0
ARC
8
DEFAULT_255_1_234
10
6.133283
20
28.7591037
40
0.2293034
50
179.4465117
51
196.2869258
0
ARC
8
DEFAULT_255_1_234
10
6.0845238
20
28.7457651
40
0.1787621
50
196.5661473
51
227.705904
0
ARC
8
DEFAULT_255_1_234
10
6.1009333
20
28.7641155
40
0.2033784
50
227.7652068
51
257.8762805
0
ARC
8
DEFAULT_255_1_234
10
6.1234303
20
28.8584156
40
0.3003081
50
257.4584385
51
270.426602
0
ARC
8
DEFAULT_255_1_234
10
6.1279869
20
28.8873996
40
0.329292
50
269.5962073
51
280.8789248
0
ARC
8
DEFAULT_255_1_234
10
6.1509398
20
28.7727685
40
0.2123908
50
280.6346389
51
299.8595945
0
ARC
8
DEFAULT_255_1_234
10
6.1700305
20
28.7365212
40
0.171457
50
300.3576302
51
314.5517981
0
ARC
8
DEFAULT_255_1_234
10
6.1617365
20
28.7425919
40
0.1816095
50
315.0728369
51
345.0431014
0
ARC
8
DEFAULT_255_1_234
10
6.0694179
20
28.7694841
40
0.2777492
50
344.5986631
51
357.9269593
0
ARC
8
DEFAULT_255_1_234
10
5.9798506
20
28.7756276
40
0.3674917
50
357.4748886
51
0.0231117
0
ARC
8
DEFAULT_255_1_234
10
6.0821615
20
28.7780679
40
0.2651907
50
359.5047933
51
13.4239635
0
ARC
8
DEFAULT_255_1_234
10
6.1688259
20
28.8002478
40
0.1757509
50
12.9498199
51
48.7551375
0
ARC
8
DEFAULT_255_1_234
10
6.1505993
20
28.77534
40
0.2065134
50
49.5088623
51
72.1836453
0
ARC
8
DEFAULT_255_1_234
10
6.1148145
20
28.6691291
40
0.3185836
50
71.9010081
51
84.3554254
0
ARC
8
DEFAULT_255_1_234
10
6.0986777
20
28.5330326
40
0.4556151
50
84.0193428
51
89.333121
0
LINE
8
DEFAULT_255_1_234
10
7.140878
20
29.4215276
11
7.140878
21
29.0801788
0
LINE
8
DEFAULT_255_1_234
10
7.140878
20
29.0801788
11
7.4669666
21
29.0801788
0
LINE
8
DEFAULT_255_1_234
10
7.4669666
20
29.0801788
11
7.4669666
21
28.9396233
0
LINE
8
DEFAULT_255_1_234
10
7.4669666
20
28.9396233
11
7.140878
21
28.9396233
0
LINE
8
DEFAULT_255_1_234
10
7.140878
20
28.9396233
11
7.140878
21
28.5701634
0
LINE
8
DEFAULT_255_1_234
10
7.140878
20
28.5701634
11
6.9914876
21
28.5701634
0
LINE
8
DEFAULT_255_1_234
10
6.9914876
20
28.5701634
11
6.9914876
21
28.9396233
0
LINE
8
DEFAULT_255_1_234
10
6.9914876
20
28.9396233
11
6.6653991
21
28.9396233
0
LINE
8
DEFAULT_255_1_234
10
6.6653991
20
28.9396233
11
6.6653991
21
29.0801788
0
LINE
8
DEFAULT_255_1_234
10
6.6653991
20
29.0801788
11
6.9914876
21
29.0801788
0
LINE
8
DEFAULT_255_1_234
10
6.9914876
20
29.0801788
11
6.9914876
21
29.4215276
0
LINE
8
DEFAULT_255_1_234
10
6.9914876
20
29.4215276
11
7.140878
21
29.4215276
0
LINE
8
DEFAULT_255_1_234
10
4.818223
20
36.7614663
11
4.9732355
21
36.7614663
0
LINE
8
DEFAULT_255_1_234
10
4.0728777
20
36.9204947
11
4.0728777
21
37.0329391
0
LINE
8
DEFAULT_255_1_234
10
4.9732355
20
37.1839357
11
4.818223
21
37.1839357
0
LINE
8
DEFAULT_255_1_234
10
4.2278902
20
37.0289232
11
4.2278902
21
36.9156757
0
ARC
8
DEFAULT_255_1_234
10
4.4251742
20
36.8211846
40
0.5513052
50
340.1774281
51
353.7814284
0
ARC
8
DEFAULT_255_1_234
10
4.5823095
20
36.7626582
40
0.3836379
50
311.4558989
51
340.4421614
0
ARC
8
DEFAULT_255_1_234
10
4.5789763
20
36.7737528
40
0.3941894
50
282.4333181
51
310.7513653
0
ARC
8
DEFAULT_255_1_234
10
4.5350502
20
36.9552679
40
0.5809175
50
269.9358511
51
282.809604
0
ARC
8
DEFAULT_255_1_234
10
4.5298568
20
37.1010212
40
0.7266847
50
270.0021091
51
270.3581957
0
ARC
8
DEFAULT_255_1_234
10
4.5245985
20
36.8409585
40
0.4666519
50
250.7884749
51
270.6489167
0
ARC
8
DEFAULT_255_1_234
10
4.507782
20
36.7772319
40
0.4009729
50
219.3627325
51
250.0611886
0
ARC
8
DEFAULT_255_1_234
10
4.5907031
20
36.8477042
40
0.5097822
50
193.5479632
51
219.5756669
0
ARC
8
DEFAULT_255_1_234
10
4.8278652
20
36.9092919
40
0.7547848
50
181.1218675
51
193.87563
0
ARC
8
DEFAULT_255_1_234
10
5.0348833
20
36.920358
40
0.9620055
50
179.9918545
51
181.5394234
0
ARC
8
DEFAULT_255_1_234
10
4.8497935
20
37.0366788
40
0.7769248
50
169.5837241
51
180.2757934
0
ARC
8
DEFAULT_255_1_234
10
4.6660873
20
37.0706229
40
0.590109
50
155.0365899
51
169.6003176
0
ARC
8
DEFAULT_255_1_234
10
4.5525337
20
37.1253677
40
0.4640625
50
136.783148
51
155.2472683
0
ARC
8
DEFAULT_255_1_234
10
4.5135814
20
37.1584562
40
0.4130255
50
121.7633186
51
136.428115
0
ARC
8
DEFAULT_255_1_234
10
4.5270776
20
37.1335227
40
0.4413323
50
95.6459699
51
121.5490577
0
ARC
8
DEFAULT_255_1_234
10
4.5428058
20
37.0226949
40
0.55319
50
89.924208
51
96.1377933
0
ARC
8
DEFAULT_255_1_234
10
4.5478491
20
37.0345542
40
0.5413475
50
76.6779277
51
90.4563316
0
ARC
8
DEFAULT_255_1_234
10
4.5872114
20
37.1936114
40
0.3775041
50
47.485847
51
76.9287264
0
ARC
8
DEFAULT_255_1_234
10
4.5725087
20
37.1836159
40
0.3948286
50
16.5424086
51
46.8933463
0
ARC
8
DEFAULT_255_1_234
10
4.4117244
20
37.1307861
40
0.564021
50
5.4072051
51
17.0365086
0
ARC
8
DEFAULT_255_1_234
10
4.2678261
20
37.1076679
40
0.5556559
50
7.8891745
51
15.9239216
0
ARC
8
DEFAULT_255_1_234
10
4.4665274
20
37.1653631
40
0.3487515
50
15.7653144
51
27.9410532
0
ARC
8
DEFAULT_255_1_234
10
4.5769492
20
37.224479
40
0.2235026
50
27.8166557
51
46.4008329
0
ARC
8
DEFAULT_255_1_234
10
4.5819135
20
37.2239082
40
0.2205286
50
47.4371857
51
75.0698205
0
ARC
8
DEFAULT_255_1_234
10
4.5510529
20
37.1164765
40
0.3322915
50
74.7008593
51
87.8124495
0
ARC
8
DEFAULT_255_1_234
10
4.5437217
20
37.0108844
40
0.4380987
50
87.3814673
51
90.0240855
0
ARC
8
DEFAULT_255_1_234
10
4.539876
20
37.1286291
40
0.3203749
50
89.3451631
51
108.5745436
0
ARC
8
DEFAULT_255_1_234
10
4.5261865
20
37.1799908
40
0.2673494
50
109.2998449
51
143.3037509
0
ARC
8
DEFAULT_255_1_234
10
4.6023938
20
37.1213881
40
0.3634757
50
143.0753173
51
163.1916937
0
ARC
8
DEFAULT_255_1_234
10
4.7975666
20
37.0597967
40
0.5681262
50
162.9373603
51
174.6208611
0
ARC
8
DEFAULT_255_1_234
10
5.0601708
20
37.031001
40
0.8322832
50
174.3419979
51
180.1430411
0
ARC
8
DEFAULT_255_1_234
10
4.9670864
20
36.9115698
40
0.7392076
50
179.6817502
51
189.150529
0
ARC
8
DEFAULT_255_1_234
10
4.7170112
20
36.869919
40
0.4856932
50
188.9910863
51
203.5773039
0
ARC
8
DEFAULT_255_1_234
10
4.6090445
20
36.8251211
40
0.3688271
50
203.9077269
51
215.1312379
0
ARC
8
DEFAULT_255_1_234
10
4.5167539
20
36.7535941
40
0.2522457
50
213.9071664
51
263.8849284
0
ARC
8
DEFAULT_255_1_234
10
4.5292868
20
36.8320518
40
0.3316174
50
263.1758525
51
270.1031083
0
ARC
8
DEFAULT_255_1_234
10
4.532496
20
36.9567365
40
0.4563091
50
269.6719807
51
279.0609165
0
ARC
8
DEFAULT_255_1_234
10
4.5591728
20
36.7954907
40
0.2928759
50
278.8750225
51
293.6346586
0
ARC
8
DEFAULT_255_1_234
10
4.5911936
20
36.72029
40
0.2111472
50
293.8553404
51
310.0518804
0
ARC
8
DEFAULT_255_1_234
10
4.591679
20
36.7140516
40
0.2060917
50
311.0646779
51
332.0108348
0
ARC
8
DEFAULT_255_1_234
10
4.4724517
20
36.7797978
40
0.3422352
50
331.6588543
51
343.2878891
0
ARC
8
DEFAULT_255_1_234
10
4.2662032
20
36.8431798
40
0.5580003
50
343.1446044
51
351.010618
0
ARC
8
DEFAULT_255_1_234
10
4.1120678
20
36.8712871
40
0.7146438
50
350.7157277
51
351.1602153
0
LINE
8
DEFAULT_255_1_234
10
5.6736031
20
36.7293394
11
5.6736031
21
37.5598211
0
LINE
8
DEFAULT_255_1_234
10
5.6736031
20
37.5598211
11
5.8286157
21
37.5598211
0
LINE
8
DEFAULT_255_1_234
10
5.8286157
20
37.5598211
11
5.8286157
21
36.7317489
0
LINE
8
DEFAULT_255_1_234
10
5.0904989
20
36.7132759
11
5.2447083
21
36.7132759
0
ARC
8
DEFAULT_255_1_234
10
5.3795342
20
36.7279089
40
0.4490979
50
346.3129415
51
0.4899112
0
ARC
8
DEFAULT_255_1_234
10
5.5163691
20
36.6928729
40
0.3078632
50
313.3793358
51
346.6225026
0
ARC
8
DEFAULT_255_1_234
10
5.4962878
20
36.7181522
40
0.3400404
50
281.1587967
51
312.9131091
0
ARC
8
DEFAULT_255_1_234
10
5.4622342
20
36.8676185
40
0.4932916
50
269.6424364
51
281.6795951
0
ARC
8
DEFAULT_255_1_234
10
5.4553706
20
36.9225382
40
0.5482147
50
258.9990078
51
270.3955952
0
ARC
8
DEFAULT_255_1_234
10
5.417901
20
36.7376746
40
0.359601
50
239.6256123
51
259.238693
0
ARC
8
DEFAULT_255_1_234
10
5.3890093
20
36.6831669
40
0.2979777
50
227.4959765
51
239.1188186
0
ARC
8
DEFAULT_255_1_234
10
5.3852659
20
36.6770689
40
0.2909561
50
191.339631
51
227.2280909
0
ARC
8
DEFAULT_255_1_234
10
5.52573
20
36.7103031
40
0.4352412
50
179.6086538
51
191.9934722
0
ARC
8
DEFAULT_255_1_234
10
5.5391322
20
36.7110427
40
0.2944324
50
179.5654258
51
192.070398
0
ARC
8
DEFAULT_255_1_234
10
5.4419812
20
36.6892079
40
0.194866
50
191.7656467
51
215.6461951
0
ARC
8
DEFAULT_255_1_234
10
5.4241313
20
36.6784546
40
0.1741017
50
216.1938368
51
224.3931108
0
ARC
8
DEFAULT_255_1_234
10
5.4248199
20
36.6811473
40
0.1764834
50
224.8613677
51
254.362656
0
ARC
8
DEFAULT_255_1_234
10
5.4518913
20
36.770601
40
0.2699302
50
253.9471729
51
267.3949949
0
ARC
8
DEFAULT_255_1_234
10
5.458942
20
36.8630067
40
0.362572
50
266.9456419
51
270.0337791
0
ARC
8
DEFAULT_255_1_234
10
5.46148
20
36.746823
40
0.2463991
50
269.4595111
51
286.1822844
0
ARC
8
DEFAULT_255_1_234
10
5.475609
20
36.6950047
40
0.1926982
50
286.4416479
51
315.8044008
0
ARC
8
DEFAULT_255_1_234
10
5.4701897
20
36.6992207
40
0.1995241
50
316.0212565
51
345.4794351
0
ARC
8
DEFAULT_255_1_234
10
5.3731404
20
36.7265575
40
0.3003349
50
345.0729543
51
358.325089
0
ARC
8
DEFAULT_255_1_234
10
5.2855375
20
36.7321568
40
0.3880759
50
357.8767804
51
359.5840246
0
LINE
8
DEFAULT_255_1_234
10
4.818223
20
44.6989663
11
4.9732355
21
44.6989663
0
LINE
8
DEFAULT_255_1_234
10
4.0728777
20
44.8579947
11
4.0728777
21
44.9704391
0
LINE
8
DEFAULT_255_1_234
10
4.9732355
20
45.1214357
11
4.818223
21
45.1214357
0
LINE
8
DEFAULT_255_1_234
10
4.2278902
20
44.9664232
11
4.2278902
21
44.8531757
0
ARC
8
DEFAULT_255_1_234
10
4.4251742
20
44.7586846
40
0.5513052
50
340.1774281
51
353.7814284
0
ARC
8
DEFAULT_255_1_234
10
4.5823095
20
44.7001582
40
0.3836379
50
311.4558989
51
340.4421614
0
ARC
8
DEFAULT_255_1_234
10
4.5789763
20
44.7112528
40
0.3941894
50
282.4333181
51
310.7513653
0
ARC
8
DEFAULT_255_1_234
10
4.5350502
20
44.8927679
40
0.5809175
50
269.9358511
51
282.809604
0
ARC
8
DEFAULT_255_1_234
10
4.5298568
20
45.0385212
40
0.7266847
50
270.0021091
51
270.3581957
0
ARC
8
DEFAULT_255_1_234
10
4.5245985
20
44.7784585
40
0.4666519
50
250.7884749
51
270.6489167
0
ARC
8
DEFAULT_255_1_234
10
4.507782
20
44.7147319
40
0.4009729
50
219.3627325
51
250.0611886
0
ARC
8
DEFAULT_255_1_234
10
4.5907031
20
44.7852042
40
0.5097822
50
193.5479632
51
219.5756669
0
ARC
8
DEFAULT_255_1_234
10
4.8278652
20
44.8467919
40
0.7547848
50
181.1218675
51
193.87563
0
ARC
8
DEFAULT_255_1_234
10
5.0348833
20
44.857858
40
0.9620055
50
179.9918545
51
181.5394234
0
ARC
8
DEFAULT_255_1_234
10
4.8497935
20
44.9741788
40
0.7769248
50
169.5837241
51
180.2757934
0
ARC
8
DEFAULT_255_1_234
10
4.6660873
20
45.0081229
40
0.590109
50
155.0365899
51
169.6003176
0
ARC
8
DEFAULT_255_1_234
10
4.5525337
20
45.0628677
40
0.4640625
50
136.783148
51
155.2472683
0
ARC
8
DEFAULT_255_1_234
10
4.5135814
20
45.0959562
40
0.4130255
50
121.7633186
51
136.428115
0
ARC
8
DEFAULT_255_1_234
10
4.5270776
20
45.0710227
40
0.4413323
50
95.6459699
51
121.5490577
0
ARC
8
DEFAULT_255_1_234
10
4.5428058
20
44.9601949
40
0.55319
50
89.924208
51
96.1377933
0
ARC
8
DEFAULT_255_1_234
10
4.5478491
20
44.9720542
40
0.5413475
50
76.6779277
51
90.4563316
0
ARC
8
DEFAULT_255_1_234
10
4.5872114
20
45.1311114
40
0.3775041
50
47.485847
51
76.9287264
0
ARC
8
DEFAULT_255_1_234
10
4.5725087
20
45.1211159
40
0.3948286
50
16.5424086
51
46.8933463
0
ARC
8
DEFAULT_255_1_234
10
4.4117244
20
45.0682861
40
0.564021
50
5.4072051
51
17.0365086
0
ARC
8
DEFAULT_255_1_234
10
4.2678261
20
45.0451679
40
0.5556559
50
7.8891745
51
15.9239216
0
ARC
8
DEFAULT_255_1_234
10
4.4665274
20
45.1028631
40
0.3487515
50
15.7653144
51
27.9410532
0
ARC
8
DEFAULT_255_1_234
10
4.5769492
20
45.161979
40
0.2235026
50
27.8166557
51
46.4008329
0
ARC
8
DEFAULT_255_1_234
10
4.5819135
20
45.1614082
40
0.2205286
50
47.4371857
51
75.0698205
0
ARC
8
DEFAULT_255_1_234
10
4.5510529
20
45.0539765
40
0.3322915
50
74.7008593
51
87.8124495
0
ARC
8
DEFAULT_255_1_234
10
4.5437217
20
44.9483844
40
0.4380987
50
87.3814673
51
90.0240855
0
ARC
8
DEFAULT_255_1_234
10
4.539876
20
45.0661291
40
0.3203749
50
89.3451631
51
108.5745436
0
ARC
8
DEFAULT_255_1_234
10
4.5261865
20
45.1174908
40
0.2673494
50
109.2998449
51
143.3037509
0
ARC
8
DEFAULT_255_1_234
10
4.6023938
20
45.0588881
40
0.3634757
50
143.0753173
51
163.1916937
0
ARC
8
DEFAULT_255_1_234
10
4.7975666
20
44.9972967
40
0.5681262
50
162.9373603
51
174.6208611
0
ARC
8
DEFAULT_255_1_234
10
5.0601708
20
44.968501
40
0.8322832
50
174.3419979
51
180.1430411
0
ARC
8
DEFAULT_255_1_234
10
4.9670864
20
44.8490698
40
0.7392076
50
179.6817502
51
189.150529
0
ARC
8
DEFAULT_255_1_234
10
4.7170112
20
44.807419
40
0.4856932
50
188.9910863
51
203.5773039
0
ARC
8
DEFAULT_255_1_234
10
4.6090445
20
44.7626211
40
0.3688271
50
203.9077269
51
215.1312379
0
ARC
8
DEFAULT_255_1_234
10
4.5167539
20
44.6910941
40
0.2522457
50
213.9071664
51
263.8849284
0
ARC
8
DEFAULT_255_1_234
10
4.5292868
20
44.7695518
40
0.3316174
50
263.1758525
51
270.1031083
0
ARC
8
DEFAULT_255_1_234
10
4.532496
20
44.8942365
40
0.4563091
50
269.6719807
51
279.0609165
0
ARC
8
DEFAULT_255_1_234
10
4.5591728
20
44.7329907
40
0.2928759
50
278.8750225
51
293.6346586
0
ARC
8
DEFAULT_255_1_234
10
4.5911936
20
44.65779
40
0.2111472
50
293.8553404
51
310.0518804
0
ARC
8
DEFAULT_255_1_234
10
4.591679
20
44.6515516
40
0.2060917
50
311.0646779
51
332.0108348
0
ARC
8
DEFAULT_255_1_234
10
4.4724517
20
44.7172978
40
0.3422352
50
331.6588543
51
343.2878891
0
ARC
8
DEFAULT_255_1_234
10
4.2662032
20
44.7806798
40
0.5580003
50
343.1446044
51
351.010618
0
ARC
8
DEFAULT_255_1_234
10
4.1120678
20
44.8087871
40
0.7146438
50
350.7157277
51
351.1602153
0
LINE
8
DEFAULT_255_1_234
10
5.6736031
20
44.6668394
11
5.6736031
21
45.4973211
0
LINE
8
DEFAULT_255_1_234
10
5.6736031
20
45.4973211
11
5.8286157
21
45.4973211
0
LINE
8
DEFAULT_255_1_234
10
5.8286157
20
45.4973211
11
5.8286157
21
44.6692489
0
LINE
8
DEFAULT_255_1_234
10
5.0904989
20
44.6507759
11
5.2447083
21
44.6507759
0
ARC
8
DEFAULT_255_1_234
10
5.3795342
20
44.6654089
40
0.4490979
50
346.3129415
51
0.4899112
0
ARC
8
DEFAULT_255_1_234
10
5.5163691
20
44.6303729
40
0.3078632
50
313.3793358
51
346.6225026
0
ARC
8
DEFAULT_255_1_234
10
5.4962878
20
44.6556522
40
0.3400404
50
281.1587967
51
312.9131091
0
ARC
8
DEFAULT_255_1_234
10
5.4622342
20
44.8051185
40
0.4932916
50
269.6424364
51
281.6795951
0
ARC
8
DEFAULT_255_1_234
10
5.4553706
20
44.8600382
40
0.5482147
50
258.9990078
51
270.3955952
0
ARC
8
DEFAULT_255_1_234
10
5.417901
20
44.6751746
40
0.359601
50
239.6256123
51
259.238693
0
ARC
8
DEFAULT_255_1_234
10
5.3890093
20
44.6206669
40
0.2979777
50
227.4959765
51
239.1188186
0
ARC
8
DEFAULT_255_1_234
10
5.3852659
20
44.6145689
40
0.2909561
50
191.339631
51
227.2280909
0
ARC
8
DEFAULT_255_1_234
10
5.52573
20
44.6478031
40
0.4352412
50
179.6086538
51
191.9934722
0
ARC
8
DEFAULT_255_1_234
10
5.5391322
20
44.6485427
40
0.2944324
50
179.5654258
51
192.070398
0
ARC
8
DEFAULT_255_1_234
10
5.4419812
20
44.6267079
40
0.194866
50
191.7656467
51
215.6461951
0
ARC
8
DEFAULT_255_1_234
10
5.4241313
20
44.6159546
40
0.1741017
50
216.1938368
51
224.3931108
0
ARC
8
DEFAULT_255_1_234
10
5.4248199
20
44.6186473
40
0.1764834
50
224.8613677
51
254.362656
0
ARC
8
DEFAULT_255_1_234
10
5.4518913
20
44.708101
40
0.2699302
50
253.9471729
51
267.3949949
0
ARC
8
DEFAULT_255_1_234
10
5.458942
20
44.8005067
40
0.362572
50
266.9456419
51
270.0337791
0
ARC
8
DEFAULT_255_1_234
10
5.46148
20
44.684323
40
0.2463991
50
269.4595111
51
286.1822844
0
ARC
8
DEFAULT_255_1_234
10
5.475609
20
44.6325047
40
0.1926982
50
286.4416479
51
315.8044008
0
ARC
8
DEFAULT_255_1_234
10
5.4701897
20
44.6367207
40
0.1995241
50
316.0212565
51
345.4794351
0
ARC
8
DEFAULT_255_1_234
10
5.3731404
20
44.6640575
40
0.3003349
50
345.0729543
51
358.325089
0
ARC
8
DEFAULT_255_1_234
10
5.2855375
20
44.6696568
40
0.3880759
50
357.8767804
51
359.5840246
0
LINE
8
DEFAULT_255_1_234
10
4.3867902
20
53.4348211
11
4.3867902
21
52.2654
0
LINE
8
DEFAULT_255_1_234
10
4.3867902
20
52.2654
11
4.2325808
21
52.2654
0
LINE
8
DEFAULT_255_1_234
10
4.2325808
20
52.2654
11
4.2325808
21
53.4348211
0
LINE
8
DEFAULT_255_1_234
10
4.2325808
20
53.4348211
11
4.3867902
21
53.4348211
0
LINE
8
DEFAULT_255_1_234
10
5.5674557
20
53.4348211
11
5.5674557
21
52.2654
0
LINE
8
DEFAULT_255_1_234
10
5.5674557
20
52.2654
11
5.4124432
21
52.2654
0
LINE
8
DEFAULT_255_1_234
10
5.4124432
20
52.2654
11
4.8237167
21
53.166561
0
LINE
8
DEFAULT_255_1_234
10
4.8237167
20
53.166561
11
4.8237167
21
52.2654
0
LINE
8
DEFAULT_255_1_234
10
4.8237167
20
52.2654
11
4.6687042
21
52.2654
0
LINE
8
DEFAULT_255_1_234
10
4.6687042
20
52.2654
11
4.6687042
21
53.4348211
0
LINE
8
DEFAULT_255_1_234
10
4.6687042
20
53.4348211
11
4.8237167
21
53.4348211
0
LINE
8
DEFAULT_255_1_234
10
4.8237167
20
53.4348211
11
5.4140495
21
52.5296442
0
LINE
8
DEFAULT_255_1_234
10
5.4140495
20
52.5296442
11
5.4140495
21
53.4348211
0
LINE
8
DEFAULT_255_1_234
10
5.4140495
20
53.4348211
11
5.5674557
21
53.4348211
0
LINE
8
DEFAULT_255_1_234
10
6.5690135
20
52.3866792
11
6.5690135
21
52.2654
0
LINE
8
DEFAULT_255_1_234
10
6.5690135
20
52.2654
11
5.8027856
21
52.2654
0
LINE
8
DEFAULT_255_1_234
10
5.8027856
20
52.2654
11
5.8027856
21
52.3722221
0
LINE
8
DEFAULT_255_1_234
10
5.8027856
20
52.3722221
11
6.2075853
21
52.8219995
0
LINE
8
DEFAULT_255_1_234
10
5.9288839
20
53.0902595
11
5.7802968
21
53.0902595
0
LINE
8
DEFAULT_255_1_234
10
6.2951312
20
52.7264218
11
5.9818934
21
52.3866792
0
LINE
8
DEFAULT_255_1_234
10
5.9818934
20
52.3866792
11
6.5690135
21
52.3866792
0
ARC
8
DEFAULT_255_1_234
10
4.8585686
20
54.0149527
40
1.8008286
50
318.5132453
51
320.7828378
0
ARC
8
DEFAULT_255_1_234
10
5.387266
20
53.5846426
40
1.1191493
50
320.7372736
51
323.9737074
0
ARC
8
DEFAULT_255_1_234
10
5.7792517
20
53.3006361
40
0.6350923
50
323.8961724
51
328.6421089
0
ARC
8
DEFAULT_255_1_234
10
5.9839112
20
53.1744031
40
0.3946393
50
328.8299013
51
331.789948
0
ARC
8
DEFAULT_255_1_234
10
6.0836291
20
53.1229509
40
0.2824501
50
331.4255242
51
352.9364833
0
ARC
8
DEFAULT_255_1_234
10
6.0972791
20
53.1198976
40
0.2685315
50
353.2248685
51
0.0169286
0
ARC
8
DEFAULT_255_1_234
10
6.1182668
20
53.122195
40
0.2475536
50
359.4866256
51
15.9339782
0
ARC
8
DEFAULT_255_1_234
10
6.1689653
20
53.1358286
40
0.1950618
50
16.1714718
51
43.5284424
0
ARC
8
DEFAULT_255_1_234
10
6.1766962
20
53.1435573
40
0.184134
50
43.4415429
51
83.1661404
0
ARC
8
DEFAULT_255_1_234
10
6.163288
20
53.0698771
40
0.258926
50
82.160215
51
90.1505798
0
ARC
8
DEFAULT_255_1_234
10
6.1601308
20
53.0161865
40
0.3126255
50
89.5460705
51
102.5418777
0
ARC
8
DEFAULT_255_1_234
10
6.1358394
20
53.1192665
40
0.2067346
50
102.1739365
51
129.2061916
0
ARC
8
DEFAULT_255_1_234
10
6.1279465
20
53.1317094
40
0.1921118
50
129.7279328
51
135.7542026
0
ARC
8
DEFAULT_255_1_234
10
6.1400993
20
53.1220045
40
0.2075944
50
136.175737
51
166.3674722
0
ARC
8
DEFAULT_255_1_234
10
6.2407912
20
53.0950182
40
0.3118201
50
165.9092917
51
178.8683903
0
ARC
8
DEFAULT_255_1_234
10
6.3272774
20
53.0903179
40
0.3983935
50
178.438168
51
180.0083905
0
ARC
8
DEFAULT_255_1_234
10
6.1871376
20
53.0942231
40
0.4068601
50
163.2878735
51
180.5581814
0
ARC
8
DEFAULT_255_1_234
10
6.1069637
20
53.116284
40
0.3237344
50
133.454115
51
162.9470031
0
ARC
8
DEFAULT_255_1_234
10
6.1248178
20
53.0973
40
0.349795
50
100.7869394
51
133.4384016
0
ARC
8
DEFAULT_255_1_234
10
6.159595
20
52.9424319
40
0.5084616
50
89.6605301
51
101.3704185
0
ARC
8
DEFAULT_255_1_234
10
6.1662289
20
52.9485496
40
0.502348
50
78.2171172
51
90.4130393
0
ARC
8
DEFAULT_255_1_234
10
6.2017367
20
53.1109637
40
0.3361092
50
55.9268222
51
78.4888551
0
ARC
8
DEFAULT_255_1_234
10
6.2213807
20
53.1448324
40
0.2970617
50
47.9292255
51
55.4054003
0
ARC
8
DEFAULT_255_1_234
10
6.2315368
20
53.1551502
40
0.2825983
50
4.3347696
51
48.0560701
0
ARC
8
DEFAULT_255_1_234
10
6.1219761
20
53.1381601
40
0.393225
50
359.925209
51
5.5967654
0
ARC
8
DEFAULT_255_1_234
10
6.1648653
20
53.1437816
40
0.3503892
50
337.8914096
51
358.9967724
0
ARC
8
DEFAULT_255_1_234
10
5.8935065
20
53.2484706
40
0.6412172
50
326.9135351
51
338.3505194
0
ARC
8
DEFAULT_255_1_234
10
5.4949369
20
53.5039284
40
1.1146189
50
319.6472867
51
327.095818
0
ARC
8
DEFAULT_255_1_234
10
5.1116372
20
53.8201
40
1.6114559
50
317.2586784
51
319.9046139
0
LINE
8
DEFAULT_255_1_234
10
7.0509178
20
52.8228026
11
7.0509178
21
52.7015234
0
LINE
8
DEFAULT_255_1_234
10
7.0509178
20
52.7015234
11
6.6589689
21
52.7015234
0
LINE
8
DEFAULT_255_1_234
10
6.6589689
20
52.7015234
11
6.6589689
21
52.8228026
0
LINE
8
DEFAULT_255_1_234
10
6.6589689
20
52.8228026
11
7.0509178
21
52.8228026
0
LINE
8
DEFAULT_255_1_234
10
4.3867902
20
61.3723211
11
4.3867902
21
60.2029
0
LINE
8
DEFAULT_255_1_234
10
4.3867902
20
60.2029
11
4.2325808
21
60.2029
0
LINE
8
DEFAULT_255_1_234
10
4.2325808
20
60.2029
11
4.2325808
21
61.3723211
0
LINE
8
DEFAULT_255_1_234
10
4.2325808
20
61.3723211
11
4.3867902
21
61.3723211
0
LINE
8
DEFAULT_255_1_234
10
5.5674557
20
61.3723211
11
5.5674557
21
60.2029
0
LINE
8
DEFAULT_255_1_234
10
5.5674557
20
60.2029
11
5.4124432
21
60.2029
0
LINE
8
DEFAULT_255_1_234
10
5.4124432
20
60.2029
11
4.8237167
21
61.104061
0
LINE
8
DEFAULT_255_1_234
10
4.8237167
20
61.104061
11
4.8237167
21
60.2029
0
LINE
8
DEFAULT_255_1_234
10
4.8237167
20
60.2029
11
4.6687042
21
60.2029
0
LINE
8
DEFAULT_255_1_234
10
4.6687042
20
60.2029
11
4.6687042
21
61.3723211
0
LINE
8
DEFAULT_255_1_234
10
4.6687042
20
61.3723211
11
4.8237167
21
61.3723211
0
LINE
8
DEFAULT_255_1_234
10
4.8237167
20
61.3723211
11
5.4140495
21
60.4671442
0
LINE
8
DEFAULT_255_1_234
10
5.4140495
20
60.4671442
11
5.4140495
21
61.3723211
0
LINE
8
DEFAULT_255_1_234
10
5.4140495
20
61.3723211
11
5.5674557
21
61.3723211
0
LINE
8
DEFAULT_255_1_234
10
6.2911153
20
61.3779433
11
6.2911153
21
60.2029
0
LINE
8
DEFAULT_255_1_234
10
6.2911153
20
60.2029
11
6.141725
21
60.2029
0
LINE
8
DEFAULT_255_1_234
10
6.141725
20
60.2029
11
6.141725
21
61.1932133
0
LINE
8
DEFAULT_255_1_234
10
6.141725
20
61.1932133
11
5.8421412
21
61.0831785
0
LINE
8
DEFAULT_255_1_234
10
5.8421412
20
61.0831785
11
5.8421412
21
61.2181117
0
LINE
8
DEFAULT_255_1_234
10
5.8421412
20
61.2181117
11
6.2678233
21
61.3779433
0
LINE
8
DEFAULT_255_1_234
10
6.2678233
20
61.3779433
11
6.2911153
21
61.3779433
0
LINE
8
DEFAULT_255_1_234
10
7.0509178
20
60.7603026
11
7.0509178
21
60.6390234
0
LINE
8
DEFAULT_255_1_234
10
7.0509178
20
60.6390234
11
6.6589689
21
60.6390234
0
LINE
8
DEFAULT_255_1_234
10
6.6589689
20
60.6390234
11
6.6589689
21
60.7603026
0
LINE
8
DEFAULT_255_1_234
10
6.6589689
20
60.7603026
11
7.0509178
21
60.7603026
0
LINE
8
DEFAULT_255_1_234
10
4.3602902
20
69.3098211
11
4.3602902
21
68.1404
0
LINE
8
DEFAULT_255_1_234
10
4.3602902
20
68.1404
11
4.2060808
21
68.1404
0
LINE
8
DEFAULT_255_1_234
10
4.2060808
20
68.1404
11
4.2060808
21
69.3098211
0
LINE
8
DEFAULT_255_1_234
10
4.2060808
20
69.3098211
11
4.3602902
21
69.3098211
0
LINE
8
DEFAULT_255_1_234
10
5.5409557
20
69.3098211
11
5.5409557
21
68.1404
0
LINE
8
DEFAULT_255_1_234
10
5.5409557
20
68.1404
11
5.3859432
21
68.1404
0
LINE
8
DEFAULT_255_1_234
10
5.3859432
20
68.1404
11
4.7972167
21
69.041561
0
LINE
8
DEFAULT_255_1_234
10
4.7972167
20
69.041561
11
4.7972167
21
68.1404
0
LINE
8
DEFAULT_255_1_234
10
4.7972167
20
68.1404
11
4.6422042
21
68.1404
0
LINE
8
DEFAULT_255_1_234
10
4.6422042
20
68.1404
11
4.6422042
21
69.3098211
0
LINE
8
DEFAULT_255_1_234
10
4.6422042
20
69.3098211
11
4.7972167
21
69.3098211
0
LINE
8
DEFAULT_255_1_234
10
4.7972167
20
69.3098211
11
5.3875495
21
68.4046442
0
LINE
8
DEFAULT_255_1_234
10
5.3875495
20
68.4046442
11
5.3875495
21
69.3098211
0
LINE
8
DEFAULT_255_1_234
10
5.3875495
20
69.3098211
11
5.5409557
21
69.3098211
0
LINE
8
DEFAULT_255_1_234
10
6.5425135
20
68.2616792
11
6.5425135
21
68.1404
0
LINE
8
DEFAULT_255_1_234
10
6.5425135
20
68.1404
11
5.7762856
21
68.1404
0
LINE
8
DEFAULT_255_1_234
10
5.7762856
20
68.1404
11
5.7762856
21
68.2472221
0
LINE
8
DEFAULT_255_1_234
10
5.7762856
20
68.2472221
11
6.1810853
21
68.6969995
0
LINE
8
DEFAULT_255_1_234
10
5.9023839
20
68.9652595
11
5.7537968
21
68.9652595
0
LINE
8
DEFAULT_255_1_234
10
6.2686312
20
68.6014218
11
5.9553934
21
68.2616792
0
LINE
8
DEFAULT_255_1_234
10
5.9553934
20
68.2616792
11
6.5425135
21
68.2616792
0
ARC
8
DEFAULT_255_1_234
10
4.8320686
20
69.8899527
40
1.8008286
50
318.5132453
51
320.7828378
0
ARC
8
DEFAULT_255_1_234
10
5.360766
20
69.4596426
40
1.1191493
50
320.7372736
51
323.9737074
0
ARC
8
DEFAULT_255_1_234
10
5.7527517
20
69.1756361
40
0.6350923
50
323.8961724
51
328.6421089
0
ARC
8
DEFAULT_255_1_234
10
5.9574112
20
69.0494031
40
0.3946393
50
328.8299013
51
331.789948
0
ARC
8
DEFAULT_255_1_234
10
6.0571291
20
68.9979509
40
0.2824501
50
331.4255242
51
352.9364833
0
ARC
8
DEFAULT_255_1_234
10
6.0707791
20
68.9948976
40
0.2685315
50
353.2248685
51
0.0169286
0
ARC
8
DEFAULT_255_1_234
10
6.0917668
20
68.997195
40
0.2475536
50
359.4866256
51
15.9339782
0
ARC
8
DEFAULT_255_1_234
10
6.1424653
20
69.0108286
40
0.1950618
50
16.1714718
51
43.5284424
0
ARC
8
DEFAULT_255_1_234
10
6.1501962
20
69.0185573
40
0.184134
50
43.4415429
51
83.1661404
0
ARC
8
DEFAULT_255_1_234
10
6.136788
20
68.9448771
40
0.258926
50
82.160215
51
90.1505798
0
ARC
8
DEFAULT_255_1_234
10
6.1336308
20
68.8911865
40
0.3126255
50
89.5460705
51
102.5418777
0
ARC
8
DEFAULT_255_1_234
10
6.1093394
20
68.9942665
40
0.2067346
50
102.1739365
51
129.2061916
0
ARC
8
DEFAULT_255_1_234
10
6.1014465
20
69.0067094
40
0.1921118
50
129.7279328
51
135.7542026
0
ARC
8
DEFAULT_255_1_234
10
6.1135993
20
68.9970045
40
0.2075944
50
136.175737
51
166.3674722
0
ARC
8
DEFAULT_255_1_234
10
6.2142912
20
68.9700182
40
0.3118201
50
165.9092917
51
178.8683903
0
ARC
8
DEFAULT_255_1_234
10
6.3007774
20
68.9653179
40
0.3983935
50
178.438168
51
180.0083905
0
ARC
8
DEFAULT_255_1_234
10
6.1606376
20
68.9692231
40
0.4068601
50
163.2878735
51
180.5581814
0
ARC
8
DEFAULT_255_1_234
10
6.0804637
20
68.991284
40
0.3237344
50
133.454115
51
162.9470031
0
ARC
8
DEFAULT_255_1_234
10
6.0983178
20
68.9723
40
0.349795
50
100.7869394
51
133.4384016
0
ARC
8
DEFAULT_255_1_234
10
6.133095
20
68.8174319
40
0.5084616
50
89.6605301
51
101.3704185
0
ARC
8
DEFAULT_255_1_234
10
6.1397289
20
68.8235496
40
0.502348
50
78.2171172
51
90.4130393
0
ARC
8
DEFAULT_255_1_234
10
6.1752367
20
68.9859637
40
0.3361092
50
55.9268222
51
78.4888551
0
ARC
8
DEFAULT_255_1_234
10
6.1948807
20
69.0198324
40
0.2970617
50
47.9292255
51
55.4054003
0
ARC
8
DEFAULT_255_1_234
10
6.2050368
20
69.0301502
40
0.2825983
50
4.3347696
51
48.0560701
0
ARC
8
DEFAULT_255_1_234
10
6.0954761
20
69.0131601
40
0.393225
50
359.925209
51
5.5967654
0
ARC
8
DEFAULT_255_1_234
10
6.1383653
20
69.0187816
40
0.3503892
50
337.8914096
51
358.9967724
0
ARC
8
DEFAULT_255_1_234
10
5.8670065
20
69.1234706
40
0.6412172
50
326.9135351
51
338.3505194
0
ARC
8
DEFAULT_255_1_234
10
5.4684369
20
69.3789284
40
1.1146189
50
319.6472867
51
327.095818
0
ARC
8
DEFAULT_255_1_234
10
5.0851372
20
69.6951
40
1.6114559
50
317.2586784
51
319.9046139
0
LINE
8
DEFAULT_255_1_234
10
7.140878
20
69.1090276
11
7.140878
21
68.7676788
0
LINE
8
DEFAULT_255_1_234
10
7.140878
20
68.7676788
11
7.4669666
21
68.7676788
0
LINE
8
DEFAULT_255_1_234
10
7.4669666
20
68.7676788
11
7.4669666
21
68.6271233
0
LINE
8
DEFAULT_255_1_234
10
7.4669666
20
68.6271233
11
7.140878
21
68.6271233
0
LINE
8
DEFAULT_255_1_234
10
7.140878
20
68.6271233
11
7.140878
21
68.2576634
0
LINE
8
DEFAULT_255_1_234
10
7.140878
20
68.2576634
11
6.9914876
21
68.2576634
0
LINE
8
DEFAULT_255_1_234
10
6.9914876
20
68.2576634
11
6.9914876
21
68.6271233
0
LINE
8
DEFAULT_255_1_234
10
6.9914876
20
68.6271233
11
6.6653991
21
68.6271233
0
LINE
8
DEFAULT_255_1_234
10
6.6653991
20
68.6271233
11
6.6653991
21
68.7676788
0
LINE
8
DEFAULT_255_1_234
10
6.6653991
20
68.7676788
11
6.9914876
21
68.7676788
0
LINE
8
DEFAULT_255_1_234
10
6.9914876
20
68.7676788
11
6.9914876
21
69.1090276
0
LINE
8
DEFAULT_255_1_234
10
6.9914876
20
69.1090276
11
7.140878
21
69.1090276
0
LINE
8
DEFAULT_255_1_234
10
4.3602902
20
77.2473211
11
4.3602902
21
76.0779
0
LINE
8
DEFAULT_255_1_234
10
4.3602902
20
76.0779
11
4.2060808
21
76.0779
0
LINE
8
DEFAULT_255_1_234
10
4.2060808
20
76.0779
11
4.2060808
21
77.2473211
0
LINE
8
DEFAULT_255_1_234
10
4.2060808
20
77.2473211
11
4.3602902
21
77.2473211
0
LINE
8
DEFAULT_255_1_234
10
5.5409557
20
77.2473211
11
5.5409557
21
76.0779
0
LINE
8
DEFAULT_255_1_234
10
5.5409557
20
76.0779
11
5.3859432
21
76.0779
0
LINE
8
DEFAULT_255_1_234
10
5.3859432
20
76.0779
11
4.7972167
21
76.979061
0
LINE
8
DEFAULT_255_1_234
10
4.7972167
20
76.979061
11
4.7972167
21
76.0779
0
LINE
8
DEFAULT_255_1_234
10
4.7972167
20
76.0779
11
4.6422042
21
76.0779
0
LINE
8
DEFAULT_255_1_234
10
4.6422042
20
76.0779
11
4.6422042
21
77.2473211
0
LINE
8
DEFAULT_255_1_234
10
4.6422042
20
77.2473211
11
4.7972167
21
77.2473211
0
LINE
8
DEFAULT_255_1_234
10
4.7972167
20
77.2473211
11
5.3875495
21
76.3421442
0
LINE
8
DEFAULT_255_1_234
10
5.3875495
20
76.3421442
11
5.3875495
21
77.2473211
0
LINE
8
DEFAULT_255_1_234
10
5.3875495
20
77.2473211
11
5.5409557
21
77.2473211
0
LINE
8
DEFAULT_255_1_234
10
6.2646153
20
77.2529433
11
6.2646153
21
76.0779
0
LINE
8
DEFAULT_255_1_234
10
6.2646153
20
76.0779
11
6.115225
21
76.0779
0
LINE
8
DEFAULT_255_1_234
10
6.115225
20
76.0779
11
6.115225
21
77.0682133
0
LINE
8
DEFAULT_255_1_234
10
6.115225
20
77.0682133
11
5.8156412
21
76.9581785
0
LINE
8
DEFAULT_255_1_234
10
5.8156412
20
76.9581785
11
5.8156412
21
77.0931117
0
LINE
8
DEFAULT_255_1_234
10
5.8156412
20
77.0931117
11
6.2413233
21
77.2529433
0
LINE
8
DEFAULT_255_1_234
10
6.2413233
20
77.2529433
11
6.2646153
21
77.2529433
0
LINE
8
DEFAULT_255_1_234
10
7.140878
20
77.0465276
11
7.140878
21
76.7051788
0
LINE
8
DEFAULT_255_1_234
10
7.140878
20
76.7051788
11
7.4669666
21
76.7051788
0
LINE
8
DEFAULT_255_1_234
10
7.4669666
20
76.7051788
11
7.4669666
21
76.5646233
0
LINE
8
DEFAULT_255_1_234
10
7.4669666
20
76.5646233
11
7.140878
21
76.5646233
0
LINE
8
DEFAULT_255_1_234
10
7.140878
20
76.5646233
11
7.140878
21
76.1951634
0
LINE
8
DEFAULT_255_1_234
10
7.140878
20
76.1951634
11
6.9914876
21
76.1951634
0
LINE
8
DEFAULT_255_1_234
10
6.9914876
20
76.1951634
11
6.9914876
21
76.5646233
0
LINE
8
DEFAULT_255_1_234
10
6.9914876
20
76.5646233
11
6.6653991
21
76.5646233
0
LINE
8
DEFAULT_255_1_234
10
6.6653991
20
76.5646233
11
6.6653991
21
76.7051788
0
LINE
8
DEFAULT_255_1_234
10
6.6653991
20
76.7051788
11
6.9914876
21
76.7051788
0
LINE
8
DEFAULT_255_1_234
10
6.9914876
20
76.7051788
11
6.9914876
21
77.0465276
0
LINE
8
DEFAULT_255_1_234
10
6.9914876
20
77.0465276
11
7.140878
21
77.0465276
0
LINE
8
DEFAULT_255_1_234
10
22.1790119
20
84.1366792
11
22.1790119
21
84.0154
0
LINE
8
DEFAULT_255_1_234
10
22.1790119
20
84.0154
11
21.412784
21
84.0154
0
LINE
8
DEFAULT_255_1_234
10
21.412784
20
84.0154
11
21.412784
21
84.1222221
0
LINE
8
DEFAULT_255_1_234
10
21.412784
20
84.1222221
11
21.8175836
21
84.5719995
0
LINE
8
DEFAULT_255_1_234
10
21.5388823
20
84.8402595
11
21.3902952
21
84.8402595
0
LINE
8
DEFAULT_255_1_234
10
21.9051296
20
84.4764218
11
21.5918918
21
84.1366792
0
LINE
8
DEFAULT_255_1_234
10
21.5918918
20
84.1366792
11
22.1790119
21
84.1366792
0
ARC
8
DEFAULT_255_1_234
10
20.468567
20
85.7649527
40
1.8008286
50
318.5132453
51
320.7828378
0
ARC
8
DEFAULT_255_1_234
10
20.9972644
20
85.3346426
40
1.1191493
50
320.7372736
51
323.9737074
0
ARC
8
DEFAULT_255_1_234
10
21.3892501
20
85.0506361
40
0.6350923
50
323.8961724
51
328.6421089
0
ARC
8
DEFAULT_255_1_234
10
21.5939096
20
84.9244031
40
0.3946393
50
328.8299013
51
331.789948
0
ARC
8
DEFAULT_255_1_234
10
21.6936274
20
84.8729509
40
0.2824501
50
331.4255242
51
352.9364833
0
ARC
8
DEFAULT_255_1_234
10
21.7072775
20
84.8698976
40
0.2685315
50
353.2248685
51
0.0169286
0
ARC
8
DEFAULT_255_1_234
10
21.7282652
20
84.872195
40
0.2475536
50
359.4866256
51
15.9339782
0
ARC
8
DEFAULT_255_1_234
10
21.7789637
20
84.8858286
40
0.1950618
50
16.1714718
51
43.5284424
0
ARC
8
DEFAULT_255_1_234
10
21.7866946
20
84.8935573
40
0.184134
50
43.4415429
51
83.1661404
0
ARC
8
DEFAULT_255_1_234
10
21.7732864
20
84.8198771
40
0.258926
50
82.160215
51
90.1505798
0
ARC
8
DEFAULT_255_1_234
10
21.7701291
20
84.7661865
40
0.3126255
50
89.5460705
51
102.5418777
0
ARC
8
DEFAULT_255_1_234
10
21.7458377
20
84.8692665
40
0.2067346
50
102.1739365
51
129.2061916
0
ARC
8
DEFAULT_255_1_234
10
21.7379449
20
84.8817094
40
0.1921118
50
129.7279328
51
135.7542026
0
ARC
8
DEFAULT_255_1_234
10
21.7500977
20
84.8720045
40
0.2075944
50
136.175737
51
166.3674722
0
ARC
8
DEFAULT_255_1_234
10
21.8507896
20
84.8450182
40
0.3118201
50
165.9092917
51
178.8683903
0
ARC
8
DEFAULT_255_1_234
10
21.9372757
20
84.8403179
40
0.3983935
50
178.438168
51
180.0083905
0
ARC
8
DEFAULT_255_1_234
10
21.7971359
20
84.8442231
40
0.4068601
50
163.2878735
51
180.5581814
0
ARC
8
DEFAULT_255_1_234
10
21.7169621
20
84.866284
40
0.3237344
50
133.454115
51
162.9470031
0
ARC
8
DEFAULT_255_1_234
10
21.7348162
20
84.8473
40
0.349795
50
100.7869394
51
133.4384016
0
ARC
8
DEFAULT_255_1_234
10
21.7695934
20
84.6924319
40
0.5084616
50
89.6605301
51
101.3704185
0
ARC
8
DEFAULT_255_1_234
10
21.7762273
20
84.6985496
40
0.502348
50
78.2171172
51
90.4130393
0
ARC
8
DEFAULT_255_1_234
10
21.8117351
20
84.8609637
40
0.3361092
50
55.9268222
51
78.4888551
0
ARC
8
DEFAULT_255_1_234
10
21.8313791
20
84.8948324
40
0.2970617
50
47.9292255
51
55.4054003
0
ARC
8
DEFAULT_255_1_234
10
21.8415352
20
84.9051502
40
0.2825983
50
4.3347696
51
48.0560701
0
ARC
8
DEFAULT_255_1_234
10
21.7319745
20
84.8881601
40
0.393225
50
359.925209
51
5.5967654
0
ARC
8
DEFAULT_255_1_234
10
21.7748637
20
84.8937816
40
0.3503892
50
337.8914096
51
358.9967724
0
ARC
8
DEFAULT_255_1_234
10
21.5035049
20
84.9984706
40
0.6412172
50
326.9135351
51
338.3505194
0
ARC
8
DEFAULT_255_1_234
10
21.1049353
20
85.2539284
40
1.1146189
50
319.6472867
51
327.095818
0
ARC
8
DEFAULT_255_1_234
10
20.7216356
20
85.5701
40
1.6114559
50
317.2586784
51
319.9046139
0
LINE
8
DEFAULT_255_1_234
10
22.9637127
20
85.1848211
11
22.9637127
21
84.408152
0
LINE
8
DEFAULT_255_1_234
10
22.9637127
20
84.408152
11
23.1259538
21
84.408152
0
LINE
8
DEFAULT_255_1_234
10
23.1259538
20
84.408152
11
23.1259538
21
84.2868728
0
LINE
8
DEFAULT_255_1_234
10
23.1259538
20
84.2868728
11
22.9637127
21
84.2868728
0
LINE
8
DEFAULT_255_1_234
10
22.9637127
20
84.2868728
11
22.9637127
21
84.0154
0
LINE
8
DEFAULT_255_1_234
10
22.9637127
20
84.0154
11
22.8143224
21
84.0154
0
LINE
8
DEFAULT_255_1_234
10
22.8143224
20
84.0154
11
22.8143224
21
84.2868728
0
LINE
8
DEFAULT_255_1_234
10
22.8143224
20
84.2868728
11
22.2818181
21
84.2868728
0
LINE
8
DEFAULT_255_1_234
10
22.2818181
20
84.2868728
11
22.2818181
21
84.3744187
0
LINE
8
DEFAULT_255_1_234
10
22.2818181
20
84.3744187
11
22.8054875
21
85.1848211
0
LINE
8
DEFAULT_255_1_234
10
22.8054875
20
85.1848211
11
22.9637127
21
85.1848211
0
LINE
8
DEFAULT_255_1_234
10
22.7966525
20
84.9494912
11
22.4504846
21
84.408152
0
LINE
8
DEFAULT_255_1_234
10
22.4504846
20
84.408152
11
22.8143224
21
84.408152
0
LINE
8
DEFAULT_255_1_234
10
22.8143224
20
84.408152
11
22.8143224
21
84.9816181
0
LINE
8
DEFAULT_255_1_234
10
22.8143224
20
84.9816181
11
22.7966525
21
84.9494912
0
LINE
8
DEFAULT_255_1_234
10
24.162048
20
84.597701
11
24.162048
21
84.1688062
0
LINE
8
DEFAULT_255_1_234
10
23.260887
20
84.5438884
11
23.260887
21
84.6458915
0
LINE
8
DEFAULT_255_1_234
10
24.162048
20
84.8418659
11
24.0078387
21
84.8418659
0
LINE
8
DEFAULT_255_1_234
10
23.4158996
20
84.6499073
11
23.4158996
21
84.5543296
0
LINE
8
DEFAULT_255_1_234
10
24.0086418
20
84.2097681
11
24.0086418
21
84.4724059
0
LINE
8
DEFAULT_255_1_234
10
24.0086418
20
84.4724059
11
23.7379723
21
84.4724059
0
LINE
8
DEFAULT_255_1_234
10
23.7379723
20
84.4724059
11
23.7379723
21
84.597701
0
LINE
8
DEFAULT_255_1_234
10
23.7379723
20
84.597701
11
24.162048
21
84.597701
0
ARC
8
DEFAULT_255_1_234
10
23.8788987
20
84.3681396
40
0.3462765
50
295.8437914
51
324.8549609
0
ARC
8
DEFAULT_255_1_234
10
23.8372954
20
84.4434567
40
0.4322211
50
291.5695085
51
296.4549398
0
ARC
8
DEFAULT_255_1_234
10
23.7862205
20
84.5799275
40
0.5779178
50
278.6622409
51
291.3045483
0
ARC
8
DEFAULT_255_1_234
10
23.7522697
20
84.7947408
40
0.7953952
50
270.020006
51
278.7494541
0
ARC
8
DEFAULT_255_1_234
10
23.7484621
20
84.9264036
40
0.927067
50
269.9969998
51
270.2524872
0
ARC
8
DEFAULT_255_1_234
10
23.7446334
20
84.5180589
40
0.5187361
50
253.5786322
51
270.4175299
0
ARC
8
DEFAULT_255_1_234
10
23.727299
20
84.4509236
40
0.4494451
50
238.8203306
51
253.2788235
0
ARC
8
DEFAULT_255_1_234
10
23.7253363
20
84.4458231
40
0.4440665
50
206.7883783
51
238.6962764
0
ARC
8
DEFAULT_255_1_234
10
23.8027273
20
84.4922405
40
0.5341121
50
206.1129412
51
207.4916643
0
ARC
8
DEFAULT_255_1_234
10
23.8624188
20
84.5176488
40
0.5989041
50
188.6921119
51
205.7821245
0
ARC
8
DEFAULT_255_1_234
10
24.048055
20
84.549223
40
0.7871862
50
180.3882829
51
188.9219216
0
ARC
8
DEFAULT_255_1_234
10
24.1708364
20
84.6515464
40
0.909967
50
170.2024264
51
180.3560651
0
ARC
8
DEFAULT_255_1_234
10
23.8544882
20
84.7081237
40
0.5886083
50
154.2857445
51
170.3893044
0
ARC
8
DEFAULT_255_1_234
10
23.7263085
20
84.766795
40
0.4476743
50
139.8401567
51
153.9332699
0
ARC
8
DEFAULT_255_1_234
10
23.6903821
20
84.7955577
40
0.4016697
50
98.4190291
51
139.6707122
0
ARC
8
DEFAULT_255_1_234
10
23.7283339
20
84.6110328
40
0.5898566
50
89.7659205
51
99.4415478
0
ARC
8
DEFAULT_255_1_234
10
23.7348588
20
84.6175844
40
0.5833147
50
78.0551672
51
90.4042112
0
ARC
8
DEFAULT_255_1_234
10
23.7753098
20
84.7994644
40
0.3970055
50
54.6380464
51
78.3339173
0
ARC
8
DEFAULT_255_1_234
10
23.7943154
20
84.8314795
40
0.3599102
50
50.031736
51
54.1558201
0
ARC
8
DEFAULT_255_1_234
10
23.7835942
20
84.8218766
40
0.3741624
50
18.1092409
51
49.7180913
0
ARC
8
DEFAULT_255_1_234
10
23.6379142
20
84.7685089
40
0.5292424
50
7.9672797
51
18.6984571
0
ARC
8
DEFAULT_255_1_234
10
23.652962
20
84.7808504
40
0.3600838
50
9.7557294
51
27.3215714
0
ARC
8
DEFAULT_255_1_234
10
23.7657092
20
84.8371912
40
0.2340608
50
27.7361077
51
84.5257964
0
ARC
8
DEFAULT_255_1_234
10
23.7329479
20
84.672864
40
0.4011215
50
82.106034
51
90.2001166
0
ARC
8
DEFAULT_255_1_234
10
23.7279696
20
84.7236215
40
0.3503799
50
89.4150119
51
105.5823402
0
ARC
8
DEFAULT_255_1_234
10
23.7022694
20
84.8171867
40
0.2533503
50
105.6678618
51
144.2648758
0
ARC
8
DEFAULT_255_1_234
10
23.7915949
20
84.7536289
40
0.3629787
50
144.3561283
51
162.8564086
0
ARC
8
DEFAULT_255_1_234
10
23.9999858
20
84.6867017
40
0.5818441
50
162.6076014
51
173.6780284
0
ARC
8
DEFAULT_255_1_234
10
24.3061002
20
84.649489
40
0.8902007
50
173.4670142
51
179.9730753
0
ARC
8
DEFAULT_255_1_234
10
24.1152673
20
84.550126
40
0.6993804
50
179.6556203
51
190.0080463
0
ARC
8
DEFAULT_255_1_234
10
23.8836502
20
84.5076375
40
0.4639066
50
189.8116607
51
206.6796816
0
ARC
8
DEFAULT_255_1_234
10
23.7991654
20
84.4682503
40
0.3707421
50
207.1031645
51
217.7074368
0
ARC
8
DEFAULT_255_1_234
10
23.7357343
20
84.4130559
40
0.2868417
50
216.7345547
51
265.6812148
0
ARC
8
DEFAULT_255_1_234
10
23.7488134
20
84.5034855
40
0.3780509
50
264.7366618
51
270.0611241
0
ARC
8
DEFAULT_255_1_234
10
23.7511397
20
84.7875111
40
0.662079
50
269.8335834
51
276.0539546
0
ARC
8
DEFAULT_255_1_234
10
23.7718402
20
84.597356
40
0.4708016
50
275.9894168
51
284.4615085
0
ARC
8
DEFAULT_255_1_234
10
23.7916409
20
84.5140663
40
0.3852094
50
284.7034461
51
286.4953897
0
ARC
8
DEFAULT_255_1_234
10
23.8323422
20
84.3829965
40
0.2479842
50
286.0770838
51
304.2625829
0
ARC
8
DEFAULT_255_1_234
10
23.8456836
20
84.3611594
40
0.2224291
50
304.5891602
51
317.1073298
0
LINE
8
DEFAULT_255_1_234
10
21.0339911
20
52.8862534
11
21.0339911
21
52.8123614
0
LINE
8
DEFAULT_255_1_234
10
20.0934745
20
52.8019201
11
20.0934745
21
52.8862534
0
LINE
8
DEFAULT_255_1_234
10
20.8805849
20
52.8011169
11
20.8805849
21
52.8878597
0
LINE
8
DEFAULT_255_1_234
10
20.2468807
20
52.898301
11
20.2468807
21
52.8123614
0
ARC
8
DEFAULT_255_1_234
10
20.1697937
20
52.8084015
40
0.8642064
50
350.487711
51
0.2625388
0
ARC
8
DEFAULT_255_1_234
10
20.3991178
20
52.7689578
40
0.631518
50
336.0277639
51
350.5787438
0
ARC
8
DEFAULT_255_1_234
10
20.5336002
20
52.7081892
40
0.4839466
50
319.8877444
51
336.1328423
0
ARC
8
DEFAULT_255_1_234
10
20.5938643
20
52.659958
40
0.4067874
50
302.4806467
51
319.6143626
0
ARC
8
DEFAULT_255_1_234
10
20.5823653
20
52.6821202
40
0.4316636
50
275.8195682
51
302.1884709
0
ARC
8
DEFAULT_255_1_234
10
20.5657286
20
52.7963665
40
0.5470306
50
269.9171439
51
276.3397983
0
ARC
8
DEFAULT_255_1_234
10
20.5612496
20
52.7277681
40
0.4784458
50
252.5219675
51
270.4416499
0
ARC
8
DEFAULT_255_1_234
10
20.5468755
20
52.6738592
40
0.422716
50
237.5352116
51
252.1857531
0
ARC
8
DEFAULT_255_1_234
10
20.5557951
20
52.6852363
40
0.4371052
50
209.063312
51
237.3492538
0
ARC
8
DEFAULT_255_1_234
10
20.6427799
20
52.7398685
40
0.5397041
50
205.1183774
51
209.6470015
0
ARC
8
DEFAULT_255_1_234
10
20.7224836
20
52.773683
40
0.6262326
50
188.7215458
51
204.8240747
0
ARC
8
DEFAULT_255_1_234
10
20.9222364
20
52.8073067
40
0.8287794
50
180.3723947
51
188.9252049
0
ARC
8
DEFAULT_255_1_234
10
20.9195116
20
52.8902402
40
0.8260467
50
169.5253763
51
180.2765336
0
ARC
8
DEFAULT_255_1_234
10
20.7292564
20
52.9252309
40
0.6326007
50
155.8315255
51
169.5089989
0
ARC
8
DEFAULT_255_1_234
10
20.6012066
20
52.9846348
40
0.4914567
50
139.6258461
51
156.0379525
0
ARC
8
DEFAULT_255_1_234
10
20.5422399
20
53.0320799
40
0.4158054
50
122.6416387
51
139.3430715
0
ARC
8
DEFAULT_255_1_234
10
20.5523019
20
53.0137451
40
0.4366739
50
93.0223692
51
122.455762
0
ARC
8
DEFAULT_255_1_234
10
20.5631016
20
52.9172709
40
0.5336137
50
89.975342
51
93.6341897
0
ARC
8
DEFAULT_255_1_234
10
20.5669795
20
52.9571242
40
0.4937738
50
73.746375
51
90.4233405
0
ARC
8
DEFAULT_255_1_234
10
20.5845373
20
53.0251287
40
0.4235786
50
57.662753
51
73.4518111
0
ARC
8
DEFAULT_255_1_234
10
20.583738
20
53.0272832
40
0.4221899
50
29.1440151
51
57.414694
0
ARC
8
DEFAULT_255_1_234
10
20.4902574
20
52.9689005
40
0.5322966
50
24.0982783
51
29.7323517
0
ARC
8
DEFAULT_255_1_234
10
20.386885
20
52.9260399
40
0.6441673
50
8.6655297
51
23.8241346
0
ARC
8
DEFAULT_255_1_234
10
20.1634588
20
52.8895854
40
0.8705386
50
359.7806941
51
8.8218784
0
ARC
8
DEFAULT_255_1_234
10
20.0487586
20
52.8921345
40
0.8318373
50
359.7055579
51
8.036044
0
ARC
8
DEFAULT_255_1_234
10
20.3487592
20
52.9358239
40
0.5286768
50
7.8928306
51
20.2962107
0
ARC
8
DEFAULT_255_1_234
10
20.5115162
20
52.9958395
40
0.3552073
50
20.3231126
51
36.4992797
0
ARC
8
DEFAULT_255_1_234
10
20.5800708
20
53.0486402
40
0.2686974
50
36.1437156
51
85.6627023
0
ARC
8
DEFAULT_255_1_234
10
20.5638254
20
52.9446221
40
0.373739
50
84.3852322
51
90.0757696
0
ARC
8
DEFAULT_255_1_234
10
20.5595927
20
53.0106839
40
0.3076997
50
89.3038458
51
109.9045693
0
ARC
8
DEFAULT_255_1_234
10
20.5503318
20
53.0489062
40
0.2686424
50
110.8228367
51
143.9179474
0
ARC
8
DEFAULT_255_1_234
10
20.6436978
20
52.9776236
40
0.3860887
50
143.5289163
51
163.2980757
0
ARC
8
DEFAULT_255_1_234
10
20.8344799
20
52.9176433
40
0.5860659
50
163.0418846
51
174.3140048
0
ARC
8
DEFAULT_255_1_234
10
21.0748911
20
52.8898854
40
0.8280531
50
174.0509143
51
179.4176892
0
ARC
8
DEFAULT_255_1_234
10
21.024465
20
52.8081954
40
0.7775954
50
179.6930361
51
188.7906598
0
ARC
8
DEFAULT_255_1_234
10
20.7581129
20
52.7655935
40
0.5078633
50
188.6331305
51
202.5629587
0
ARC
8
DEFAULT_255_1_234
10
20.6326721
20
52.7151996
40
0.3726913
50
202.8081362
51
216.1193925
0
ARC
8
DEFAULT_255_1_234
10
20.5517291
20
52.6500676
40
0.2689577
50
215.0755913
51
264.6379694
0
ARC
8
DEFAULT_255_1_234
10
20.564424
20
52.7331513
40
0.3528978
50
263.846392
51
270.0833719
0
ARC
8
DEFAULT_255_1_234
10
20.5685631
20
52.7073374
40
0.3271036
50
269.3649385
51
287.5152008
0
ARC
8
DEFAULT_255_1_234
10
20.5863788
20
52.6426238
40
0.2600406
50
288.0630309
51
323.8113348
0
ARC
8
DEFAULT_255_1_234
10
20.499263
20
52.7076049
40
0.3687189
50
323.6547608
51
342.6590488
0
ARC
8
DEFAULT_255_1_234
10
20.2961245
20
52.7736952
40
0.5823286
50
342.4091907
51
353.6451149
0
ARC
8
DEFAULT_255_1_234
10
20.0129756
20
52.808919
40
0.8676442
50
353.4029884
51
359.4847795
0
LINE
8
DEFAULT_255_1_234
10
21.9335458
20
53.4348211
11
22.0885583
21
53.4348211
0
LINE
8
DEFAULT_255_1_234
10
22.0885583
20
53.4348211
11
22.0885583
21
52.639679
0
LINE
8
DEFAULT_255_1_234
10
21.7046412
20
52.2509429
11
21.6636793
21
52.2493365
0
LINE
8
DEFAULT_255_1_234
10
21.2420131
20
52.6380727
11
21.2420131
21
53.4348211
0
LINE
8
DEFAULT_255_1_234
10
21.2420131
20
53.4348211
11
21.3946161
21
53.4348211
0
LINE
8
DEFAULT_255_1_234
10
21.3946161
20
53.4348211
11
21.3946161
21
52.6428917
0
LINE
8
DEFAULT_255_1_234
10
21.9335458
20
52.6420885
11
21.9335458
21
53.4348211
0
ARC
8
DEFAULT_255_1_234
10
21.6532481
20
52.6376928
40
0.4353147
50
343.0898354
51
0.2614217
0
ARC
8
DEFAULT_255_1_234
10
21.7360883
20
52.6145837
40
0.3493402
50
315.3345598
51
342.7641223
0
ARC
8
DEFAULT_255_1_234
10
21.7137332
20
52.6377682
40
0.3815385
50
284.6606969
51
315.2182466
0
ARC
8
DEFAULT_255_1_234
10
21.6682044
20
52.7923755
40
0.5426573
50
273.8500273
51
285.1797701
0
ARC
8
DEFAULT_255_1_234
10
21.6594095
20
52.8265475
40
0.5772268
50
257.6317484
51
270.4238298
0
ARC
8
DEFAULT_255_1_234
10
21.6169293
20
52.6444198
40
0.3902347
50
230.6087562
51
257.9964012
0
ARC
8
DEFAULT_255_1_234
10
21.6037295
20
52.6237802
40
0.3659186
50
227.7440991
51
230.1551448
0
ARC
8
DEFAULT_255_1_234
10
21.5903127
20
52.6076471
40
0.3449568
50
189.2524587
51
227.5916061
0
ARC
8
DEFAULT_255_1_234
10
21.7424813
20
52.6404013
40
0.5004737
50
180.2665968
51
190.1525252
0
ARC
8
DEFAULT_255_1_234
10
21.7646833
20
52.6400918
40
0.3700778
50
179.5665184
51
191.9952995
0
ARC
8
DEFAULT_255_1_234
10
21.6418939
20
52.6127043
40
0.2442808
50
191.6974072
51
215.1404042
0
ARC
8
DEFAULT_255_1_234
10
21.6180854
20
52.5985108
40
0.2166522
50
215.6950207
51
224.8513522
0
ARC
8
DEFAULT_255_1_234
10
21.6236598
20
52.6064697
40
0.2262237
50
225.2846858
51
255.0111758
0
ARC
8
DEFAULT_255_1_234
10
21.6560558
20
52.7178455
40
0.3421979
50
254.5944985
51
267.9129803
0
ARC
8
DEFAULT_255_1_234
10
21.6635038
20
52.8262903
40
0.4508556
50
267.4689655
51
270.0223026
0
ARC
8
DEFAULT_255_1_234
10
21.6665184
20
52.7673849
40
0.3919604
50
269.5849941
51
281.1843768
0
ARC
8
DEFAULT_255_1_234
10
21.6943948
20
52.6321059
40
0.2538457
50
280.9344262
51
300.9743589
0
ARC
8
DEFAULT_255_1_234
10
21.7156554
20
52.5929688
40
0.2093566
50
301.4980046
51
315.1466847
0
ARC
8
DEFAULT_255_1_234
10
21.7012092
20
52.6048236
40
0.2279656
50
315.5952539
51
345.6678731
0
ARC
8
DEFAULT_255_1_234
10
21.5892609
20
52.6360009
40
0.3441564
50
345.2524969
51
358.6304371
0
ARC
8
DEFAULT_255_1_234
10
21.4874963
20
52.6419916
40
0.4460494
50
358.1735671
51
0.0124524
0
LINE
8
DEFAULT_255_1_234
10
23.1399128
20
53.4348211
11
23.1399128
21
53.3079196
0
LINE
8
DEFAULT_255_1_234
10
23.1399128
20
53.3079196
11
22.7640275
21
53.3079196
0
LINE
8
DEFAULT_255_1_234
10
22.7640275
20
53.3079196
11
22.7640275
21
52.2654
0
LINE
8
DEFAULT_255_1_234
10
22.7640275
20
52.2654
11
22.6106213
21
52.2654
0
LINE
8
DEFAULT_255_1_234
10
22.6106213
20
52.2654
11
22.6106213
21
53.3079196
0
LINE
8
DEFAULT_255_1_234
10
22.6106213
20
53.3079196
11
22.2355391
21
53.3079196
0
LINE
8
DEFAULT_255_1_234
10
22.2355391
20
53.3079196
11
22.2355391
21
53.4348211
0
LINE
8
DEFAULT_255_1_234
10
22.2355391
20
53.4348211
11
23.1399128
21
53.4348211
0
LINE
8
DEFAULT_255_1_234
10
23.9021248
20
53.4348211
11
23.9021248
21
52.658152
0
LINE
8
DEFAULT_255_1_234
10
23.9021248
20
52.658152
11
24.0643659
21
52.658152
0
LINE
8
DEFAULT_255_1_234
10
24.0643659
20
52.658152
11
24.0643659
21
52.5368728
0
LINE
8
DEFAULT_255_1_234
10
24.0643659
20
52.5368728
11
23.9021248
21
52.5368728
0
LINE
8
DEFAULT_255_1_234
10
23.9021248
20
52.5368728
11
23.9021248
21
52.2654
0
LINE
8
DEFAULT_255_1_234
10
23.9021248
20
52.2654
11
23.7527345
21
52.2654
0
LINE
8
DEFAULT_255_1_234
10
23.7527345
20
52.2654
11
23.7527345
21
52.5368728
0
LINE
8
DEFAULT_255_1_234
10
23.7527345
20
52.5368728
11
23.2202302
21
52.5368728
0
LINE
8
DEFAULT_255_1_234
10
23.2202302
20
52.5368728
11
23.2202302
21
52.6244187
0
LINE
8
DEFAULT_255_1_234
10
23.2202302
20
52.6244187
11
23.7438996
21
53.4348211
0
LINE
8
DEFAULT_255_1_234
10
23.7438996
20
53.4348211
11
23.9021248
21
53.4348211
0
LINE
8
DEFAULT_255_1_234
10
23.7350646
20
53.1994912
11
23.3888967
21
52.658152
0
LINE
8
DEFAULT_255_1_234
10
23.3888967
20
52.658152
11
23.7527345
21
52.658152
0
LINE
8
DEFAULT_255_1_234
10
23.7527345
20
52.658152
11
23.7527345
21
53.2316181
0
LINE
8
DEFAULT_255_1_234
10
23.7527345
20
53.2316181
11
23.7350646
21
53.1994912
0
LINE
8
DEFAULT_255_1_234
10
21.1397911
20
60.8237534
11
21.1397911
21
60.7498614
0
LINE
8
DEFAULT_255_1_234
10
20.1992745
20
60.7394201
11
20.1992745
21
60.8237534
0
LINE
8
DEFAULT_255_1_234
10
20.9863849
20
60.7386169
11
20.9863849
21
60.8253597
0
LINE
8
DEFAULT_255_1_234
10
20.3526807
20
60.835801
11
20.3526807
21
60.7498614
0
ARC
8
DEFAULT_255_1_234
10
20.2755937
20
60.7459015
40
0.8642064
50
350.487711
51
0.2625388
0
ARC
8
DEFAULT_255_1_234
10
20.5049178
20
60.7064578
40
0.631518
50
336.0277639
51
350.5787438
0
ARC
8
DEFAULT_255_1_234
10
20.6394002
20
60.6456892
40
0.4839466
50
319.8877444
51
336.1328423
0
ARC
8
DEFAULT_255_1_234
10
20.6996643
20
60.597458
40
0.4067874
50
302.4806467
51
319.6143626
0
ARC
8
DEFAULT_255_1_234
10
20.6881653
20
60.6196202
40
0.4316636
50
275.8195682
51
302.1884709
0
ARC
8
DEFAULT_255_1_234
10
20.6715286
20
60.7338665
40
0.5470306
50
269.9171439
51
276.3397983
0
ARC
8
DEFAULT_255_1_234
10
20.6670496
20
60.6652681
40
0.4784458
50
252.5219675
51
270.4416499
0
ARC
8
DEFAULT_255_1_234
10
20.6526755
20
60.6113592
40
0.422716
50
237.5352116
51
252.1857531
0
ARC
8
DEFAULT_255_1_234
10
20.6615951
20
60.6227363
40
0.4371052
50
209.063312
51
237.3492538
0
ARC
8
DEFAULT_255_1_234
10
20.7485799
20
60.6773685
40
0.5397041
50
205.1183774
51
209.6470015
0
ARC
8
DEFAULT_255_1_234
10
20.8282836
20
60.711183
40
0.6262326
50
188.7215458
51
204.8240747
0
ARC
8
DEFAULT_255_1_234
10
21.0280364
20
60.7448067
40
0.8287794
50
180.3723947
51
188.9252049
0
ARC
8
DEFAULT_255_1_234
10
21.0253116
20
60.8277402
40
0.8260467
50
169.5253763
51
180.2765336
0
ARC
8
DEFAULT_255_1_234
10
20.8350564
20
60.8627309
40
0.6326007
50
155.8315255
51
169.5089989
0
ARC
8
DEFAULT_255_1_234
10
20.7070066
20
60.9221348
40
0.4914567
50
139.6258461
51
156.0379525
0
ARC
8
DEFAULT_255_1_234
10
20.6480399
20
60.9695799
40
0.4158054
50
122.6416387
51
139.3430715
0
ARC
8
DEFAULT_255_1_234
10
20.6581019
20
60.9512451
40
0.4366739
50
93.0223692
51
122.455762
0
ARC
8
DEFAULT_255_1_234
10
20.6689016
20
60.8547709
40
0.5336137
50
89.975342
51
93.6341897
0
ARC
8
DEFAULT_255_1_234
10
20.6727795
20
60.8946242
40
0.4937738
50
73.746375
51
90.4233405
0
ARC
8
DEFAULT_255_1_234
10
20.6903373
20
60.9626287
40
0.4235786
50
57.662753
51
73.4518111
0
ARC
8
DEFAULT_255_1_234
10
20.689538
20
60.9647832
40
0.4221899
50
29.1440151
51
57.414694
0
ARC
8
DEFAULT_255_1_234
10
20.5960574
20
60.9064005
40
0.5322966
50
24.0982783
51
29.7323517
0
ARC
8
DEFAULT_255_1_234
10
20.492685
20
60.8635399
40
0.6441673
50
8.6655297
51
23.8241346
0
ARC
8
DEFAULT_255_1_234
10
20.2692588
20
60.8270854
40
0.8705386
50
359.7806941
51
8.8218784
0
ARC
8
DEFAULT_255_1_234
10
20.1545586
20
60.8296345
40
0.8318373
50
359.7055579
51
8.036044
0
ARC
8
DEFAULT_255_1_234
10
20.4545592
20
60.8733239
40
0.5286768
50
7.8928306
51
20.2962107
0
ARC
8
DEFAULT_255_1_234
10
20.6173162
20
60.9333395
40
0.3552073
50
20.3231126
51
36.4992797
0
ARC
8
DEFAULT_255_1_234
10
20.6858708
20
60.9861402
40
0.2686974
50
36.1437156
51
85.6627023
0
ARC
8
DEFAULT_255_1_234
10
20.6696254
20
60.8821221
40
0.373739
50
84.3852322
51
90.0757696
0
ARC
8
DEFAULT_255_1_234
10
20.6653927
20
60.9481839
40
0.3076997
50
89.3038458
51
109.9045693
0
ARC
8
DEFAULT_255_1_234
10
20.6561318
20
60.9864062
40
0.2686424
50
110.8228367
51
143.9179474
0
ARC
8
DEFAULT_255_1_234
10
20.7494978
20
60.9151236
40
0.3860887
50
143.5289163
51
163.2980757
0
ARC
8
DEFAULT_255_1_234
10
20.9402799
20
60.8551433
40
0.5860659
50
163.0418846
51
174.3140048
0
ARC
8
DEFAULT_255_1_234
10
21.1806911
20
60.8273854
40
0.8280531
50
174.0509143
51
179.4176892
0
ARC
8
DEFAULT_255_1_234
10
21.130265
20
60.7456954
40
0.7775954
50
179.6930361
51
188.7906598
0
ARC
8
DEFAULT_255_1_234
10
20.8639129
20
60.7030935
40
0.5078633
50
188.6331305
51
202.5629587
0
ARC
8
DEFAULT_255_1_234
10
20.7384721
20
60.6526996
40
0.3726913
50
202.8081362
51
216.1193925
0
ARC
8
DEFAULT_255_1_234
10
20.6575291
20
60.5875676
40
0.2689577
50
215.0755913
51
264.6379694
0
ARC
8
DEFAULT_255_1_234
10
20.670224
20
60.6706513
40
0.3528978
50
263.846392
51
270.0833719
0
ARC
8
DEFAULT_255_1_234
10
20.6743631
20
60.6448374
40
0.3271036
50
269.3649385
51
287.5152008
0
ARC
8
DEFAULT_255_1_234
10
20.6921788
20
60.5801238
40
0.2600406
50
288.0630309
51
323.8113348
0
ARC
8
DEFAULT_255_1_234
10
20.605063
20
60.6451049
40
0.3687189
50
323.6547608
51
342.6590488
0
ARC
8
DEFAULT_255_1_234
10
20.4019245
20
60.7111952
40
0.5823286
50
342.4091907
51
353.6451149
0
ARC
8
DEFAULT_255_1_234
10
20.1187756
20
60.746419
40
0.8676442
50
353.4029884
51
359.4847795
0
LINE
8
DEFAULT_255_1_234
10
22.0393458
20
61.3723211
11
22.1943583
21
61.3723211
0
LINE
8
DEFAULT_255_1_234
10
22.1943583
20
61.3723211
11
22.1943583
21
60.577179
0
LINE
8
DEFAULT_255_1_234
10
21.8104412
20
60.1884429
11
21.7694793
21
60.1868365
0
LINE
8
DEFAULT_255_1_234
10
21.3478131
20
60.5755727
11
21.3478131
21
61.3723211
0
LINE
8
DEFAULT_255_1_234
10
21.3478131
20
61.3723211
11
21.5004161
21
61.3723211
0
LINE
8
DEFAULT_255_1_234
10
21.5004161
20
61.3723211
11
21.5004161
21
60.5803917
0
LINE
8
DEFAULT_255_1_234
10
22.0393458
20
60.5795885
11
22.0393458
21
61.3723211
0
ARC
8
DEFAULT_255_1_234
10
21.7590481
20
60.5751928
40
0.4353147
50
343.0898354
51
0.2614217
0
ARC
8
DEFAULT_255_1_234
10
21.8418883
20
60.5520837
40
0.3493402
50
315.3345598
51
342.7641223
0
ARC
8
DEFAULT_255_1_234
10
21.8195332
20
60.5752682
40
0.3815385
50
284.6606969
51
315.2182466
0
ARC
8
DEFAULT_255_1_234
10
21.7740044
20
60.7298755
40
0.5426573
50
273.8500273
51
285.1797701
0
ARC
8
DEFAULT_255_1_234
10
21.7652095
20
60.7640475
40
0.5772268
50
257.6317484
51
270.4238298
0
ARC
8
DEFAULT_255_1_234
10
21.7227293
20
60.5819198
40
0.3902347
50
230.6087562
51
257.9964012
0
ARC
8
DEFAULT_255_1_234
10
21.7095295
20
60.5612802
40
0.3659186
50
227.7440991
51
230.1551448
0
ARC
8
DEFAULT_255_1_234
10
21.6961127
20
60.5451471
40
0.3449568
50
189.2524587
51
227.5916061
0
ARC
8
DEFAULT_255_1_234
10
21.8482813
20
60.5779013
40
0.5004737
50
180.2665968
51
190.1525252
0
ARC
8
DEFAULT_255_1_234
10
21.8704833
20
60.5775918
40
0.3700778
50
179.5665184
51
191.9952995
0
ARC
8
DEFAULT_255_1_234
10
21.7476939
20
60.5502043
40
0.2442808
50
191.6974072
51
215.1404042
0
ARC
8
DEFAULT_255_1_234
10
21.7238854
20
60.5360108
40
0.2166522
50
215.6950207
51
224.8513522
0
ARC
8
DEFAULT_255_1_234
10
21.7294598
20
60.5439697
40
0.2262237
50
225.2846858
51
255.0111758
0
ARC
8
DEFAULT_255_1_234
10
21.7618558
20
60.6553455
40
0.3421979
50
254.5944985
51
267.9129803
0
ARC
8
DEFAULT_255_1_234
10
21.7693038
20
60.7637903
40
0.4508556
50
267.4689655
51
270.0223026
0
ARC
8
DEFAULT_255_1_234
10
21.7723184
20
60.7048849
40
0.3919604
50
269.5849941
51
281.1843768
0
ARC
8
DEFAULT_255_1_234
10
21.8001948
20
60.5696059
40
0.2538457
50
280.9344262
51
300.9743589
0
ARC
8
DEFAULT_255_1_234
10
21.8214554
20
60.5304688
40
0.2093566
50
301.4980046
51
315.1466847
0
ARC
8
DEFAULT_255_1_234
10
21.8070092
20
60.5423236
40
0.2279656
50
315.5952539
51
345.6678731
0
ARC
8
DEFAULT_255_1_234
10
21.6950609
20
60.5735009
40
0.3441564
50
345.2524969
51
358.6304371
0
ARC
8
DEFAULT_255_1_234
10
21.5932963
20
60.5794916
40
0.4460494
50
358.1735671
51
0.0124524
0
LINE
8
DEFAULT_255_1_234
10
23.2457128
20
61.3723211
11
23.2457128
21
61.2454196
0
LINE
8
DEFAULT_255_1_234
10
23.2457128
20
61.2454196
11
22.8698275
21
61.2454196
0
LINE
8
DEFAULT_255_1_234
10
22.8698275
20
61.2454196
11
22.8698275
21
60.2029
0
LINE
8
DEFAULT_255_1_234
10
22.8698275
20
60.2029
11
22.7164213
21
60.2029
0
LINE
8
DEFAULT_255_1_234
10
22.7164213
20
60.2029
11
22.7164213
21
61.2454196
0
LINE
8
DEFAULT_255_1_234
10
22.7164213
20
61.2454196
11
22.3413391
21
61.2454196
0
LINE
8
DEFAULT_255_1_234
10
22.3413391
20
61.2454196
11
22.3413391
21
61.3723211
0
LINE
8
DEFAULT_255_1_234
10
22.3413391
20
61.3723211
11
23.2457128
21
61.3723211
0
LINE
8
DEFAULT_255_1_234
10
23.5966998
20
60.7386169
11
23.5966998
21
60.8598962
0
LINE
8
DEFAULT_255_1_234
10
23.5966998
20
60.8598962
11
23.708341
21
60.8598962
0
LINE
8
DEFAULT_255_1_234
10
23.5179888
20
61.0655087
11
23.3694016
21
61.0655087
0
LINE
8
DEFAULT_255_1_234
10
23.3589604
20
60.5113188
11
23.5083507
21
60.5113188
0
LINE
8
DEFAULT_255_1_234
10
23.708341
20
60.7386169
11
23.5966998
21
60.7386169
0
ARC
8
DEFAULT_255_1_234
10
23.7054276
20
61.1991713
40
0.3392876
50
270.4919872
51
281.8951556
0
ARC
8
DEFAULT_255_1_234
10
23.7295538
20
61.0889702
40
0.2264817
50
281.6691735
51
301.2943132
0
ARC
8
DEFAULT_255_1_234
10
23.7465748
20
61.0578304
40
0.1910381
50
301.7833094
51
311.7545298
0
ARC
8
DEFAULT_255_1_234
10
23.7557324
20
61.0476748
40
0.1773635
50
311.7323931
51
354.2802411
0
ARC
8
DEFAULT_255_1_234
10
23.6830949
20
61.0601722
40
0.2509385
50
353.0937916
51
0.1181479
0
ARC
8
DEFAULT_255_1_234
10
23.6369734
20
61.0649386
40
0.2970898
50
359.1805295
51
15.0453146
0
ARC
8
DEFAULT_255_1_234
10
23.7715571
20
61.1041992
40
0.1569564
50
13.9577229
51
77.6713066
0
ARC
8
DEFAULT_255_1_234
10
23.73291
20
60.9656949
40
0.3006298
50
76.1116566
51
90.7026153
0
ARC
8
DEFAULT_255_1_234
10
23.7269938
20
60.9930545
40
0.2732568
50
89.5324876
51
103.531937
0
ARC
8
DEFAULT_255_1_234
10
23.7069383
20
61.0729884
40
0.1908508
50
103.2931773
51
133.5619022
0
ARC
8
DEFAULT_255_1_234
10
23.7024871
20
61.0789375
40
0.1834746
50
133.8349307
51
173.5344437
0
ARC
8
DEFAULT_255_1_234
10
23.7747914
20
61.0661213
40
0.2568033
50
172.5096846
51
180.1366907
0
ARC
8
DEFAULT_255_1_234
10
23.6796808
20
61.0695622
40
0.3103056
50
155.3484492
51
180.7484736
0
ARC
8
DEFAULT_255_1_234
10
23.6747897
20
61.0666846
40
0.3070957
50
131.5744599
51
154.4798489
0
ARC
8
DEFAULT_255_1_234
10
23.7061044
20
61.035031
40
0.3515643
50
96.9875458
51
131.9690667
0
ARC
8
DEFAULT_255_1_234
10
23.7280524
20
60.9104636
40
0.4779224
50
89.8596053
51
97.7825159
0
ARC
8
DEFAULT_255_1_234
10
23.7328587
20
60.8842616
40
0.5041361
50
78.3655447
51
90.4131539
0
ARC
8
DEFAULT_255_1_234
10
23.7686505
20
61.0501887
40
0.3344039
50
56.6229102
51
78.638727
0
ARC
8
DEFAULT_255_1_234
10
23.7901449
20
61.0877805
40
0.2912001
50
47.0253525
51
56.0854072
0
ARC
8
DEFAULT_255_1_234
10
23.7921229
20
61.0917223
40
0.2869704
50
10.9208013
51
46.7778124
0
ARC
8
DEFAULT_255_1_234
10
23.6557295
20
61.0601857
40
0.426899
50
359.6364486
51
11.6087304
0
ARC
8
DEFAULT_255_1_234
10
23.839214
20
61.0586752
40
0.243409
50
332.3549906
51
359.7179418
0
ARC
8
DEFAULT_255_1_234
10
23.7741741
20
61.0895142
40
0.3153459
50
325.2333722
51
332.8745602
0
ARC
8
DEFAULT_255_1_234
10
23.7894365
20
61.0788828
40
0.2967456
50
292.9802137
51
325.2392345
0
ARC
8
DEFAULT_255_1_234
10
23.7619739
20
61.1322863
40
0.3566604
50
292.5402179
51
293.6924929
0
ARC
8
DEFAULT_255_1_234
10
23.8012334
20
60.4868091
40
0.3307468
50
57.6435486
51
72.8625112
0
ARC
8
DEFAULT_255_1_234
10
23.8366834
20
60.5442549
40
0.2632492
50
36.7248896
51
57.4697979
0
ARC
8
DEFAULT_255_1_234
10
23.8355467
20
60.545522
40
0.2634081
50
8.0545065
51
36.356114
0
ARC
8
DEFAULT_255_1_234
10
23.7492652
20
60.5300174
40
0.3510261
50
359.8320645
51
8.5869982
0
ARC
8
DEFAULT_255_1_234
10
23.7117428
20
60.5252101
40
0.3885653
50
343.9829931
51
0.5571613
0
ARC
8
DEFAULT_255_1_234
10
23.8003626
20
60.5009438
40
0.2966924
50
311.6359546
51
343.7651759
0
ARC
8
DEFAULT_255_1_234
10
23.7625195
20
60.5436102
40
0.3537231
50
279.7829875
51
311.6255694
0
ARC
8
DEFAULT_255_1_234
10
23.7323971
20
60.687328
40
0.5004971
50
269.7286406
51
280.3856417
0
ARC
8
DEFAULT_255_1_234
10
23.7262043
20
60.6831996
40
0.4963778
50
256.6828919
51
270.4412052
0
ARC
8
DEFAULT_255_1_234
10
23.6923339
20
60.5447394
40
0.3538406
50
229.4223008
51
256.8556159
0
ARC
8
DEFAULT_255_1_234
10
23.6508732
20
60.4980736
40
0.2914296
50
181.818294
51
229.6455059
0
ARC
8
DEFAULT_255_1_234
10
23.7548688
20
60.5111496
40
0.3959084
50
179.9755256
51
183.2323064
0
ARC
8
DEFAULT_255_1_234
10
23.7376434
20
60.5091037
40
0.2293034
50
179.4465117
51
196.2869258
0
ARC
8
DEFAULT_255_1_234
10
23.6888842
20
60.4957651
40
0.1787621
50
196.5661473
51
227.705904
0
ARC
8
DEFAULT_255_1_234
10
23.7052937
20
60.5141155
40
0.2033784
50
227.7652068
51
257.8762805
0
ARC
8
DEFAULT_255_1_234
10
23.7277907
20
60.6084156
40
0.3003081
50
257.4584385
51
270.426602
0
ARC
8
DEFAULT_255_1_234
10
23.7323473
20
60.6373996
40
0.329292
50
269.5962073
51
280.8789248
0
ARC
8
DEFAULT_255_1_234
10
23.7553002
20
60.5227685
40
0.2123908
50
280.6346389
51
299.8595945
0
ARC
8
DEFAULT_255_1_234
10
23.7743909
20
60.4865212
40
0.171457
50
300.3576302
51
314.5517981
0
ARC
8
DEFAULT_255_1_234
10
23.7660969
20
60.4925919
40
0.1816095
50
315.0728369
51
345.0431014
0
ARC
8
DEFAULT_255_1_234
10
23.6737783
20
60.5194841
40
0.2777492
50
344.5986631
51
357.9269593
0
ARC
8
DEFAULT_255_1_234
10
23.584211
20
60.5256276
40
0.3674917
50
357.4748886
51
0.0231117
0
ARC
8
DEFAULT_255_1_234
10
23.6865219
20
60.5280679
40
0.2651907
50
359.5047933
51
13.4239635
0
ARC
8
DEFAULT_255_1_234
10
23.7731863
20
60.5502478
40
0.1757509
50
12.9498199
51
48.7551375
0
ARC
8
DEFAULT_255_1_234
10
23.7549597
20
60.52534
40
0.2065134
50
49.5088623
51
72.1836453
0
ARC
8
DEFAULT_255_1_234
10
23.7191749
20
60.4191291
40
0.3185836
50
71.9010081
51
84.3554254
0
ARC
8
DEFAULT_255_1_234
10
23.7030381
20
60.2830326
40
0.4556151
50
84.0193428
51
89.333121
0
LINE
8
DEFAULT_255_1_234
10
21.1397911
20
68.7612534
11
21.1397911
21
68.6873614
0
LINE
8
DEFAULT_255_1_234
10
20.1992745
20
68.6769201
11
20.1992745
21
68.7612534
0
LINE
8
DEFAULT_255_1_234
10
20.9863849
20
68.6761169
11
20.9863849
21
68.7628597
0
LINE
8
DEFAULT_255_1_234
10
20.3526807
20
68.773301
11
20.3526807
21
68.6873614
0
ARC
8
DEFAULT_255_1_234
10
20.2755937
20
68.6834015
40
0.8642064
50
350.487711
51
0.2625388
0
ARC
8
DEFAULT_255_1_234
10
20.5049178
20
68.6439578
40
0.631518
50
336.0277639
51
350.5787438
0
ARC
8
DEFAULT_255_1_234
10
20.6394002
20
68.5831892
40
0.4839466
50
319.8877444
51
336.1328423
0
ARC
8
DEFAULT_255_1_234
10
20.6996643
20
68.534958
40
0.4067874
50
302.4806467
51
319.6143626
0
ARC
8
DEFAULT_255_1_234
10
20.6881653
20
68.5571202
40
0.4316636
50
275.8195682
51
302.1884709
0
ARC
8
DEFAULT_255_1_234
10
20.6715286
20
68.6713665
40
0.5470306
50
269.9171439
51
276.3397983
0
ARC
8
DEFAULT_255_1_234
10
20.6670496
20
68.6027681
40
0.4784458
50
252.5219675
51
270.4416499
0
ARC
8
DEFAULT_255_1_234
10
20.6526755
20
68.5488592
40
0.422716
50
237.5352116
51
252.1857531
0
ARC
8
DEFAULT_255_1_234
10
20.6615951
20
68.5602363
40
0.4371052
50
209.063312
51
237.3492538
0
ARC
8
DEFAULT_255_1_234
10
20.7485799
20
68.6148685
40
0.5397041
50
205.1183774
51
209.6470015
0
ARC
8
DEFAULT_255_1_234
10
20.8282836
20
68.648683
40
0.6262326
50
188.7215458
51
204.8240747
0
ARC
8
DEFAULT_255_1_234
10
21.0280364
20
68.6823067
40
0.8287794
50
180.3723947
51
188.9252049
0
ARC
8
DEFAULT_255_1_234
10
21.0253116
20
68.7652402
40
0.8260467
50
169.5253763
51
180.2765336
0
ARC
8
DEFAULT_255_1_234
10
20.8350564
20
68.8002309
40
0.6326007
50
155.8315255
51
169.5089989
0
ARC
8
DEFAULT_255_1_234
10
20.7070066
20
68.8596348
40
0.4914567
50
139.6258461
51
156.0379525
0
ARC
8
DEFAULT_255_1_234
10
20.6480399
20
68.9070799
40
0.4158054
50
122.6416387
51
139.3430715
0
ARC
8
DEFAULT_255_1_234
10
20.6581019
20
68.8887451
40
0.4366739
50
93.0223692
51
122.455762
0
ARC
8
DEFAULT_255_1_234
10
20.6689016
20
68.7922709
40
0.5336137
50
89.975342
51
93.6341897
0
ARC
8
DEFAULT_255_1_234
10
20.6727795
20
68.8321242
40
0.4937738
50
73.746375
51
90.4233405
0
ARC
8
DEFAULT_255_1_234
10
20.6903373
20
68.9001287
40
0.4235786
50
57.662753
51
73.4518111
0
ARC
8
DEFAULT_255_1_234
10
20.689538
20
68.9022832
40
0.4221899
50
29.1440151
51
57.414694
0
ARC
8
DEFAULT_255_1_234
10
20.5960574
20
68.8439005
40
0.5322966
50
24.0982783
51
29.7323517
0
ARC
8
DEFAULT_255_1_234
10
20.492685
20
68.8010399
40
0.6441673
50
8.6655297
51
23.8241346
0
ARC
8
DEFAULT_255_1_234
10
20.2692588
20
68.7645854
40
0.8705386
50
359.7806941
51
8.8218784
0
ARC
8
DEFAULT_255_1_234
10
20.1545586
20
68.7671345
40
0.8318373
50
359.7055579
51
8.036044
0
ARC
8
DEFAULT_255_1_234
10
20.4545592
20
68.8108239
40
0.5286768
50
7.8928306
51
20.2962107
0
ARC
8
DEFAULT_255_1_234
10
20.6173162
20
68.8708395
40
0.3552073
50
20.3231126
51
36.4992797
0
ARC
8
DEFAULT_255_1_234
10
20.6858708
20
68.9236402
40
0.2686974
50
36.1437156
51
85.6627023
0
ARC
8
DEFAULT_255_1_234
10
20.6696254
20
68.8196221
40
0.373739
50
84.3852322
51
90.0757696
0
ARC
8
DEFAULT_255_1_234
10
20.6653927
20
68.8856839
40
0.3076997
50
89.3038458
51
109.9045693
0
ARC
8
DEFAULT_255_1_234
10
20.6561318
20
68.9239062
40
0.2686424
50
110.8228367
51
143.9179474
0
ARC
8
DEFAULT_255_1_234
10
20.7494978
20
68.8526236
40
0.3860887
50
143.5289163
51
163.2980757
0
ARC
8
DEFAULT_255_1_234
10
20.9402799
20
68.7926433
40
0.5860659
50
163.0418846
51
174.3140048
0
ARC
8
DEFAULT_255_1_234
10
21.1806911
20
68.7648854
40
0.8280531
50
174.0509143
51
179.4176892
0
ARC
8
DEFAULT_255_1_234
10
21.130265
20
68.6831954
40
0.7775954
50
179.6930361
51
188.7906598
0
ARC
8
DEFAULT_255_1_234
10
20.8639129
20
68.6405935
40
0.5078633
50
188.6331305
51
202.5629587
0
ARC
8
DEFAULT_255_1_234
10
20.7384721
20
68.5901996
40
0.3726913
50
202.8081362
51
216.1193925
0
ARC
8
DEFAULT_255_1_234
10
20.6575291
20
68.5250676
40
0.2689577
50
215.0755913
51
264.6379694
0
ARC
8
DEFAULT_255_1_234
10
20.670224
20
68.6081513
40
0.3528978
50
263.846392
51
270.0833719
0
ARC
8
DEFAULT_255_1_234
10
20.6743631
20
68.5823374
40
0.3271036
50
269.3649385
51
287.5152008
0
ARC
8
DEFAULT_255_1_234
10
20.6921788
20
68.5176238
40
0.2600406
50
288.0630309
51
323.8113348
0
ARC
8
DEFAULT_255_1_234
10
20.605063
20
68.5826049
40
0.3687189
50
323.6547608
51
342.6590488
0
ARC
8
DEFAULT_255_1_234
10
20.4019245
20
68.6486952
40
0.5823286
50
342.4091907
51
353.6451149
0
ARC
8
DEFAULT_255_1_234
10
20.1187756
20
68.683919
40
0.8676442
50
353.4029884
51
359.4847795
0
LINE
8
DEFAULT_255_1_234
10
22.0393458
20
69.3098211
11
22.1943583
21
69.3098211
0
LINE
8
DEFAULT_255_1_234
10
22.1943583
20
69.3098211
11
22.1943583
21
68.514679
0
LINE
8
DEFAULT_255_1_234
10
21.8104412
20
68.1259429
11
21.7694793
21
68.1243365
0
LINE
8
DEFAULT_255_1_234
10
21.3478131
20
68.5130727
11
21.3478131
21
69.3098211
0
LINE
8
DEFAULT_255_1_234
10
21.3478131
20
69.3098211
11
21.5004161
21
69.3098211
0
LINE
8
DEFAULT_255_1_234
10
21.5004161
20
69.3098211
11
21.5004161
21
68.5178917
0
LINE
8
DEFAULT_255_1_234
10
22.0393458
20
68.5170885
11
22.0393458
21
69.3098211
0
ARC
8
DEFAULT_255_1_234
10
21.7590481
20
68.5126928
40
0.4353147
50
343.0898354
51
0.2614217
0
ARC
8
DEFAULT_255_1_234
10
21.8418883
20
68.4895837
40
0.3493402
50
315.3345598
51
342.7641223
0
ARC
8
DEFAULT_255_1_234
10
21.8195332
20
68.5127682
40
0.3815385
50
284.6606969
51
315.2182466
0
ARC
8
DEFAULT_255_1_234
10
21.7740044
20
68.6673755
40
0.5426573
50
273.8500273
51
285.1797701
0
ARC
8
DEFAULT_255_1_234
10
21.7652095
20
68.7015475
40
0.5772268
50
257.6317484
51
270.4238298
0
ARC
8
DEFAULT_255_1_234
10
21.7227293
20
68.5194198
40
0.3902347
50
230.6087562
51
257.9964012
0
ARC
8
DEFAULT_255_1_234
10
21.7095295
20
68.4987802
40
0.3659186
50
227.7440991
51
230.1551448
0
ARC
8
DEFAULT_255_1_234
10
21.6961127
20
68.4826471
40
0.3449568
50
189.2524587
51
227.5916061
0
ARC
8
DEFAULT_255_1_234
10
21.8482813
20
68.5154013
40
0.5004737
50
180.2665968
51
190.1525252
0
ARC
8
DEFAULT_255_1_234
10
21.8704833
20
68.5150918
40
0.3700778
50
179.5665184
51
191.9952995
0
ARC
8
DEFAULT_255_1_234
10
21.7476939
20
68.4877043
40
0.2442808
50
191.6974072
51
215.1404042
0
ARC
8
DEFAULT_255_1_234
10
21.7238854
20
68.4735108
40
0.2166522
50
215.6950207
51
224.8513522
0
ARC
8
DEFAULT_255_1_234
10
21.7294598
20
68.4814697
40
0.2262237
50
225.2846858
51
255.0111758
0
ARC
8
DEFAULT_255_1_234
10
21.7618558
20
68.5928455
40
0.3421979
50
254.5944985
51
267.9129803
0
ARC
8
DEFAULT_255_1_234
10
21.7693038
20
68.7012903
40
0.4508556
50
267.4689655
51
270.0223026
0
ARC
8
DEFAULT_255_1_234
10
21.7723184
20
68.6423849
40
0.3919604
50
269.5849941
51
281.1843768
0
ARC
8
DEFAULT_255_1_234
10
21.8001948
20
68.5071059
40
0.2538457
50
280.9344262
51
300.9743589
0
ARC
8
DEFAULT_255_1_234
10
21.8214554
20
68.4679688
40
0.2093566
50
301.4980046
51
315.1466847
0
ARC
8
DEFAULT_255_1_234
10
21.8070092
20
68.4798236
40
0.2279656
50
315.5952539
51
345.6678731
0
ARC
8
DEFAULT_255_1_234
10
21.6950609
20
68.5110009
40
0.3441564
50
345.2524969
51
358.6304371
0
ARC
8
DEFAULT_255_1_234
10
21.5932963
20
68.5169916
40
0.4460494
50
358.1735671
51
0.0124524
0
LINE
8
DEFAULT_255_1_234
10
23.2457128
20
69.3098211
11
23.2457128
21
69.1829196
0
LINE
8
DEFAULT_255_1_234
10
23.2457128
20
69.1829196
11
22.8698275
21
69.1829196
0
LINE
8
DEFAULT_255_1_234
10
22.8698275
20
69.1829196
11
22.8698275
21
68.1404
0
LINE
8
DEFAULT_255_1_234
10
22.8698275
20
68.1404
11
22.7164213
21
68.1404
0
LINE
8
DEFAULT_255_1_234
10
22.7164213
20
68.1404
11
22.7164213
21
69.1829196
0
LINE
8
DEFAULT_255_1_234
10
22.7164213
20
69.1829196
11
22.3413391
21
69.1829196
0
LINE
8
DEFAULT_255_1_234
10
22.3413391
20
69.1829196
11
22.3413391
21
69.3098211
0
LINE
8
DEFAULT_255_1_234
10
22.3413391
20
69.3098211
11
23.2457128
21
69.3098211
0
LINE
8
DEFAULT_255_1_234
10
24.1468739
20
68.2616792
11
24.1468739
21
68.1404
0
LINE
8
DEFAULT_255_1_234
10
24.1468739
20
68.1404
11
23.380646
21
68.1404
0
LINE
8
DEFAULT_255_1_234
10
23.380646
20
68.1404
11
23.380646
21
68.2472221
0
LINE
8
DEFAULT_255_1_234
10
23.380646
20
68.2472221
11
23.7854457
21
68.6969995
0
LINE
8
DEFAULT_255_1_234
10
23.5067443
20
68.9652595
11
23.3581572
21
68.9652595
0
LINE
8
DEFAULT_255_1_234
10
23.8729916
20
68.6014218
11
23.5597538
21
68.2616792
0
LINE
8
DEFAULT_255_1_234
10
23.5597538
20
68.2616792
11
24.1468739
21
68.2616792
0
ARC
8
DEFAULT_255_1_234
10
22.436429
20
69.8899527
40
1.8008286
50
318.5132453
51
320.7828378
0
ARC
8
DEFAULT_255_1_234
10
22.9651264
20
69.4596426
40
1.1191493
50
320.7372736
51
323.9737074
0
ARC
8
DEFAULT_255_1_234
10
23.3571121
20
69.1756361
40
0.6350923
50
323.8961724
51
328.6421089
0
ARC
8
DEFAULT_255_1_234
10
23.5617716
20
69.0494031
40
0.3946393
50
328.8299013
51
331.789948
0
ARC
8
DEFAULT_255_1_234
10
23.6614895
20
68.9979509
40
0.2824501
50
331.4255242
51
352.9364833
0
ARC
8
DEFAULT_255_1_234
10
23.6751395
20
68.9948976
40
0.2685315
50
353.2248685
51
0.0169286
0
ARC
8
DEFAULT_255_1_234
10
23.6961272
20
68.997195
40
0.2475536
50
359.4866256
51
15.9339782
0
ARC
8
DEFAULT_255_1_234
10
23.7468257
20
69.0108286
40
0.1950618
50
16.1714718
51
43.5284424
0
ARC
8
DEFAULT_255_1_234
10
23.7545566
20
69.0185573
40
0.184134
50
43.4415429
51
83.1661404
0
ARC
8
DEFAULT_255_1_234
10
23.7411484
20
68.9448771
40
0.258926
50
82.160215
51
90.1505798
0
ARC
8
DEFAULT_255_1_234
10
23.7379912
20
68.8911865
40
0.3126255
50
89.5460705
51
102.5418777
0
ARC
8
DEFAULT_255_1_234
10
23.7136998
20
68.9942665
40
0.2067346
50
102.1739365
51
129.2061916
0
ARC
8
DEFAULT_255_1_234
10
23.7058069
20
69.0067094
40
0.1921118
50
129.7279328
51
135.7542026
0
ARC
8
DEFAULT_255_1_234
10
23.7179597
20
68.9970045
40
0.2075944
50
136.175737
51
166.3674722
0
ARC
8
DEFAULT_255_1_234
10
23.8186516
20
68.9700182
40
0.3118201
50
165.9092917
51
178.8683903
0
ARC
8
DEFAULT_255_1_234
10
23.9051378
20
68.9653179
40
0.3983935
50
178.438168
51
180.0083905
0
ARC
8
DEFAULT_255_1_234
10
23.764998
20
68.9692231
40
0.4068601
50
163.2878735
51
180.5581814
0
ARC
8
DEFAULT_255_1_234
10
23.6848241
20
68.991284
40
0.3237344
50
133.454115
51
162.9470031
0
ARC
8
DEFAULT_255_1_234
10
23.7026782
20
68.9723
40
0.349795
50
100.7869394
51
133.4384016
0
ARC
8
DEFAULT_255_1_234
10
23.7374554
20
68.8174319
40
0.5084616
50
89.6605301
51
101.3704185
0
ARC
8
DEFAULT_255_1_234
10
23.7440893
20
68.8235496
40
0.502348
50
78.2171172
51
90.4130393
0
ARC
8
DEFAULT_255_1_234
10
23.7795971
20
68.9859637
40
0.3361092
50
55.9268222
51
78.4888551
0
ARC
8
DEFAULT_255_1_234
10
23.7992411
20
69.0198324
40
0.2970617
50
47.9292255
51
55.4054003
0
ARC
8
DEFAULT_255_1_234
10
23.8093972
20
69.0301502
40
0.2825983
50
4.3347696
51
48.0560701
0
ARC
8
DEFAULT_255_1_234
10
23.6998365
20
69.0131601
40
0.393225
50
359.925209
51
5.5967654
0
ARC
8
DEFAULT_255_1_234
10
23.7427257
20
69.0187816
40
0.3503892
50
337.8914096
51
358.9967724
0
ARC
8
DEFAULT_255_1_234
10
23.4713669
20
69.1234706
40
0.6412172
50
326.9135351
51
338.3505194
0
ARC
8
DEFAULT_255_1_234
10
23.0727973
20
69.3789284
40
1.1146189
50
319.6472867
51
327.095818
0
ARC
8
DEFAULT_255_1_234
10
22.6894976
20
69.6951
40
1.6114559
50
317.2586784
51
319.9046139
0
LINE
8
DEFAULT_255_1_234
10
21.1484911
20
76.6987534
11
21.1484911
21
76.6248614
0
LINE
8
DEFAULT_255_1_234
10
20.2079745
20
76.6144201
11
20.2079745
21
76.6987534
0
LINE
8
DEFAULT_255_1_234
10
20.9950849
20
76.6136169
11
20.9950849
21
76.7003597
0
LINE
8
DEFAULT_255_1_234
10
20.3613807
20
76.710801
11
20.3613807
21
76.6248614
0
ARC
8
DEFAULT_255_1_234
10
20.2842937
20
76.6209015
40
0.8642064
50
350.487711
51
0.2625388
0
ARC
8
DEFAULT_255_1_234
10
20.5136178
20
76.5814578
40
0.631518
50
336.0277639
51
350.5787438
0
ARC
8
DEFAULT_255_1_234
10
20.6481002
20
76.5206892
40
0.4839466
50
319.8877444
51
336.1328423
0
ARC
8
DEFAULT_255_1_234
10
20.7083643
20
76.472458
40
0.4067874
50
302.4806467
51
319.6143626
0
ARC
8
DEFAULT_255_1_234
10
20.6968653
20
76.4946202
40
0.4316636
50
275.8195682
51
302.1884709
0
ARC
8
DEFAULT_255_1_234
10
20.6802286
20
76.6088665
40
0.5470306
50
269.9171439
51
276.3397983
0
ARC
8
DEFAULT_255_1_234
10
20.6757496
20
76.5402681
40
0.4784458
50
252.5219675
51
270.4416499
0
ARC
8
DEFAULT_255_1_234
10
20.6613755
20
76.4863592
40
0.422716
50
237.5352116
51
252.1857531
0
ARC
8
DEFAULT_255_1_234
10
20.6702951
20
76.4977363
40
0.4371052
50
209.063312
51
237.3492538
0
ARC
8
DEFAULT_255_1_234
10
20.7572799
20
76.5523685
40
0.5397041
50
205.1183774
51
209.6470015
0
ARC
8
DEFAULT_255_1_234
10
20.8369836
20
76.586183
40
0.6262326
50
188.7215458
51
204.8240747
0
ARC
8
DEFAULT_255_1_234
10
21.0367364
20
76.6198067
40
0.8287794
50
180.3723947
51
188.9252049
0
ARC
8
DEFAULT_255_1_234
10
21.0340116
20
76.7027402
40
0.8260467
50
169.5253763
51
180.2765336
0
ARC
8
DEFAULT_255_1_234
10
20.8437564
20
76.7377309
40
0.6326007
50
155.8315255
51
169.5089989
0
ARC
8
DEFAULT_255_1_234
10
20.7157066
20
76.7971348
40
0.4914567
50
139.6258461
51
156.0379525
0
ARC
8
DEFAULT_255_1_234
10
20.6567399
20
76.8445799
40
0.4158054
50
122.6416387
51
139.3430715
0
ARC
8
DEFAULT_255_1_234
10
20.6668019
20
76.8262451
40
0.4366739
50
93.0223692
51
122.455762
0
ARC
8
DEFAULT_255_1_234
10
20.6776016
20
76.7297709
40
0.5336137
50
89.975342
51
93.6341897
0
ARC
8
DEFAULT_255_1_234
10
20.6814795
20
76.7696242
40
0.4937738
50
73.746375
51
90.4233405
0
ARC
8
DEFAULT_255_1_234
10
20.6990373
20
76.8376287
40
0.4235786
50
57.662753
51
73.4518111
0
ARC
8
DEFAULT_255_1_234
10
20.698238
20
76.8397832
40
0.4221899
50
29.1440151
51
57.414694
0
ARC
8
DEFAULT_255_1_234
10
20.6047574
20
76.7814005
40
0.5322966
50
24.0982783
51
29.7323517
0
ARC
8
DEFAULT_255_1_234
10
20.501385
20
76.7385399
40
0.6441673
50
8.6655297
51
23.8241346
0
ARC
8
DEFAULT_255_1_234
10
20.2779588
20
76.7020854
40
0.8705386
50
359.7806941
51
8.8218784
0
ARC
8
DEFAULT_255_1_234
10
20.1632586
20
76.7046345
40
0.8318373
50
359.7055579
51
8.036044
0
ARC
8
DEFAULT_255_1_234
10
20.4632592
20
76.7483239
40
0.5286768
50
7.8928306
51
20.2962107
0
ARC
8
DEFAULT_255_1_234
10
20.6260162
20
76.8083395
40
0.3552073
50
20.3231126
51
36.4992797
0
ARC
8
DEFAULT_255_1_234
10
20.6945708
20
76.8611402
40
0.2686974
50
36.1437156
51
85.6627023
0
ARC
8
DEFAULT_255_1_234
10
20.6783254
20
76.7571221
40
0.373739
50
84.3852322
51
90.0757696
0
ARC
8
DEFAULT_255_1_234
10
20.6740927
20
76.8231839
40
0.3076997
50
89.3038458
51
109.9045693
0
ARC
8
DEFAULT_255_1_234
10
20.6648318
20
76.8614062
40
0.2686424
50
110.8228367
51
143.9179474
0
ARC
8
DEFAULT_255_1_234
10
20.7581978
20
76.7901236
40
0.3860887
50
143.5289163
51
163.2980757
0
ARC
8
DEFAULT_255_1_234
10
20.9489799
20
76.7301433
40
0.5860659
50
163.0418846
51
174.3140048
0
ARC
8
DEFAULT_255_1_234
10
21.1893911
20
76.7023854
40
0.8280531
50
174.0509143
51
179.4176892
0
ARC
8
DEFAULT_255_1_234
10
21.138965
20
76.6206954
40
0.7775954
50
179.6930361
51
188.7906598
0
ARC
8
DEFAULT_255_1_234
10
20.8726129
20
76.5780935
40
0.5078633
50
188.6331305
51
202.5629587
0
ARC
8
DEFAULT_255_1_234
10
20.7471721
20
76.5276996
40
0.3726913
50
202.8081362
51
216.1193925
0
ARC
8
DEFAULT_255_1_234
10
20.6662291
20
76.4625676
40
0.2689577
50
215.0755913
51
264.6379694
0
ARC
8
DEFAULT_255_1_234
10
20.678924
20
76.5456513
40
0.3528978
50
263.846392
51
270.0833719
0
ARC
8
DEFAULT_255_1_234
10
20.6830631
20
76.5198374
40
0.3271036
50
269.3649385
51
287.5152008
0
ARC
8
DEFAULT_255_1_234
10
20.7008788
20
76.4551238
40
0.2600406
50
288.0630309
51
323.8113348
0
ARC
8
DEFAULT_255_1_234
10
20.613763
20
76.5201049
40
0.3687189
50
323.6547608
51
342.6590488
0
ARC
8
DEFAULT_255_1_234
10
20.4106245
20
76.5861952
40
0.5823286
50
342.4091907
51
353.6451149
0
ARC
8
DEFAULT_255_1_234
10
20.1274756
20
76.621419
40
0.8676442
50
353.4029884
51
359.4847795
0
LINE
8
DEFAULT_255_1_234
10
22.0480458
20
77.2473211
11
22.2030583
21
77.2473211
0
LINE
8
DEFAULT_255_1_234
10
22.2030583
20
77.2473211
11
22.2030583
21
76.452179
0
LINE
8
DEFAULT_255_1_234
10
21.8191412
20
76.0634429
11
21.7781793
21
76.0618365
0
LINE
8
DEFAULT_255_1_234
10
21.3565131
20
76.4505727
11
21.3565131
21
77.2473211
0
LINE
8
DEFAULT_255_1_234
10
21.3565131
20
77.2473211
11
21.5091161
21
77.2473211
0
LINE
8
DEFAULT_255_1_234
10
21.5091161
20
77.2473211
11
21.5091161
21
76.4553917
0
LINE
8
DEFAULT_255_1_234
10
22.0480458
20
76.4545885
11
22.0480458
21
77.2473211
0
ARC
8
DEFAULT_255_1_234
10
21.7677481
20
76.4501928
40
0.4353147
50
343.0898354
51
0.2614217
0
ARC
8
DEFAULT_255_1_234
10
21.8505883
20
76.4270837
40
0.3493402
50
315.3345598
51
342.7641223
0
ARC
8
DEFAULT_255_1_234
10
21.8282332
20
76.4502682
40
0.3815385
50
284.6606969
51
315.2182466
0
ARC
8
DEFAULT_255_1_234
10
21.7827044
20
76.6048755
40
0.5426573
50
273.8500273
51
285.1797701
0
ARC
8
DEFAULT_255_1_234
10
21.7739095
20
76.6390475
40
0.5772268
50
257.6317484
51
270.4238298
0
ARC
8
DEFAULT_255_1_234
10
21.7314293
20
76.4569198
40
0.3902347
50
230.6087562
51
257.9964012
0
ARC
8
DEFAULT_255_1_234
10
21.7182295
20
76.4362802
40
0.3659186
50
227.7440991
51
230.1551448
0
ARC
8
DEFAULT_255_1_234
10
21.7048127
20
76.4201471
40
0.3449568
50
189.2524587
51
227.5916061
0
ARC
8
DEFAULT_255_1_234
10
21.8569813
20
76.4529013
40
0.5004737
50
180.2665968
51
190.1525252
0
ARC
8
DEFAULT_255_1_234
10
21.8791833
20
76.4525918
40
0.3700778
50
179.5665184
51
191.9952995
0
ARC
8
DEFAULT_255_1_234
10
21.7563939
20
76.4252043
40
0.2442808
50
191.6974072
51
215.1404042
0
ARC
8
DEFAULT_255_1_234
10
21.7325854
20
76.4110108
40
0.2166522
50
215.6950207
51
224.8513522
0
ARC
8
DEFAULT_255_1_234
10
21.7381598
20
76.4189697
40
0.2262237
50
225.2846858
51
255.0111758
0
ARC
8
DEFAULT_255_1_234
10
21.7705558
20
76.5303455
40
0.3421979
50
254.5944985
51
267.9129803
0
ARC
8
DEFAULT_255_1_234
10
21.7780038
20
76.6387903
40
0.4508556
50
267.4689655
51
270.0223026
0
ARC
8
DEFAULT_255_1_234
10
21.7810184
20
76.5798849
40
0.3919604
50
269.5849941
51
281.1843768
0
ARC
8
DEFAULT_255_1_234
10
21.8088948
20
76.4446059
40
0.2538457
50
280.9344262
51
300.9743589
0
ARC
8
DEFAULT_255_1_234
10
21.8301554
20
76.4054688
40
0.2093566
50
301.4980046
51
315.1466847
0
ARC
8
DEFAULT_255_1_234
10
21.8157092
20
76.4173236
40
0.2279656
50
315.5952539
51
345.6678731
0
ARC
8
DEFAULT_255_1_234
10
21.7037609
20
76.4485009
40
0.3441564
50
345.2524969
51
358.6304371
0
ARC
8
DEFAULT_255_1_234
10
21.6019963
20
76.4544916
40
0.4460494
50
358.1735671
51
0.0124524
0
LINE
8
DEFAULT_255_1_234
10
23.2544128
20
77.2473211
11
23.2544128
21
77.1204196
0
LINE
8
DEFAULT_255_1_234
10
23.2544128
20
77.1204196
11
22.8785275
21
77.1204196
0
LINE
8
DEFAULT_255_1_234
10
22.8785275
20
77.1204196
11
22.8785275
21
76.0779
0
LINE
8
DEFAULT_255_1_234
10
22.8785275
20
76.0779
11
22.7251213
21
76.0779
0
LINE
8
DEFAULT_255_1_234
10
22.7251213
20
76.0779
11
22.7251213
21
77.1204196
0
LINE
8
DEFAULT_255_1_234
10
22.7251213
20
77.1204196
11
22.3500391
21
77.1204196
0
LINE
8
DEFAULT_255_1_234
10
22.3500391
20
77.1204196
11
22.3500391
21
77.2473211
0
LINE
8
DEFAULT_255_1_234
10
22.3500391
20
77.2473211
11
23.2544128
21
77.2473211
0
LINE
8
DEFAULT_255_1_234
10
23.8776757
20
77.2529433
11
23.8776757
21
76.0779
0
LINE
8
DEFAULT_255_1_234
10
23.8776757
20
76.0779
11
23.7282854
21
76.0779
0
LINE
8
DEFAULT_255_1_234
10
23.7282854
20
76.0779
11
23.7282854
21
77.0682133
0
LINE
8
DEFAULT_255_1_234
10
23.7282854
20
77.0682133
11
23.4287016
21
76.9581785
0
LINE
8
DEFAULT_255_1_234
10
23.4287016
20
76.9581785
11
23.4287016
21
77.0931117
0
LINE
8
DEFAULT_255_1_234
10
23.4287016
20
77.0931117
11
23.8543837
21
77.2529433
0
LINE
8
DEFAULT_255_1_234
10
23.8543837
20
77.2529433
11
23.8776757
21
77.2529433
0
ENDSEC
0
EOF