0
SECTION
2
HEADER
9
$MEASUREMENT
70
1
0
ENDSEC
0
SECTION
2
TABLES
0
TABLE
2
LTYPE
0
LTYPE
72
65
70
64
2
CONTINUOUS
3
______
73
0
40
0
0
ENDTAB
0
TABLE
2
LAYER
0
LAYER
2
DEFAULT_255_2_778
70
0
62
255
6
CONTINUOUS
0
ENDTAB
0
ENDSEC
0
SECTION
2
ENTITIES
0
ARC
8
DEFAULT_255_2_778
10
131.6414337
20
52.2558892
40
0.8001107
50
89.9992029
51
176.8661358
0
ARC
8
DEFAULT_255_2_778
10
131.6544416
20
52.2559375
40
0.8130969
50
176.9196393
51
180.0026422
0
ARC
8
DEFAULT_255_2_778
10
131.6414556
20
52.2558888
40
0.8001107
50
179.9992029
51
266.8661358
0
ARC
8
DEFAULT_255_2_778
10
131.6414074
20
52.2688967
40
0.8130969
50
266.9196393
51
270.0026422
0
ARC
8
DEFAULT_255_2_778
10
134.641556
20
52.2559107
40
0.8001107
50
269.9992029
51
356.8661358
0
ARC
8
DEFAULT_255_2_778
10
134.6285481
20
52.2558625
40
0.8130969
50
356.9196393
51
0.0026422
0
ARC
8
DEFAULT_255_2_778
10
134.6415341
20
52.2559111
40
0.8001107
50
359.9992029
51
86.8661358
0
ARC
8
DEFAULT_255_2_778
10
134.6415824
20
52.2429033
40
0.8130969
50
86.9196393
51
90.0026422
0
LINE
8
DEFAULT_255_2_778
10
134.6415449
20
53.056
11
131.6414449
21
53.056
0
LINE
8
DEFAULT_255_2_778
10
131.6414449
20
51.4558
11
134.6415449
21
51.4558
0
ARC
8
DEFAULT_255_2_778
10
140.6069753
20
53.5934957
40
0.643184
50
69.7455015
51
91.1645634
0
ARC
8
DEFAULT_255_2_778
10
140.6773765
20
53.8014623
40
0.4237468
50
48.2388517
51
68.9411936
0
ARC
8
DEFAULT_255_2_778
10
140.6881488
20
53.8183608
40
0.4039799
50
357.6997825
51
47.7822343
0
ARC
8
DEFAULT_255_2_778
10
140.6435259
20
53.7883153
40
0.4484906
50
331.1318622
51
1.767293
0
ARC
8
DEFAULT_255_2_778
10
140.733613
20
53.7492951
40
0.3508834
50
310.7171568
51
329.6094319
0
ARC
8
DEFAULT_255_2_778
10
140.6693686
20
53.8391916
40
0.4610351
50
278.1723156
51
309.4807104
0
ARC
8
DEFAULT_255_2_778
10
140.5969037
20
54.2046106
40
0.8332794
50
269.6492931
51
279.5328117
0
ARC
8
DEFAULT_255_2_778
10
140.60644
20
53.9256729
40
0.4013219
50
268.2098577
51
293.6504428
0
ARC
8
DEFAULT_255_2_778
10
140.6631278
20
53.779091
40
0.2444074
50
295.2624698
51
311.2894376
0
ARC
8
DEFAULT_255_2_778
10
140.6493968
20
53.7812489
40
0.2552443
50
313.2861933
51
2.3583298
0
ARC
8
DEFAULT_255_2_778
10
140.4666129
20
53.8000272
40
0.4378903
50
358.9171628
51
0.0025767
0
ARC
8
DEFAULT_255_2_778
10
140.6374515
20
53.8121644
40
0.2673265
50
357.4019702
51
45.6260447
0
ARC
8
DEFAULT_255_2_778
10
140.6181345
20
53.7721578
40
0.3097562
50
48.2480928
51
90.0878869
0
ARC
8
DEFAULT_255_2_778
10
140.5942067
20
53.5746884
40
0.5077671
50
87.3526916
51
88.8155066
0
ARC
8
DEFAULT_255_2_778
10
141.4852134
20
53.4666424
40
0.9396784
50
342.5881704
51
0.78686
0
ARC
8
DEFAULT_255_2_778
10
141.7084564
20
53.4060166
40
0.7085799
50
335.7284779
51
341.8640555
0
ARC
8
DEFAULT_255_2_778
10
141.8644709
20
53.3226325
40
0.5322125
50
303.1115729
51
337.0077584
0
ARC
8
DEFAULT_255_2_778
10
141.8666389
20
53.3426742
40
0.5479639
50
268.7205202
51
301.7768229
0
ARC
8
DEFAULT_255_2_778
10
141.844588
20
53.3379417
40
0.5431835
50
237.9699724
51
271.035379
0
ARC
8
DEFAULT_255_2_778
10
141.8519022
20
53.3346686
40
0.5443457
50
204.0479832
51
237.1345586
0
ARC
8
DEFAULT_255_2_778
10
142.1067744
20
53.4524031
40
0.8250812
50
181.5850092
51
204.3017853
0
ARC
8
DEFAULT_255_2_778
10
142.3967995
20
53.4783039
40
1.115855
50
180.5882925
51
182.5025549
0
ARC
8
DEFAULT_255_2_778
10
142.1821446
20
53.582993
40
0.9012417
50
160.3124237
51
180.8548574
0
ARC
8
DEFAULT_255_2_778
10
142.0049269
20
53.6361036
40
0.7165566
50
155.6324301
51
159.5370249
0
ARC
8
DEFAULT_255_2_778
10
141.8519352
20
53.7181573
40
0.5434634
50
123.2694945
51
156.8577392
0
ARC
8
DEFAULT_255_2_778
10
141.8429229
20
53.7149319
40
0.5412963
50
89.0070481
51
122.2845643
0
ARC
8
DEFAULT_255_2_778
10
141.8632863
20
53.7048163
40
0.55144
50
58.2327026
51
91.1412395
0
ARC
8
DEFAULT_255_2_778
10
141.8652984
20
53.7281516
40
0.5306465
50
22.877493
51
57.090836
0
ARC
8
DEFAULT_255_2_778
10
141.5747309
20
53.5978139
40
0.8490577
50
1.6571595
51
23.3582071
0
ARC
8
DEFAULT_255_2_778
10
141.2503515
20
53.5699645
40
1.1742518
50
359.9796207
51
2.5577783
0
ARC
8
DEFAULT_255_2_778
10
141.351717
20
53.58413
40
0.8866741
50
359.1933283
51
13.771085
0
ARC
8
DEFAULT_255_2_778
10
141.7579649
20
53.6846091
40
0.4681864
50
13.6626345
51
36.0067583
0
ARC
8
DEFAULT_255_2_778
10
141.8674966
20
53.7602597
40
0.3351227
50
36.5528728
51
92.5642688
0
ARC
8
DEFAULT_255_2_778
10
141.8398706
20
53.7644587
40
0.3308294
50
87.8116461
51
143.8003389
0
ARC
8
DEFAULT_255_2_778
10
141.9935739
20
53.6569686
40
0.5183619
50
144.2465322
51
171.4608753
0
ARC
8
DEFAULT_255_2_778
10
142.3921286
20
53.5784366
40
0.9243442
50
170.3151741
51
179.6336475
0
ARC
8
DEFAULT_255_2_778
10
142.2971182
20
53.4672061
40
0.8294113
50
179.1267394
51
195.4566774
0
ARC
8
DEFAULT_255_2_778
10
141.9644198
20
53.3776797
40
0.4848921
50
195.7377839
51
215.711402
0
ARC
8
DEFAULT_255_2_778
10
141.8422134
20
53.2869192
40
0.3326957
50
215.3045522
51
272.0997567
0
ARC
8
DEFAULT_255_2_778
10
141.870496
20
53.2853837
40
0.3313279
50
267.21602
51
323.1430444
0
ARC
8
DEFAULT_255_2_778
10
141.7278987
20
53.3776936
40
0.5009303
50
324.4782091
51
350.3499189
0
ARC
8
DEFAULT_255_2_778
10
141.2801118
20
53.4711782
40
0.9582045
50
349.327434
51
359.6991518
0
ARC
8
DEFAULT_255_2_778
10
146.1001331
20
53.4997982
40
0.7368587
50
73.3944008
51
90.9898864
0
ARC
8
DEFAULT_255_2_778
10
146.1877041
20
53.8015307
40
0.4226901
50
50.4059313
51
73.0811581
0
ARC
8
DEFAULT_255_2_778
10
146.2111953
20
53.8460737
40
0.3735359
50
2.0963247
51
48.8277698
0
ARC
8
DEFAULT_255_2_778
10
145.9684714
20
53.8097822
40
0.6180322
50
359.9318289
51
4.6362517
0
ARC
8
DEFAULT_255_2_778
10
146.2034504
20
53.8008702
40
0.3831401
50
324.3284733
51
1.2228487
0
ARC
8
DEFAULT_255_2_778
10
146.1721673
20
53.8328151
40
0.4272514
50
289.5308001
51
323.2946465
0
ARC
8
DEFAULT_255_2_778
10
146.1066835
20
53.8869945
40
0.3439198
50
267.7203204
51
302.1159713
0
ARC
8
DEFAULT_255_2_778
10
146.1434201
20
53.8121845
40
0.2611709
50
304.0154036
51
311.1570587
0
ARC
8
DEFAULT_255_2_778
10
146.153604
20
53.7988256
40
0.2444131
50
311.4206241
51
2.3967856
0
ARC
8
DEFAULT_255_2_778
10
146.1332673
20
53.8236508
40
0.2649388
50
356.8401422
51
40.8981124
0
ARC
8
DEFAULT_255_2_778
10
146.1708779
20
53.8454484
40
0.2223879
50
42.9978257
51
48.166616
0
ARC
8
DEFAULT_255_2_778
10
146.1283463
20
53.7814293
40
0.2986578
50
50.2790798
51
86.7267052
0
ARC
8
DEFAULT_255_2_778
10
146.0903647
20
53.5302936
40
0.5520564
50
84.2786676
51
89.8091852
0
LINE
8
DEFAULT_255_2_778
10
140.5921032
20
53.3713469
11
140.2571032
21
53.3713469
0
LINE
8
DEFAULT_255_2_778
10
140.2571032
20
53.3713469
11
140.2571032
21
52.8147469
0
LINE
8
DEFAULT_255_2_778
10
140.2571032
20
52.8147469
11
140.0695032
21
52.8147469
0
LINE
8
DEFAULT_255_2_778
10
140.0695032
20
52.8147469
11
140.0695032
21
54.2365469
0
LINE
8
DEFAULT_255_2_778
10
140.0695032
20
54.2365469
11
140.5939032
21
54.2365469
0
LINE
8
DEFAULT_255_2_778
10
140.5918032
20
53.3713469
11
140.5921032
21
53.3713469
0
LINE
8
DEFAULT_255_2_778
10
140.2571032
20
54.0823469
11
140.2571032
21
53.5245469
0
LINE
8
DEFAULT_255_2_778
10
140.2571032
20
53.5245469
11
140.5939032
21
53.5245469
0
LINE
8
DEFAULT_255_2_778
10
140.6047032
20
54.0823469
11
140.2571032
21
54.0823469
0
LINE
8
DEFAULT_255_2_778
10
140.2571032
20
54.0823469
11
140.2571032
21
54.0823469
0
LINE
8
DEFAULT_255_2_778
10
142.4248032
20
53.5695469
11
142.4248032
21
53.4795469
0
LINE
8
DEFAULT_255_2_778
10
141.2810032
20
53.4668469
11
141.2810032
21
53.5695469
0
LINE
8
DEFAULT_255_2_778
10
142.4246032
20
53.5695469
11
142.4248032
21
53.5695469
0
LINE
8
DEFAULT_255_2_778
10
142.2383032
20
53.4661469
11
142.2383032
21
53.5716469
0
LINE
8
DEFAULT_255_2_778
10
141.4678032
20
53.5843469
11
141.4678032
21
53.4798469
0
LINE
8
DEFAULT_255_2_778
10
142.2383032
20
53.4661469
11
142.2383032
21
53.4661469
0
LINE
8
DEFAULT_255_2_778
10
142.7884032
20
54.2365469
11
143.0130032
21
53.2629469
0
LINE
8
DEFAULT_255_2_778
10
143.0130032
20
53.2629469
11
143.0402032
21
53.0753469
0
LINE
8
DEFAULT_255_2_778
10
143.0402032
20
53.0753469
11
143.0802032
21
53.2443469
0
LINE
8
DEFAULT_255_2_778
10
143.0802032
20
53.2443469
11
143.3614032
21
54.2365469
0
LINE
8
DEFAULT_255_2_778
10
143.3614032
20
54.2365469
11
143.5197032
21
54.2365469
0
LINE
8
DEFAULT_255_2_778
10
143.5197032
20
54.2365469
11
143.7940032
21
53.2443469
0
LINE
8
DEFAULT_255_2_778
10
143.7940032
20
53.2443469
11
143.8332032
21
53.0724469
0
LINE
8
DEFAULT_255_2_778
10
143.8332032
20
53.0724469
11
143.8634032
21
53.2636469
0
LINE
8
DEFAULT_255_2_778
10
143.8634032
20
53.2636469
11
144.0840032
21
54.2363469
0
LINE
8
DEFAULT_255_2_778
10
144.0840032
20
54.2363469
11
144.2724032
21
54.2363469
0
LINE
8
DEFAULT_255_2_778
10
144.2724032
20
54.2363469
11
143.9277032
21
52.8144469
0
LINE
8
DEFAULT_255_2_778
10
143.9277032
20
52.8144469
11
143.7567032
21
52.8144469
0
LINE
8
DEFAULT_255_2_778
10
143.7567032
20
52.8144469
11
143.4638032
21
53.8505469
0
LINE
8
DEFAULT_255_2_778
10
143.4638032
20
53.8505469
11
143.4413032
21
53.9590469
0
LINE
8
DEFAULT_255_2_778
10
143.4413032
20
53.9590469
11
143.4189032
21
53.8505469
0
LINE
8
DEFAULT_255_2_778
10
143.4189032
20
53.8505469
11
143.1151032
21
52.8144469
0
LINE
8
DEFAULT_255_2_778
10
143.1151032
20
52.8144469
11
142.9442032
21
52.8144469
0
LINE
8
DEFAULT_255_2_778
10
142.9442032
20
52.8144469
11
142.6005032
21
54.2363469
0
LINE
8
DEFAULT_255_2_778
10
142.6005032
20
54.2363469
11
142.7881032
21
54.2363469
0
LINE
8
DEFAULT_255_2_778
10
142.7881032
20
54.2363469
11
142.7884032
21
54.2365469
0
LINE
8
DEFAULT_255_2_778
10
145.2844032
20
53.6251469
11
145.2844032
21
53.4719469
0
LINE
8
DEFAULT_255_2_778
10
145.2844032
20
53.4719469
11
144.6682032
21
53.4719469
0
LINE
8
DEFAULT_255_2_778
10
144.6682032
20
53.4719469
11
144.6682032
21
52.9678469
0
LINE
8
DEFAULT_255_2_778
10
144.6682032
20
52.9678469
11
145.3839032
21
52.9678469
0
LINE
8
DEFAULT_255_2_778
10
145.3839032
20
52.9678469
11
145.3839032
21
52.8147469
0
LINE
8
DEFAULT_255_2_778
10
145.3839032
20
52.8147469
11
144.4806032
21
52.8147469
0
LINE
8
DEFAULT_255_2_778
10
144.4806032
20
52.8147469
11
144.4806032
21
54.2365469
0
LINE
8
DEFAULT_255_2_778
10
144.4806032
20
54.2365469
11
145.3741032
21
54.2365469
0
LINE
8
DEFAULT_255_2_778
10
145.3741032
20
54.2365469
11
145.3741032
21
54.0823469
0
LINE
8
DEFAULT_255_2_778
10
145.3741032
20
54.0823469
11
144.6680032
21
54.0823469
0
LINE
8
DEFAULT_255_2_778
10
144.6680032
20
54.0823469
11
144.6680032
21
53.6253469
0
LINE
8
DEFAULT_255_2_778
10
144.6680032
20
53.6253469
11
145.2842032
21
53.6253469
0
LINE
8
DEFAULT_255_2_778
10
145.2842032
20
53.6253469
11
145.2844032
21
53.6251469
0
LINE
8
DEFAULT_255_2_778
10
146.4475032
20
52.8147469
11
146.1390032
21
53.3899469
0
LINE
8
DEFAULT_255_2_778
10
146.1390032
20
53.3899469
11
145.8051032
21
53.3899469
0
LINE
8
DEFAULT_255_2_778
10
145.8051032
20
53.3899469
11
145.8051032
21
52.8147469
0
LINE
8
DEFAULT_255_2_778
10
145.8051032
20
52.8147469
11
145.6168032
21
52.8147469
0
LINE
8
DEFAULT_255_2_778
10
145.6168032
20
52.8147469
11
145.6168032
21
54.2365469
0
LINE
8
DEFAULT_255_2_778
10
145.6168032
20
54.2365469
11
146.0874032
21
54.2365469
0
LINE
8
DEFAULT_255_2_778
10
146.3150032
20
53.4301469
11
146.6489032
21
52.8266469
0
LINE
8
DEFAULT_255_2_778
10
146.6489032
20
52.8266469
11
146.6489032
21
52.8149469
0
LINE
8
DEFAULT_255_2_778
10
146.6489032
20
52.8149469
11
146.4478032
21
52.8149469
0
LINE
8
DEFAULT_255_2_778
10
146.4478032
20
52.8149469
11
146.4475032
21
52.8147469
0
LINE
8
DEFAULT_255_2_778
10
145.8049032
20
54.0823469
11
145.8049032
21
53.5433469
0
LINE
8
DEFAULT_255_2_778
10
145.8049032
20
53.5433469
11
146.0930032
21
53.5433469
0
LINE
8
DEFAULT_255_2_778
10
146.0922032
20
54.0823469
11
145.8051032
21
54.0823469
0
LINE
8
DEFAULT_255_2_778
10
145.8051032
20
54.0823469
11
145.8049032
21
54.0823469
0
LINE
8
DEFAULT_255_2_778
10
60.8362962
20
58.6772874
11
61.6178962
21
55.8615874
0
LINE
8
DEFAULT_255_2_778
10
61.6178962
20
55.8615874
11
61.6490962
21
55.8615874
0
LINE
8
DEFAULT_255_2_778
10
61.6490962
20
55.8615874
11
62.3036962
21
55.8615874
0
LINE
8
DEFAULT_255_2_778
10
62.3036962
20
55.8615874
11
62.3343962
21
55.8615874
0
LINE
8
DEFAULT_255_2_778
10
62.3343962
20
55.8615874
11
63.1164962
21
58.6772874
0
LINE
8
DEFAULT_255_2_778
10
63.1164962
20
58.6772874
11
63.1164962
21
55.8615874
0
LINE
8
DEFAULT_255_2_778
10
63.1164962
20
55.8615874
11
63.8109962
21
55.8615874
0
LINE
8
DEFAULT_255_2_778
10
63.8109962
20
55.8615874
11
63.8109962
21
59.6493874
0
LINE
8
DEFAULT_255_2_778
10
63.8109962
20
59.6493874
11
63.4320962
21
59.6493874
0
LINE
8
DEFAULT_255_2_778
10
63.4320962
20
59.6493874
11
63.1045962
21
59.6493874
0
LINE
8
DEFAULT_255_2_778
10
63.1045962
20
59.6493874
11
62.7470962
21
59.6493874
0
LINE
8
DEFAULT_255_2_778
10
62.7470962
20
59.6493874
11
61.9763962
21
56.9905874
0
LINE
8
DEFAULT_255_2_778
10
61.9763962
20
56.9905874
11
61.2056962
21
59.6493874
0
LINE
8
DEFAULT_255_2_778
10
61.2056962
20
59.6493874
11
60.8481962
21
59.6493874
0
LINE
8
DEFAULT_255_2_778
10
60.8481962
20
59.6493874
11
60.5203962
21
59.6493874
0
LINE
8
DEFAULT_255_2_778
10
60.5203962
20
59.6493874
11
60.1414962
21
59.6493874
0
LINE
8
DEFAULT_255_2_778
10
60.1414962
20
59.6493874
11
60.1414962
21
55.8615874
0
LINE
8
DEFAULT_255_2_778
10
60.1414962
20
55.8615874
11
60.8359962
21
55.8615874
0
LINE
8
DEFAULT_255_2_778
10
60.8359962
20
55.8615874
11
60.8359962
21
58.6772874
0
LINE
8
DEFAULT_255_2_778
10
60.8359962
20
58.6772874
11
60.8362962
21
58.6772874
0
LINE
8
DEFAULT_255_2_778
10
77.7828962
20
59.6493874
11
77.0411962
21
59.6493874
0
LINE
8
DEFAULT_255_2_778
10
77.0411962
20
59.6493874
11
77.0411962
21
55.8615874
0
LINE
8
DEFAULT_255_2_778
10
77.0411962
20
55.8615874
11
77.7828962
21
55.8615874
0
LINE
8
DEFAULT_255_2_778
10
77.7828962
20
55.8615874
11
77.7828962
21
59.6493874
0
LINE
8
DEFAULT_255_2_778
10
77.7828962
20
59.6493874
11
77.7828962
21
59.6493874
0
LINE
8
DEFAULT_255_2_778
10
85.1170962
20
59.6493874
11
84.3756962
21
59.6493874
0
LINE
8
DEFAULT_255_2_778
10
84.3756962
20
59.6493874
11
84.3756962
21
55.8615874
0
LINE
8
DEFAULT_255_2_778
10
84.3756962
20
55.8615874
11
85.1170962
21
55.8615874
0
LINE
8
DEFAULT_255_2_778
10
85.1170962
20
55.8615874
11
85.1170962
21
59.6493874
0
LINE
8
DEFAULT_255_2_778
10
85.1170962
20
59.6493874
11
85.1170962
21
59.6493874
0
LINE
8
DEFAULT_255_2_778
10
64.8483962
20
59.6493874
11
64.1067962
21
59.6493874
0
LINE
8
DEFAULT_255_2_778
10
64.1067962
20
59.6493874
11
64.1067962
21
55.8615874
0
LINE
8
DEFAULT_255_2_778
10
64.1067962
20
55.8615874
11
64.8483962
21
55.8615874
0
LINE
8
DEFAULT_255_2_778
10
64.8483962
20
55.8615874
11
64.8483962
21
59.6493874
0
LINE
8
DEFAULT_255_2_778
10
64.8483962
20
59.6493874
11
64.8483962
21
59.6493874
0
LINE
8
DEFAULT_255_2_778
10
83.3393962
20
58.1716874
11
81.8653962
21
58.1716874
0
LINE
8
DEFAULT_255_2_778
10
81.8653962
20
58.1716874
11
81.8653962
21
59.6490874
0
LINE
8
DEFAULT_255_2_778
10
81.8653962
20
59.6490874
11
81.1356962
21
59.6490874
0
LINE
8
DEFAULT_255_2_778
10
81.1356962
20
59.6490874
11
81.1356962
21
55.8615874
0
LINE
8
DEFAULT_255_2_778
10
81.1356962
20
55.8615874
11
81.8653962
21
55.8615874
0
LINE
8
DEFAULT_255_2_778
10
81.8653962
20
55.8615874
11
81.8653962
21
57.5149874
0
LINE
8
DEFAULT_255_2_778
10
81.8653962
20
57.5149874
11
83.3393962
21
57.5149874
0
LINE
8
DEFAULT_255_2_778
10
83.3393962
20
57.5149874
11
83.3393962
21
55.8615874
0
LINE
8
DEFAULT_255_2_778
10
83.3393962
20
55.8615874
11
84.0690962
21
55.8615874
0
LINE
8
DEFAULT_255_2_778
10
84.0690962
20
55.8615874
11
84.0690962
21
59.6490874
0
LINE
8
DEFAULT_255_2_778
10
84.0690962
20
59.6490874
11
83.3393962
21
59.6490874
0
LINE
8
DEFAULT_255_2_778
10
83.3393962
20
59.6490874
11
83.3393962
21
58.1716874
0
LINE
8
DEFAULT_255_2_778
10
83.3393962
20
58.1716874
11
83.3393962
21
58.1716874
0
LINE
8
DEFAULT_255_2_778
10
65.9448962
20
55.8615874
11
66.7023962
21
55.8615874
0
LINE
8
DEFAULT_255_2_778
10
66.7023962
20
55.8615874
11
66.7023962
21
58.9931874
0
LINE
8
DEFAULT_255_2_778
10
66.7023962
20
58.9931874
11
67.6016962
21
58.9931874
0
LINE
8
DEFAULT_255_2_778
10
67.6016962
20
58.9931874
11
67.6016962
21
59.6493874
0
LINE
8
DEFAULT_255_2_778
10
67.6016962
20
59.6493874
11
66.7023962
21
59.6493874
0
LINE
8
DEFAULT_255_2_778
10
66.7023962
20
59.6493874
11
65.9448962
21
59.6493874
0
LINE
8
DEFAULT_255_2_778
10
65.9448962
20
59.6493874
11
65.0455962
21
59.6493874
0
LINE
8
DEFAULT_255_2_778
10
65.0455962
20
59.6493874
11
65.0455962
21
58.9931874
0
LINE
8
DEFAULT_255_2_778
10
65.0455962
20
58.9931874
11
65.9448962
21
58.9931874
0
LINE
8
DEFAULT_255_2_778
10
65.9448962
20
58.9931874
11
65.9448962
21
55.8615874
0
LINE
8
DEFAULT_255_2_778
10
65.9448962
20
55.8615874
11
65.9448962
21
55.8615874
0
ARC
8
DEFAULT_255_2_778
10
72.214805
20
58.2510116
40
2.4949232
50
269.7173723
51
278.7654477
0
ARC
8
DEFAULT_255_2_778
10
72.3442566
20
57.4375765
40
1.6712662
50
278.6289872
51
291.8494149
0
ARC
8
DEFAULT_255_2_778
10
72.5553426
20
56.9289466
40
1.1206338
50
291.510602
51
317.1537688
0
ARC
8
DEFAULT_255_2_778
10
72.5708857
20
56.8885467
40
1.0819322
50
318.162686
51
345.4102501
0
ARC
8
DEFAULT_255_2_778
10
72.0991789
20
57.0199223
40
1.5715434
50
345.1069833
51
358.7644369
0
ARC
8
DEFAULT_255_2_778
10
71.6864754
20
57.0438148
40
1.9847226
50
358.3317575
51
0.0087726
0
ARC
8
DEFAULT_255_2_778
10
72.3694921
20
56.9738249
40
0.5604073
50
297.4710218
51
0.1220515
0
ARC
8
DEFAULT_255_2_778
10
72.2483614
20
57.1811042
40
0.80028
50
277.5397842
51
298.3197783
0
ARC
8
DEFAULT_255_2_778
10
72.2049118
20
57.4393339
40
1.0620181
50
269.869779
51
278.0356101
0
ARC
8
DEFAULT_255_2_778
10
72.1943217
20
57.5366387
40
1.1593488
50
259.2743192
51
270.4040847
0
ARC
8
DEFAULT_255_2_778
10
72.115665
20
57.1328669
40
0.7479957
50
242.9213757
51
259.4380739
0
ARC
8
DEFAULT_255_2_778
10
72.0181714
20
56.9428271
40
0.5344073
50
215.5885153
51
242.953333
0
ARC
8
DEFAULT_255_2_778
10
72.0449292
20
56.9526463
40
0.5619327
50
188.2153936
51
214.8149229
0
ARC
8
DEFAULT_255_2_778
10
72.1549737
20
56.9743636
40
0.6739758
50
179.9443109
51
188.7058875
0
ARC
8
DEFAULT_255_2_778
10
72.5880777
20
57.0324857
40
1.8363164
50
179.637032
51
190.4264221
0
ARC
8
DEFAULT_255_2_778
10
71.9885827
20
56.9184366
40
1.2260861
50
190.2547439
51
207.3703469
0
ARC
8
DEFAULT_255_2_778
10
71.8079347
20
56.8441545
40
1.031652
50
208.3192367
51
252.15562
0
ARC
8
DEFAULT_255_2_778
10
72.0770302
20
57.5467184
40
1.783345
50
250.8427009
51
263.5803776
0
ARC
8
DEFAULT_255_2_778
10
72.193199
20
58.4635717
40
2.7074689
50
263.3068008
51
270.1967901
0
ARC
8
DEFAULT_255_2_778
10
75.5938107
20
58.7084038
40
0.3393156
50
79.8961577
51
89.8839341
0
ARC
8
DEFAULT_255_2_778
10
75.5592022
20
58.5858743
40
0.466186
50
30.6415532
51
78.3503264
0
ARC
8
DEFAULT_255_2_778
10
75.5887702
20
58.5979267
40
0.4346292
50
0.1439548
51
31.2611853
0
ARC
8
DEFAULT_255_2_778
10
75.5237421
20
58.599225
40
0.499656
50
353.3937143
51
359.9763392
0
ARC
8
DEFAULT_255_2_778
10
75.5550159
20
58.5856596
40
0.4671337
50
294.480491
51
354.6053059
0
ARC
8
DEFAULT_255_2_778
10
75.5584216
20
58.6130751
40
0.4908864
50
269.3669608
51
292.7924862
0
ARC
8
DEFAULT_255_2_778
10
75.5489034
20
56.9264579
40
0.6063252
50
51.5690205
51
91.6922379
0
ARC
8
DEFAULT_255_2_778
10
75.6072251
20
57.0280633
40
0.4907917
50
10.9972741
51
49.5293197
0
ARC
8
DEFAULT_255_2_778
10
75.4314308
20
56.9852697
40
0.6715747
50
359.7311704
51
11.7201593
0
ARC
8
DEFAULT_255_2_778
10
75.567019
20
56.9731515
40
0.5360542
50
278.2621004
51
0.958502
0
ARC
8
DEFAULT_255_2_778
10
75.5405123
20
57.0733196
40
0.6391014
50
269.927004
51
279.3233708
0
ARC
8
DEFAULT_255_2_778
10
75.7716746
20
57.2891859
40
1.4276021
50
269.5995982
51
284.4388281
0
ARC
8
DEFAULT_255_2_778
10
75.8712595
20
56.9156619
40
1.0410501
50
284.2570605
51
307.6490377
0
ARC
8
DEFAULT_255_2_778
10
75.9202779
20
56.828351
40
0.9420904
50
308.5321681
51
353.2839571
0
ARC
8
DEFAULT_255_2_778
10
75.6561081
20
56.8824636
40
1.2109914
50
352.2029318
51
0.0830392
0
ARC
8
DEFAULT_255_2_778
10
75.7947848
20
56.8787656
40
1.0723272
50
0.2913662
51
34.2842707
0
ARC
8
DEFAULT_255_2_778
10
75.8441215
20
56.9279454
40
1.003942
50
33.5512581
51
62.1294817
0
ARC
8
DEFAULT_255_2_778
10
75.9655988
20
57.1395025
40
0.7601839
50
62.7693183
51
75.3937527
0
ARC
8
DEFAULT_255_2_778
10
75.9507401
20
58.6001768
40
0.7539068
50
285.9014421
51
327.2584226
0
ARC
8
DEFAULT_255_2_778
10
75.806048
20
58.7081443
40
0.9340888
50
326.488196
51
355.4984717
0
ARC
8
DEFAULT_255_2_778
10
75.7426504
20
58.7176564
40
0.9980476
50
355.2397348
51
0.0093161
0
ARC
8
DEFAULT_255_2_778
10
75.799048
20
58.7314331
40
0.9417485
50
359.1716737
51
24.375847
0
ARC
8
DEFAULT_255_2_778
10
75.9128265
20
58.7665915
40
0.8237372
50
25.4146833
51
62.7820825
0
ARC
8
DEFAULT_255_2_778
10
75.73108
20
58.4338743
40
1.2027772
50
62.3321304
51
78.6000953
0
ARC
8
DEFAULT_255_2_778
10
75.6110049
20
57.8668567
40
1.7823509
50
78.4190512
51
89.3384251
0
ARC
8
DEFAULT_255_2_778
10
75.5935267
20
57.4547198
40
2.1946989
50
89.0063916
51
90.0033569
0
ARC
8
DEFAULT_255_2_778
10
67.8498316
20
51.7689583
40
5.7800549
50
76.9643246
51
80.0697417
0
ARC
8
DEFAULT_255_2_778
10
68.6797203
20
55.3204479
40
2.1329129
50
70.0788134
51
77.1640903
0
ARC
8
DEFAULT_255_2_778
10
69.1240022
20
56.5248949
40
0.8491899
50
55.0489373
51
70.5719725
0
ARC
8
DEFAULT_255_2_778
10
69.3844052
20
56.8913795
40
0.3996403
50
357.6106694
51
55.5488217
0
ARC
8
DEFAULT_255_2_778
10
69.3801084
20
56.8792234
40
0.4036148
50
311.0017825
51
359.3605211
0
ARC
8
DEFAULT_255_2_778
10
69.2306812
20
57.0402004
40
0.6231801
50
289.9099602
51
311.6598069
0
ARC
8
DEFAULT_255_2_778
10
69.1020182
20
57.3810503
40
0.9874845
50
275.7879367
51
290.1941918
0
ARC
8
DEFAULT_255_2_778
10
69.0519556
20
57.7795976
40
1.3890821
50
269.8780104
51
276.1845357
0
ARC
8
DEFAULT_255_2_778
10
69.0395671
20
57.4214282
40
1.0309526
50
254.9764195
51
270.5241392
0
ARC
8
DEFAULT_255_2_778
10
68.9500963
20
57.0986122
40
0.6959837
50
230.6434767
51
255.2014458
0
ARC
8
DEFAULT_255_2_778
10
68.8915012
20
57.0127672
40
0.5925197
50
178.8635731
51
229.760438
0
ARC
8
DEFAULT_255_2_778
10
68.7625486
20
56.9809928
40
1.1788543
50
177.8840349
51
229.4665343
0
ARC
8
DEFAULT_255_2_778
10
68.7836542
20
57.0533795
40
1.2479715
50
230.8900508
51
248.3497921
0
ARC
8
DEFAULT_255_2_778
10
68.9464739
20
57.4571953
40
1.6833718
50
248.2698094
51
260.2726774
0
ARC
8
DEFAULT_255_2_778
10
69.0608812
20
58.1055128
40
2.3417009
50
260.1938149
51
269.0248157
0
ARC
8
DEFAULT_255_2_778
10
69.0809555
20
58.6042075
40
2.8406888
50
268.791172
51
270.0048935
0
ARC
8
DEFAULT_255_2_778
10
69.0909403
20
58.177745
40
2.4142459
50
269.7687949
51
278.5689308
0
ARC
8
DEFAULT_255_2_778
10
69.1918825
20
57.521908
40
1.7506909
50
278.5003238
51
290.1316091
0
ARC
8
DEFAULT_255_2_778
10
69.3522481
20
57.0910065
40
1.2909231
50
290.0312454
51
306.8621648
0
ARC
8
DEFAULT_255_2_778
10
69.4895292
20
56.9053635
40
1.0600408
50
306.9448525
51
341.1444068
0
ARC
8
DEFAULT_255_2_778
10
69.3261741
20
56.9573798
40
1.2314457
50
341.3104546
51
0.3414598
0
ARC
8
DEFAULT_255_2_778
10
69.4100539
20
56.9769579
40
1.1476095
50
359.3889328
51
18.8714246
0
ARC
8
DEFAULT_255_2_778
10
69.5656939
20
57.0134284
40
0.9886661
50
19.7889072
51
60.02118
0
ARC
8
DEFAULT_255_2_778
10
69.2622885
20
56.5335941
40
1.5560797
50
59.1724601
51
73.1801033
0
ARC
8
DEFAULT_255_2_778
10
69.0705901
20
55.9474446
40
2.1726683
50
72.8138932
51
78.67628
0
ARC
8
DEFAULT_255_2_778
10
66.4700232
20
43.0432413
40
15.3363068
50
78.6158492
51
79.1791326
0
ARC
8
DEFAULT_255_2_778
10
71.6260161
20
69.9820161
40
12.0914513
50
259.1376099
51
259.146656
0
ARC
8
DEFAULT_255_2_778
10
92.1548178
20
177.0642019
40
121.1236766
50
259.1446879
51
259.1464779
0
ARC
8
DEFAULT_255_2_778
10
67.9980828
20
51.0922181
40
7.1435778
50
79.142838
51
79.1577597
0
ARC
8
DEFAULT_255_2_778
10
91.1495703
20
171.965929
40
115.9273179
50
259.1553418
51
259.1571645
0
ARC
8
DEFAULT_255_2_778
10
68.0620276
20
51.4492152
40
6.7809253
50
79.1521668
51
79.1674869
0
ARC
8
DEFAULT_255_2_778
10
71.35531
20
68.6600718
40
10.7421822
50
259.1578308
51
259.1674192
0
ARC
8
DEFAULT_255_2_778
10
68.3940364
20
53.1989979
40
4.9999252
50
79.1564681
51
79.176893
0
ARC
8
DEFAULT_255_2_778
10
89.546868
20
163.7995925
40
107.605287
50
259.1706141
51
259.1724954
0
ARC
8
DEFAULT_255_2_778
10
1208.1628319
20
6029.7372793
40
6079.2488138
50
259.2018943
51
259.2029191
0
ARC
8
DEFAULT_255_2_778
10
72.1512665
20
73.4932723
40
15.6389198
50
258.8269787
51
259.2067258
0
ARC
8
DEFAULT_255_2_778
10
69.9118662
20
62.2798609
40
4.2041767
50
255.6768098
51
259.1555019
0
ARC
8
DEFAULT_255_2_778
10
69.2029257
20
59.5293751
40
1.3638175
50
246.8413492
51
255.9481023
0
ARC
8
DEFAULT_255_2_778
10
68.8639879
20
58.7572167
40
0.5206438
50
224.0180648
51
247.7165661
0
ARC
8
DEFAULT_255_2_778
10
68.7575523
20
58.6366927
40
0.3605775
50
183.8720899
51
221.9978994
0
ARC
8
DEFAULT_255_2_778
10
68.9425672
20
58.6635387
40
0.5471698
50
179.9078569
51
185.3686968
0
ARC
8
DEFAULT_255_2_778
10
68.8144089
20
58.6663388
40
0.4190152
50
109.5744117
51
180.2625561
0
ARC
8
DEFAULT_255_2_778
10
69.0052366
20
58.2624887
40
0.8646047
50
94.7878784
51
112.5244516
0
ARC
8
DEFAULT_255_2_778
10
69.053127
20
57.8722333
40
1.257587
50
89.9101957
51
95.4781209
0
ARC
8
DEFAULT_255_2_778
10
69.0665573
20
58.1599469
40
0.9699395
50
74.6390184
51
90.6769263
0
ARC
8
DEFAULT_255_2_778
10
69.1802534
20
58.5501262
40
0.5636161
50
43.3518887
51
75.2770459
0
ARC
8
DEFAULT_255_2_778
10
69.1930821
20
58.5871032
40
0.5292127
50
3.990321
51
41.3939247
0
ARC
8
DEFAULT_255_2_778
10
68.9711956
20
58.552586
40
0.7532029
50
359.9340239
51
5.4352511
0
ARC
8
DEFAULT_255_2_778
10
69.2278588
20
58.5517201
40
1.2167393
50
359.9999324
51
2.3499012
0
ARC
8
DEFAULT_255_2_778
10
69.2856271
20
58.56076
40
1.1586681
50
2.0203849
51
41.4032245
0
ARC
8
DEFAULT_255_2_778
10
69.2676695
20
58.5325688
40
1.190818
50
41.8492097
51
62.8209187
0
ARC
8
DEFAULT_255_2_778
10
69.1450191
20
58.2937965
40
1.4592492
50
62.8192337
51
77.5378319
0
ARC
8
DEFAULT_255_2_778
10
69.0459365
20
57.8547445
40
1.909339
50
77.4777287
51
88.4048164
0
ARC
8
DEFAULT_255_2_778
10
69.0260512
20
57.4940367
40
2.2704819
50
88.156594
51
90.008911
0
ARC
8
DEFAULT_255_2_778
10
69.0257571
20
58.0471104
40
1.7174083
50
90.0019687
51
92.3690014
0
ARC
8
DEFAULT_255_2_778
10
68.9997776
20
58.1892955
40
1.574399
50
91.6382259
51
126.1022119
0
ARC
8
DEFAULT_255_2_778
10
68.6885014
20
58.6255595
40
1.0385145
50
126.4088421
51
169.5507597
0
ARC
8
DEFAULT_255_2_778
10
68.7672017
20
58.6179741
40
1.117306
50
169.900178
51
180.1156573
0
ARC
8
DEFAULT_255_2_778
10
68.7457047
20
58.6039267
40
1.09587
50
179.3834622
51
200.9002216
0
ARC
8
DEFAULT_255_2_778
10
68.674475
20
58.5977355
40
1.0273059
50
201.9949285
51
237.8329614
0
ARC
8
DEFAULT_255_2_778
10
69.0004604
20
59.0778475
40
1.6074004
50
237.1079242
51
251.2977824
0
ARC
8
DEFAULT_255_2_778
10
69.2575392
20
59.8103302
40
2.3836543
50
251.0902425
51
260.0653123
0
ARC
8
DEFAULT_255_2_778
10
78.2301707
20
51.7846307
40
5.764352
50
76.9402176
51
80.0579468
0
ARC
8
DEFAULT_255_2_778
10
79.059422
20
55.327023
40
2.126213
50
70.0439446
51
77.1379249
0
ARC
8
DEFAULT_255_2_778
10
79.5026503
20
56.5263775
40
0.8476319
50
55.0070614
51
70.5357427
0
ARC
8
DEFAULT_255_2_778
10
79.7623428
20
56.8913783
40
0.3997025
50
357.6112219
51
55.4983271
0
ARC
8
DEFAULT_255_2_778
10
79.7579256
20
56.8790427
40
0.4037956
50
311.0703291
51
359.3864399
0
ARC
8
DEFAULT_255_2_778
10
79.6096035
20
57.0387792
40
0.621705
50
289.9192373
51
311.7040439
0
ARC
8
DEFAULT_255_2_778
10
79.4807542
20
57.3800062
40
0.9864282
50
275.7839519
51
290.2030509
0
ARC
8
DEFAULT_255_2_778
10
79.430472
20
57.7804236
40
1.3899081
50
269.877409
51
276.1827095
0
ARC
8
DEFAULT_255_2_778
10
79.4180666
20
57.4223544
40
1.0318788
50
254.9832128
51
270.523698
0
ARC
8
DEFAULT_255_2_778
10
79.3285313
20
57.0991841
40
0.6965514
50
230.660723
51
255.2088878
0
ARC
8
DEFAULT_255_2_778
10
79.2694661
20
57.012819
40
0.5923834
50
178.8683265
51
229.7837804
0
ARC
8
DEFAULT_255_2_778
10
79.1411819
20
56.9808987
40
1.178991
50
177.8797022
51
229.4517357
0
ARC
8
DEFAULT_255_2_778
10
79.1617426
20
57.0527733
40
1.2473595
50
230.8804962
51
248.3451457
0
ARC
8
DEFAULT_255_2_778
10
79.3245403
20
57.456449
40
1.6826215
50
248.2652662
51
260.2712883
0
ARC
8
DEFAULT_255_2_778
10
79.4389741
20
58.104822
40
2.34101
50
260.1923841
51
269.0248455
0
ARC
8
DEFAULT_255_2_778
10
79.4590554
20
58.6036456
40
2.8401269
50
268.7910512
51
270.0048952
0
ARC
8
DEFAULT_255_2_778
10
79.4690443
20
58.1785935
40
2.4150944
50
269.7687802
51
278.5674272
0
ARC
8
DEFAULT_255_2_778
10
79.5700298
20
57.5223654
40
1.7511463
50
278.4987768
51
290.1287785
0
ARC
8
DEFAULT_255_2_778
10
79.730478
20
57.091181
40
1.2910846
50
290.0282966
51
306.8588163
0
ARC
8
DEFAULT_255_2_778
10
79.8679567
20
56.9052857
40
1.0598818
50
306.940415
51
340.9305959
0
ARC
8
DEFAULT_255_2_778
10
79.705801
20
56.9572418
40
1.2301199
50
341.1110149
51
0.3482566
0
ARC
8
DEFAULT_255_2_778
10
79.7876362
20
56.9769678
40
1.1483273
50
359.3888203
51
18.8586597
0
ARC
8
DEFAULT_255_2_778
10
79.9441876
20
57.0137844
40
0.988405
50
19.772425
51
60.0061178
0
ARC
8
DEFAULT_255_2_778
10
79.6412276
20
56.5348047
40
1.5548605
50
59.1606976
51
73.1745623
0
ARC
8
DEFAULT_255_2_778
10
79.4495825
20
55.9490204
40
2.1710854
50
72.8082149
51
78.6730926
0
ARC
8
DEFAULT_255_2_778
10
76.8319638
20
42.9479714
40
15.4330303
50
78.6243034
51
79.184398
0
ARC
8
DEFAULT_255_2_778
10
84.2869715
20
81.8933664
40
24.2194736
50
259.1455248
51
259.1500432
0
ARC
8
DEFAULT_255_2_778
10
89.7769887
20
110.560853
40
53.4079139
50
259.1486821
51
259.1527436
0
ARC
8
DEFAULT_255_2_778
10
78.3765365
20
51.0878448
40
7.1479199
50
79.1474746
51
79.1623943
0
ARC
8
DEFAULT_255_2_778
10
101.6125611
20
172.4564524
40
116.4249402
50
259.1600199
51
259.1618356
0
ARC
8
DEFAULT_255_2_778
10
78.4405124
20
51.4450966
40
6.785011
50
79.1569202
51
79.1722382
0
ARC
8
DEFAULT_255_2_778
10
81.7358234
20
68.6743313
40
10.7565285
50
259.1626271
51
259.1722071
0
ARC
8
DEFAULT_255_2_778
10
78.7724218
20
53.1951155
40
5.0037973
50
79.1613027
51
79.1817211
0
ARC
8
DEFAULT_255_2_778
10
100.0071025
20
164.2747982
40
108.0873499
50
259.17549
51
259.1773638
0
ARC
8
DEFAULT_255_2_778
10
452.1941151
20
2012.2144211
40
1989.288156
50
259.2047676
51
259.2079006
0
ARC
8
DEFAULT_255_2_778
10
82.5147816
20
73.4181524
40
15.5622933
50
258.8280101
51
259.2096953
0
ARC
8
DEFAULT_255_2_778
10
80.2889278
20
62.2721786
40
4.1963349
50
255.6721559
51
259.1569074
0
ARC
8
DEFAULT_255_2_778
10
79.5811098
20
59.52702
40
1.3614146
50
246.8257571
51
255.9439308
0
ARC
8
DEFAULT_255_2_778
10
79.2426104
20
58.7564204
40
0.5198441
50
223.9812072
51
247.7002148
0
ARC
8
DEFAULT_255_2_778
10
79.1368388
20
58.6366119
40
0.3607623
50
183.8572389
51
221.9542221
0
ARC
8
DEFAULT_255_2_778
10
79.3225772
20
58.6635388
40
0.5480799
50
179.9080119
51
185.3597578
0
ARC
8
DEFAULT_255_2_778
10
79.1933445
20
58.6665409
40
0.4188518
50
109.5940684
51
180.2903081
0
ARC
8
DEFAULT_255_2_778
10
79.384011
20
58.262767
40
0.8643168
50
94.7810172
51
112.5265855
0
ARC
8
DEFAULT_255_2_778
10
79.4321138
20
57.8704563
40
1.259364
50
89.9097222
51
95.4742622
0
ARC
8
DEFAULT_255_2_778
10
79.4454585
20
58.1626535
40
0.9672319
50
74.6176237
51
90.6729686
0
ARC
8
DEFAULT_255_2_778
10
79.5591189
20
58.5511834
40
0.5625089
50
42.8938022
51
75.2825177
0
ARC
8
DEFAULT_255_2_778
10
79.570397
20
58.5864533
40
0.5305513
50
3.9725966
51
40.9319401
0
ARC
8
DEFAULT_255_2_778
10
79.3509426
20
58.5525679
40
0.752056
50
359.9353042
51
5.389817
0
ARC
8
DEFAULT_255_2_778
10
79.6086548
20
58.5517298
40
1.2148433
50
359.9994752
51
2.3531135
0
ARC
8
DEFAULT_255_2_778
10
79.6646438
20
58.560553
40
1.1585574
50
2.0308199
51
41.3991773
0
ARC
8
DEFAULT_255_2_778
10
79.6459813
20
58.5319191
40
1.1915272
50
41.8385606
51
62.8078981
0
ARC
8
DEFAULT_255_2_778
10
79.5235747
20
58.2937575
40
1.4593038
50
62.8061648
51
77.5281159
0
ARC
8
DEFAULT_255_2_778
10
79.4246951
20
57.8559058
40
1.9081781
50
77.4684367
51
88.4027251
0
ARC
8
DEFAULT_255_2_778
10
79.4048385
20
57.4958181
40
2.2687007
50
88.1549292
51
90.0085978
0
ARC
8
DEFAULT_255_2_778
10
79.4045504
20
58.0445177
40
1.720001
50
90.001741
51
92.3132109
0
ARC
8
DEFAULT_255_2_778
10
79.3788835
20
58.1863397
40
1.5773844
50
91.5895706
51
125.9017643
0
ARC
8
DEFAULT_255_2_778
10
79.0673453
20
58.6252122
40
1.0392141
50
126.1774513
51
169.4889561
0
ARC
8
DEFAULT_255_2_778
10
79.145029
20
58.617995
40
1.1169334
50
169.8519063
51
180.1167671
0
ARC
8
DEFAULT_255_2_778
10
79.1223028
20
58.6039645
40
1.0942678
50
179.3845395
51
200.9343781
0
ARC
8
DEFAULT_255_2_778
10
79.0532537
20
58.5987044
40
1.0280872
50
202.0355842
51
237.865182
0
ARC
8
DEFAULT_255_2_778
10
79.3802419
20
59.0806326
40
1.6102438
50
237.1339794
51
251.3079747
0
ARC
8
DEFAULT_255_2_778
10
79.637311
20
59.8134879
40
2.386846
50
251.1004836
51
260.067233
0
LINE
8
DEFAULT_255_2_778
10
73.6711981
20
57.0441187
11
73.6711981
21
59.6494187
0
LINE
8
DEFAULT_255_2_778
10
73.6711981
20
59.6494187
11
72.9298981
21
59.6494187
0
LINE
8
DEFAULT_255_2_778
10
72.9298981
20
59.6494187
11
72.9298981
21
56.9750187
0
LINE
8
DEFAULT_255_2_778
10
71.4809981
20
56.9750187
11
71.4809981
21
59.6494187
0
LINE
8
DEFAULT_255_2_778
10
71.4809981
20
59.6494187
11
70.7517981
21
59.6494187
0
LINE
8
DEFAULT_255_2_778
10
70.7517981
20
59.6494187
11
70.7517981
21
57.0441187
0
LINE
8
DEFAULT_255_2_778
10
75.5529981
20
58.1222187
11
74.6699981
21
58.1222187
0
LINE
8
DEFAULT_255_2_778
10
74.6699981
20
58.1222187
11
74.6699981
21
59.0477187
0
LINE
8
DEFAULT_255_2_778
10
74.6699981
20
59.0477187
11
75.5944981
21
59.0477187
0
LINE
8
DEFAULT_255_2_778
10
75.5944981
20
59.0477187
11
75.5944981
21
59.0477187
0
LINE
8
DEFAULT_255_2_778
10
75.5396981
20
56.4342187
11
74.6699981
21
56.4342187
0
LINE
8
DEFAULT_255_2_778
10
74.6699981
20
56.4342187
11
74.6699981
21
57.5325187
0
LINE
8
DEFAULT_255_2_778
10
74.6699981
20
57.5325187
11
75.5309981
21
57.5325187
0
LINE
8
DEFAULT_255_2_778
10
74.6988981
20
55.8616187
11
75.7616981
21
55.8616187
0
LINE
8
DEFAULT_255_2_778
10
75.5933981
20
59.6494187
11
74.6990981
21
59.6494187
0
LINE
8
DEFAULT_255_2_778
10
74.6990981
20
59.6494187
11
73.9370981
21
59.6494187
0
LINE
8
DEFAULT_255_2_778
10
73.9370981
20
59.6494187
11
73.9333981
21
59.6494187
0
LINE
8
DEFAULT_255_2_778
10
73.9333981
20
59.6494187
11
73.9333981
21
55.8619187
0
LINE
8
DEFAULT_255_2_778
10
73.9333981
20
55.8619187
11
73.9370981
21
55.8619187
0
LINE
8
DEFAULT_255_2_778
10
73.9370981
20
55.8619187
11
74.6990981
21
55.8619187
0
LINE
8
DEFAULT_255_2_778
10
74.6990981
20
55.8619187
11
74.6988981
21
55.8616187
0
LINE
8
DEFAULT_255_2_778
10
68.2990981
20
57.0245187
11
67.5844981
21
57.0245187
0
LINE
8
DEFAULT_255_2_778
10
69.7243981
20
58.5517187
11
70.4445981
21
58.5517187
0
LINE
8
DEFAULT_255_2_778
10
78.6771981
20
57.0245187
11
77.9629981
21
57.0245187
0
LINE
8
DEFAULT_255_2_778
10
80.1029981
20
58.5517187
11
80.8234981
21
58.5517187
0
LINE
8
DEFAULT_255_2_778
10
55.1417584
20
33.7493458
11
55.1417584
21
29.7562458
0
LINE
8
DEFAULT_255_2_778
10
55.1417584
20
29.7562458
11
55.7798584
21
29.7562458
0
LINE
8
DEFAULT_255_2_778
10
55.7798584
20
29.7562458
11
55.7798584
21
32.3097458
0
LINE
8
DEFAULT_255_2_778
10
55.7798584
20
32.3097458
11
56.3381584
21
29.7562458
0
LINE
8
DEFAULT_255_2_778
10
56.3381584
20
29.7562458
11
56.7368584
21
29.7562458
0
LINE
8
DEFAULT_255_2_778
10
56.7368584
20
29.7562458
11
57.2951584
21
32.3097458
0
LINE
8
DEFAULT_255_2_778
10
57.2951584
20
32.3097458
11
57.2951584
21
29.7562458
0
LINE
8
DEFAULT_255_2_778
10
57.2951584
20
29.7562458
11
57.9333584
21
29.7562458
0
LINE
8
DEFAULT_255_2_778
10
57.9333584
20
29.7562458
11
57.9333584
21
33.7461458
0
LINE
8
DEFAULT_255_2_778
10
57.9333584
20
33.7461458
11
57.0956584
21
33.7461458
0
LINE
8
DEFAULT_255_2_778
10
57.0956584
20
33.7461458
11
56.5373584
21
31.1926458
0
LINE
8
DEFAULT_255_2_778
10
56.5373584
20
31.1926458
11
55.9791584
21
33.7461458
0
LINE
8
DEFAULT_255_2_778
10
55.9791584
20
33.7461458
11
55.1414584
21
33.7461458
0
LINE
8
DEFAULT_255_2_778
10
65.3519531
20
33.7461906
11
63.9160531
21
33.7461906
0
LINE
8
DEFAULT_255_2_778
10
63.9160531
20
33.7461906
11
63.9160531
21
29.7562906
0
LINE
8
DEFAULT_255_2_778
10
63.9160531
20
29.7562906
11
65.3519531
21
29.7562906
0
LINE
8
DEFAULT_255_2_778
10
65.3519531
20
29.7562906
11
65.3519531
21
30.3947906
0
LINE
8
DEFAULT_255_2_778
10
65.3519531
20
30.3947906
11
64.5542531
21
30.3947906
0
LINE
8
DEFAULT_255_2_778
10
64.5542531
20
30.3947906
11
64.5542531
21
31.4321906
0
LINE
8
DEFAULT_255_2_778
10
64.5542531
20
31.4321906
11
65.3519531
21
31.4321906
0
LINE
8
DEFAULT_255_2_778
10
65.3519531
20
31.4321906
11
65.3519531
21
32.0705906
0
LINE
8
DEFAULT_255_2_778
10
65.3519531
20
32.0705906
11
64.5542531
21
32.0705906
0
LINE
8
DEFAULT_255_2_778
10
64.5542531
20
32.0705906
11
64.5542531
21
33.1080906
0
LINE
8
DEFAULT_255_2_778
10
64.5542531
20
33.1080906
11
65.3519531
21
33.1080906
0
LINE
8
DEFAULT_255_2_778
10
65.3519531
20
33.1080906
11
65.3519531
21
33.7464906
0
LINE
8
DEFAULT_255_2_778
10
60.7254531
20
33.7461583
11
60.0872531
21
33.7461583
0
LINE
8
DEFAULT_255_2_778
10
60.0872531
20
33.7461583
11
60.0872531
21
29.7562583
0
LINE
8
DEFAULT_255_2_778
10
60.0872531
20
29.7562583
11
61.5231531
21
29.7562583
0
LINE
8
DEFAULT_255_2_778
10
61.5231531
20
29.7562583
11
61.5231531
21
30.3946583
0
LINE
8
DEFAULT_255_2_778
10
61.5231531
20
30.3946583
11
60.7254531
21
30.3946583
0
LINE
8
DEFAULT_255_2_778
10
60.7254531
20
30.3946583
11
60.7254531
21
33.7461583
0
LINE
8
DEFAULT_255_2_778
10
59.7681531
20
33.7461906
11
58.3322531
21
33.7461906
0
LINE
8
DEFAULT_255_2_778
10
58.3322531
20
33.7461906
11
58.3322531
21
29.7562906
0
LINE
8
DEFAULT_255_2_778
10
58.3322531
20
29.7562906
11
59.7681531
21
29.7562906
0
LINE
8
DEFAULT_255_2_778
10
59.7681531
20
29.7562906
11
59.7681531
21
30.3947906
0
LINE
8
DEFAULT_255_2_778
10
59.7681531
20
30.3947906
11
58.9704531
21
30.3947906
0
LINE
8
DEFAULT_255_2_778
10
58.9704531
20
30.3947906
11
58.9704531
21
31.4321906
0
LINE
8
DEFAULT_255_2_778
10
58.9704531
20
31.4321906
11
59.7681531
21
31.4321906
0
LINE
8
DEFAULT_255_2_778
10
59.7681531
20
31.4321906
11
59.7681531
21
32.0705906
0
LINE
8
DEFAULT_255_2_778
10
59.7681531
20
32.0705906
11
58.9704531
21
32.0705906
0
LINE
8
DEFAULT_255_2_778
10
58.9704531
20
32.0705906
11
58.9704531
21
33.1080906
0
LINE
8
DEFAULT_255_2_778
10
58.9704531
20
33.1080906
11
59.7681531
21
33.1080906
0
LINE
8
DEFAULT_255_2_778
10
59.7681531
20
33.1080906
11
59.7681531
21
33.7464906
0
ARC
8
DEFAULT_255_2_778
10
62.760256
20
30.6346021
40
1.0556385
50
179.7660531
51
179.9999558
0
ARC
8
DEFAULT_255_2_778
10
62.5149304
20
30.6010509
40
0.8110074
50
177.628952
51
240.6661939
0
ARC
8
DEFAULT_255_2_778
10
62.5479279
20
30.7061793
40
0.9191029
50
242.0836415
51
261.6603032
0
ARC
8
DEFAULT_255_2_778
10
62.5989572
20
31.0013536
40
1.2185814
50
261.2993398
51
270.1683579
0
ARC
8
DEFAULT_255_2_778
10
62.6024681
20
31.1738939
40
1.3911163
50
270.0028712
51
271.0527199
0
ARC
8
DEFAULT_255_2_778
10
62.6243917
20
30.9168808
40
1.1338742
50
270.18366
51
289.3238304
0
ARC
8
DEFAULT_255_2_778
10
62.7855662
20
30.4900517
40
0.6778444
50
288.4063596
51
346.6506146
0
ARC
8
DEFAULT_255_2_778
10
62.5542198
20
30.5550802
40
0.918007
50
346.035443
51
356.4109045
0
ARC
8
DEFAULT_255_2_778
10
63.0266732
20
31.3498597
40
0.4443357
50
357.0655316
51
41.0790488
0
ARC
8
DEFAULT_255_2_778
10
62.8452624
20
31.1951074
40
0.6827762
50
40.8648865
51
48.7058688
0
ARC
8
DEFAULT_255_2_778
10
62.6213626
20
30.9434087
40
1.0196447
50
48.5866925
51
53.2790847
0
ARC
8
DEFAULT_255_2_778
10
62.6823941
20
32.5386681
40
0.3833996
50
192.04508
51
240.9158952
0
ARC
8
DEFAULT_255_2_778
10
62.734706
20
32.5502685
40
0.4369808
50
189.664011
51
192.1012691
0
ARC
8
DEFAULT_255_2_778
10
62.6649816
20
32.891018
40
0.363384
50
153.9272084
51
176.9089839
0
ARC
8
DEFAULT_255_2_778
10
62.6016468
20
32.9215821
40
0.2930612
50
112.8371241
51
153.8524055
0
ARC
8
DEFAULT_255_2_778
10
62.5973687
20
32.9297976
40
0.2838302
50
90.3571201
51
112.6848742
0
ARC
8
DEFAULT_255_2_778
10
62.5970772
20
32.9265705
40
0.2870557
50
90.0079719
51
90.2949269
0
ARC
8
DEFAULT_255_2_778
10
62.5978476
20
32.9436001
40
0.2700272
50
40.7700592
51
90.1719332
0
ARC
8
DEFAULT_255_2_778
10
62.5490763
20
32.9032863
40
0.3332919
50
17.3456886
51
40.5435183
0
ARC
8
DEFAULT_255_2_778
10
62.4395634
20
32.8651331
40
0.4492152
50
7.9820562
51
17.8263405
0
ARC
8
DEFAULT_255_2_778
10
62.3230796
20
32.9800107
40
1.153021
50
359.3491091
51
359.9983777
0
ARC
8
DEFAULT_255_2_778
10
62.5266972
20
32.9863367
40
0.9494246
50
359.6162651
51
12.6192021
0
ARC
8
DEFAULT_255_2_778
10
62.77624
20
33.0432285
40
0.6934814
50
12.5365945
51
32.4506876
0
ARC
8
DEFAULT_255_2_778
10
62.7467735
20
32.9865297
40
0.7494548
50
34.9004744
51
83.5295715
0
ARC
8
DEFAULT_255_2_778
10
62.6445845
20
32.5621316
40
1.1838844
50
80.9291886
51
88.9800934
0
ARC
8
DEFAULT_255_2_778
10
62.6409766
20
32.4715969
40
1.2744705
50
88.8903665
51
90.0012362
0
ARC
8
DEFAULT_255_2_778
10
62.6422355
20
32.4102454
40
1.3358225
50
90.0551748
51
103.3290445
0
ARC
8
DEFAULT_255_2_778
10
62.5989987
20
32.5833354
40
1.1574293
50
103.2217515
51
112.4038652
0
ARC
8
DEFAULT_255_2_778
10
62.5258653
20
32.7691687
40
0.9577545
50
112.5961298
51
115.1237945
0
ARC
8
DEFAULT_255_2_778
10
62.57147
20
32.8066128
40
0.9449475
50
118.5934448
51
133.4271789
0
ARC
8
DEFAULT_255_2_778
10
62.4868081
20
32.9308626
40
0.7968713
50
135.1478558
51
177.7764562
0
ARC
8
DEFAULT_255_2_778
10
63.6977533
20
32.7805941
40
2.0153775
50
174.842049
51
180.2736412
0
ARC
8
DEFAULT_255_2_778
10
65.1765397
20
32.7753098
40
3.4941437
50
180.0711816
51
181.9345403
0
ARC
8
DEFAULT_255_2_778
10
66.5211568
20
32.8155452
40
4.8393556
50
181.8732279
51
182.336979
0
ARC
8
DEFAULT_255_2_778
10
64.2912339
20
32.7118125
40
2.6070884
50
182.0574832
51
187.0293193
0
ARC
8
DEFAULT_255_2_778
10
62.7558054
20
32.5147629
40
1.0591143
50
186.6145453
51
199.1951196
0
ARC
8
DEFAULT_255_2_778
10
62.4199837
20
32.4108619
40
0.7079081
50
200.1897987
51
230.4645547
0
ARC
8
DEFAULT_255_2_778
10
62.7405772
20
32.7495608
40
1.1736257
50
228.9191842
51
231.0649379
0
ARC
8
DEFAULT_255_2_778
10
62.9109836
20
32.9618345
40
1.4458349
50
231.0985831
51
233.878141
0
ARC
8
DEFAULT_255_2_778
10
63.1229546
20
33.2501388
40
1.8036752
50
233.8379241
51
235.2523476
0
ARC
8
DEFAULT_255_2_778
10
62.296131
20
30.9593405
40
0.5962952
50
16.9291404
51
66.5080551
0
ARC
8
DEFAULT_255_2_778
10
62.3075468
20
30.9972351
40
0.5752828
50
1.8605171
51
13.6478306
0
ARC
8
DEFAULT_255_2_778
10
62.4245599
20
30.6196025
40
0.4614427
50
0.7841725
51
4.73738
0
ARC
8
DEFAULT_255_2_778
10
62.4523253
20
30.620192
40
0.4336721
50
359.99967
51
0.7564941
0
ARC
8
DEFAULT_255_2_778
10
62.5290666
20
30.6161224
40
0.3569539
50
339.0055282
51
0.6528425
0
ARC
8
DEFAULT_255_2_778
10
62.5991493
20
30.5900268
40
0.2821752
50
298.4393345
51
338.8540923
0
ARC
8
DEFAULT_255_2_778
10
62.5932063
20
30.602388
40
0.2958756
50
270.0180772
51
298.311342
0
LINE
8
DEFAULT_255_2_778
10
62.5932996
20
30.3065125
11
62.592888
21
30.3065122
0
ARC
8
DEFAULT_255_2_778
10
62.5901104
20
30.5863806
40
0.2798821
50
215.8585645
51
270.5686103
0
ARC
8
DEFAULT_255_2_778
10
62.6294783
20
30.6103018
40
0.3258219
50
191.4914899
51
215.2125009
0
ARC
8
DEFAULT_255_2_778
10
62.7249382
20
30.6338965
40
0.4240888
50
184.4472128
51
192.0459696
0
LINE
8
DEFAULT_255_2_778
10
67.5323263
20
32.2938124
11
67.5323263
21
32.9519124
0
ARC
8
DEFAULT_255_2_778
10
66.5043841
20
32.9645624
40
1.02802
50
359.2949466
51
15.2758103
0
ARC
8
DEFAULT_255_2_778
10
66.870722
20
33.0662687
40
0.6478311
50
15.1347159
51
72.1673414
0
ARC
8
DEFAULT_255_2_778
10
66.6691014
20
32.5499551
40
1.2015583
50
70.5544877
51
84.4131646
0
ARC
8
DEFAULT_255_2_778
10
66.5879245
20
31.8660336
40
1.8901875
50
83.9824662
51
90.172727
0
ARC
8
DEFAULT_255_2_778
10
66.5696377
20
32.0083456
40
1.7479122
50
89.5873491
51
99.2302623
0
ARC
8
DEFAULT_255_2_778
10
66.4438387
20
32.7516099
40
0.9941057
50
98.9450461
51
114.9150118
0
ARC
8
DEFAULT_255_2_778
10
66.272884
20
33.1102344
40
0.5968517
50
114.5343203
51
173.2787093
0
ARC
8
DEFAULT_255_2_778
10
66.6612862
20
33.02932
40
0.9926685
50
171.2639181
51
180.2370844
0
LINE
8
DEFAULT_255_2_778
10
65.6686263
20
33.0252124
11
65.6686263
21
30.5759124
0
ARC
8
DEFAULT_255_2_778
10
66.7411701
20
30.6142215
40
1.0732278
50
182.0456153
51
197.8844142
0
ARC
8
DEFAULT_255_2_778
10
66.3770001
20
30.4955462
40
0.6902112
50
197.7926972
51
253.7648968
0
ARC
8
DEFAULT_255_2_778
10
66.567205
20
31.0244337
40
1.251668
50
252.1738118
51
265.5755265
0
ARC
8
DEFAULT_255_2_778
10
66.620957
20
31.5078167
40
1.7378335
50
265.0380714
51
267.5188932
0
ARC
8
DEFAULT_255_2_778
10
66.5587509
20
31.0732743
40
1.3017271
50
269.4267082
51
283.5322689
0
ARC
8
DEFAULT_255_2_778
10
66.6934212
20
30.5689877
40
0.7800354
50
282.5823298
51
336.4012898
0
ARC
8
DEFAULT_255_2_778
10
66.296414
20
30.7564004
40
1.2189355
50
335.7993127
51
349.7315487
0
LINE
8
DEFAULT_255_2_778
10
67.4958263
20
30.5391124
11
67.4958263
21
31.1972124
0
LINE
8
DEFAULT_255_2_778
10
67.4958263
20
31.1972124
11
66.8746263
21
31.1972124
0
LINE
8
DEFAULT_255_2_778
10
66.8746263
20
31.1972124
11
66.8746263
21
30.6122124
0
ARC
8
DEFAULT_255_2_778
10
66.6659676
20
30.5979958
40
0.2091424
50
316.5076055
51
3.8977319
0
ARC
8
DEFAULT_255_2_778
10
66.6608101
20
30.6343499
40
0.2389972
50
273.2734225
51
311.0275595
0
ARC
8
DEFAULT_255_2_778
10
66.6203067
20
30.8941705
40
0.5013605
50
269.819382
51
276.2004324
0
ARC
8
DEFAULT_255_2_778
10
66.6064015
20
30.9246012
40
0.5319315
50
252.8705301
51
271.3276558
0
ARC
8
DEFAULT_255_2_778
10
66.5110043
20
30.6296403
40
0.2219986
50
175.0715788
51
253.9778289
0
LINE
8
DEFAULT_255_2_778
10
66.2898263
20
30.6487124
11
66.2898263
21
32.8786124
0
ARC
8
DEFAULT_255_2_778
10
66.5676272
20
32.8507543
40
0.2791942
50
140.8182742
51
174.2734658
0
ARC
8
DEFAULT_255_2_778
10
66.5231111
20
32.8654961
40
0.2359657
50
90.8502332
51
136.7605233
0
ARC
8
DEFAULT_255_2_778
10
66.5492616
20
32.677042
40
0.4254284
50
89.9420982
51
93.9966957
0
ARC
8
DEFAULT_255_2_778
10
66.5480224
20
32.5567563
40
0.5457165
50
83.5146621
51
89.8247529
0
ARC
8
DEFAULT_255_2_778
10
66.5373456
20
32.4463631
40
0.6566119
50
82.8804409
51
83.6769971
0
ARC
8
DEFAULT_255_2_778
10
66.6325505
20
32.8388162
40
0.2594648
50
52.5449871
51
93.0541516
0
ARC
8
DEFAULT_255_2_778
10
66.6157695
20
32.8524257
40
0.2597656
50
7.3188496
51
47.7757489
0
ARC
8
DEFAULT_255_2_778
10
66.432605
20
32.8048514
40
0.4481336
50
9.4737771
51
10.3700174
0
LINE
8
DEFAULT_255_2_778
10
66.8746263
20
32.8786124
11
66.8746263
21
32.2936124
0
LINE
8
DEFAULT_255_2_778
10
63.4704263
20
30.4976124
11
63.4704263
21
31.3271124
0
LINE
8
DEFAULT_255_2_778
10
63.2310263
20
31.7607124
11
62.4960263
21
32.2036124
0
LINE
8
DEFAULT_255_2_778
10
62.3039263
20
32.4769124
11
62.3021263
21
32.9106124
0
LINE
8
DEFAULT_255_2_778
10
62.8844263
20
32.9275124
11
62.8863263
21
32.6182124
0
LINE
8
DEFAULT_255_2_778
10
62.8863263
20
32.6182124
11
63.4760263
21
32.6182124
0
LINE
8
DEFAULT_255_2_778
10
63.4760263
20
32.6182124
11
63.4760263
21
32.9669124
0
LINE
8
DEFAULT_255_2_778
10
62.0949263
20
31.7681124
11
62.5338263
21
31.5062124
0
LINE
8
DEFAULT_255_2_778
10
62.8825263
20
31.0159124
11
62.8844263
21
30.6577124
0
LINE
8
DEFAULT_255_2_778
10
62.3021263
20
30.6010124
11
62.3002263
21
30.9630124
0
LINE
8
DEFAULT_255_2_778
10
62.3002263
20
30.9630124
11
61.7065263
21
30.9648124
0
LINE
8
DEFAULT_255_2_778
10
61.7065263
20
30.9648124
11
61.7046263
21
30.6389124
0
LINE
8
DEFAULT_255_2_778
10
66.8746263
20
32.2938124
11
67.5323263
21
32.2938124
0
LINE
8
DEFAULT_255_2_778
10
66.8746263
20
32.2936124
11
66.8746263
21
32.2938124
0
LINE
8
DEFAULT_255_2_778
10
73.0619292
20
31.4363687
11
73.0619292
21
30.2989687
0
LINE
8
DEFAULT_255_2_778
10
73.0619292
20
30.2989687
11
72.6417292
21
30.2989687
0
LINE
8
DEFAULT_255_2_778
10
72.6417292
20
30.2989687
11
72.6417292
21
32.8722687
0
LINE
8
DEFAULT_255_2_778
10
72.6417292
20
32.8722687
11
73.8477292
21
32.8722687
0
LINE
8
DEFAULT_255_2_778
10
73.8477292
20
32.8722687
11
73.8477292
21
32.4811687
0
LINE
8
DEFAULT_255_2_778
10
73.8477292
20
32.4811687
11
73.0619292
21
32.4811687
0
LINE
8
DEFAULT_255_2_778
10
73.0619292
20
32.4811687
11
73.0619292
21
31.8271687
0
LINE
8
DEFAULT_255_2_778
10
73.0619292
20
31.8271687
11
73.8477292
21
31.8271687
0
LINE
8
DEFAULT_255_2_778
10
73.8477292
20
31.8271687
11
73.8477292
21
31.4360687
0
LINE
8
DEFAULT_255_2_778
10
73.8477292
20
31.4360687
11
73.0619292
21
31.4360687
0
LINE
8
DEFAULT_255_2_778
10
73.0619292
20
31.4360687
11
73.0619292
21
31.4363687
0
LINE
8
DEFAULT_255_2_778
10
75.1449292
20
32.8722687
11
75.5921292
21
32.8722687
0
LINE
8
DEFAULT_255_2_778
10
75.5921292
20
32.8722687
11
75.0264292
21
31.6779687
0
LINE
8
DEFAULT_255_2_778
10
75.0264292
20
31.6779687
11
75.6632292
21
30.2989687
0
LINE
8
DEFAULT_255_2_778
10
75.6632292
20
30.2989687
11
75.2161292
21
30.2989687
0
LINE
8
DEFAULT_255_2_778
10
75.2161292
20
30.2989687
11
74.7994292
21
31.2871687
0
LINE
8
DEFAULT_255_2_778
10
74.7994292
20
31.2871687
11
74.3726292
21
30.2989687
0
LINE
8
DEFAULT_255_2_778
10
74.3726292
20
30.2989687
11
73.9289292
21
30.2989687
0
LINE
8
DEFAULT_255_2_778
10
73.9289292
20
30.2989687
11
74.5692292
21
31.6779687
0
LINE
8
DEFAULT_255_2_778
10
74.5692292
20
31.6779687
11
74.0204292
21
32.8722687
0
LINE
8
DEFAULT_255_2_778
10
74.0204292
20
32.8722687
11
74.4641292
21
32.8722687
0
LINE
8
DEFAULT_255_2_778
10
74.4641292
20
32.8722687
11
74.7996292
21
32.0583687
0
LINE
8
DEFAULT_255_2_778
10
74.7996292
20
32.0583687
11
75.1452292
21
32.8722687
0
LINE
8
DEFAULT_255_2_778
10
75.1452292
20
32.8722687
11
75.1449292
21
32.8722687
0
ARC
8
DEFAULT_255_2_778
10
76.1664536
20
32.1479887
40
0.7204554
50
316.9883575
51
336.8225918
0
ARC
8
DEFAULT_255_2_778
10
76.3069658
20
32.1086201
40
0.5761063
50
334.9215346
51
358.8773115
0
ARC
8
DEFAULT_255_2_778
10
76.3171079
20
32.1101943
40
0.5659997
50
358.6978669
51
20.2256662
0
ARC
8
DEFAULT_255_2_778
10
76.5186766
20
32.177657
40
0.3535948
50
21.2600545
51
37.7496848
0
ARC
8
DEFAULT_255_2_778
10
76.5715197
20
32.2086861
40
0.29292
50
39.2788351
51
89.5597634
0
ARC
8
DEFAULT_255_2_778
10
76.5412653
20
31.9915717
40
0.5110606
50
86.3533535
51
90.0452775
0
ARC
8
DEFAULT_255_2_778
10
76.5293923
20
32.2186907
40
0.2841731
50
87.6869264
51
163.1539609
0
ARC
8
DEFAULT_255_2_778
10
76.9446794
20
32.0488519
40
0.7320758
50
159.8493627
51
175.2242467
0
ARC
8
DEFAULT_255_2_778
10
77.3691951
20
31.9939992
40
1.1598454
50
174.2698649
51
175.9392688
0
ARC
8
DEFAULT_255_2_778
10
76.8307577
20
32.0704454
40
1.0387118
50
160.3896535
51
179.6863088
0
ARC
8
DEFAULT_255_2_778
10
76.5972938
20
32.1466253
40
0.7932493
50
137.5200441
51
159.9133464
0
ARC
8
DEFAULT_255_2_778
10
76.5397274
20
32.1960855
40
0.7173954
50
91.9005283
51
137.328456
0
ARC
8
DEFAULT_255_2_778
10
76.5807725
20
31.8869627
40
1.0281699
50
89.9671765
51
93.6155081
0
ARC
8
DEFAULT_255_2_778
10
76.5950069
20
32.0994133
40
0.8158331
50
68.7996791
51
90.9583623
0
ARC
8
DEFAULT_255_2_778
10
76.653876
20
32.2745269
40
0.6313385
50
41.7267235
51
68.0335758
0
ARC
8
DEFAULT_255_2_778
10
76.544824
20
32.1830325
40
0.7736357
50
6.3070021
51
41.4084219
0
ARC
8
DEFAULT_255_2_778
10
76.1940175
20
32.1219438
40
1.1292478
50
359.8522749
51
7.4324858
0
ARC
8
DEFAULT_255_2_778
10
76.2318843
20
32.1063457
40
1.0914509
50
346.1580703
51
0.6659957
0
ARC
8
DEFAULT_255_2_778
10
76.6032525
20
32.0196663
40
0.7101452
50
332.5704221
51
345.7800355
0
ARC
8
DEFAULT_255_2_778
10
76.1890344
20
32.2570227
40
1.1873021
50
320.2217467
51
331.6120241
0
ARC
8
DEFAULT_255_2_778
10
75.4558658
20
32.8525703
40
2.1318341
50
314.1458655
51
320.5281488
0
LINE
8
DEFAULT_255_2_778
10
77.3131615
20
30.6897323
11
77.3131615
21
30.2986323
0
LINE
8
DEFAULT_255_2_778
10
77.3131615
20
30.2986323
11
75.7751615
21
30.2986323
0
LINE
8
DEFAULT_255_2_778
10
75.7751615
20
30.2986323
11
75.7751615
21
30.7109323
0
LINE
8
DEFAULT_255_2_778
10
75.7751615
20
30.7109323
11
76.6932615
21
31.6565323
0
LINE
8
DEFAULT_255_2_778
10
76.2122615
20
32.0761323
11
75.7920615
21
32.0761323
0
LINE
8
DEFAULT_255_2_778
10
76.9406615
20
31.3228323
11
76.3037615
21
30.6902323
0
LINE
8
DEFAULT_255_2_778
10
76.3037615
20
30.6902323
11
77.3131615
21
30.6902323
0
LINE
8
DEFAULT_255_2_778
10
77.3131615
20
30.6902323
11
77.3131615
21
30.6897323
0
ARC
8
DEFAULT_255_2_778
10
81.9219698
20
31.130884
40
0.676598
50
183.0317735
51
200.5171006
0
ARC
8
DEFAULT_255_2_778
10
81.6086919
20
31.0102262
40
0.340918
50
199.9785592
51
271.1074499
0
ARC
8
DEFAULT_255_2_778
10
81.6458194
20
31.2721614
40
0.6035626
50
267.0997721
51
270.0284228
0
ARC
8
DEFAULT_255_2_778
10
81.6605879
20
31.0047614
40
0.3364737
50
267.5353948
51
306.3881875
0
ARC
8
DEFAULT_255_2_778
10
81.6821668
20
30.9599244
40
0.2877257
50
308.22617
51
321.8776117
0
ARC
8
DEFAULT_255_2_778
10
81.5541266
20
31.050275
40
0.4443028
50
322.905005
51
1.7876609
0
ARC
8
DEFAULT_255_2_778
10
81.3655334
20
31.0667971
40
0.6326856
50
359.7589353
51
0.000161
0
ARC
8
DEFAULT_255_2_778
10
81.4183791
20
31.0792125
40
0.5799726
50
358.7735669
51
16.7431429
0
ARC
8
DEFAULT_255_2_778
10
81.7234128
20
31.1733764
40
0.2607537
50
16.2383411
51
52.2310833
0
ARC
8
DEFAULT_255_2_778
10
81.6303966
20
31.0175247
40
0.4414679
50
55.0781283
51
82.8148341
0
ARC
8
DEFAULT_255_2_778
10
81.5626156
20
30.6366395
40
0.8280721
50
81.4579277
51
90.3180631
0
ARC
8
DEFAULT_255_2_778
10
81.5702819
20
32.4626519
40
0.5858813
50
268.8006587
51
285.9400378
0
ARC
8
DEFAULT_255_2_778
10
81.6544568
20
32.1625325
40
0.2741886
50
286.2500833
51
309.0832662
0
ARC
8
DEFAULT_255_2_778
10
81.657602
20
32.1349456
40
0.2512372
50
312.4948708
51
354.1478742
0
ARC
8
DEFAULT_255_2_778
10
81.3770921
20
32.1899914
40
0.5365356
50
351.3534184
51
0.3318477
0
ARC
8
DEFAULT_255_2_778
10
81.5685406
20
32.2067991
40
0.34535
50
357.7264498
51
32.2819352
0
ARC
8
DEFAULT_255_2_778
10
81.642007
20
32.2429738
40
0.2640608
50
34.1600485
51
41.7476279
0
ARC
8
DEFAULT_255_2_778
10
81.6444884
20
32.2357204
40
0.2671326
50
43.2628905
51
93.3413212
0
ARC
8
DEFAULT_255_2_778
10
81.6142191
20
32.2015105
40
0.3012473
50
87.203075
51
129.358781
0
ARC
8
DEFAULT_255_2_778
10
81.6509565
20
32.1913735
40
0.3331088
50
133.1415289
51
167.5985399
0
ARC
8
DEFAULT_255_2_778
10
81.936073
20
32.1050911
40
0.6305238
50
165.5046549
51
172.9481473
0
ARC
8
DEFAULT_255_2_778
10
81.6580249
20
32.1891996
40
0.7678354
50
152.8662891
51
180.5000122
0
ARC
8
DEFAULT_255_2_778
10
81.5794242
20
32.2170248
40
0.6852847
50
133.9612732
51
151.9394886
0
ARC
8
DEFAULT_255_2_778
10
81.6059834
20
32.1959731
40
0.7188886
50
88.4508026
51
134.3202537
0
ARC
8
DEFAULT_255_2_778
10
81.6403087
20
32.1617182
40
0.7530279
50
48.5570009
51
91.1330071
0
ARC
8
DEFAULT_255_2_778
10
81.7220507
20
32.2524024
40
0.6309481
50
0.4593373
51
48.6708206
0
ARC
8
DEFAULT_255_2_778
10
81.4385361
20
32.218251
40
0.9152827
50
359.9842191
51
2.4552345
0
ARC
8
DEFAULT_255_2_778
10
81.4428791
20
32.205715
40
0.9110226
50
347.379996
51
0.7725796
0
ARC
8
DEFAULT_255_2_778
10
81.862331
20
32.1135728
40
0.4815759
50
331.2443992
51
347.1744793
0
ARC
8
DEFAULT_255_2_778
10
81.938052
20
32.0900318
40
0.4041764
50
293.6165767
51
329.0055097
0
ARC
8
DEFAULT_255_2_778
10
81.8104428
20
32.3249263
40
0.670908
50
290.2284556
51
295.5657448
0
ARC
8
DEFAULT_255_2_778
10
81.9277104
20
31.2303672
40
0.4720799
50
29.467713
51
75.937209
0
ARC
8
DEFAULT_255_2_778
10
81.6622981
20
31.0814069
40
0.7764356
50
359.6712304
51
29.4031207
0
ARC
8
DEFAULT_255_2_778
10
81.4206421
20
31.0628397
40
1.0181767
50
359.9977044
51
0.7941455
0
ARC
8
DEFAULT_255_2_778
10
81.5127134
20
31.0493649
40
0.9262028
50
340.9744813
51
0.8310696
0
ARC
8
DEFAULT_255_2_778
10
81.7415607
20
30.9769556
40
0.6862795
50
312.4903091
51
340.4611989
0
ARC
8
DEFAULT_255_2_778
10
81.655037
20
31.0757949
40
0.8176118
50
273.365432
51
312.2828339
0
ARC
8
DEFAULT_255_2_778
10
81.6100772
20
31.3962596
40
1.1404611
50
269.9468274
51
274.6752649
0
ARC
8
DEFAULT_255_2_778
10
81.5950669
20
31.0701648
40
0.8144854
50
246.8073586
51
270.9815106
0
ARC
8
DEFAULT_255_2_778
10
81.5533692
20
30.9455834
40
0.6836347
50
221.9485325
51
245.9075964
0
ARC
8
DEFAULT_255_2_778
10
81.6692112
20
31.0460538
40
0.8369569
50
187.4040651
51
221.7629007
0
ARC
8
DEFAULT_255_2_778
10
82.0243557
20
31.113997
40
1.1980907
50
180.9181396
51
188.4375979
0
LINE
8
DEFAULT_255_2_778
10
78.1329188
20
32.1043989
11
78.1329188
21
30.2986989
0
LINE
8
DEFAULT_255_2_778
10
78.1329188
20
30.2986989
11
77.7604188
21
30.2986989
0
LINE
8
DEFAULT_255_2_778
10
77.7604188
20
30.2986989
11
77.7604188
21
32.8719989
0
LINE
8
DEFAULT_255_2_778
10
77.7604188
20
32.8719989
11
78.2075188
21
32.8719989
0
LINE
8
DEFAULT_255_2_778
10
78.2075188
20
32.8719989
11
78.9833188
21
31.2048989
0
LINE
8
DEFAULT_255_2_778
10
78.9833188
20
31.2048989
11
78.9902188
21
31.2048989
0
LINE
8
DEFAULT_255_2_778
10
78.9902188
20
31.2048989
11
78.9902188
21
32.8719989
0
LINE
8
DEFAULT_255_2_778
10
78.9902188
20
32.8719989
11
79.3627188
21
32.8719989
0
LINE
8
DEFAULT_255_2_778
10
79.3627188
20
32.8719989
11
79.3627188
21
30.2986989
0
LINE
8
DEFAULT_255_2_778
10
79.3627188
20
30.2986989
11
78.9968188
21
30.2986989
0
LINE
8
DEFAULT_255_2_778
10
78.9968188
20
30.2986989
11
78.1398188
21
32.1043989
0
LINE
8
DEFAULT_255_2_778
10
78.1398188
20
32.1043989
11
78.1329188
21
32.1043989
0
LINE
8
DEFAULT_255_2_778
10
78.1329188
20
32.1043989
11
78.1329188
21
32.1043989
0
LINE
8
DEFAULT_255_2_778
10
80.5753188
20
31.4929989
11
80.5753188
21
31.1376989
0
LINE
8
DEFAULT_255_2_778
10
80.5753188
20
31.1376989
11
79.7453188
21
31.1376989
0
LINE
8
DEFAULT_255_2_778
10
79.7453188
20
31.1376989
11
79.7453188
21
31.4929989
0
LINE
8
DEFAULT_255_2_778
10
79.7453188
20
31.4929989
11
80.5753188
21
31.4929989
0
LINE
8
DEFAULT_255_2_778
10
80.5753188
20
31.4929989
11
80.5753188
21
31.4929989
0
LINE
8
DEFAULT_255_2_778
10
80.8261188
20
31.0950989
11
81.2463188
21
31.0950989
0
LINE
8
DEFAULT_255_2_778
10
81.5580188
20
31.4646989
11
81.4394188
21
31.4646989
0
LINE
8
DEFAULT_255_2_778
10
81.4394188
20
31.4646989
11
81.4394188
21
31.8768989
0
LINE
8
DEFAULT_255_2_778
10
81.4394188
20
31.8768989
11
81.5580188
21
31.8768989
0
LINE
8
DEFAULT_255_2_778
10
81.3103188
20
32.1824989
11
80.8902188
21
32.1824989
0
LINE
8
DEFAULT_255_2_778
10
82.0424188
20
31.6953989
11
82.0424188
21
31.6882989
0
LINE
8
DEFAULT_255_2_778
10
80.8264188
20
31.0947989
11
80.8261188
21
31.0950989
0
ARC
8
DEFAULT_255_2_778
10
83.1313536
20
32.1479887
40
0.7204554
50
316.9883575
51
336.8225918
0
ARC
8
DEFAULT_255_2_778
10
83.2718658
20
32.1086201
40
0.5761063
50
334.9215346
51
358.8773115
0
ARC
8
DEFAULT_255_2_778
10
83.2820079
20
32.1101943
40
0.5659997
50
358.6978669
51
20.2256662
0
ARC
8
DEFAULT_255_2_778
10
83.4835766
20
32.177657
40
0.3535948
50
21.2600545
51
37.7496848
0
ARC
8
DEFAULT_255_2_778
10
83.5364197
20
32.2086861
40
0.29292
50
39.2788351
51
89.5597634
0
ARC
8
DEFAULT_255_2_778
10
83.5061653
20
31.9915717
40
0.5110606
50
86.3533535
51
90.0452775
0
ARC
8
DEFAULT_255_2_778
10
83.4942923
20
32.2186907
40
0.2841731
50
87.6869264
51
163.1539609
0
ARC
8
DEFAULT_255_2_778
10
83.9095794
20
32.0488519
40
0.7320758
50
159.8493627
51
175.2242467
0
ARC
8
DEFAULT_255_2_778
10
84.3340951
20
31.9939992
40
1.1598454
50
174.2698649
51
175.9392688
0
ARC
8
DEFAULT_255_2_778
10
83.7956577
20
32.0704454
40
1.0387118
50
160.3896535
51
179.6863088
0
ARC
8
DEFAULT_255_2_778
10
83.5621938
20
32.1466253
40
0.7932493
50
137.5200441
51
159.9133464
0
ARC
8
DEFAULT_255_2_778
10
83.5046274
20
32.1960855
40
0.7173954
50
91.9005283
51
137.328456
0
ARC
8
DEFAULT_255_2_778
10
83.5456725
20
31.8869627
40
1.0281699
50
89.9671765
51
93.6155081
0
ARC
8
DEFAULT_255_2_778
10
83.5599069
20
32.0994133
40
0.8158331
50
68.7996791
51
90.9583623
0
ARC
8
DEFAULT_255_2_778
10
83.618776
20
32.2745269
40
0.6313385
50
41.7267235
51
68.0335758
0
ARC
8
DEFAULT_255_2_778
10
83.509724
20
32.1830325
40
0.7736357
50
6.3070021
51
41.4084219
0
ARC
8
DEFAULT_255_2_778
10
83.1589175
20
32.1219438
40
1.1292478
50
359.8522749
51
7.4324858
0
ARC
8
DEFAULT_255_2_778
10
83.1967843
20
32.1063457
40
1.0914509
50
346.1580703
51
0.6659957
0
ARC
8
DEFAULT_255_2_778
10
83.5681525
20
32.0196663
40
0.7101452
50
332.5704221
51
345.7800355
0
ARC
8
DEFAULT_255_2_778
10
83.1539344
20
32.2570227
40
1.1873021
50
320.2217467
51
331.6120241
0
ARC
8
DEFAULT_255_2_778
10
82.4207658
20
32.8525703
40
2.1318341
50
314.1458655
51
320.5281488
0
LINE
8
DEFAULT_255_2_778
10
84.2780615
20
30.6897323
11
84.2780615
21
30.2986323
0
LINE
8
DEFAULT_255_2_778
10
84.2780615
20
30.2986323
11
82.7400615
21
30.2986323
0
LINE
8
DEFAULT_255_2_778
10
82.7400615
20
30.2986323
11
82.7400615
21
30.7109323
0
LINE
8
DEFAULT_255_2_778
10
82.7400615
20
30.7109323
11
83.6581615
21
31.6565323
0
LINE
8
DEFAULT_255_2_778
10
83.1771615
20
32.0761323
11
82.7569615
21
32.0761323
0
LINE
8
DEFAULT_255_2_778
10
83.9055615
20
31.3228323
11
83.2686615
21
30.6902323
0
LINE
8
DEFAULT_255_2_778
10
83.2686615
20
30.6902323
11
84.2780615
21
30.6902323
0
LINE
8
DEFAULT_255_2_778
10
84.2780615
20
30.6902323
11
84.2780615
21
30.6897323
0
LINE
8
DEFAULT_255_2_778
10
85.9955896
20
30.689801
11
85.9955896
21
30.298701
0
LINE
8
DEFAULT_255_2_778
10
85.9955896
20
30.298701
11
84.7149896
21
30.298701
0
LINE
8
DEFAULT_255_2_778
10
84.7149896
20
30.298701
11
84.7149896
21
32.872001
0
LINE
8
DEFAULT_255_2_778
10
84.7149896
20
32.872001
11
85.9751896
21
32.872001
0
LINE
8
DEFAULT_255_2_778
10
85.9751896
20
32.872001
11
85.9751896
21
32.481001
0
LINE
8
DEFAULT_255_2_778
10
85.9751896
20
32.481001
11
85.1351896
21
32.481001
0
LINE
8
DEFAULT_255_2_778
10
85.1351896
20
32.481001
11
85.1351896
21
31.834101
0
LINE
8
DEFAULT_255_2_778
10
85.1351896
20
31.834101
11
85.9886896
21
31.834101
0
LINE
8
DEFAULT_255_2_778
10
85.9886896
20
31.834101
11
85.9886896
21
31.443001
0
LINE
8
DEFAULT_255_2_778
10
85.9886896
20
31.443001
11
85.1351896
21
31.443001
0
LINE
8
DEFAULT_255_2_778
10
85.1351896
20
31.443001
11
85.1351896
21
30.689501
0
LINE
8
DEFAULT_255_2_778
10
85.1351896
20
30.689501
11
85.9955896
21
30.689501
0
LINE
8
DEFAULT_255_2_778
10
85.9955896
20
30.689501
11
85.9955896
21
30.689801
0
LINE
8
DEFAULT_255_2_778
10
86.7271896
20
30.299001
11
86.7271896
21
32.460101
0
LINE
8
DEFAULT_255_2_778
10
86.7271896
20
32.460101
11
86.2325896
21
32.460101
0
LINE
8
DEFAULT_255_2_778
10
86.2325896
20
32.460101
11
86.2325896
21
32.872301
0
LINE
8
DEFAULT_255_2_778
10
86.2325896
20
32.872301
11
87.6417896
21
32.872301
0
LINE
8
DEFAULT_255_2_778
10
87.6417896
20
32.872301
11
87.6417896
21
32.460101
0
LINE
8
DEFAULT_255_2_778
10
87.6417896
20
32.460101
11
87.1472896
21
32.460101
0
LINE
8
DEFAULT_255_2_778
10
87.1472896
20
32.460101
11
87.1472896
21
30.299001
0
LINE
8
DEFAULT_255_2_778
10
87.1472896
20
30.299001
11
86.7271896
21
30.299001
0
LINE
8
DEFAULT_255_2_778
10
86.7271896
20
30.299001
11
86.7271896
21
30.299001
0
ARC
8
DEFAULT_255_2_778
10
35.6347836
20
1.7539756
40
1.9930654
50
179.9264162
51
204.3092455
0
ARC
8
DEFAULT_255_2_778
10
35.6433628
20
1.7588863
40
2.0029057
50
204.3362385
51
260.1969791
0
ARC
8
DEFAULT_255_2_778
10
35.6410032
20
1.7696407
40
2.0131055
50
260.315269
51
270.0175488
0
ARC
8
DEFAULT_255_2_778
10
35.6347836
20
87.7586949
40
1.9930654
50
155.6907545
51
180.0735838
0
ARC
8
DEFAULT_255_2_778
10
35.6433628
20
87.7537841
40
2.0029057
50
99.8030209
51
155.6637615
0
ARC
8
DEFAULT_255_2_778
10
35.6410032
20
87.7430297
40
2.0131055
50
89.9824512
51
99.684731
0
ARC
8
DEFAULT_255_2_778
10
148.144279
20
87.763323
40
1.9928139
50
65.6879682
51
90.0735817
0
ARC
8
DEFAULT_255_2_778
10
148.1390861
20
87.7542993
40
2.0031756
50
9.8044729
51
65.65887
0
ARC
8
DEFAULT_255_2_778
10
148.1281185
20
87.7565656
40
2.0136013
50
359.9877538
51
9.6877868
0
ARC
8
DEFAULT_255_2_778
10
148.1484212
20
87.7585111
40
1.9933
50
359.9317062
51
24.3119945
0
ARC
8
DEFAULT_255_2_778
10
148.1399358
20
87.7536682
40
2.0030269
50
24.3383105
51
80.196385
0
ARC
8
DEFAULT_255_2_778
10
148.1423362
20
87.7430255
40
2.0131097
50
80.3152812
51
90.0175439
0
ARC
8
DEFAULT_255_2_778
10
148.1485232
20
1.7538529
40
1.993198
50
335.6873726
51
0.0684804
0
ARC
8
DEFAULT_255_2_778
10
148.1398574
20
1.7588357
40
2.0031469
50
279.8052981
51
335.6595418
0
ARC
8
DEFAULT_255_2_778
10
148.1421516
20
1.7697846
40
2.0135495
50
269.9877133
51
279.6879127
0
ARC
8
DEFAULT_255_2_778
10
148.1441021
20
1.7494318
40
1.993198
50
269.9315196
51
294.3126274
0
ARC
8
DEFAULT_255_2_778
10
148.1391193
20
1.7580976
40
2.0031469
50
294.3404582
51
350.1947019
0
ARC
8
DEFAULT_255_2_778
10
148.1281704
20
1.7558034
40
2.0135495
50
350.3120873
51
0.0122867
0
ARC
8
DEFAULT_255_2_778
10
56.8752408
20
44.9868986
40
31.8437056
50
218.1171802
51
221.8137581
0
ARC
8
DEFAULT_255_2_778
10
56.6601867
20
44.8178342
40
31.5701532
50
214.1382763
51
218.1167001
0
ARC
8
DEFAULT_255_2_778
10
56.5153485
20
44.719257
40
31.394952
50
209.7641518
51
214.1377124
0
ARC
8
DEFAULT_255_2_778
10
56.4492607
20
44.6809737
40
31.3185779
50
205.0171469
51
209.7633747
0
ARC
8
DEFAULT_255_2_778
10
56.4641097
20
44.687321
40
31.3347179
50
199.4634702
51
205.0161821
0
ARC
8
DEFAULT_255_2_778
10
56.5572269
20
44.7194898
40
31.4332328
50
192.7198945
51
199.4622002
0
ARC
8
DEFAULT_255_2_778
10
56.7055039
20
44.7518356
40
31.5849929
50
182.5727791
51
192.7179057
0
ARC
8
DEFAULT_255_2_778
10
56.7647813
20
44.7563112
40
31.6444116
50
179.9999564
51
182.5760566
0
ARC
8
DEFAULT_255_2_778
10
56.7284393
20
44.7579837
40
31.6080695
50
168.5004354
51
180.0029881
0
ARC
8
DEFAULT_255_2_778
10
56.5779756
20
44.7873622
40
31.4547693
50
161.5351372
51
168.4982356
0
ARC
8
DEFAULT_255_2_778
10
56.4739081
20
44.8213875
40
31.3452828
50
155.7837796
51
161.5338816
0
ARC
8
DEFAULT_255_2_778
10
56.4463013
20
44.8331874
40
31.3152653
50
150.8823739
51
155.7827508
0
ARC
8
DEFAULT_255_2_778
10
56.5001834
20
44.8027118
40
31.3771674
50
146.5417914
51
150.8816344
0
ARC
8
DEFAULT_255_2_778
10
56.631733
20
44.7153495
40
31.5350831
50
142.5033922
51
146.5411405
0
ARC
8
DEFAULT_255_2_778
10
56.8367831
20
44.5576682
40
31.7937505
50
138.7434177
51
142.5028774
0
ARC
8
DEFAULT_255_2_778
10
56.9833884
20
44.4313988
40
31.9872293
50
138.1894043
51
138.7465548
0
ARC
8
DEFAULT_255_2_778
10
67.2877972
20
44.6921284
40
40.1205962
50
148.3302569
51
152.2347787
0
ARC
8
DEFAULT_255_2_778
10
67.1643248
20
44.7574264
40
39.9809209
50
152.2351518
51
156.5832164
0
ARC
8
DEFAULT_255_2_778
10
67.1123706
20
44.7803079
40
39.9241522
50
156.5837179
51
161.3920244
0
ARC
8
DEFAULT_255_2_778
10
67.1273064
20
44.7757044
40
39.9397763
50
161.3926025
51
167.2250148
0
ARC
8
DEFAULT_255_2_778
10
67.1944044
20
44.7610272
40
40.0084587
50
167.2257638
51
175.1713508
0
ARC
8
DEFAULT_255_2_778
10
67.2408635
20
44.7563867
40
40.0551436
50
175.1703306
51
179.9996648
0
LINE
8
DEFAULT_255_2_778
10
27.1857198
20
44.756621
11
27.1857198
21
44.7562977
0
ARC
8
DEFAULT_255_2_778
10
67.2245058
20
44.7554898
40
40.038786
50
179.9988438
51
190.268134
0
ARC
8
DEFAULT_255_2_778
10
67.1470883
20
44.7421233
40
39.9602258
50
190.2690625
51
196.5559608
0
ARC
8
DEFAULT_255_2_778
10
67.1102023
20
44.7316097
40
39.921873
50
196.5565824
51
201.7142254
0
ARC
8
DEFAULT_255_2_778
10
67.1352382
20
44.7419338
40
39.9489521
50
201.7146969
51
206.0527148
0
ARC
8
DEFAULT_255_2_778
10
67.2277146
20
44.787501
40
40.0520449
50
206.0531749
51
210.0859841
0
ARC
8
DEFAULT_255_2_778
10
67.3358503
20
44.8492894
40
40.1765865
50
210.0849225
51
211.6686558
0
ARC
8
DEFAULT_255_2_778
10
2.1393439
20
1.7495338
40
1.9933
50
245.6880055
51
270.0682938
0
ARC
8
DEFAULT_255_2_778
10
2.1441868
20
1.7580192
40
2.0030269
50
189.803615
51
245.6616895
0
ARC
8
DEFAULT_255_2_778
10
2.1548295
20
1.7556188
40
2.0131097
50
179.9824561
51
189.6847188
0
ARC
8
DEFAULT_255_2_778
10
2.134532
20
1.753676
40
1.9928139
50
179.9264183
51
204.3120318
0
ARC
8
DEFAULT_255_2_778
10
2.1435557
20
1.7588689
40
2.0031756
50
204.34113
51
260.1955271
0
ARC
8
DEFAULT_255_2_778
10
2.1412894
20
1.7698365
40
2.0136013
50
260.3122132
51
270.0122462
0
ARC
8
DEFAULT_255_2_778
10
149.6416229
20
65.2562383
40
0.5000969
50
359.9996485
51
90.0003515
0
ARC
8
DEFAULT_255_2_778
10
138.6415954
20
65.2562597
40
0.5000756
50
90.0086621
51
180.0028016
0
ARC
8
DEFAULT_255_2_778
10
138.64151
20
24.2561255
40
0.4999902
50
179.9988868
51
270.0011189
0
ARC
8
DEFAULT_255_2_778
10
149.6417082
20
24.2561468
40
0.5000116
50
269.9898688
51
359.9986732
0
ARC
8
DEFAULT_255_2_778
10
32.6418229
20
0.2563321
40
0.5000969
50
269.9996485
51
0.0003515
0
ARC
8
DEFAULT_255_2_778
10
32.6418724
20
89.2561331
40
0.4997474
50
359.9887792
51
45.0206486
0
ARC
8
DEFAULT_255_2_778
10
32.6415456
20
89.2562137
40
0.4999215
50
44.9876238
51
90.0029524
0
ARC
8
DEFAULT_255_2_778
10
2.1391669
20
87.763221
40
1.9929158
50
89.926605
51
114.3113989
0
ARC
8
DEFAULT_255_2_778
10
2.1442201
20
87.7543777
40
2.0030556
50
114.3389823
51
170.1972101
0
ARC
8
DEFAULT_255_2_778
10
2.1548813
20
87.7567502
40
2.0131615
50
170.3154071
51
180.0175033
0
LINE
8
DEFAULT_255_2_778
10
150.1417198
20
22.2561352
11
44.5766198
21
22.2561352
0
LINE
8
DEFAULT_255_2_778
10
40.7666198
20
67.2562352
11
40.7666198
21
65.7563352
0
LINE
8
DEFAULT_255_2_778
10
40.7666198
20
65.7563352
11
138.1417198
21
65.7563352
0
LINE
8
DEFAULT_255_2_778
10
138.1417198
20
65.7563352
11
138.1417198
21
23.7563352
0
LINE
8
DEFAULT_255_2_778
10
138.1417198
20
23.7563352
11
44.5766198
21
23.7563352
0
LINE
8
DEFAULT_255_2_778
10
44.5766198
20
23.7563352
11
44.5766198
21
22.2564352
0
LINE
8
DEFAULT_255_2_778
10
44.5766198
20
22.2564352
11
33.6417198
21
22.2564352
0
LINE
8
DEFAULT_255_2_778
10
33.6417198
20
22.2564352
11
33.6417198
21
1.7565352
0
LINE
8
DEFAULT_255_2_778
10
35.6416198
20
-0.2434648
11
148.1417198
21
-0.2434648
0
LINE
8
DEFAULT_255_2_778
10
150.1417198
20
67.2565352
11
40.7666198
21
67.2565352
0
LINE
8
DEFAULT_255_2_778
10
40.7666198
20
67.2565352
11
33.6417198
21
67.2565352
0
LINE
8
DEFAULT_255_2_778
10
33.6417198
20
67.2565352
11
33.6417198
21
87.7561352
0
LINE
8
DEFAULT_255_2_778
10
150.1417198
20
1.7562352
11
150.1417198
21
22.2561352
0
LINE
8
DEFAULT_255_2_778
10
150.1417198
20
22.2561352
11
150.1417198
21
67.2562352
0
LINE
8
DEFAULT_255_2_778
10
150.1417198
20
67.2562352
11
150.1417198
21
87.7561352
0
LINE
8
DEFAULT_255_2_778
10
32.1417198
20
89.7561352
11
35.6416198
21
89.7561352
0
LINE
8
DEFAULT_255_2_778
10
35.6416198
20
89.7561352
11
148.1417198
21
89.7561352
0
LINE
8
DEFAULT_255_2_778
10
33.6424198
20
87.8082352
11
35.5898198
21
89.7556352
0
LINE
8
DEFAULT_255_2_778
10
150.1417198
20
1.7562352
11
150.1417198
21
1.7562352
0
LINE
8
DEFAULT_255_2_778
10
33.1416198
20
23.7563352
11
33.1416198
21
23.7563352
0
LINE
8
DEFAULT_255_2_778
10
2.1417198
20
-0.2437648
11
2.1417198
21
-0.2437648
0
LINE
8
DEFAULT_255_2_778
10
148.3417198
20
65.7560352
11
148.3417198
21
66.2561352
0
LINE
8
DEFAULT_255_2_778
10
146.6418198
20
65.7560352
11
146.6418198
21
66.2561352
0
LINE
8
DEFAULT_255_2_778
10
146.6418198
20
66.2561352
11
150.1417198
21
66.2561352
0
LINE
8
DEFAULT_255_2_778
10
149.6416198
20
65.7563352
11
138.6415198
21
65.7563352
0
LINE
8
DEFAULT_255_2_778
10
138.1415198
20
65.2562352
11
138.1415198
21
24.2561352
0
LINE
8
DEFAULT_255_2_778
10
138.6415198
20
23.7561352
11
149.6416198
21
23.7561352
0
LINE
8
DEFAULT_255_2_778
10
150.1417198
20
24.2561352
11
150.1417198
21
65.2562352
0
LINE
8
DEFAULT_255_2_778
10
146.6418198
20
23.7563352
11
146.6418198
21
23.2563352
0
LINE
8
DEFAULT_255_2_778
10
146.6418198
20
23.2563352
11
150.1417198
21
23.2563352
0
LINE
8
DEFAULT_255_2_778
10
148.3417198
20
23.2563352
11
148.3417198
21
23.7563352
0
LINE
8
DEFAULT_255_2_778
10
37.6416198
20
-0.2437648
11
2.1417198
21
-0.2437648
0
LINE
8
DEFAULT_255_2_778
10
2.1417198
20
-0.2437648
11
32.6418198
21
-0.2437648
0
LINE
8
DEFAULT_255_2_778
10
33.1419198
20
0.2563352
11
33.1419198
21
23.7563352
0
LINE
8
DEFAULT_255_2_778
10
33.1419198
20
23.7563352
11
92.1418198
21
23.7563352
0
LINE
8
DEFAULT_255_2_778
10
92.1418198
20
23.7563352
11
92.1418198
21
65.7560352
0
LINE
8
DEFAULT_255_2_778
10
92.1418198
20
65.7560352
11
33.1416198
21
65.7560352
0
LINE
8
DEFAULT_255_2_778
10
33.1416198
20
65.7560352
11
33.1416198
21
89.2560352
0
LINE
8
DEFAULT_255_2_778
10
32.6415198
20
89.7561352
11
2.1417198
21
89.7561352
0
LINE
8
DEFAULT_255_2_778
10
0.1417198
20
87.7561352
11
0.1417198
21
1.7562352
0
ARC
8
DEFAULT_255_2_778
10
114.9393278
20
61.25808
40
0.7977305
50
130.1641387
51
180.1493968
0
ARC
8
DEFAULT_255_2_778
10
114.9396203
20
61.2585183
40
0.7975844
50
89.8506019
51
130.2005052
0
ARC
8
DEFAULT_255_2_778
10
114.9437801
20
61.2583722
40
0.7977305
50
40.1641387
51
90.1493968
0
ARC
8
DEFAULT_255_2_778
10
114.9442183
20
61.2580797
40
0.7975844
50
359.8506019
51
40.2005052
0
ARC
8
DEFAULT_255_2_778
10
114.9440723
20
61.2539199
40
0.7977305
50
310.1641387
51
0.1493968
0
ARC
8
DEFAULT_255_2_778
10
114.9437797
20
61.2534817
40
0.7975844
50
269.8506019
51
310.2005052
0
ARC
8
DEFAULT_255_2_778
10
114.93962
20
61.2536277
40
0.7977305
50
220.1641387
51
270.1493968
0
ARC
8
DEFAULT_255_2_778
10
114.9391817
20
61.2539203
40
0.7975844
50
179.8506019
51
220.2005052
0
LINE
8
DEFAULT_255_2_778
10
114.1416
20
61.256
11
114.1416
21
61.256
0
ARC
8
DEFAULT_255_2_778
10
114.9393278
20
57.25808
40
0.7977305
50
130.1641387
51
180.1493968
0
ARC
8
DEFAULT_255_2_778
10
114.9396203
20
57.2585183
40
0.7975844
50
89.8506019
51
130.2005052
0
ARC
8
DEFAULT_255_2_778
10
114.9437801
20
57.2583722
40
0.7977305
50
40.1641387
51
90.1493968
0
ARC
8
DEFAULT_255_2_778
10
114.9442183
20
57.2580797
40
0.7975844
50
359.8506019
51
40.2005052
0
ARC
8
DEFAULT_255_2_778
10
114.9440723
20
57.2539199
40
0.7977305
50
310.1641387
51
0.1493968
0
ARC
8
DEFAULT_255_2_778
10
114.9437797
20
57.2534817
40
0.7975844
50
269.8506019
51
310.2005052
0
ARC
8
DEFAULT_255_2_778
10
114.93962
20
57.2536277
40
0.7977305
50
220.1641387
51
270.1493968
0
ARC
8
DEFAULT_255_2_778
10
114.9391817
20
57.2539203
40
0.7975844
50
179.8506019
51
220.2005052
0
LINE
8
DEFAULT_255_2_778
10
114.1416
20
57.256
11
114.1416
21
57.256
0
ARC
8
DEFAULT_255_2_778
10
118.3395278
20
61.25808
40
0.7977305
50
130.1641387
51
180.1493968
0
ARC
8
DEFAULT_255_2_778
10
118.3398203
20
61.2585183
40
0.7975844
50
89.8506019
51
130.2005052
0
ARC
8
DEFAULT_255_2_778
10
118.3439215
20
61.2583054
40
0.7977972
50
39.6498224
51
90.1451786
0
ARC
8
DEFAULT_255_2_778
10
118.3444442
20
61.2580492
40
0.7975584
50
359.8527827
51
39.6879494
0
ARC
8
DEFAULT_255_2_778
10
118.3442547
20
61.2539589
40
0.7977479
50
309.8165013
51
0.1465965
0
ARC
8
DEFAULT_255_2_778
10
118.3439359
20
61.2534875
40
0.7975901
50
269.8537501
51
309.8557749
0
ARC
8
DEFAULT_255_2_778
10
118.33982
20
61.2536277
40
0.7977305
50
220.1641387
51
270.1493968
0
ARC
8
DEFAULT_255_2_778
10
118.3393817
20
61.2539203
40
0.7975844
50
179.8506019
51
220.2005052
0
LINE
8
DEFAULT_255_2_778
10
117.5418
20
61.256
11
117.5418
21
61.256
0
ARC
8
DEFAULT_255_2_778
10
118.3395278
20
57.25808
40
0.7977305
50
130.1641387
51
180.1493968
0
ARC
8
DEFAULT_255_2_778
10
118.3398203
20
57.2585183
40
0.7975844
50
89.8506019
51
130.2005052
0
ARC
8
DEFAULT_255_2_778
10
118.3439215
20
57.2583054
40
0.7977972
50
39.6498224
51
90.1451786
0
ARC
8
DEFAULT_255_2_778
10
118.3444442
20
57.2580492
40
0.7975584
50
359.8527827
51
39.6879494
0
ARC
8
DEFAULT_255_2_778
10
118.3442547
20
57.2539589
40
0.7977479
50
309.8165013
51
0.1465965
0
ARC
8
DEFAULT_255_2_778
10
118.3439359
20
57.2534875
40
0.7975901
50
269.8537501
51
309.8557749
0
ARC
8
DEFAULT_255_2_778
10
118.33982
20
57.2536277
40
0.7977305
50
220.1641387
51
270.1493968
0
ARC
8
DEFAULT_255_2_778
10
118.3393817
20
57.2539203
40
0.7975844
50
179.8506019
51
220.2005052
0
LINE
8
DEFAULT_255_2_778
10
117.5418
20
57.256
11
117.5418
21
57.256
0
ARC
8
DEFAULT_255_2_778
10
121.7394278
20
61.25808
40
0.7977305
50
130.1641387
51
180.1493968
0
ARC
8
DEFAULT_255_2_778
10
121.7397203
20
61.2585183
40
0.7975844
50
89.8506019
51
130.2005052
0
ARC
8
DEFAULT_255_2_778
10
121.7438801
20
61.2583722
40
0.7977305
50
40.1641387
51
90.1493968
0
ARC
8
DEFAULT_255_2_778
10
121.7443183
20
61.2580797
40
0.7975844
50
359.8506019
51
40.2005052
0
ARC
8
DEFAULT_255_2_778
10
121.7441723
20
61.2539199
40
0.7977305
50
310.1641387
51
0.1493968
0
ARC
8
DEFAULT_255_2_778
10
121.7438797
20
61.2534817
40
0.7975844
50
269.8506019
51
310.2005052
0
ARC
8
DEFAULT_255_2_778
10
121.73972
20
61.2536277
40
0.7977305
50
220.1641387
51
270.1493968
0
ARC
8
DEFAULT_255_2_778
10
121.7392817
20
61.2539203
40
0.7975844
50
179.8506019
51
220.2005052
0
LINE
8
DEFAULT_255_2_778
10
120.9417
20
61.256
11
120.9417
21
61.256
0
ARC
8
DEFAULT_255_2_778
10
121.7394278
20
57.25808
40
0.7977305
50
130.1641387
51
180.1493968
0
ARC
8
DEFAULT_255_2_778
10
121.7397203
20
57.2585183
40
0.7975844
50
89.8506019
51
130.2005052
0
ARC
8
DEFAULT_255_2_778
10
121.7438801
20
57.2583722
40
0.7977305
50
40.1641387
51
90.1493968
0
ARC
8
DEFAULT_255_2_778
10
121.7443183
20
57.2580797
40
0.7975844
50
359.8506019
51
40.2005052
0
ARC
8
DEFAULT_255_2_778
10
121.7441723
20
57.2539199
40
0.7977305
50
310.1641387
51
0.1493968
0
ARC
8
DEFAULT_255_2_778
10
121.7438797
20
57.2534817
40
0.7975844
50
269.8506019
51
310.2005052
0
ARC
8
DEFAULT_255_2_778
10
121.73972
20
57.2536277
40
0.7977305
50
220.1641387
51
270.1493968
0
ARC
8
DEFAULT_255_2_778
10
121.7392817
20
57.2539203
40
0.7975844
50
179.8506019
51
220.2005052
0
LINE
8
DEFAULT_255_2_778
10
120.9417
20
57.256
11
120.9417
21
57.256
0
ARC
8
DEFAULT_255_2_778
10
108.1393278
20
61.25808
40
0.7977305
50
130.1641387
51
180.1493968
0
ARC
8
DEFAULT_255_2_778
10
108.1396203
20
61.2585183
40
0.7975844
50
89.8506019
51
130.2005052
0
ARC
8
DEFAULT_255_2_778
10
108.1437215
20
61.2583054
40
0.7977972
50
39.6498224
51
90.1451786
0
ARC
8
DEFAULT_255_2_778
10
108.1442442
20
61.2580492
40
0.7975584
50
359.8527827
51
39.6879494
0
ARC
8
DEFAULT_255_2_778
10
108.1440547
20
61.2539589
40
0.7977479
50
309.8165013
51
0.1465965
0
ARC
8
DEFAULT_255_2_778
10
108.1437359
20
61.2534875
40
0.7975901
50
269.8537501
51
309.8557749
0
ARC
8
DEFAULT_255_2_778
10
108.13962
20
61.2536277
40
0.7977305
50
220.1641387
51
270.1493968
0
ARC
8
DEFAULT_255_2_778
10
108.1391817
20
61.2539203
40
0.7975844
50
179.8506019
51
220.2005052
0
LINE
8
DEFAULT_255_2_778
10
107.3416
20
61.256
11
107.3416
21
61.256
0
ARC
8
DEFAULT_255_2_778
10
108.1393278
20
57.25808
40
0.7977305
50
130.1641387
51
180.1493968
0
ARC
8
DEFAULT_255_2_778
10
108.1396203
20
57.2585183
40
0.7975844
50
89.8506019
51
130.2005052
0
ARC
8
DEFAULT_255_2_778
10
108.1437215
20
57.2583054
40
0.7977972
50
39.6498224
51
90.1451786
0
ARC
8
DEFAULT_255_2_778
10
108.1442442
20
57.2580492
40
0.7975584
50
359.8527827
51
39.6879494
0
ARC
8
DEFAULT_255_2_778
10
108.1440547
20
57.2539589
40
0.7977479
50
309.8165013
51
0.1465965
0
ARC
8
DEFAULT_255_2_778
10
108.1437359
20
57.2534875
40
0.7975901
50
269.8537501
51
309.8557749
0
ARC
8
DEFAULT_255_2_778
10
108.13962
20
57.2536277
40
0.7977305
50
220.1641387
51
270.1493968
0
ARC
8
DEFAULT_255_2_778
10
108.1391817
20
57.2539203
40
0.7975844
50
179.8506019
51
220.2005052
0
LINE
8
DEFAULT_255_2_778
10
107.3416
20
57.256
11
107.3416
21
57.256
0
ARC
8
DEFAULT_255_2_778
10
111.5394453
20
61.2580411
40
0.7977479
50
129.8165013
51
180.1465965
0
ARC
8
DEFAULT_255_2_778
10
111.5397641
20
61.2585125
40
0.7975901
50
89.8537501
51
129.8557749
0
ARC
8
DEFAULT_255_2_778
10
111.5438801
20
61.2583722
40
0.7977305
50
40.1641387
51
90.1493968
0
ARC
8
DEFAULT_255_2_778
10
111.5443183
20
61.2580797
40
0.7975844
50
359.8506019
51
40.2005052
0
ARC
8
DEFAULT_255_2_778
10
111.5441723
20
61.2539199
40
0.7977305
50
310.1641387
51
0.1493968
0
ARC
8
DEFAULT_255_2_778
10
111.5438797
20
61.2534817
40
0.7975844
50
269.8506019
51
310.2005052
0
ARC
8
DEFAULT_255_2_778
10
111.5397785
20
61.2536946
40
0.7977972
50
219.6498224
51
270.1451786
0
ARC
8
DEFAULT_255_2_778
10
111.5392559
20
61.2539507
40
0.7975584
50
179.8527827
51
219.6879494
0
LINE
8
DEFAULT_255_2_778
10
110.7417
20
61.256
11
110.7417
21
61.256
0
ARC
8
DEFAULT_255_2_778
10
111.5394453
20
57.2580411
40
0.7977479
50
129.8165013
51
180.1465965
0
ARC
8
DEFAULT_255_2_778
10
111.5397641
20
57.2585125
40
0.7975901
50
89.8537501
51
129.8557749
0
ARC
8
DEFAULT_255_2_778
10
111.5438801
20
57.2583722
40
0.7977305
50
40.1641387
51
90.1493968
0
ARC
8
DEFAULT_255_2_778
10
111.5443183
20
57.2580797
40
0.7975844
50
359.8506019
51
40.2005052
0
ARC
8
DEFAULT_255_2_778
10
111.5441723
20
57.2539199
40
0.7977305
50
310.1641387
51
0.1493968
0
ARC
8
DEFAULT_255_2_778
10
111.5438797
20
57.2534817
40
0.7975844
50
269.8506019
51
310.2005052
0
ARC
8
DEFAULT_255_2_778
10
111.5397785
20
57.2536946
40
0.7977972
50
219.6498224
51
270.1451786
0
ARC
8
DEFAULT_255_2_778
10
111.5392559
20
57.2539507
40
0.7975584
50
179.8527827
51
219.6879494
0
LINE
8
DEFAULT_255_2_778
10
110.7417
20
57.256
11
110.7417
21
57.256
0
ARC
8
DEFAULT_255_2_778
10
104.7394278
20
61.25808
40
0.7977305
50
130.1641387
51
180.1493968
0
ARC
8
DEFAULT_255_2_778
10
104.7397203
20
61.2585183
40
0.7975844
50
89.8506019
51
130.2005052
0
ARC
8
DEFAULT_255_2_778
10
104.7438801
20
61.2583722
40
0.7977305
50
40.1641387
51
90.1493968
0
ARC
8
DEFAULT_255_2_778
10
104.7443183
20
61.2580797
40
0.7975844
50
359.8506019
51
40.2005052
0
ARC
8
DEFAULT_255_2_778
10
104.7441723
20
61.2539199
40
0.7977305
50
310.1641387
51
0.1493968
0
ARC
8
DEFAULT_255_2_778
10
104.7438797
20
61.2534817
40
0.7975844
50
269.8506019
51
310.2005052
0
ARC
8
DEFAULT_255_2_778
10
104.73972
20
61.2536277
40
0.7977305
50
220.1641387
51
270.1493968
0
ARC
8
DEFAULT_255_2_778
10
104.7392817
20
61.2539203
40
0.7975844
50
179.8506019
51
220.2005052
0
LINE
8
DEFAULT_255_2_778
10
103.9417
20
61.256
11
103.9417
21
61.256
0
ARC
8
DEFAULT_255_2_778
10
104.7394278
20
57.25808
40
0.7977305
50
130.1641387
51
180.1493968
0
ARC
8
DEFAULT_255_2_778
10
104.7397203
20
57.2585183
40
0.7975844
50
89.8506019
51
130.2005052
0
ARC
8
DEFAULT_255_2_778
10
104.7438801
20
57.2583722
40
0.7977305
50
40.1641387
51
90.1493968
0
ARC
8
DEFAULT_255_2_778
10
104.7443183
20
57.2580797
40
0.7975844
50
359.8506019
51
40.2005052
0
ARC
8
DEFAULT_255_2_778
10
104.7441723
20
57.2539199
40
0.7977305
50
310.1641387
51
0.1493968
0
ARC
8
DEFAULT_255_2_778
10
104.7438797
20
57.2534817
40
0.7975844
50
269.8506019
51
310.2005052
0
ARC
8
DEFAULT_255_2_778
10
104.73972
20
57.2536277
40
0.7977305
50
220.1641387
51
270.1493968
0
ARC
8
DEFAULT_255_2_778
10
104.7392817
20
57.2539203
40
0.7975844
50
179.8506019
51
220.2005052
0
LINE
8
DEFAULT_255_2_778
10
103.9417
20
57.256
11
103.9417
21
57.256
0
ARC
8
DEFAULT_255_2_778
10
101.3395278
20
61.25808
40
0.7977305
50
130.1641387
51
180.1493968
0
ARC
8
DEFAULT_255_2_778
10
101.3398203
20
61.2585183
40
0.7975844
50
89.8506019
51
130.2005052
0
ARC
8
DEFAULT_255_2_778
10
101.3439801
20
61.2583722
40
0.7977305
50
40.1641387
51
90.1493968
0
ARC
8
DEFAULT_255_2_778
10
101.3444183
20
61.2580797
40
0.7975844
50
359.8506019
51
40.2005052
0
ARC
8
DEFAULT_255_2_778
10
101.3442723
20
61.2539199
40
0.7977305
50
310.1641387
51
0.1493968
0
ARC
8
DEFAULT_255_2_778
10
101.3439797
20
61.2534817
40
0.7975844
50
269.8506019
51
310.2005052
0
ARC
8
DEFAULT_255_2_778
10
101.33982
20
61.2536277
40
0.7977305
50
220.1641387
51
270.1493968
0
ARC
8
DEFAULT_255_2_778
10
101.3393817
20
61.2539203
40
0.7975844
50
179.8506019
51
220.2005052
0
LINE
8
DEFAULT_255_2_778
10
100.5418
20
61.256
11
100.5418
21
61.256
0
ARC
8
DEFAULT_255_2_778
10
101.3395278
20
57.25808
40
0.7977305
50
130.1641387
51
180.1493968
0
ARC
8
DEFAULT_255_2_778
10
101.3398203
20
57.2585183
40
0.7975844
50
89.8506019
51
130.2005052
0
ARC
8
DEFAULT_255_2_778
10
101.3439801
20
57.2583722
40
0.7977305
50
40.1641387
51
90.1493968
0
ARC
8
DEFAULT_255_2_778
10
101.3444183
20
57.2580797
40
0.7975844
50
359.8506019
51
40.2005052
0
ARC
8
DEFAULT_255_2_778
10
101.3442723
20
57.2539199
40
0.7977305
50
310.1641387
51
0.1493968
0
ARC
8
DEFAULT_255_2_778
10
101.3439797
20
57.2534817
40
0.7975844
50
269.8506019
51
310.2005052
0
ARC
8
DEFAULT_255_2_778
10
101.33982
20
57.2536277
40
0.7977305
50
220.1641387
51
270.1493968
0
ARC
8
DEFAULT_255_2_778
10
101.3393817
20
57.2539203
40
0.7975844
50
179.8506019
51
220.2005052
0
LINE
8
DEFAULT_255_2_778
10
100.5418
20
57.256
11
100.5418
21
57.256
0
ARC
8
DEFAULT_255_2_778
10
125.1393453
20
61.2580411
40
0.7977479
50
129.8165013
51
180.1465965
0
ARC
8
DEFAULT_255_2_778
10
125.1396641
20
61.2585125
40
0.7975901
50
89.8537501
51
129.8557749
0
ARC
8
DEFAULT_255_2_778
10
125.1437801
20
61.2583722
40
0.7977305
50
40.1641387
51
90.1493968
0
ARC
8
DEFAULT_255_2_778
10
125.1442183
20
61.2580797
40
0.7975844
50
359.8506019
51
40.2005052
0
ARC
8
DEFAULT_255_2_778
10
125.1440723
20
61.2539199
40
0.7977305
50
310.1641387
51
0.1493968
0
ARC
8
DEFAULT_255_2_778
10
125.1437797
20
61.2534817
40
0.7975844
50
269.8506019
51
310.2005052
0
ARC
8
DEFAULT_255_2_778
10
125.1396785
20
61.2536946
40
0.7977972
50
219.6498224
51
270.1451786
0
ARC
8
DEFAULT_255_2_778
10
125.1391559
20
61.2539507
40
0.7975584
50
179.8527827
51
219.6879494
0
LINE
8
DEFAULT_255_2_778
10
124.3416
20
61.256
11
124.3416
21
61.256
0
ARC
8
DEFAULT_255_2_778
10
125.1393453
20
57.2580411
40
0.7977479
50
129.8165013
51
180.1465965
0
ARC
8
DEFAULT_255_2_778
10
125.1396641
20
57.2585125
40
0.7975901
50
89.8537501
51
129.8557749
0
ARC
8
DEFAULT_255_2_778
10
125.1437801
20
57.2583722
40
0.7977305
50
40.1641387
51
90.1493968
0
ARC
8
DEFAULT_255_2_778
10
125.1442183
20
57.2580797
40
0.7975844
50
359.8506019
51
40.2005052
0
ARC
8
DEFAULT_255_2_778
10
125.1440723
20
57.2539199
40
0.7977305
50
310.1641387
51
0.1493968
0
ARC
8
DEFAULT_255_2_778
10
125.1437797
20
57.2534817
40
0.7975844
50
269.8506019
51
310.2005052
0
ARC
8
DEFAULT_255_2_778
10
125.1396785
20
57.2536946
40
0.7977972
50
219.6498224
51
270.1451786
0
ARC
8
DEFAULT_255_2_778
10
125.1391559
20
57.2539507
40
0.7975584
50
179.8527827
51
219.6879494
0
LINE
8
DEFAULT_255_2_778
10
124.3416
20
57.256
11
124.3416
21
57.256
0
ARC
8
DEFAULT_255_2_778
10
114.9393278
20
32.25808
40
0.7977305
50
130.1641387
51
180.1493968
0
ARC
8
DEFAULT_255_2_778
10
114.9396203
20
32.2585183
40
0.7975844
50
89.8506019
51
130.2005052
0
ARC
8
DEFAULT_255_2_778
10
114.9437801
20
32.2583722
40
0.7977305
50
40.1641387
51
90.1493968
0
ARC
8
DEFAULT_255_2_778
10
114.9442183
20
32.2580797
40
0.7975844
50
359.8506019
51
40.2005052
0
ARC
8
DEFAULT_255_2_778
10
114.9440723
20
32.2539199
40
0.7977305
50
310.1641387
51
0.1493968
0
ARC
8
DEFAULT_255_2_778
10
114.9437797
20
32.2534817
40
0.7975844
50
269.8506019
51
310.2005052
0
ARC
8
DEFAULT_255_2_778
10
114.93962
20
32.2536277
40
0.7977305
50
220.1641387
51
270.1493968
0
ARC
8
DEFAULT_255_2_778
10
114.9391817
20
32.2539203
40
0.7975844
50
179.8506019
51
220.2005052
0
LINE
8
DEFAULT_255_2_778
10
114.1416
20
32.256
11
114.1416
21
32.256
0
ARC
8
DEFAULT_255_2_778
10
114.9393278
20
28.25818
40
0.7977305
50
130.1641387
51
180.1493968
0
ARC
8
DEFAULT_255_2_778
10
114.9396203
20
28.2586183
40
0.7975844
50
89.8506019
51
130.2005052
0
ARC
8
DEFAULT_255_2_778
10
114.9437801
20
28.2584722
40
0.7977305
50
40.1641387
51
90.1493968
0
ARC
8
DEFAULT_255_2_778
10
114.9442183
20
28.2581797
40
0.7975844
50
359.8506019
51
40.2005052
0
ARC
8
DEFAULT_255_2_778
10
114.9440723
20
28.2540199
40
0.7977305
50
310.1641387
51
0.1493968
0
ARC
8
DEFAULT_255_2_778
10
114.9437797
20
28.2535817
40
0.7975844
50
269.8506019
51
310.2005052
0
ARC
8
DEFAULT_255_2_778
10
114.93962
20
28.2537277
40
0.7977305
50
220.1641387
51
270.1493968
0
ARC
8
DEFAULT_255_2_778
10
114.9391817
20
28.2540203
40
0.7975844
50
179.8506019
51
220.2005052
0
LINE
8
DEFAULT_255_2_778
10
114.1416
20
28.2561
11
114.1416
21
28.2561
0
ARC
8
DEFAULT_255_2_778
10
118.3395278
20
32.25808
40
0.7977305
50
130.1641387
51
180.1493968
0
ARC
8
DEFAULT_255_2_778
10
118.3398203
20
32.2585183
40
0.7975844
50
89.8506019
51
130.2005052
0
ARC
8
DEFAULT_255_2_778
10
118.3439215
20
32.2583054
40
0.7977972
50
39.6498224
51
90.1451786
0
ARC
8
DEFAULT_255_2_778
10
118.3444442
20
32.2580492
40
0.7975584
50
359.8527827
51
39.6879494
0
ARC
8
DEFAULT_255_2_778
10
118.3442547
20
32.2539589
40
0.7977479
50
309.8165013
51
0.1465965
0
ARC
8
DEFAULT_255_2_778
10
118.3439359
20
32.2534875
40
0.7975901
50
269.8537501
51
309.8557749
0
ARC
8
DEFAULT_255_2_778
10
118.33982
20
32.2536277
40
0.7977305
50
220.1641387
51
270.1493968
0
ARC
8
DEFAULT_255_2_778
10
118.3393817
20
32.2539203
40
0.7975844
50
179.8506019
51
220.2005052
0
LINE
8
DEFAULT_255_2_778
10
117.5418
20
32.256
11
117.5418
21
32.256
0
ARC
8
DEFAULT_255_2_778
10
118.3395278
20
28.25818
40
0.7977305
50
130.1641387
51
180.1493968
0
ARC
8
DEFAULT_255_2_778
10
118.3398203
20
28.2586183
40
0.7975844
50
89.8506019
51
130.2005052
0
ARC
8
DEFAULT_255_2_778
10
118.3439215
20
28.2584054
40
0.7977972
50
39.6498224
51
90.1451786
0
ARC
8
DEFAULT_255_2_778
10
118.3444442
20
28.2581492
40
0.7975584
50
359.8527827
51
39.6879494
0
ARC
8
DEFAULT_255_2_778
10
118.3442547
20
28.2540589
40
0.7977479
50
309.8165013
51
0.1465965
0
ARC
8
DEFAULT_255_2_778
10
118.3439359
20
28.2535875
40
0.7975901
50
269.8537501
51
309.8557749
0
ARC
8
DEFAULT_255_2_778
10
118.33982
20
28.2537277
40
0.7977305
50
220.1641387
51
270.1493968
0
ARC
8
DEFAULT_255_2_778
10
118.3393817
20
28.2540203
40
0.7975844
50
179.8506019
51
220.2005052
0
LINE
8
DEFAULT_255_2_778
10
117.5418
20
28.2561
11
117.5418
21
28.2561
0
ARC
8
DEFAULT_255_2_778
10
121.7394278
20
32.25808
40
0.7977305
50
130.1641387
51
180.1493968
0
ARC
8
DEFAULT_255_2_778
10
121.7397203
20
32.2585183
40
0.7975844
50
89.8506019
51
130.2005052
0
ARC
8
DEFAULT_255_2_778
10
121.7438801
20
32.2583722
40
0.7977305
50
40.1641387
51
90.1493968
0
ARC
8
DEFAULT_255_2_778
10
121.7443183
20
32.2580797
40
0.7975844
50
359.8506019
51
40.2005052
0
ARC
8
DEFAULT_255_2_778
10
121.7441723
20
32.2539199
40
0.7977305
50
310.1641387
51
0.1493968
0
ARC
8
DEFAULT_255_2_778
10
121.7438797
20
32.2534817
40
0.7975844
50
269.8506019
51
310.2005052
0
ARC
8
DEFAULT_255_2_778
10
121.73972
20
32.2536277
40
0.7977305
50
220.1641387
51
270.1493968
0
ARC
8
DEFAULT_255_2_778
10
121.7392817
20
32.2539203
40
0.7975844
50
179.8506019
51
220.2005052
0
LINE
8
DEFAULT_255_2_778
10
120.9417
20
32.256
11
120.9417
21
32.256
0
ARC
8
DEFAULT_255_2_778
10
121.7394278
20
28.25818
40
0.7977305
50
130.1641387
51
180.1493968
0
ARC
8
DEFAULT_255_2_778
10
121.7397203
20
28.2586183
40
0.7975844
50
89.8506019
51
130.2005052
0
ARC
8
DEFAULT_255_2_778
10
121.7438801
20
28.2584722
40
0.7977305
50
40.1641387
51
90.1493968
0
ARC
8
DEFAULT_255_2_778
10
121.7443183
20
28.2581797
40
0.7975844
50
359.8506019
51
40.2005052
0
ARC
8
DEFAULT_255_2_778
10
121.7441723
20
28.2540199
40
0.7977305
50
310.1641387
51
0.1493968
0
ARC
8
DEFAULT_255_2_778
10
121.7438797
20
28.2535817
40
0.7975844
50
269.8506019
51
310.2005052
0
ARC
8
DEFAULT_255_2_778
10
121.73972
20
28.2537277
40
0.7977305
50
220.1641387
51
270.1493968
0
ARC
8
DEFAULT_255_2_778
10
121.7392817
20
28.2540203
40
0.7975844
50
179.8506019
51
220.2005052
0
LINE
8
DEFAULT_255_2_778
10
120.9417
20
28.2561
11
120.9417
21
28.2561
0
ARC
8
DEFAULT_255_2_778
10
108.1393278
20
32.25808
40
0.7977305
50
130.1641387
51
180.1493968
0
ARC
8
DEFAULT_255_2_778
10
108.1396203
20
32.2585183
40
0.7975844
50
89.8506019
51
130.2005052
0
ARC
8
DEFAULT_255_2_778
10
108.1437215
20
32.2583054
40
0.7977972
50
39.6498224
51
90.1451786
0
ARC
8
DEFAULT_255_2_778
10
108.1442442
20
32.2580492
40
0.7975584
50
359.8527827
51
39.6879494
0
ARC
8
DEFAULT_255_2_778
10
108.1440547
20
32.2539589
40
0.7977479
50
309.8165013
51
0.1465965
0
ARC
8
DEFAULT_255_2_778
10
108.1437359
20
32.2534875
40
0.7975901
50
269.8537501
51
309.8557749
0
ARC
8
DEFAULT_255_2_778
10
108.13962
20
32.2536277
40
0.7977305
50
220.1641387
51
270.1493968
0
ARC
8
DEFAULT_255_2_778
10
108.1391817
20
32.2539203
40
0.7975844
50
179.8506019
51
220.2005052
0
LINE
8
DEFAULT_255_2_778
10
107.3416
20
32.256
11
107.3416
21
32.256
0
ARC
8
DEFAULT_255_2_778
10
108.1393278
20
28.25818
40
0.7977305
50
130.1641387
51
180.1493968
0
ARC
8
DEFAULT_255_2_778
10
108.1396203
20
28.2586183
40
0.7975844
50
89.8506019
51
130.2005052
0
ARC
8
DEFAULT_255_2_778
10
108.1437215
20
28.2584054
40
0.7977972
50
39.6498224
51
90.1451786
0
ARC
8
DEFAULT_255_2_778
10
108.1442442
20
28.2581492
40
0.7975584
50
359.8527827
51
39.6879494
0
ARC
8
DEFAULT_255_2_778
10
108.1440547
20
28.2540589
40
0.7977479
50
309.8165013
51
0.1465965
0
ARC
8
DEFAULT_255_2_778
10
108.1437359
20
28.2535875
40
0.7975901
50
269.8537501
51
309.8557749
0
ARC
8
DEFAULT_255_2_778
10
108.13962
20
28.2537277
40
0.7977305
50
220.1641387
51
270.1493968
0
ARC
8
DEFAULT_255_2_778
10
108.1391817
20
28.2540203
40
0.7975844
50
179.8506019
51
220.2005052
0
LINE
8
DEFAULT_255_2_778
10
107.3416
20
28.2561
11
107.3416
21
28.2561
0
ARC
8
DEFAULT_255_2_778
10
111.5394453
20
32.2580411
40
0.7977479
50
129.8165013
51
180.1465965
0
ARC
8
DEFAULT_255_2_778
10
111.5397641
20
32.2585125
40
0.7975901
50
89.8537501
51
129.8557749
0
ARC
8
DEFAULT_255_2_778
10
111.5438801
20
32.2583722
40
0.7977305
50
40.1641387
51
90.1493968
0
ARC
8
DEFAULT_255_2_778
10
111.5443183
20
32.2580797
40
0.7975844
50
359.8506019
51
40.2005052
0
ARC
8
DEFAULT_255_2_778
10
111.5441723
20
32.2539199
40
0.7977305
50
310.1641387
51
0.1493968
0
ARC
8
DEFAULT_255_2_778
10
111.5438797
20
32.2534817
40
0.7975844
50
269.8506019
51
310.2005052
0
ARC
8
DEFAULT_255_2_778
10
111.5397785
20
32.2536946
40
0.7977972
50
219.6498224
51
270.1451786
0
ARC
8
DEFAULT_255_2_778
10
111.5392559
20
32.2539507
40
0.7975584
50
179.8527827
51
219.6879494
0
LINE
8
DEFAULT_255_2_778
10
110.7417
20
32.256
11
110.7417
21
32.256
0
ARC
8
DEFAULT_255_2_778
10
111.5394453
20
28.2581411
40
0.7977479
50
129.8165013
51
180.1465965
0
ARC
8
DEFAULT_255_2_778
10
111.5397641
20
28.2586125
40
0.7975901
50
89.8537501
51
129.8557749
0
ARC
8
DEFAULT_255_2_778
10
111.5438801
20
28.2584722
40
0.7977305
50
40.1641387
51
90.1493968
0
ARC
8
DEFAULT_255_2_778
10
111.5443183
20
28.2581797
40
0.7975844
50
359.8506019
51
40.2005052
0
ARC
8
DEFAULT_255_2_778
10
111.5441723
20
28.2540199
40
0.7977305
50
310.1641387
51
0.1493968
0
ARC
8
DEFAULT_255_2_778
10
111.5438797
20
28.2535817
40
0.7975844
50
269.8506019
51
310.2005052
0
ARC
8
DEFAULT_255_2_778
10
111.5397785
20
28.2537946
40
0.7977972
50
219.6498224
51
270.1451786
0
ARC
8
DEFAULT_255_2_778
10
111.5392559
20
28.2540507
40
0.7975584
50
179.8527827
51
219.6879494
0
LINE
8
DEFAULT_255_2_778
10
110.7417
20
28.2561
11
110.7417
21
28.2561
0
ARC
8
DEFAULT_255_2_778
10
104.7394278
20
32.25808
40
0.7977305
50
130.1641387
51
180.1493968
0
ARC
8
DEFAULT_255_2_778
10
104.7397203
20
32.2585183
40
0.7975844
50
89.8506019
51
130.2005052
0
ARC
8
DEFAULT_255_2_778
10
104.7438801
20
32.2583722
40
0.7977305
50
40.1641387
51
90.1493968
0
ARC
8
DEFAULT_255_2_778
10
104.7443183
20
32.2580797
40
0.7975844
50
359.8506019
51
40.2005052
0
ARC
8
DEFAULT_255_2_778
10
104.7441723
20
32.2539199
40
0.7977305
50
310.1641387
51
0.1493968
0
ARC
8
DEFAULT_255_2_778
10
104.7438797
20
32.2534817
40
0.7975844
50
269.8506019
51
310.2005052
0
ARC
8
DEFAULT_255_2_778
10
104.73972
20
32.2536277
40
0.7977305
50
220.1641387
51
270.1493968
0
ARC
8
DEFAULT_255_2_778
10
104.7392817
20
32.2539203
40
0.7975844
50
179.8506019
51
220.2005052
0
LINE
8
DEFAULT_255_2_778
10
103.9417
20
32.256
11
103.9417
21
32.256
0
ARC
8
DEFAULT_255_2_778
10
104.7394278
20
28.25818
40
0.7977305
50
130.1641387
51
180.1493968
0
ARC
8
DEFAULT_255_2_778
10
104.7397203
20
28.2586183
40
0.7975844
50
89.8506019
51
130.2005052
0
ARC
8
DEFAULT_255_2_778
10
104.7438801
20
28.2584722
40
0.7977305
50
40.1641387
51
90.1493968
0
ARC
8
DEFAULT_255_2_778
10
104.7443183
20
28.2581797
40
0.7975844
50
359.8506019
51
40.2005052
0
ARC
8
DEFAULT_255_2_778
10
104.7441723
20
28.2540199
40
0.7977305
50
310.1641387
51
0.1493968
0
ARC
8
DEFAULT_255_2_778
10
104.7438797
20
28.2535817
40
0.7975844
50
269.8506019
51
310.2005052
0
ARC
8
DEFAULT_255_2_778
10
104.73972
20
28.2537277
40
0.7977305
50
220.1641387
51
270.1493968
0
ARC
8
DEFAULT_255_2_778
10
104.7392817
20
28.2540203
40
0.7975844
50
179.8506019
51
220.2005052
0
LINE
8
DEFAULT_255_2_778
10
103.9417
20
28.2561
11
103.9417
21
28.2561
0
ARC
8
DEFAULT_255_2_778
10
101.3395278
20
32.25808
40
0.7977305
50
130.1641387
51
180.1493968
0
ARC
8
DEFAULT_255_2_778
10
101.3398203
20
32.2585183
40
0.7975844
50
89.8506019
51
130.2005052
0
ARC
8
DEFAULT_255_2_778
10
101.3439801
20
32.2583722
40
0.7977305
50
40.1641387
51
90.1493968
0
ARC
8
DEFAULT_255_2_778
10
101.3444183
20
32.2580797
40
0.7975844
50
359.8506019
51
40.2005052
0
ARC
8
DEFAULT_255_2_778
10
101.3442723
20
32.2539199
40
0.7977305
50
310.1641387
51
0.1493968
0
ARC
8
DEFAULT_255_2_778
10
101.3439797
20
32.2534817
40
0.7975844
50
269.8506019
51
310.2005052
0
ARC
8
DEFAULT_255_2_778
10
101.33982
20
32.2536277
40
0.7977305
50
220.1641387
51
270.1493968
0
ARC
8
DEFAULT_255_2_778
10
101.3393817
20
32.2539203
40
0.7975844
50
179.8506019
51
220.2005052
0
LINE
8
DEFAULT_255_2_778
10
100.5418
20
32.256
11
100.5418
21
32.256
0
ARC
8
DEFAULT_255_2_778
10
101.3395278
20
28.25818
40
0.7977305
50
130.1641387
51
180.1493968
0
ARC
8
DEFAULT_255_2_778
10
101.3398203
20
28.2586183
40
0.7975844
50
89.8506019
51
130.2005052
0
ARC
8
DEFAULT_255_2_778
10
101.3439801
20
28.2584722
40
0.7977305
50
40.1641387
51
90.1493968
0
ARC
8
DEFAULT_255_2_778
10
101.3444183
20
28.2581797
40
0.7975844
50
359.8506019
51
40.2005052
0
ARC
8
DEFAULT_255_2_778
10
101.3442723
20
28.2540199
40
0.7977305
50
310.1641387
51
0.1493968
0
ARC
8
DEFAULT_255_2_778
10
101.3439797
20
28.2535817
40
0.7975844
50
269.8506019
51
310.2005052
0
ARC
8
DEFAULT_255_2_778
10
101.33982
20
28.2537277
40
0.7977305
50
220.1641387
51
270.1493968
0
ARC
8
DEFAULT_255_2_778
10
101.3393817
20
28.2540203
40
0.7975844
50
179.8506019
51
220.2005052
0
LINE
8
DEFAULT_255_2_778
10
100.5418
20
28.2561
11
100.5418
21
28.2561
0
ARC
8
DEFAULT_255_2_778
10
125.1393453
20
32.2580411
40
0.7977479
50
129.8165013
51
180.1465965
0
ARC
8
DEFAULT_255_2_778
10
125.1396641
20
32.2585125
40
0.7975901
50
89.8537501
51
129.8557749
0
ARC
8
DEFAULT_255_2_778
10
125.1437801
20
32.2583722
40
0.7977305
50
40.1641387
51
90.1493968
0
ARC
8
DEFAULT_255_2_778
10
125.1442183
20
32.2580797
40
0.7975844
50
359.8506019
51
40.2005052
0
ARC
8
DEFAULT_255_2_778
10
125.1440723
20
32.2539199
40
0.7977305
50
310.1641387
51
0.1493968
0
ARC
8
DEFAULT_255_2_778
10
125.1437797
20
32.2534817
40
0.7975844
50
269.8506019
51
310.2005052
0
ARC
8
DEFAULT_255_2_778
10
125.1396785
20
32.2536946
40
0.7977972
50
219.6498224
51
270.1451786
0
ARC
8
DEFAULT_255_2_778
10
125.1391559
20
32.2539507
40
0.7975584
50
179.8527827
51
219.6879494
0
LINE
8
DEFAULT_255_2_778
10
124.3416
20
32.256
11
124.3416
21
32.256
0
ARC
8
DEFAULT_255_2_778
10
125.1393453
20
28.2581411
40
0.7977479
50
129.8165013
51
180.1465965
0
ARC
8
DEFAULT_255_2_778
10
125.1396641
20
28.2586125
40
0.7975901
50
89.8537501
51
129.8557749
0
ARC
8
DEFAULT_255_2_778
10
125.1437801
20
28.2584722
40
0.7977305
50
40.1641387
51
90.1493968
0
ARC
8
DEFAULT_255_2_778
10
125.1442183
20
28.2581797
40
0.7975844
50
359.8506019
51
40.2005052
0
ARC
8
DEFAULT_255_2_778
10
125.1440723
20
28.2540199
40
0.7977305
50
310.1641387
51
0.1493968
0
ARC
8
DEFAULT_255_2_778
10
125.1437797
20
28.2535817
40
0.7975844
50
269.8506019
51
310.2005052
0
ARC
8
DEFAULT_255_2_778
10
125.1396785
20
28.2537946
40
0.7977972
50
219.6498224
51
270.1451786
0
ARC
8
DEFAULT_255_2_778
10
125.1391559
20
28.2540507
40
0.7975584
50
179.8527827
51
219.6879494
0
LINE
8
DEFAULT_255_2_778
10
124.3416
20
28.2561
11
124.3416
21
28.2561
0
ENDSEC
0
EOF