0
SECTION
2
HEADER
9
$MEASUREMENT
70
1
0
ENDSEC
0
SECTION
2
TABLES
0
TABLE
2
LTYPE
0
LTYPE
72
65
70
64
2
CONTINUOUS
3
______
73
0
40
0
0
ENDTAB
0
TABLE
2
LAYER
0
LAYER
2
DEFAULT_255_2_778
70
0
62
255
6
CONTINUOUS
0
ENDTAB
0
ENDSEC
0
SECTION
2
ENTITIES
0
LINE
8
DEFAULT_255_2_778
10
78.0649141
20
67.5063337
11
78.0649141
21
22.5062337
0
LINE
8
DEFAULT_255_2_778
10
78.0649141
20
22.5062337
11
38.0649141
21
22.5062337
0
LINE
8
DEFAULT_255_2_778
10
38.0649141
20
22.5062337
11
38.0649141
21
67.5063337
0
LINE
8
DEFAULT_255_2_778
10
38.0649141
20
67.5063337
11
78.0649141
21
67.5063337
0
ARC
8
DEFAULT_255_2_778
10
46.6685275
20
19.0050224
40
0.9962806
50
318.3467815
51
0.0726352
0
ARC
8
DEFAULT_255_2_778
10
46.6658395
20
19.0040673
40
0.9976575
50
271.7316695
51
318.4903679
0
ARC
8
DEFAULT_255_2_778
10
46.66473
20
19.0247828
40
1.0183973
50
269.9987254
51
271.7588425
0
ARC
8
DEFAULT_255_2_778
10
46.6635899
20
19.0029055
40
0.9965208
50
228.3562305
51
270.0642467
0
ARC
8
DEFAULT_255_2_778
10
46.6625885
20
19.005443
40
0.9977545
50
181.7481336
51
228.496033
0
ARC
8
DEFAULT_255_2_778
10
46.6831034
20
19.0066259
40
1.0182961
50
180.0191585
51
181.7794423
0
LINE
8
DEFAULT_255_2_778
10
45.6648073
20
22.0063854
11
47.6648073
21
22.0063854
0
LINE
8
DEFAULT_255_2_778
10
47.6648073
20
22.0063854
11
47.6648073
21
19.0062854
0
LINE
8
DEFAULT_255_2_778
10
45.6648073
20
19.0062854
11
45.6648073
21
22.0063854
0
ARC
8
DEFAULT_255_2_778
10
42.8686275
20
19.0050224
40
0.9962806
50
318.3467815
51
0.0726352
0
ARC
8
DEFAULT_255_2_778
10
42.8659395
20
19.0040673
40
0.9976575
50
271.7316695
51
318.4903679
0
ARC
8
DEFAULT_255_2_778
10
42.86483
20
19.0247828
40
1.0183973
50
269.9987254
51
271.7588425
0
ARC
8
DEFAULT_255_2_778
10
42.8636989
20
19.0030199
40
0.9966352
50
228.3587374
51
270.0637212
0
ARC
8
DEFAULT_255_2_778
10
42.8624217
20
19.005294
40
0.9974888
50
181.7400337
51
228.500357
0
ARC
8
DEFAULT_255_2_778
10
42.8832391
20
19.0064442
40
1.0183317
50
180.0089366
51
181.769154
0
LINE
8
DEFAULT_255_2_778
10
41.8649073
20
22.0063854
11
43.8649073
21
22.0063854
0
LINE
8
DEFAULT_255_2_778
10
43.8649073
20
22.0063854
11
43.8649073
21
19.0062854
0
LINE
8
DEFAULT_255_2_778
10
41.8649073
20
19.0062854
11
41.8649073
21
22.0063854
0
ARC
8
DEFAULT_255_2_778
10
46.6614419
20
71.0074938
40
0.9966352
50
138.3587374
51
180.0637212
0
ARC
8
DEFAULT_255_2_778
10
46.6637159
20
71.008771
40
0.9974888
50
91.7400337
51
138.500357
0
ARC
8
DEFAULT_255_2_778
10
46.6648662
20
70.9879535
40
1.0183317
50
90.0089366
51
91.769154
0
ARC
8
DEFAULT_255_2_778
10
46.6661349
20
71.0099209
40
0.9963655
50
48.3627204
51
90.0820926
0
ARC
8
DEFAULT_255_2_778
10
46.6672074
20
71.0073535
40
0.9975748
50
1.7415476
51
48.5067354
0
ARC
8
DEFAULT_255_2_778
10
46.6461104
20
71.0062135
40
1.018697
50
0.0096655
51
1.7695716
0
LINE
8
DEFAULT_255_2_778
10
47.6648073
20
71.0063854
11
47.6648073
21
68.0062854
0
LINE
8
DEFAULT_255_2_778
10
47.6648073
20
68.0062854
11
45.6648073
21
68.0062854
0
LINE
8
DEFAULT_255_2_778
10
45.6648073
20
68.0062854
11
45.6648073
21
71.0063854
0
LINE
8
DEFAULT_255_2_778
10
47.6648073
20
71.0063854
11
47.6648073
21
71.0063854
0
ARC
8
DEFAULT_255_2_778
10
42.8612308
20
71.0076567
40
0.9963242
50
138.3553873
51
180.0731126
0
ARC
8
DEFAULT_255_2_778
10
42.8638232
20
71.008666
40
0.9975939
50
91.740275
51
138.4976468
0
ARC
8
DEFAULT_255_2_778
10
42.8649662
20
70.9879501
40
1.0183352
50
90.0089374
51
91.7691548
0
ARC
8
DEFAULT_255_2_778
10
42.8662349
20
71.0099209
40
0.9963655
50
48.3627204
51
90.0820926
0
ARC
8
DEFAULT_255_2_778
10
42.8673074
20
71.0073535
40
0.9975748
50
1.7415476
51
48.5067354
0
ARC
8
DEFAULT_255_2_778
10
42.8462104
20
71.0062135
40
1.018697
50
0.0096655
51
1.7695716
0
LINE
8
DEFAULT_255_2_778
10
43.8649073
20
71.0063854
11
43.8649073
21
68.0062854
0
LINE
8
DEFAULT_255_2_778
10
43.8649073
20
68.0062854
11
41.8649073
21
68.0062854
0
LINE
8
DEFAULT_255_2_778
10
41.8649073
20
68.0062854
11
41.8649073
21
71.0063854
0
LINE
8
DEFAULT_255_2_778
10
43.8649073
20
71.0063854
11
43.8649073
21
71.0063854
0
ARC
8
DEFAULT_255_2_778
10
54.2684165
20
19.0051853
40
0.9965914
50
318.3501311
51
0.0632453
0
ARC
8
DEFAULT_255_2_778
10
54.2660467
20
19.0039623
40
0.9975524
50
271.731428
51
318.4930773
0
ARC
8
DEFAULT_255_2_778
10
54.26493
20
19.0247794
40
1.0183939
50
269.9987247
51
271.7588418
0
ARC
8
DEFAULT_255_2_778
10
54.2637989
20
19.0030199
40
0.9966352
50
228.3587374
51
270.0637212
0
ARC
8
DEFAULT_255_2_778
10
54.2625217
20
19.005294
40
0.9974888
50
181.7400337
51
228.500357
0
ARC
8
DEFAULT_255_2_778
10
54.2833391
20
19.0064442
40
1.0183317
50
180.0089366
51
181.769154
0
LINE
8
DEFAULT_255_2_778
10
53.2650073
20
22.0063854
11
55.2650073
21
22.0063854
0
LINE
8
DEFAULT_255_2_778
10
55.2650073
20
22.0063854
11
55.2650073
21
19.0062854
0
LINE
8
DEFAULT_255_2_778
10
53.2650073
20
19.0062854
11
53.2650073
21
22.0063854
0
ARC
8
DEFAULT_255_2_778
10
50.4665422
20
19.0033497
40
0.9967095
50
290.6898801
51
315.0638567
0
ARC
8
DEFAULT_255_2_778
10
50.4652846
20
19.0089312
40
1.0023756
50
269.9910535
51
290.6444097
0
LINE
8
DEFAULT_255_2_778
10
50.4651281
20
18.0065556
11
50.4649698
21
18.0065556
0
ARC
8
DEFAULT_255_2_778
10
50.4638848
20
19.0041482
40
0.9975932
50
234.4511233
51
270.0623159
0
ARC
8
DEFAULT_255_2_778
10
50.4699998
20
19.0110967
40
1.0068025
50
224.9858578
51
234.3978862
0
ARC
8
DEFAULT_255_2_778
10
50.4653053
20
19.0065926
40
1.000298
50
180.0135735
51
224.9934786
0
ARC
8
DEFAULT_255_2_778
10
50.4647093
20
19.0065926
40
1.000298
50
315.0065214
51
359.9864265
0
LINE
8
DEFAULT_255_2_778
10
49.4650073
20
19.0063556
11
49.4650073
21
22.0064556
0
LINE
8
DEFAULT_255_2_778
10
49.4650073
20
22.0064556
11
51.4650073
21
22.0064556
0
LINE
8
DEFAULT_255_2_778
10
51.4650073
20
22.0064556
11
51.4650073
21
19.0063556
0
LINE
8
DEFAULT_255_2_778
10
51.1721073
20
18.2993556
11
51.1721073
21
18.2993556
0
ARC
8
DEFAULT_255_2_778
10
58.0611871
20
71.0076484
40
0.9962806
50
138.3467815
51
180.0726352
0
ARC
8
DEFAULT_255_2_778
10
58.0638752
20
71.0086035
40
0.9976575
50
91.7316695
51
138.4903679
0
ARC
8
DEFAULT_255_2_778
10
58.0649847
20
70.9878879
40
1.0183973
50
89.9987254
51
91.7588425
0
ARC
8
DEFAULT_255_2_778
10
58.0662787
20
71.0099619
40
0.9963242
50
48.3553873
51
90.0731126
0
ARC
8
DEFAULT_255_2_778
10
58.0672879
20
71.0073694
40
0.9975939
50
1.740275
51
48.4976468
0
ARC
8
DEFAULT_255_2_778
10
58.0465721
20
71.0062265
40
1.0183352
50
0.0089374
51
1.7691548
0
LINE
8
DEFAULT_255_2_778
10
59.0649073
20
71.0063854
11
59.0649073
21
68.0062854
0
LINE
8
DEFAULT_255_2_778
10
59.0649073
20
68.0062854
11
57.0649073
21
68.0062854
0
LINE
8
DEFAULT_255_2_778
10
57.0649073
20
68.0062854
11
57.0649073
21
71.0063854
0
LINE
8
DEFAULT_255_2_778
10
59.0649073
20
71.0063854
11
59.0649073
21
71.0063854
0
ARC
8
DEFAULT_255_2_778
10
54.2613308
20
71.0076567
40
0.9963242
50
138.3553873
51
180.0731126
0
ARC
8
DEFAULT_255_2_778
10
54.2639232
20
71.008666
40
0.9975939
50
91.740275
51
138.4976468
0
ARC
8
DEFAULT_255_2_778
10
54.2650662
20
70.9879501
40
1.0183352
50
90.0089374
51
91.7691548
0
ARC
8
DEFAULT_255_2_778
10
54.2663437
20
71.0100345
40
0.9962519
50
48.3602382
51
90.08261
0
ARC
8
DEFAULT_255_2_778
10
54.2671417
20
71.0072046
40
0.9978396
50
1.7496341
51
48.5024447
0
ARC
8
DEFAULT_255_2_778
10
54.2454963
20
71.006025
40
1.0195111
50
0.0202529
51
1.7787585
0
LINE
8
DEFAULT_255_2_778
10
55.2650073
20
71.0063854
11
55.2650073
21
68.0062854
0
LINE
8
DEFAULT_255_2_778
10
55.2650073
20
68.0062854
11
53.2650073
21
68.0062854
0
LINE
8
DEFAULT_255_2_778
10
53.2650073
20
68.0062854
11
53.2650073
21
71.0063854
0
LINE
8
DEFAULT_255_2_778
10
55.2650073
20
71.0063854
11
55.2650073
21
71.0063854
0
ARC
8
DEFAULT_255_2_778
10
61.8683165
20
19.0051853
40
0.9965914
50
318.3501311
51
0.0632453
0
ARC
8
DEFAULT_255_2_778
10
61.8659467
20
19.0039623
40
0.9975524
50
271.731428
51
318.4930773
0
ARC
8
DEFAULT_255_2_778
10
61.86483
20
19.0247794
40
1.0183939
50
269.9987247
51
271.7588418
0
ARC
8
DEFAULT_255_2_778
10
61.8636989
20
19.0030199
40
0.9966352
50
228.3587374
51
270.0637212
0
ARC
8
DEFAULT_255_2_778
10
61.8624217
20
19.005294
40
0.9974888
50
181.7400337
51
228.500357
0
ARC
8
DEFAULT_255_2_778
10
61.8832391
20
19.0064442
40
1.0183317
50
180.0089366
51
181.769154
0
LINE
8
DEFAULT_255_2_778
10
60.8649073
20
22.0063854
11
62.8649073
21
22.0063854
0
LINE
8
DEFAULT_255_2_778
10
62.8649073
20
22.0063854
11
62.8649073
21
19.0062854
0
LINE
8
DEFAULT_255_2_778
10
60.8649073
20
19.0062854
11
60.8649073
21
22.0063854
0
ARC
8
DEFAULT_255_2_778
10
58.0685725
20
19.0049971
40
0.9963166
50
318.3505534
51
0.0740837
0
ARC
8
DEFAULT_255_2_778
10
58.0659783
20
19.0040194
40
0.9976082
50
271.7287407
51
318.4915275
0
ARC
8
DEFAULT_255_2_778
10
58.0648109
20
19.0251439
40
1.0187584
50
269.9987247
51
271.7585257
0
ARC
8
DEFAULT_255_2_778
10
58.0633607
20
19.0027498
40
0.9963655
50
228.3627204
51
270.0820926
0
ARC
8
DEFAULT_255_2_778
10
58.0622881
20
19.0053173
40
0.9975748
50
181.7415476
51
228.5067354
0
ARC
8
DEFAULT_255_2_778
10
58.0833852
20
19.0064572
40
1.018697
50
180.0096655
51
181.7695716
0
LINE
8
DEFAULT_255_2_778
10
57.0649883
20
22.0063854
11
59.0648883
21
22.0063854
0
LINE
8
DEFAULT_255_2_778
10
59.0648883
20
22.0063854
11
59.0648883
21
19.0062854
0
LINE
8
DEFAULT_255_2_778
10
57.0646883
20
19.0062854
11
57.0649883
21
22.0063854
0
ARC
8
DEFAULT_255_2_778
10
65.6610871
20
71.0076484
40
0.9962806
50
138.3467815
51
180.0726352
0
ARC
8
DEFAULT_255_2_778
10
65.6637752
20
71.0086035
40
0.9976575
50
91.7316695
51
138.4903679
0
ARC
8
DEFAULT_255_2_778
10
65.6648847
20
70.9878879
40
1.0183973
50
89.9987254
51
91.7588425
0
ARC
8
DEFAULT_255_2_778
10
65.6661787
20
71.0099619
40
0.9963242
50
48.3553873
51
90.0731126
0
ARC
8
DEFAULT_255_2_778
10
65.6671879
20
71.0073694
40
0.9975939
50
1.740275
51
48.4976468
0
ARC
8
DEFAULT_255_2_778
10
65.6464721
20
71.0062265
40
1.0183352
50
0.0089374
51
1.7691548
0
LINE
8
DEFAULT_255_2_778
10
66.6648073
20
71.0063854
11
66.6648073
21
68.0062854
0
LINE
8
DEFAULT_255_2_778
10
66.6648073
20
68.0062854
11
64.6648073
21
68.0062854
0
LINE
8
DEFAULT_255_2_778
10
64.6648073
20
68.0062854
11
64.6648073
21
71.0063854
0
LINE
8
DEFAULT_255_2_778
10
66.6648073
20
71.0063854
11
66.6648073
21
71.0063854
0
ARC
8
DEFAULT_255_2_778
10
61.8612308
20
71.0076567
40
0.9963242
50
138.3553873
51
180.0731126
0
ARC
8
DEFAULT_255_2_778
10
61.8638232
20
71.008666
40
0.9975939
50
91.740275
51
138.4976468
0
ARC
8
DEFAULT_255_2_778
10
61.8649662
20
70.9879501
40
1.0183352
50
90.0089374
51
91.7691548
0
ARC
8
DEFAULT_255_2_778
10
61.8662437
20
71.0100345
40
0.9962519
50
48.3602382
51
90.08261
0
ARC
8
DEFAULT_255_2_778
10
61.8670417
20
71.0072046
40
0.9978396
50
1.7496341
51
48.5024447
0
ARC
8
DEFAULT_255_2_778
10
61.8453963
20
71.006025
40
1.0195111
50
0.0202529
51
1.7787585
0
LINE
8
DEFAULT_255_2_778
10
62.8649073
20
71.0063854
11
62.8649073
21
68.0062854
0
LINE
8
DEFAULT_255_2_778
10
62.8649073
20
68.0062854
11
60.8649073
21
68.0062854
0
LINE
8
DEFAULT_255_2_778
10
60.8649073
20
68.0062854
11
60.8649073
21
71.0063854
0
LINE
8
DEFAULT_255_2_778
10
62.8649073
20
71.0063854
11
62.8649073
21
71.0063854
0
ARC
8
DEFAULT_255_2_778
10
69.4687982
20
19.005005
40
0.9962099
50
318.3528803
51
0.0736385
0
ARC
8
DEFAULT_255_2_778
10
69.4659423
20
19.0042715
40
0.9978596
50
271.7483746
51
318.4933229
0
ARC
8
DEFAULT_255_2_778
10
69.4647668
20
19.0246849
40
1.0182996
50
270.0191592
51
271.7794431
0
ARC
8
DEFAULT_255_2_778
10
69.4636797
20
19.0027498
40
0.9963655
50
228.3627204
51
270.0820926
0
ARC
8
DEFAULT_255_2_778
10
69.4626072
20
19.0053173
40
0.9975748
50
181.7415476
51
228.5067354
0
ARC
8
DEFAULT_255_2_778
10
69.4837043
20
19.0064572
40
1.018697
50
180.0096655
51
181.7695716
0
LINE
8
DEFAULT_255_2_778
10
68.4650073
20
22.0063854
11
70.4650073
21
22.0063854
0
LINE
8
DEFAULT_255_2_778
10
70.4650073
20
22.0063854
11
70.4650073
21
19.0062854
0
LINE
8
DEFAULT_255_2_778
10
68.4650073
20
19.0062854
11
68.4650073
21
22.0063854
0
ARC
8
DEFAULT_255_2_778
10
65.6684593
20
19.0049971
40
0.9963166
50
318.3505534
51
0.0740837
0
ARC
8
DEFAULT_255_2_778
10
65.6658651
20
19.0040194
40
0.9976082
50
271.7287407
51
318.4915275
0
ARC
8
DEFAULT_255_2_778
10
65.6646977
20
19.0251439
40
1.0187584
50
269.9987247
51
271.7585257
0
ARC
8
DEFAULT_255_2_778
10
65.6632474
20
19.0027498
40
0.9963655
50
228.3627204
51
270.0820926
0
ARC
8
DEFAULT_255_2_778
10
65.6621749
20
19.0053173
40
0.9975748
50
181.7415476
51
228.5067354
0
ARC
8
DEFAULT_255_2_778
10
65.683272
20
19.0064572
40
1.018697
50
180.0096655
51
181.7695716
0
LINE
8
DEFAULT_255_2_778
10
64.664875
20
22.0063854
11
66.664775
21
22.0063854
0
LINE
8
DEFAULT_255_2_778
10
66.664775
20
22.0063854
11
66.664775
21
19.0062854
0
LINE
8
DEFAULT_255_2_778
10
64.664575
20
19.0062854
11
64.664875
21
22.0063854
0
ARC
8
DEFAULT_255_2_778
10
69.4613308
20
71.0076567
40
0.9963242
50
138.3553873
51
180.0731126
0
ARC
8
DEFAULT_255_2_778
10
69.4639232
20
71.008666
40
0.9975939
50
91.740275
51
138.4976468
0
ARC
8
DEFAULT_255_2_778
10
69.4650662
20
70.9879501
40
1.0183352
50
90.0089374
51
91.7691548
0
ARC
8
DEFAULT_255_2_778
10
69.4663349
20
71.0099209
40
0.9963655
50
48.3627204
51
90.0820926
0
ARC
8
DEFAULT_255_2_778
10
69.4674074
20
71.0073535
40
0.9975748
50
1.7415476
51
48.5067354
0
ARC
8
DEFAULT_255_2_778
10
69.4463104
20
71.0062135
40
1.018697
50
0.0096655
51
1.7695716
0
LINE
8
DEFAULT_255_2_778
10
70.4650073
20
71.0063854
11
70.4650073
21
68.0062854
0
LINE
8
DEFAULT_255_2_778
10
70.4650073
20
68.0062854
11
68.4650073
21
68.0062854
0
LINE
8
DEFAULT_255_2_778
10
68.4650073
20
68.0062854
11
68.4650073
21
71.0063854
0
LINE
8
DEFAULT_255_2_778
10
70.4650073
20
71.0063854
11
70.4650073
21
71.0063854
0
ARC
8
DEFAULT_255_2_778
10
73.2686275
20
19.0050224
40
0.9962806
50
318.3467815
51
0.0726352
0
ARC
8
DEFAULT_255_2_778
10
73.2659395
20
19.0040673
40
0.9976575
50
271.7316695
51
318.4903679
0
ARC
8
DEFAULT_255_2_778
10
73.26483
20
19.0247828
40
1.0183973
50
269.9987254
51
271.7588425
0
ARC
8
DEFAULT_255_2_778
10
73.2636989
20
19.0030199
40
0.9966352
50
228.3587374
51
270.0637212
0
ARC
8
DEFAULT_255_2_778
10
73.2624217
20
19.005294
40
0.9974888
50
181.7400337
51
228.500357
0
ARC
8
DEFAULT_255_2_778
10
73.2832391
20
19.0064442
40
1.0183317
50
180.0089366
51
181.769154
0
LINE
8
DEFAULT_255_2_778
10
72.2649073
20
22.0063854
11
74.2649073
21
22.0063854
0
LINE
8
DEFAULT_255_2_778
10
74.2649073
20
22.0063854
11
74.2649073
21
19.0062854
0
LINE
8
DEFAULT_255_2_778
10
72.2649073
20
19.0062854
11
72.2649073
21
22.0063854
0
ARC
8
DEFAULT_255_2_778
10
77.0685593
20
19.0049971
40
0.9963166
50
318.3505534
51
0.0740837
0
ARC
8
DEFAULT_255_2_778
10
77.0659651
20
19.0040194
40
0.9976082
50
271.7287407
51
318.4915275
0
ARC
8
DEFAULT_255_2_778
10
77.0647977
20
19.0251439
40
1.0187584
50
269.9987247
51
271.7585257
0
ARC
8
DEFAULT_255_2_778
10
77.0633474
20
19.0027498
40
0.9963655
50
228.3627204
51
270.0820926
0
ARC
8
DEFAULT_255_2_778
10
77.0622749
20
19.0053173
40
0.9975748
50
181.7415476
51
228.5067354
0
ARC
8
DEFAULT_255_2_778
10
77.083372
20
19.0064572
40
1.018697
50
180.0096655
51
181.7695716
0
LINE
8
DEFAULT_255_2_778
10
76.064975
20
22.0063854
11
78.064875
21
22.0063854
0
LINE
8
DEFAULT_255_2_778
10
78.064875
20
22.0063854
11
78.064875
21
19.0062854
0
LINE
8
DEFAULT_255_2_778
10
76.064675
20
19.0062854
11
76.064975
21
22.0063854
0
ARC
8
DEFAULT_255_2_778
10
73.2612308
20
71.0076567
40
0.9963242
50
138.3553873
51
180.0731126
0
ARC
8
DEFAULT_255_2_778
10
73.2638232
20
71.008666
40
0.9975939
50
91.740275
51
138.4976468
0
ARC
8
DEFAULT_255_2_778
10
73.2649662
20
70.9879501
40
1.0183352
50
90.0089374
51
91.7691548
0
ARC
8
DEFAULT_255_2_778
10
73.2662349
20
71.0099209
40
0.9963655
50
48.3627204
51
90.0820926
0
ARC
8
DEFAULT_255_2_778
10
73.2673074
20
71.0073535
40
0.9975748
50
1.7415476
51
48.5067354
0
ARC
8
DEFAULT_255_2_778
10
73.2462104
20
71.0062135
40
1.018697
50
0.0096655
51
1.7695716
0
LINE
8
DEFAULT_255_2_778
10
74.2649073
20
71.0063854
11
74.2649073
21
68.0062854
0
LINE
8
DEFAULT_255_2_778
10
74.2649073
20
68.0062854
11
72.2649073
21
68.0062854
0
LINE
8
DEFAULT_255_2_778
10
72.2649073
20
68.0062854
11
72.2649073
21
71.0063854
0
LINE
8
DEFAULT_255_2_778
10
74.2649073
20
71.0063854
11
74.2649073
21
71.0063854
0
ARC
8
DEFAULT_255_2_778
10
77.0611548
20
71.0076484
40
0.9962806
50
138.3467815
51
180.0726352
0
ARC
8
DEFAULT_255_2_778
10
77.0638429
20
71.0086035
40
0.9976575
50
91.7316695
51
138.4903679
0
ARC
8
DEFAULT_255_2_778
10
77.0649524
20
70.9878879
40
1.0183973
50
89.9987254
51
91.7588425
0
ARC
8
DEFAULT_255_2_778
10
77.066444
20
71.0099245
40
0.996362
50
48.3626364
51
90.0844715
0
ARC
8
DEFAULT_255_2_778
10
77.0674798
20
71.0073925
40
0.9975692
50
1.7393159
51
48.5037222
0
ARC
8
DEFAULT_255_2_778
10
77.0463782
20
71.0062135
40
1.0186971
50
0.0096654
51
1.7695715
0
LINE
8
DEFAULT_255_2_778
10
78.064875
20
71.0063854
11
78.064875
21
68.0062854
0
LINE
8
DEFAULT_255_2_778
10
78.064875
20
68.0062854
11
76.064875
21
68.0062854
0
LINE
8
DEFAULT_255_2_778
10
76.064875
20
68.0062854
11
76.064875
21
71.0063854
0
LINE
8
DEFAULT_255_2_778
10
78.065075
20
71.0063854
11
78.064875
21
71.0063854
0
ARC
8
DEFAULT_255_2_778
10
39.0683165
20
19.0051853
40
0.9965914
50
318.3501311
51
0.0632453
0
ARC
8
DEFAULT_255_2_778
10
39.0659467
20
19.0039623
40
0.9975524
50
271.731428
51
318.4930773
0
ARC
8
DEFAULT_255_2_778
10
39.06483
20
19.0247794
40
1.0183939
50
269.9987247
51
271.7588418
0
ARC
8
DEFAULT_255_2_778
10
39.0636989
20
19.0030199
40
0.9966352
50
228.3587374
51
270.0637212
0
ARC
8
DEFAULT_255_2_778
10
39.0624217
20
19.005294
40
0.9974888
50
181.7400337
51
228.500357
0
ARC
8
DEFAULT_255_2_778
10
39.0832391
20
19.0064442
40
1.0183317
50
180.0089366
51
181.769154
0
LINE
8
DEFAULT_255_2_778
10
38.0649073
20
22.0063854
11
40.0649073
21
22.0063854
0
LINE
8
DEFAULT_255_2_778
10
40.0649073
20
22.0063854
11
40.0649073
21
19.0062854
0
LINE
8
DEFAULT_255_2_778
10
38.0649073
20
19.0062854
11
38.0649073
21
22.0063854
0
ARC
8
DEFAULT_255_2_778
10
39.0612308
20
71.0076567
40
0.9963242
50
138.3553873
51
180.0731126
0
ARC
8
DEFAULT_255_2_778
10
39.0638232
20
71.008666
40
0.9975939
50
91.740275
51
138.4976468
0
ARC
8
DEFAULT_255_2_778
10
39.0649662
20
70.9879501
40
1.0183352
50
90.0089374
51
91.7691548
0
ARC
8
DEFAULT_255_2_778
10
39.0662437
20
71.0100345
40
0.9962519
50
48.3602382
51
90.08261
0
ARC
8
DEFAULT_255_2_778
10
39.0670417
20
71.0072046
40
0.9978396
50
1.7496341
51
48.5024447
0
ARC
8
DEFAULT_255_2_778
10
39.0453963
20
71.006025
40
1.0195111
50
0.0202529
51
1.7787585
0
LINE
8
DEFAULT_255_2_778
10
40.0649073
20
71.0063854
11
40.0649073
21
68.0062854
0
LINE
8
DEFAULT_255_2_778
10
40.0649073
20
68.0062854
11
38.0649073
21
68.0062854
0
LINE
8
DEFAULT_255_2_778
10
38.0649073
20
68.0062854
11
38.0649073
21
71.0063854
0
LINE
8
DEFAULT_255_2_778
10
40.0649073
20
71.0063854
11
40.0649073
21
71.0063854
0
ARC
8
DEFAULT_255_2_778
10
50.4612674
20
71.0077433
40
0.9962508
50
138.3546226
51
180.0733754
0
ARC
8
DEFAULT_255_2_778
10
50.4640204
20
71.0086005
40
0.9977415
50
91.7504449
51
138.4964639
0
ARC
8
DEFAULT_255_2_778
10
50.465158
20
70.9884125
40
1.017955
50
90.0191714
51
91.7797372
0
ARC
8
DEFAULT_255_2_778
10
50.4662864
20
71.0100066
40
0.996362
50
48.3626364
51
90.0844715
0
ARC
8
DEFAULT_255_2_778
10
50.4673222
20
71.0074746
40
0.9975692
50
1.7393159
51
48.5037222
0
ARC
8
DEFAULT_255_2_778
10
50.4462206
20
71.0062957
40
1.0186971
50
0.0096654
51
1.7695715
0
ARC
8
DEFAULT_255_2_778
10
78.6562144
20
0.2566644
40
0.5000969
50
179.9996485
51
270.0003515
0
ARC
8
DEFAULT_255_2_778
10
77.6560419
20
9.2566919
40
0.5000756
50
0.0086621
51
90.0028016
0
ARC
8
DEFAULT_255_2_778
10
6.4058251
20
28.7533386
40
1.3477829
50
218.9335045
51
254.9964288
0
ARC
8
DEFAULT_255_2_778
10
6.4070989
20
28.7555402
40
1.3502393
50
254.968405
51
269.9933884
0
ARC
8
DEFAULT_255_2_778
10
6.4069573
20
28.7509657
40
1.3456647
50
269.9993945
51
274.9102536
0
ARC
8
DEFAULT_255_2_778
10
6.4065503
20
28.7533916
40
1.3481164
50
274.9186637
51
289.3016558
0
ARC
8
DEFAULT_255_2_778
10
6.3969512
20
28.7819369
40
1.3782302
50
289.2860271
51
289.5133854
0
ARC
8
DEFAULT_255_2_778
10
6.406695
20
28.7548276
40
1.3494233
50
289.5079123
51
0.000533
0
ARC
8
DEFAULT_255_2_778
10
6.4829496
20
28.7548402
40
1.2731686
50
7e-7
51
0.0642336
0
LINE
8
DEFAULT_255_2_778
10
7.7561174
20
28.7562675
11
7.7561175
21
28.7565056
0
ARC
8
DEFAULT_255_2_778
10
6.4064643
20
28.756439
40
1.3496532
50
0.0028264
51
70.4986642
0
ARC
8
DEFAULT_255_2_778
10
6.4060753
20
28.7555833
40
1.3505896
50
70.4952282
51
85.0006124
0
ARC
8
DEFAULT_255_2_778
10
6.3956827
20
28.6334408
40
1.4731731
50
85.0119303
51
85.115161
0
ARC
8
DEFAULT_255_2_778
10
6.4065199
20
28.7582845
40
1.3478599
50
85.1222587
51
90.0005643
0
ARC
8
DEFAULT_255_2_778
10
6.4060799
20
28.756564
40
1.3495807
50
89.9818864
51
139.7527056
0
ARC
8
DEFAULT_255_2_778
10
6.4133118
20
28.7509892
40
1.3587022
50
139.770308
51
140.9989553
0
ARC
8
DEFAULT_255_2_778
10
18.6904602
20
34.1587934
40
0.9980878
50
273.7718122
51
319.9224395
0
ARC
8
DEFAULT_255_2_778
10
18.6925431
20
34.1596923
40
0.9970748
50
319.8058557
51
0.0560369
0
ARC
8
DEFAULT_255_2_778
10
18.6915621
20
55.2901616
40
0.9980555
50
359.9601515
51
46.1138156
0
ARC
8
DEFAULT_255_2_778
10
18.690953
20
55.2925184
40
0.9967814
50
45.9946665
51
86.251621
0
ARC
8
DEFAULT_255_2_778
10
6.4056726
20
60.7528001
40
1.3474515
50
218.9263826
51
254.972338
0
ARC
8
DEFAULT_255_2_778
10
6.4070123
20
60.7552431
40
1.3501585
50
254.9443108
51
269.9937121
0
ARC
8
DEFAULT_255_2_778
10
6.4068778
20
60.7508669
40
1.3457823
50
269.9994198
51
274.9132215
0
ARC
8
DEFAULT_255_2_778
10
6.4064404
20
60.7535278
40
1.3484708
50
274.9220543
51
289.4175078
0
ARC
8
DEFAULT_255_2_778
10
6.4274191
20
60.6954904
40
1.2867603
50
289.3956471
51
289.5174282
0
ARC
8
DEFAULT_255_2_778
10
6.406695
20
60.7546276
40
1.3494233
50
289.5079123
51
0.000533
0
ARC
8
DEFAULT_255_2_778
10
6.4829496
20
60.7546402
40
1.2731686
50
7e-7
51
0.0642336
0
LINE
8
DEFAULT_255_2_778
10
7.7561174
20
60.7560675
11
7.7561175
21
60.7563056
0
ARC
8
DEFAULT_255_2_778
10
6.406689
20
60.7562978
40
1.3494285
50
0.0003293
51
70.5054043
0
ARC
8
DEFAULT_255_2_778
10
6.4060383
20
60.7558486
40
1.3500691
50
70.4857364
51
84.9971016
0
ARC
8
DEFAULT_255_2_778
10
6.395682
20
60.6331724
40
1.473181
50
85.0119303
51
85.115161
0
ARC
8
DEFAULT_255_2_778
10
6.4064716
20
60.75849
40
1.3473998
50
85.1185294
51
90.0006387
0
ARC
8
DEFAULT_255_2_778
10
6.4060948
20
60.7561869
40
1.3497031
50
89.9846432
51
139.7475877
0
ARC
8
DEFAULT_255_2_778
10
6.4128322
20
60.7509887
40
1.358204
50
139.763875
51
140.9927614
0
ARC
8
DEFAULT_255_2_778
10
86.6561205
20
60.9565644
40
0.5000969
50
269.9996485
51
0.0003515
0
ARC
8
DEFAULT_255_2_778
10
77.6563417
20
80.2566432
40
0.5000757
50
269.9972237
51
359.991324
0
ARC
8
DEFAULT_255_2_778
10
78.6563355
20
89.2564946
40
0.4999181
50
135.0198687
51
180.0145681
0
ARC
8
DEFAULT_255_2_778
10
78.6565815
20
89.2560882
40
0.5003794
50
90.0416861
51
135.006862
0
ARC
8
DEFAULT_255_2_778
10
87.0912791
20
26.9680245
40
0.0649384
50
359.9497398
51
0.1507774
0
ARC
8
DEFAULT_255_2_778
10
87.0952074
20
26.9673568
40
0.0610157
50
0.7874244
51
45.4803783
0
ARC
8
DEFAULT_255_2_778
10
86.7416345
20
26.6859661
40
0.5124977
50
39.3418175
51
47.0084923
0
ARC
8
DEFAULT_255_2_778
10
85.5966702
20
25.4920937
40
2.1666273
50
46.3896748
51
49.2007087
0
ARC
8
DEFAULT_255_2_778
10
82.9700696
20
22.4735979
40
6.1679092
50
49.0518392
51
50.3508912
0
ARC
8
DEFAULT_255_2_778
10
78.251153
20
16.7965495
40
13.5501173
50
50.3044902
51
51.0054194
0
ARC
8
DEFAULT_255_2_778
10
71.0498127
20
7.914124
40
24.985009
50
50.9878015
51
51.4081752
0
ARC
8
DEFAULT_255_2_778
10
61.2510754
20
-4.3551501
40
40.68693
50
51.4002829
51
51.6721617
0
ARC
8
DEFAULT_255_2_778
10
48.9662926
20
-19.8881421
40
60.4907103
50
51.6682191
51
51.8540571
0
ARC
8
DEFAULT_255_2_778
10
30.5411204
20
-43.352609
40
90.3247206
50
51.8559139
51
52.0457909
0
ARC
8
DEFAULT_255_2_778
10
2.0992744
20
-79.8086195
40
136.5630087
50
52.0437464
51
52.1826286
0
ARC
8
DEFAULT_255_2_778
10
-34.020945
20
-126.3363469
40
195.4654675
50
52.1810042
51
52.2798939
0
ARC
8
DEFAULT_255_2_778
10
-72.633042
20
-176.2476428
40
258.568807
50
52.2784428
51
52.340594
0
ARC
8
DEFAULT_255_2_778
10
-123.6908218
20
-242.4132855
40
342.1438578
50
52.3413895
51
52.4144822
0
ARC
8
DEFAULT_255_2_778
10
-198.6575754
20
-339.8056609
40
465.0474337
50
52.4141174
51
52.4737473
0
ARC
8
DEFAULT_255_2_778
10
-248.4731197
20
-404.6413186
40
546.8108165
50
52.4722367
51
52.4799348
0
ARC
8
DEFAULT_255_2_778
10
5.7670127
20
1.7497597
40
1.9931935
50
245.036548
51
270.0662519
0
ARC
8
DEFAULT_255_2_778
10
5.771271
20
1.7580569
40
2.0025128
50
191.7243616
51
245.0262827
0
ARC
8
DEFAULT_255_2_778
10
5.7819643
20
1.7567426
40
2.0127189
50
182.5365174
51
191.6258735
0
ARC
8
DEFAULT_255_2_778
10
10.1573519
20
21.260214
40
0.9962543
50
48.3547072
51
90.0709944
0
ARC
8
DEFAULT_255_2_778
10
10.1582468
20
21.2574257
40
0.9977464
50
1.7526654
51
48.49951
0
ARC
8
DEFAULT_255_2_778
10
10.1372161
20
21.2563071
40
1.0188015
50
0.0202691
51
1.7793722
0
ARC
8
DEFAULT_255_2_778
10
2.5572714
20
65.2561924
40
0.5001751
50
89.9947261
51
159.1927223
0
ARC
8
DEFAULT_255_2_778
10
30.1388316
20
54.7878823
40
30.0014967
50
159.2158423
51
173.3609743
0
ARC
8
DEFAULT_255_2_778
10
500.243131
20
44.7565213
40
500.0868637
50
178.4531009
51
180.0000004
0
ARC
8
DEFAULT_255_2_778
10
500.243131
20
44.7565063
40
500.0868635
50
179.9999987
51
181.5468983
0
ARC
8
DEFAULT_255_2_778
10
30.148551
20
34.5111183
40
29.9871673
50
186.2306671
51
200.3505992
0
ARC
8
DEFAULT_255_2_778
10
2.5019296
20
24.2564543
40
0.4999867
50
200.3395408
51
270.0100681
0
ARC
8
DEFAULT_255_2_778
10
10.1597726
20
68.2550099
40
0.9964459
50
318.3653106
51
0.0838138
0
ARC
8
DEFAULT_255_2_778
10
10.1572038
20
68.2539724
40
0.9976798
50
271.7514847
51
318.5078521
0
ARC
8
DEFAULT_255_2_778
10
10.1560571
20
68.2754137
40
1.0191463
50
270.0202567
51
271.7790782
0
ARC
8
DEFAULT_255_2_778
10
5.7627931
20
87.7589775
40
1.99324
50
152.4931007
51
177.5216909
0
ARC
8
DEFAULT_255_2_778
10
5.7708329
20
87.7544037
40
2.0024833
50
99.1804776
51
152.4832738
0
ARC
8
DEFAULT_255_2_778
10
5.76904
20
87.7437577
40
2.0127099
50
89.9921027
51
99.0817409
0
LINE
8
DEFAULT_255_2_778
10
51.4649174
20
68.0063675
11
49.4650174
21
68.0063675
0
LINE
8
DEFAULT_255_2_778
10
49.4650174
20
68.0063675
11
49.4650174
21
71.0064675
0
LINE
8
DEFAULT_255_2_778
10
51.4649174
20
71.0064675
11
51.4649174
21
68.0063675
0
LINE
8
DEFAULT_255_2_778
10
78.1561174
20
0.2566675
11
78.1561174
21
9.2567675
0
LINE
8
DEFAULT_255_2_778
10
77.6560174
20
9.7567675
11
32.4562174
21
9.7567675
0
LINE
8
DEFAULT_255_2_778
10
32.1562174
20
9.7567675
11
32.4562174
21
9.7567675
0
LINE
8
DEFAULT_255_2_778
10
5.1563174
20
27.9063675
11
5.3574174
21
27.9063675
0
LINE
8
DEFAULT_255_2_778
10
5.3574174
20
29.6060675
11
5.1563174
21
29.6060675
0
LINE
8
DEFAULT_255_2_778
10
5.1563174
20
59.9061675
11
5.1563174
21
57.1939675
0
LINE
8
DEFAULT_255_2_778
10
5.1563174
20
57.1939675
11
5.1563174
21
32.2561675
0
LINE
8
DEFAULT_255_2_778
10
5.1563174
20
32.2561675
11
18.7561174
21
33.1628675
0
LINE
8
DEFAULT_255_2_778
10
19.6896174
20
34.1606675
11
19.6896174
21
55.2894675
0
LINE
8
DEFAULT_255_2_778
10
18.7561174
20
56.2871675
11
5.1563174
21
57.1939675
0
LINE
8
DEFAULT_255_2_778
10
5.1563174
20
65.7560675
11
5.1563174
21
61.6061675
0
LINE
8
DEFAULT_255_2_778
10
5.1563174
20
61.6061675
11
5.1563174
21
59.9061675
0
LINE
8
DEFAULT_255_2_778
10
5.1563174
20
59.9061675
11
5.3574174
21
59.9061675
0
LINE
8
DEFAULT_255_2_778
10
5.3574174
20
61.6058675
11
5.1563174
21
61.6058675
0
LINE
8
DEFAULT_255_2_778
10
11.1562174
20
21.2558675
11
11.1562174
21
23.2558675
0
LINE
8
DEFAULT_255_2_778
10
11.1562174
20
23.2558675
11
5.1563174
21
23.2558675
0
LINE
8
DEFAULT_255_2_778
10
5.1563174
20
23.2558675
11
5.1563174
21
23.7558675
0
LINE
8
DEFAULT_255_2_778
10
5.1563174
20
23.7558675
11
5.1563174
21
27.9058675
0
LINE
8
DEFAULT_255_2_778
10
5.1563174
20
27.9058675
11
5.1563174
21
29.6058675
0
LINE
8
DEFAULT_255_2_778
10
5.1563174
20
29.6058675
11
5.1563174
21
32.2558675
0
LINE
8
DEFAULT_255_2_778
10
87.1562174
20
61.9558675
11
87.1562174
21
62.4559675
0
LINE
8
DEFAULT_255_2_778
10
84.2561174
20
62.4559675
11
87.1562174
21
62.4559675
0
LINE
8
DEFAULT_255_2_778
10
87.1562174
20
62.4559675
11
87.1562174
21
89.7564675
0
LINE
8
DEFAULT_255_2_778
10
87.1562174
20
89.7564675
11
78.6562174
21
89.7564675
0
LINE
8
DEFAULT_255_2_778
10
83.3533174
20
27.5563675
11
83.1562174
21
61.9564675
0
LINE
8
DEFAULT_255_2_778
10
83.1562174
20
61.9564675
11
84.3394174
21
61.9564675
0
LINE
8
DEFAULT_255_2_778
10
84.3394174
20
61.9564675
11
87.1562174
21
61.9564675
0
LINE
8
DEFAULT_255_2_778
10
87.1562174
20
61.9564675
11
87.1562174
21
60.9565675
0
LINE
8
DEFAULT_255_2_778
10
86.6561174
20
60.4564675
11
85.1562174
21
60.4564675
0
LINE
8
DEFAULT_255_2_778
10
85.1562174
20
60.4564675
11
84.4561174
21
61.2565675
0
LINE
8
DEFAULT_255_2_778
10
84.4561174
20
61.2565675
11
84.3394174
21
61.9566675
0
LINE
8
DEFAULT_255_2_778
10
32.4562174
20
79.7565675
11
77.6563174
21
79.7565675
0
LINE
8
DEFAULT_255_2_778
10
78.1564174
20
80.2565675
11
78.1564174
21
89.2563675
0
LINE
8
DEFAULT_255_2_778
10
78.6562174
20
89.7564675
11
32.4562174
21
89.7564675
0
LINE
8
DEFAULT_255_2_778
10
32.1562174
20
-0.2434325
11
32.1562174
21
9.7565675
0
LINE
8
DEFAULT_255_2_778
10
32.1562174
20
9.7565675
11
32.1562174
21
79.7565675
0
LINE
8
DEFAULT_255_2_778
10
32.1562174
20
79.7565675
11
32.4562174
21
79.7565675
0
LINE
8
DEFAULT_255_2_778
10
32.4562174
20
79.7565675
11
32.4562174
21
89.7564675
0
LINE
8
DEFAULT_255_2_778
10
32.4562174
20
89.7564675
11
32.1562174
21
89.7564675
0
LINE
8
DEFAULT_255_2_778
10
83.1562174
20
61.9564675
11
83.1562174
21
62.4564675
0
LINE
8
DEFAULT_255_2_778
10
83.1562174
20
62.4564675
11
84.2564174
21
62.4564675
0
LINE
8
DEFAULT_255_2_778
10
84.2564174
20
62.4564675
11
84.3397174
21
61.9564675
0
LINE
8
DEFAULT_255_2_778
10
83.1565174
20
27.0562675
11
83.3565174
21
27.0562675
0
LINE
8
DEFAULT_255_2_778
10
32.4562174
20
-0.2436325
11
78.6562174
21
-0.2436325
0
LINE
8
DEFAULT_255_2_778
10
78.6562174
20
-0.2436325
11
87.1562174
21
-0.2436325
0
LINE
8
DEFAULT_255_2_778
10
87.1562174
20
-0.2436325
11
87.1562174
21
25.0563675
0
LINE
8
DEFAULT_255_2_778
10
87.1562174
20
25.0563675
11
87.1562174
21
26.9679675
0
LINE
8
DEFAULT_255_2_778
10
84.5561174
20
29.0562675
11
84.3561174
21
27.5563675
0
LINE
8
DEFAULT_255_2_778
10
84.3561174
20
27.5563675
11
83.3533174
21
27.5563675
0
LINE
8
DEFAULT_255_2_778
10
83.3533174
20
27.5563675
11
83.3563174
21
27.0562675
0
LINE
8
DEFAULT_255_2_778
10
83.3563174
20
27.0562675
11
84.6562174
21
27.0562675
0
LINE
8
DEFAULT_255_2_778
10
84.6562174
20
27.0562675
11
87.1562174
21
25.0563675
0
LINE
8
DEFAULT_255_2_778
10
11.1562174
20
-0.2434325
11
6.4308174
21
-0.2434325
0
LINE
8
DEFAULT_255_2_778
10
6.4308174
20
-0.2434325
11
5.7693174
21
-0.2434325
0
LINE
8
DEFAULT_255_2_778
10
3.7712174
20
1.6676675
11
3.7363174
21
2.4508675
0
LINE
8
DEFAULT_255_2_778
10
3.7363174
20
2.4508675
11
2.8560174
21
22.2564675
0
LINE
8
DEFAULT_255_2_778
10
2.8560174
20
22.2564675
11
10.1561174
21
22.2564675
0
LINE
8
DEFAULT_255_2_778
10
11.1560174
20
21.2566675
11
11.1560174
21
9.7565675
0
LINE
8
DEFAULT_255_2_778
10
11.1560174
20
9.7565675
11
11.1560174
21
-0.2434325
0
LINE
8
DEFAULT_255_2_778
10
11.1560174
20
-0.2434325
11
32.1559174
21
-0.2434325
0
LINE
8
DEFAULT_255_2_778
10
32.1559174
20
-0.2434325
11
32.4560174
21
-0.2434325
0
LINE
8
DEFAULT_255_2_778
10
32.4560174
20
-0.2434325
11
32.4560174
21
9.7565675
0
LINE
8
DEFAULT_255_2_778
10
32.4560174
20
9.7565675
11
32.4560174
21
79.7565675
0
LINE
8
DEFAULT_255_2_778
10
11.1562174
20
89.7564675
11
32.1562174
21
89.7564675
0
LINE
8
DEFAULT_255_2_778
10
32.1562174
20
89.7564675
11
32.1562174
21
79.7565675
0
LINE
8
DEFAULT_255_2_778
10
11.1562174
20
68.2564675
11
11.1562174
21
66.2564675
0
LINE
8
DEFAULT_255_2_778
10
11.1562174
20
66.2564675
11
5.1563174
21
66.2564675
0
LINE
8
DEFAULT_255_2_778
10
5.1563174
20
66.2564675
11
5.1563174
21
65.7563675
0
LINE
8
DEFAULT_255_2_778
10
5.1563174
20
65.7563675
11
2.5573174
21
65.7563675
0
LINE
8
DEFAULT_255_2_778
10
2.5020174
20
23.7564675
11
5.1563174
21
23.7564675
0
LINE
8
DEFAULT_255_2_778
10
11.1562174
20
89.3235675
11
11.1562174
21
89.7564675
0
LINE
8
DEFAULT_255_2_778
10
11.1562174
20
89.7564675
11
10.7234174
21
89.7564675
0
LINE
8
DEFAULT_255_2_778
10
10.7234174
20
89.7564675
11
11.1562174
21
89.3235675
0
LINE
8
DEFAULT_255_2_778
10
11.1562174
20
89.3235675
11
11.1562174
21
68.2564675
0
LINE
8
DEFAULT_255_2_778
10
10.1564174
20
67.2562675
11
2.8562174
21
67.2562675
0
LINE
8
DEFAULT_255_2_778
10
2.8562174
20
67.2562675
11
3.7714174
21
87.8451675
0
LINE
8
DEFAULT_255_2_778
10
5.7693174
20
89.7564675
11
10.7234174
21
89.7564675
0
ENDSEC
0
EOF