0
SECTION
2
HEADER
9
$MEASUREMENT
70
1
0
ENDSEC
0
SECTION
2
TABLES
0
TABLE
2
LTYPE
0
LTYPE
72
65
70
64
2
CONTINUOUS
3
______
73
0
40
0
0
ENDTAB
0
TABLE
2
LAYER
0
LAYER
2
DEFAULT_255_2_778
70
0
62
255
6
CONTINUOUS
0
ENDTAB
0
ENDSEC
0
SECTION
2
ENTITIES
0
ARC
8
DEFAULT_255_2_778
10
34.4562991
20
22.5565861
40
0.3001524
50
180.0099935
51
269.9900065
0
ARC
8
DEFAULT_255_2_778
10
34.4562776
20
66.9564028
40
0.3001309
50
90.0058902
51
179.9750049
0
LINE
8
DEFAULT_255_2_778
10
9.1562468
20
27.2563337
11
9.1562468
21
22.7562337
0
LINE
8
DEFAULT_255_2_778
10
9.1562468
20
22.7562337
11
7.1562468
21
22.7562337
0
LINE
8
DEFAULT_255_2_778
10
7.1562468
20
22.7562337
11
7.1562468
21
27.2563337
0
LINE
8
DEFAULT_255_2_778
10
7.1562468
20
27.2563337
11
9.1562468
21
27.2563337
0
LINE
8
DEFAULT_255_2_778
10
9.1562468
20
62.2564337
11
9.1562468
21
66.7564337
0
LINE
8
DEFAULT_255_2_778
10
9.1562468
20
66.7564337
11
7.1562468
21
66.7564337
0
LINE
8
DEFAULT_255_2_778
10
7.1562468
20
66.7564337
11
7.1562468
21
62.2564337
0
LINE
8
DEFAULT_255_2_778
10
7.1562468
20
62.2564337
11
9.1562468
21
62.2564337
0
LINE
8
DEFAULT_255_2_778
10
34.1561468
20
67.2565337
11
34.1561468
21
22.2564337
0
LINE
8
DEFAULT_255_2_778
10
34.1561468
20
22.2564337
11
74.1561468
21
22.2564337
0
LINE
8
DEFAULT_255_2_778
10
74.1561468
20
22.2564337
11
74.1561468
21
67.2565337
0
LINE
8
DEFAULT_255_2_778
10
74.1561468
20
67.2565337
11
34.1561468
21
67.2565337
0
LINE
8
DEFAULT_255_2_778
10
72.1561468
20
22.2564337
11
34.4562468
21
22.2564337
0
LINE
8
DEFAULT_255_2_778
10
34.1561468
20
22.5565337
11
34.1561468
21
66.9565337
0
LINE
8
DEFAULT_255_2_778
10
34.4562468
20
67.2565337
11
72.1561468
21
67.2565337
0
ARC
8
DEFAULT_255_2_778
10
34.4563269
20
66.9564581
40
0.3001094
50
90.0208901
51
179.9791099
0
ARC
8
DEFAULT_255_2_778
10
34.4563269
20
66.9564581
40
0.3001094
50
90.0208901
51
179.9791099
0
ARC
8
DEFAULT_255_2_778
10
34.4563269
20
66.9564581
40
0.3001094
50
90.0208901
51
179.9791099
0
ARC
8
DEFAULT_255_2_778
10
30.2348006
20
56.7074661
40
29.9768453
50
163.1410128
51
175.122307
0
ARC
8
DEFAULT_255_2_778
10
500.1493932
20
44.7562674
40
499.9931758
50
178.3381552
51
180
0
ARC
8
DEFAULT_255_2_778
10
500.1493932
20
44.7562676
40
499.9931758
50
180
51
181.6618448
0
ARC
8
DEFAULT_255_2_778
10
30.254682
20
32.8088851
40
29.996979
50
184.8817268
51
196.8549498
0
ARC
8
DEFAULT_255_2_778
10
2.0249427
20
24.2562777
40
0.5001101
50
196.8553601
51
269.9971059
0
ARC
8
DEFAULT_255_2_778
10
4.6128689
20
0.7551736
40
0.9972744
50
182.3278096
51
226.2561079
0
ARC
8
DEFAULT_255_2_778
10
4.6144501
20
0.7536016
40
0.9972345
50
226.128028
51
270.0555788
0
ARC
8
DEFAULT_255_2_778
10
6.1565499
20
34.1383281
40
1.0003325
50
116.5759529
51
179.997742
0
ARC
8
DEFAULT_255_2_778
10
6.1561598
20
36.3744871
40
1.0000577
50
296.5726266
51
359.9951307
0
LINE
8
DEFAULT_255_2_778
10
7.1562175
20
36.3744022
11
7.1562174
21
36.3746675
0
LINE
8
DEFAULT_255_2_778
10
7.1562174
20
53.1386675
11
7.1562175
21
53.1389328
0
ARC
8
DEFAULT_255_2_778
10
6.1561598
20
53.1388479
40
1.0000577
50
0.0048693
51
63.4273734
0
ARC
8
DEFAULT_255_2_778
10
6.1565499
20
55.3750069
40
1.0003325
50
180.002258
51
243.4240471
0
ARC
8
DEFAULT_255_2_778
10
4.6144949
20
88.7591946
40
0.9972733
50
89.946999
51
134.2095567
0
ARC
8
DEFAULT_255_2_778
10
4.6128416
20
88.7576241
40
0.9972487
50
134.0785493
51
177.6699833
0
ARC
8
DEFAULT_255_2_778
10
2.0246429
20
65.2562573
40
0.5001102
50
90.0029171
51
163.1446466
0
ARC
8
DEFAULT_255_2_778
10
86.6561205
20
60.9565644
40
0.5000969
50
269.9996485
51
0.0003515
0
ARC
8
DEFAULT_255_2_778
10
6.1564917
20
33.8890818
40
1.0002743
50
99.807831
51
179.9950895
0
ARC
8
DEFAULT_255_2_778
10
6.1584201
20
33.8758762
40
1.0136153
50
98.144709
51
99.7880864
0
ARC
8
DEFAULT_255_2_778
10
11.156315
20
36.6238178
40
1.0000123
50
278.1346959
51
358.3257901
0
ARC
8
DEFAULT_255_2_778
10
11.1448776
20
36.6236419
40
1.0114398
50
358.3546772
51
0.0012263
0
LINE
8
DEFAULT_255_2_778
10
12.1563175
20
36.6236636
11
12.1563174
21
36.6238675
0
LINE
8
DEFAULT_255_2_778
10
12.1563174
20
52.8894675
11
12.1563175
21
52.8896714
0
ARC
8
DEFAULT_255_2_778
10
11.1563158
20
52.8895342
40
1.0000017
50
0.007864
51
80.1997335
0
ARC
8
DEFAULT_255_2_778
10
11.1545986
20
52.877295
40
1.0123545
50
80.2218701
51
81.8670207
0
ARC
8
DEFAULT_255_2_778
10
6.1564951
20
55.6242694
40
1.0002862
50
181.671377
51
261.8574064
0
ARC
8
DEFAULT_255_2_778
10
6.1684047
20
55.6241457
40
1.0121872
50
179.9987651
51
181.6447123
0
ARC
8
DEFAULT_255_2_778
10
84.9556561
20
30.1719238
40
2.0004614
50
0.0041162
51
47.7144854
0
LINE
8
DEFAULT_255_2_778
10
2.0249174
20
23.7561675
11
2.6562174
21
23.7561675
0
LINE
8
DEFAULT_255_2_778
10
2.6562174
20
23.7561675
11
3.6164174
21
0.7146675
0
LINE
8
DEFAULT_255_2_778
10
4.6154174
20
-0.2436325
11
5.1562174
21
-0.2436325
0
LINE
8
DEFAULT_255_2_778
10
5.1562174
20
-0.2436325
11
5.1562174
21
34.1383675
0
LINE
8
DEFAULT_255_2_778
10
5.7090174
20
35.0329675
11
6.6035174
21
35.4800675
0
LINE
8
DEFAULT_255_2_778
10
7.1562174
20
36.3746675
11
7.1562174
21
53.1386675
0
LINE
8
DEFAULT_255_2_778
10
6.6035174
20
54.0332675
11
5.7090174
21
54.4803675
0
LINE
8
DEFAULT_255_2_778
10
5.1562174
20
55.3749675
11
5.1562174
21
89.7564675
0
LINE
8
DEFAULT_255_2_778
10
5.1562174
20
89.7564675
11
4.6154174
21
89.7564675
0
LINE
8
DEFAULT_255_2_778
10
3.6164174
20
88.7981675
11
2.6562174
21
65.7563675
0
LINE
8
DEFAULT_255_2_778
10
2.6562174
20
65.7563675
11
2.0246174
21
65.7563675
0
LINE
8
DEFAULT_255_2_778
10
1.5460174
20
65.4012675
11
1.5463174
21
65.4012675
0
LINE
8
DEFAULT_255_2_778
10
83.9063174
20
57.2563675
11
83.1562174
21
55.7564675
0
LINE
8
DEFAULT_255_2_778
10
83.1562174
20
58.7565675
11
83.1562174
21
58.7565675
0
LINE
8
DEFAULT_255_2_778
10
84.2561174
20
62.4564675
11
84.4561174
21
61.2565675
0
LINE
8
DEFAULT_255_2_778
10
84.4561174
20
61.2565675
11
85.1562174
21
60.4564675
0
LINE
8
DEFAULT_255_2_778
10
85.1562174
20
60.4564675
11
86.6561174
21
60.4564675
0
LINE
8
DEFAULT_255_2_778
10
87.1562174
20
60.9565675
11
87.1562174
21
62.4564675
0
LINE
8
DEFAULT_255_2_778
10
6.0148174
20
34.8792675
11
11.2978174
21
35.6338675
0
LINE
8
DEFAULT_255_2_778
10
12.1563174
20
36.6238675
11
12.1563174
21
52.8894675
0
LINE
8
DEFAULT_255_2_778
10
11.2978174
20
53.8794675
11
6.0148174
21
54.6340675
0
LINE
8
DEFAULT_255_2_778
10
5.1562174
20
55.6241675
11
5.1562174
21
89.7564675
0
LINE
8
DEFAULT_255_2_778
10
5.1562174
20
89.7564675
11
87.1562174
21
89.7564675
0
LINE
8
DEFAULT_255_2_778
10
87.1562174
20
89.7564675
11
87.1562174
21
62.4564675
0
LINE
8
DEFAULT_255_2_778
10
87.1562174
20
62.4564675
11
83.1562174
21
62.4564675
0
LINE
8
DEFAULT_255_2_778
10
83.1562174
20
62.4564675
11
83.1562174
21
27.0565675
0
LINE
8
DEFAULT_255_2_778
10
83.1562174
20
27.0565675
11
84.6561174
21
27.0565675
0
LINE
8
DEFAULT_255_2_778
10
84.6561174
20
27.0565675
11
87.1562174
21
25.0565675
0
LINE
8
DEFAULT_255_2_778
10
87.1562174
20
25.0565675
11
87.1562174
21
-0.2434325
0
LINE
8
DEFAULT_255_2_778
10
87.1562174
20
-0.2434325
11
5.1562174
21
-0.2434325
0
LINE
8
DEFAULT_255_2_778
10
5.1562174
20
-0.2434325
11
5.1562174
21
33.8891675
0
LINE
8
DEFAULT_255_2_778
10
85.0562174
20
26.7364675
11
85.0562174
21
31.0565675
0
LINE
8
DEFAULT_255_2_778
10
85.0562174
20
31.0565675
11
83.1562174
21
31.0565675
0
LINE
8
DEFAULT_255_2_778
10
86.9561174
20
25.2166675
11
86.9561174
21
30.1720675
0
LINE
8
DEFAULT_255_2_778
10
86.3016174
20
31.6518675
11
84.7561174
21
33.0567675
0
LINE
8
DEFAULT_255_2_778
10
84.7561174
20
33.0567675
11
84.3561174
21
33.0567675
0
LINE
8
DEFAULT_255_2_778
10
84.3561174
20
33.0567675
11
84.1561174
21
31.5568675
0
LINE
8
DEFAULT_255_2_778
10
84.1561174
20
31.5568675
11
83.1562174
21
31.5568675
0
ENDSEC
0
EOF