0
SECTION
2
HEADER
9
$MEASUREMENT
70
1
0
ENDSEC
0
SECTION
2
TABLES
0
TABLE
2
LTYPE
0
LTYPE
72
65
70
64
2
CONTINUOUS
3
______
73
0
40
0
0
ENDTAB
0
TABLE
2
LAYER
0
LAYER
2
DEFAULT_255_2_778
70
0
62
255
6
CONTINUOUS
0
ENDTAB
0
ENDSEC
0
SECTION
2
ENTITIES
0
ARC
8
DEFAULT_255_2_778
10
19.1960496
20
49.2563955
40
1.0001678
50
179.9990367
51
224.9965718
0
ARC
8
DEFAULT_255_2_778
10
19.1959347
20
49.2564073
40
1.000095
50
225.0017048
51
270.0026977
0
ARC
8
DEFAULT_255_2_778
10
22.1973263
20
49.2526686
40
0.9963573
50
269.9169325
51
311.6421289
0
ARC
8
DEFAULT_255_2_778
10
22.1983682
20
49.255238
40
0.9975883
50
311.4993517
51
358.269997
0
ARC
8
DEFAULT_255_2_778
10
22.1768811
20
49.2564025
40
1.0191008
50
358.2410303
51
0.000554
0
ARC
8
DEFAULT_255_2_778
10
22.1996602
20
49.2578314
40
0.9963226
50
359.9183951
51
41.6458612
0
ARC
8
DEFAULT_255_2_778
10
22.1969982
20
49.2588509
40
0.9976376
50
41.5005114
51
88.267068
0
ARC
8
DEFAULT_255_2_778
10
22.1958915
20
49.2377531
40
1.0187592
50
88.2407388
51
90.0005446
0
ARC
8
DEFAULT_255_2_778
10
19.1961092
20
49.2559967
40
1.0005157
50
90.0072954
51
134.9883267
0
ARC
8
DEFAULT_255_2_778
10
19.1963979
20
49.2562849
40
1.0005162
50
135.0116873
51
179.9926997
0
ARC
8
DEFAULT_255_2_778
10
2.1957787
20
87.7564154
40
0.5000969
50
89.9996485
51
180.0003515
0
ARC
8
DEFAULT_255_2_778
10
41.1958063
20
87.7564369
40
0.5000755
50
359.9971846
51
89.9913517
0
ARC
8
DEFAULT_255_2_778
10
41.1958275
20
1.7565665
40
0.5000542
50
270.0062229
51
359.9937886
0
ARC
8
DEFAULT_255_2_778
10
2.1957576
20
1.7565881
40
0.5000758
50
180.008676
51
270.0027763
0
ARC
8
DEFAULT_255_2_778
10
22.192221
20
34.2578682
40
0.9962403
50
138.3561595
51
180.0837306
0
ARC
8
DEFAULT_255_2_778
10
22.1948129
20
34.2588775
40
0.9975096
50
91.7301295
51
138.4984071
0
ARC
8
DEFAULT_255_2_778
10
22.1959721
20
34.2376567
40
1.0187558
50
89.9994546
51
91.7592604
0
ARC
8
DEFAULT_255_2_778
10
22.1974377
20
34.2601731
40
0.9962403
50
48.3561595
51
90.0837306
0
ARC
8
DEFAULT_255_2_778
10
22.1984469
20
34.2575812
40
0.9975096
50
1.7301295
51
48.4984071
0
ARC
8
DEFAULT_255_2_778
10
22.1772262
20
34.256422
40
1.0187558
50
359.9994546
51
1.7592604
0
ARC
8
DEFAULT_255_2_778
10
22.1997426
20
34.2549565
40
0.9962403
50
318.3561595
51
0.0837306
0
ARC
8
DEFAULT_255_2_778
10
22.1971507
20
34.2539472
40
0.9975096
50
271.7301295
51
318.4984071
0
ARC
8
DEFAULT_255_2_778
10
22.1959915
20
34.275168
40
1.0187558
50
269.9994546
51
271.7592604
0
ARC
8
DEFAULT_255_2_778
10
22.1945259
20
34.2526516
40
0.9962403
50
228.3561595
51
270.0837306
0
ARC
8
DEFAULT_255_2_778
10
22.1935167
20
34.2552434
40
0.9975096
50
181.7301295
51
228.4984071
0
ARC
8
DEFAULT_255_2_778
10
22.2147374
20
34.2564026
40
1.0187558
50
179.9994546
51
181.7592604
0
ARC
8
DEFAULT_255_2_778
10
22.192221
20
39.2579682
40
0.9962403
50
138.3561595
51
180.0837306
0
ARC
8
DEFAULT_255_2_778
10
22.1948129
20
39.2589775
40
0.9975096
50
91.7301295
51
138.4984071
0
ARC
8
DEFAULT_255_2_778
10
22.1959721
20
39.2377567
40
1.0187558
50
89.9994546
51
91.7592604
0
ARC
8
DEFAULT_255_2_778
10
22.1974377
20
39.2602731
40
0.9962403
50
48.3561595
51
90.0837306
0
ARC
8
DEFAULT_255_2_778
10
22.1984469
20
39.2576812
40
0.9975096
50
1.7301295
51
48.4984071
0
ARC
8
DEFAULT_255_2_778
10
22.1772262
20
39.256522
40
1.0187558
50
359.9994546
51
1.7592604
0
ARC
8
DEFAULT_255_2_778
10
22.1997426
20
39.2550565
40
0.9962403
50
318.3561595
51
0.0837306
0
ARC
8
DEFAULT_255_2_778
10
22.1971507
20
39.2540472
40
0.9975096
50
271.7301295
51
318.4984071
0
ARC
8
DEFAULT_255_2_778
10
22.1959915
20
39.275268
40
1.0187558
50
269.9994546
51
271.7592604
0
ARC
8
DEFAULT_255_2_778
10
22.1945259
20
39.2527516
40
0.9962403
50
228.3561595
51
270.0837306
0
ARC
8
DEFAULT_255_2_778
10
22.1935167
20
39.2553434
40
0.9975096
50
181.7301295
51
228.4984071
0
ARC
8
DEFAULT_255_2_778
10
22.2147374
20
39.2565026
40
1.0187558
50
179.9994546
51
181.7592604
0
ARC
8
DEFAULT_255_2_778
10
19.192121
20
34.2578682
40
0.9962403
50
138.3561595
51
180.0837306
0
ARC
8
DEFAULT_255_2_778
10
19.1947129
20
34.2588775
40
0.9975096
50
91.7301295
51
138.4984071
0
ARC
8
DEFAULT_255_2_778
10
19.1958721
20
34.2376567
40
1.0187558
50
89.9994546
51
91.7592604
0
ARC
8
DEFAULT_255_2_778
10
19.1973377
20
34.2601731
40
0.9962403
50
48.3561595
51
90.0837306
0
ARC
8
DEFAULT_255_2_778
10
19.1983469
20
34.2575812
40
0.9975096
50
1.7301295
51
48.4984071
0
ARC
8
DEFAULT_255_2_778
10
19.1771262
20
34.256422
40
1.0187558
50
359.9994546
51
1.7592604
0
ARC
8
DEFAULT_255_2_778
10
19.1996426
20
34.2549565
40
0.9962403
50
318.3561595
51
0.0837306
0
ARC
8
DEFAULT_255_2_778
10
19.1970507
20
34.2539472
40
0.9975096
50
271.7301295
51
318.4984071
0
ARC
8
DEFAULT_255_2_778
10
19.1958915
20
34.275168
40
1.0187558
50
269.9994546
51
271.7592604
0
ARC
8
DEFAULT_255_2_778
10
19.1944259
20
34.2526516
40
0.9962403
50
228.3561595
51
270.0837306
0
ARC
8
DEFAULT_255_2_778
10
19.1934167
20
34.2552434
40
0.9975096
50
181.7301295
51
228.4984071
0
ARC
8
DEFAULT_255_2_778
10
19.2146374
20
34.2564026
40
1.0187558
50
179.9994546
51
181.7592604
0
ARC
8
DEFAULT_255_2_778
10
19.192121
20
39.2579682
40
0.9962403
50
138.3561595
51
180.0837306
0
ARC
8
DEFAULT_255_2_778
10
19.1947129
20
39.2589775
40
0.9975096
50
91.7301295
51
138.4984071
0
ARC
8
DEFAULT_255_2_778
10
19.1958721
20
39.2377567
40
1.0187558
50
89.9994546
51
91.7592604
0
ARC
8
DEFAULT_255_2_778
10
19.1973377
20
39.2602731
40
0.9962403
50
48.3561595
51
90.0837306
0
ARC
8
DEFAULT_255_2_778
10
19.1983469
20
39.2576812
40
0.9975096
50
1.7301295
51
48.4984071
0
ARC
8
DEFAULT_255_2_778
10
19.1771262
20
39.256522
40
1.0187558
50
359.9994546
51
1.7592604
0
ARC
8
DEFAULT_255_2_778
10
19.1996426
20
39.2550565
40
0.9962403
50
318.3561595
51
0.0837306
0
ARC
8
DEFAULT_255_2_778
10
19.1970507
20
39.2540472
40
0.9975096
50
271.7301295
51
318.4984071
0
ARC
8
DEFAULT_255_2_778
10
19.1958915
20
39.275268
40
1.0187558
50
269.9994546
51
271.7592604
0
ARC
8
DEFAULT_255_2_778
10
19.1944259
20
39.2527516
40
0.9962403
50
228.3561595
51
270.0837306
0
ARC
8
DEFAULT_255_2_778
10
19.1934167
20
39.2553434
40
0.9975096
50
181.7301295
51
228.4984071
0
ARC
8
DEFAULT_255_2_778
10
19.2146374
20
39.2565026
40
1.0187558
50
179.9994546
51
181.7592604
0
ARC
8
DEFAULT_255_2_778
10
28.191921
20
34.2578682
40
0.9962403
50
138.3561595
51
180.0837306
0
ARC
8
DEFAULT_255_2_778
10
28.1945129
20
34.2588775
40
0.9975096
50
91.7301295
51
138.4984071
0
ARC
8
DEFAULT_255_2_778
10
28.1956721
20
34.2376567
40
1.0187558
50
89.9994546
51
91.7592604
0
ARC
8
DEFAULT_255_2_778
10
28.1971377
20
34.2601731
40
0.9962403
50
48.3561595
51
90.0837306
0
ARC
8
DEFAULT_255_2_778
10
28.1981469
20
34.2575812
40
0.9975096
50
1.7301295
51
48.4984071
0
ARC
8
DEFAULT_255_2_778
10
28.1769262
20
34.256422
40
1.0187558
50
359.9994546
51
1.7592604
0
ARC
8
DEFAULT_255_2_778
10
28.1994426
20
34.2549565
40
0.9962403
50
318.3561595
51
0.0837306
0
ARC
8
DEFAULT_255_2_778
10
28.1968507
20
34.2539472
40
0.9975096
50
271.7301295
51
318.4984071
0
ARC
8
DEFAULT_255_2_778
10
28.1956915
20
34.275168
40
1.0187558
50
269.9994546
51
271.7592604
0
ARC
8
DEFAULT_255_2_778
10
28.1942259
20
34.2526516
40
0.9962403
50
228.3561595
51
270.0837306
0
ARC
8
DEFAULT_255_2_778
10
28.1932167
20
34.2552434
40
0.9975096
50
181.7301295
51
228.4984071
0
ARC
8
DEFAULT_255_2_778
10
28.2144374
20
34.2564026
40
1.0187558
50
179.9994546
51
181.7592604
0
ARC
8
DEFAULT_255_2_778
10
28.191921
20
39.2579682
40
0.9962403
50
138.3561595
51
180.0837306
0
ARC
8
DEFAULT_255_2_778
10
28.1945129
20
39.2589775
40
0.9975096
50
91.7301295
51
138.4984071
0
ARC
8
DEFAULT_255_2_778
10
28.1956721
20
39.2377567
40
1.0187558
50
89.9994546
51
91.7592604
0
ARC
8
DEFAULT_255_2_778
10
28.1971377
20
39.2602731
40
0.9962403
50
48.3561595
51
90.0837306
0
ARC
8
DEFAULT_255_2_778
10
28.1981469
20
39.2576812
40
0.9975096
50
1.7301295
51
48.4984071
0
ARC
8
DEFAULT_255_2_778
10
28.1769262
20
39.256522
40
1.0187558
50
359.9994546
51
1.7592604
0
ARC
8
DEFAULT_255_2_778
10
28.1994426
20
39.2550565
40
0.9962403
50
318.3561595
51
0.0837306
0
ARC
8
DEFAULT_255_2_778
10
28.1968507
20
39.2540472
40
0.9975096
50
271.7301295
51
318.4984071
0
ARC
8
DEFAULT_255_2_778
10
28.1956915
20
39.275268
40
1.0187558
50
269.9994546
51
271.7592604
0
ARC
8
DEFAULT_255_2_778
10
28.1942259
20
39.2527516
40
0.9962403
50
228.3561595
51
270.0837306
0
ARC
8
DEFAULT_255_2_778
10
28.1932167
20
39.2553434
40
0.9975096
50
181.7301295
51
228.4984071
0
ARC
8
DEFAULT_255_2_778
10
28.2144374
20
39.2565026
40
1.0187558
50
179.9994546
51
181.7592604
0
ARC
8
DEFAULT_255_2_778
10
25.192121
20
39.2576682
40
0.9962403
50
138.3561595
51
180.0837306
0
ARC
8
DEFAULT_255_2_778
10
25.1947129
20
39.2586775
40
0.9975096
50
91.7301295
51
138.4984071
0
ARC
8
DEFAULT_255_2_778
10
25.1958721
20
39.2374567
40
1.0187558
50
89.9994546
51
91.7592604
0
ARC
8
DEFAULT_255_2_778
10
25.1972965
20
39.2599704
40
0.996243
50
48.3562194
51
90.0813599
0
ARC
8
DEFAULT_255_2_778
10
25.1983442
20
39.2573431
40
0.9975133
50
1.7323109
51
48.5014663
0
ARC
8
DEFAULT_255_2_778
10
25.1771261
20
39.256222
40
1.0187558
50
359.9994546
51
1.7592604
0
ARC
8
DEFAULT_255_2_778
10
25.1996785
20
39.2547812
40
0.9962043
50
318.3524118
51
0.0823122
0
ARC
8
DEFAULT_255_2_778
10
25.1969928
20
39.253795
40
0.9975589
50
271.7330587
51
318.4972473
0
ARC
8
DEFAULT_255_2_778
10
25.1958915
20
39.2746069
40
1.0183948
50
269.9994555
51
271.7595773
0
ARC
8
DEFAULT_255_2_778
10
25.1944259
20
39.2524516
40
0.9962403
50
228.3561595
51
270.0837306
0
ARC
8
DEFAULT_255_2_778
10
25.1934167
20
39.2550434
40
0.9975096
50
181.7301295
51
228.4984071
0
ARC
8
DEFAULT_255_2_778
10
25.2146374
20
39.2562026
40
1.0187558
50
179.9994546
51
181.7592604
0
ARC
8
DEFAULT_255_2_778
10
25.192121
20
34.2575682
40
0.9962403
50
138.3561595
51
180.0837306
0
ARC
8
DEFAULT_255_2_778
10
25.1947129
20
34.2585775
40
0.9975096
50
91.7301295
51
138.4984071
0
ARC
8
DEFAULT_255_2_778
10
25.1958721
20
34.2373567
40
1.0187558
50
89.9994546
51
91.7592604
0
ARC
8
DEFAULT_255_2_778
10
25.1972965
20
34.2598704
40
0.996243
50
48.3562194
51
90.0813599
0
ARC
8
DEFAULT_255_2_778
10
25.1983442
20
34.2572431
40
0.9975133
50
1.7323109
51
48.5014663
0
ARC
8
DEFAULT_255_2_778
10
25.1771261
20
34.256122
40
1.0187558
50
359.9994546
51
1.7592604
0
ARC
8
DEFAULT_255_2_778
10
25.1996785
20
34.2546812
40
0.9962043
50
318.3524118
51
0.0823122
0
ARC
8
DEFAULT_255_2_778
10
25.1969928
20
34.253695
40
0.9975589
50
271.7330587
51
318.4972473
0
ARC
8
DEFAULT_255_2_778
10
25.1958915
20
34.2745069
40
1.0183948
50
269.9994555
51
271.7595773
0
ARC
8
DEFAULT_255_2_778
10
25.1944259
20
34.2523516
40
0.9962403
50
228.3561595
51
270.0837306
0
ARC
8
DEFAULT_255_2_778
10
25.1934167
20
34.2549434
40
0.9975096
50
181.7301295
51
228.4984071
0
ARC
8
DEFAULT_255_2_778
10
25.2146374
20
34.2561026
40
1.0187558
50
179.9994546
51
181.7592604
0
ARC
8
DEFAULT_255_2_778
10
25.2040738
20
49.0950666
40
0.6419793
50
69.6830063
51
91.1685228
0
ARC
8
DEFAULT_255_2_778
10
25.274273
20
49.3019471
40
0.4236379
50
48.2108209
51
68.8715076
0
ARC
8
DEFAULT_255_2_778
10
25.2853723
20
49.318601
40
0.4038341
50
357.7025389
51
47.8103773
0
ARC
8
DEFAULT_255_2_778
10
25.2409816
20
49.2885714
40
0.448114
50
331.0860596
51
1.7699848
0
ARC
8
DEFAULT_255_2_778
10
25.3306512
20
49.2497063
40
0.350955
50
310.6942613
51
329.5619682
0
ARC
8
DEFAULT_255_2_778
10
25.2663963
20
49.3397529
40
0.4612323
50
278.162635
51
309.4526344
0
ARC
8
DEFAULT_255_2_778
10
25.1938839
20
49.7056857
40
0.833989
50
269.6494784
51
279.5245101
0
ARC
8
DEFAULT_255_2_778
10
25.2037368
20
49.4237953
40
0.3990868
50
268.1684859
51
293.9923651
0
ARC
8
DEFAULT_255_2_778
10
25.2603913
20
49.2790479
40
0.2439124
50
295.6596943
51
311.3024971
0
ARC
8
DEFAULT_255_2_778
10
25.2467434
20
49.281589
40
0.2549736
50
313.2298871
51
2.3454318
0
ARC
8
DEFAULT_255_2_778
10
25.0665785
20
49.3002822
40
0.4350034
50
358.9121651
51
0.0039725
0
ARC
8
DEFAULT_255_2_778
10
25.2347032
20
49.3124062
40
0.2671525
50
357.405358
51
45.6714578
0
ARC
8
DEFAULT_255_2_778
10
25.2151582
20
49.2725422
40
0.3096375
50
48.2396655
51
90.0809974
0
ARC
8
DEFAULT_255_2_778
10
25.1913126
20
49.0762512
40
0.5064694
50
87.3509786
51
88.8155616
0
ARC
8
DEFAULT_255_2_778
10
26.0817144
20
48.9670339
40
0.9402556
50
342.5936411
51
0.7847912
0
ARC
8
DEFAULT_255_2_778
10
26.304513
20
48.9065567
40
0.7096245
50
335.7421843
51
341.8716592
0
ARC
8
DEFAULT_255_2_778
10
26.4608708
20
48.8236539
40
0.5331327
50
303.134157
51
336.9614591
0
ARC
8
DEFAULT_255_2_778
10
26.4635769
20
48.8435406
40
0.5484638
50
268.7259282
51
301.7617512
0
ARC
8
DEFAULT_255_2_778
10
26.4415482
20
48.8387989
40
0.5436755
50
238.0046905
51
271.0363843
0
ARC
8
DEFAULT_255_2_778
10
26.4497935
20
48.8354102
40
0.5452412
50
204.0492753
51
237.0811455
0
ARC
8
DEFAULT_255_2_778
10
26.7032919
20
48.9526408
40
0.8245173
50
181.5783963
51
204.3097433
0
ARC
8
DEFAULT_255_2_778
10
26.9948073
20
48.9786722
40
1.1167842
50
180.5879504
51
182.5014915
0
ARC
8
DEFAULT_255_2_778
10
26.7776013
20
49.0834993
40
0.8996221
50
160.1134994
51
180.8653694
0
ARC
8
DEFAULT_255_2_778
10
26.6027568
20
49.1363012
40
0.7173101
50
155.6449727
51
159.3289721
0
ARC
8
DEFAULT_255_2_778
10
26.4483376
20
49.2189004
40
0.5426933
50
123.2374676
51
156.8663372
0
ARC
8
DEFAULT_255_2_778
10
26.4398785
20
49.2162712
40
0.540323
50
89.0028257
51
122.3343635
0
ARC
8
DEFAULT_255_2_778
10
26.4602056
20
49.2051816
40
0.5514389
50
58.2131744
51
91.1350854
0
ARC
8
DEFAULT_255_2_778
10
26.462625
20
49.2288294
40
0.5301655
50
22.8510624
51
57.0891353
0
ARC
8
DEFAULT_255_2_778
10
26.1724725
20
49.0982409
40
0.8482931
50
1.6543841
51
23.3686259
0
ARC
8
DEFAULT_255_2_778
10
25.8474384
20
49.0703308
40
1.1741435
50
359.9795803
51
2.5578947
0
ARC
8
DEFAULT_255_2_778
10
25.949222
20
49.0844844
40
0.8861475
50
359.1935652
51
13.775174
0
ARC
8
DEFAULT_255_2_778
10
26.3549438
20
49.1848579
40
0.468196
50
13.6675985
51
36.0084274
0
ARC
8
DEFAULT_255_2_778
10
26.4645279
20
49.2606248
40
0.3350211
50
36.5445531
51
92.5569423
0
ARC
8
DEFAULT_255_2_778
10
26.4369832
20
49.2644564
40
0.3310957
50
87.8192918
51
143.7766357
0
ARC
8
DEFAULT_255_2_778
10
26.5908931
20
49.1572813
40
0.5186108
50
144.2727494
51
171.465347
0
ARC
8
DEFAULT_255_2_778
10
26.9894661
20
49.0787895
40
0.9246033
50
170.3206396
51
179.6329729
0
ARC
8
DEFAULT_255_2_778
10
26.8945053
20
48.9675835
40
0.8297196
50
179.1278888
51
195.4537299
0
ARC
8
DEFAULT_255_2_778
10
26.5620334
20
48.8781412
40
0.485441
50
195.7348672
51
215.6933307
0
ARC
8
DEFAULT_255_2_778
10
26.4391581
20
48.7869225
40
0.332435
50
215.2810166
51
272.1072447
0
ARC
8
DEFAULT_255_2_778
10
26.4674941
20
48.785658
40
0.3313376
50
267.2127238
51
323.1640173
0
ARC
8
DEFAULT_255_2_778
10
26.3253058
20
48.8778472
40
0.5005398
50
324.4761089
51
350.3625036
0
ARC
8
DEFAULT_255_2_778
10
25.8783416
20
48.9710499
40
0.9569514
50
349.3410566
51
359.7223335
0
ARC
8
DEFAULT_255_2_778
10
30.6971991
20
49.0006076
40
0.7364146
50
73.3893949
51
90.9895029
0
ARC
8
DEFAULT_255_2_778
10
30.7846572
20
49.3018835
40
0.4227161
50
50.4043617
51
73.075476
0
ARC
8
DEFAULT_255_2_778
10
30.8078547
20
49.3462923
40
0.3738566
50
2.1019532
51
48.8057597
0
ARC
8
DEFAULT_255_2_778
10
30.5653917
20
49.3100469
40
0.6180904
50
359.9319058
51
4.6360299
0
ARC
8
DEFAULT_255_2_778
10
30.8002198
20
49.3011625
40
0.3833487
50
324.3643093
51
1.2181745
0
ARC
8
DEFAULT_255_2_778
10
30.7693746
20
49.3328298
40
0.4269386
50
289.5131267
51
323.3220658
0
ARC
8
DEFAULT_255_2_778
10
30.7037889
20
49.387006
40
0.3435672
50
267.7134972
51
302.1333115
0
ARC
8
DEFAULT_255_2_778
10
30.7406159
20
49.3120664
40
0.2606639
50
304.0402971
51
311.1910646
0
ARC
8
DEFAULT_255_2_778
10
30.7511219
20
49.2990818
40
0.2439745
50
311.3426298
51
2.4032855
0
ARC
8
DEFAULT_255_2_778
10
30.7299403
20
49.3238578
40
0.2653405
50
356.8575673
51
40.5896985
0
ARC
8
DEFAULT_255_2_778
10
30.7686375
20
49.3462253
40
0.2215525
50
42.7087864
51
48.2096318
0
ARC
8
DEFAULT_255_2_778
10
30.7254249
20
49.2816948
40
0.2986578
50
50.2790798
51
86.7267052
0
ARC
8
DEFAULT_255_2_778
10
30.6874433
20
49.0305591
40
0.5520564
50
84.2786676
51
89.8091852
0
LINE
8
DEFAULT_255_2_778
10
19.1959818
20
48.2563123
11
22.1958818
21
48.2563123
0
LINE
8
DEFAULT_255_2_778
10
22.1958818
20
50.2565123
11
19.1959818
21
50.2565123
0
LINE
8
DEFAULT_255_2_778
10
21.1959818
20
34.2564123
11
21.1959818
21
34.2564123
0
LINE
8
DEFAULT_255_2_778
10
21.1959818
20
39.2565123
11
21.1959818
21
39.2565123
0
LINE
8
DEFAULT_255_2_778
10
18.1958818
20
34.2564123
11
18.1958818
21
34.2564123
0
LINE
8
DEFAULT_255_2_778
10
18.1958818
20
39.2565123
11
18.1958818
21
39.2565123
0
LINE
8
DEFAULT_255_2_778
10
27.1956818
20
34.2564123
11
27.1956818
21
34.2564123
0
LINE
8
DEFAULT_255_2_778
10
27.1956818
20
39.2565123
11
27.1956818
21
39.2565123
0
LINE
8
DEFAULT_255_2_778
10
24.1958818
20
39.2562123
11
24.1958818
21
39.2562123
0
LINE
8
DEFAULT_255_2_778
10
24.1958818
20
34.2561123
11
24.1958818
21
34.2561123
0
LINE
8
DEFAULT_255_2_778
10
25.1890818
20
48.8717123
11
24.8540818
21
48.8717123
0
LINE
8
DEFAULT_255_2_778
10
24.8540818
20
48.8717123
11
24.8540818
21
48.3150123
0
LINE
8
DEFAULT_255_2_778
10
24.8540818
20
48.3150123
11
24.6665818
21
48.3150123
0
LINE
8
DEFAULT_255_2_778
10
24.6665818
20
48.3150123
11
24.6665818
21
49.7369123
0
LINE
8
DEFAULT_255_2_778
10
24.6665818
20
49.7369123
11
25.1909818
21
49.7369123
0
LINE
8
DEFAULT_255_2_778
10
25.1887818
20
48.8717123
11
25.1890818
21
48.8717123
0
LINE
8
DEFAULT_255_2_778
10
24.8540818
20
49.5826123
11
24.8540818
21
49.0249123
0
LINE
8
DEFAULT_255_2_778
10
24.8540818
20
49.0249123
11
25.1909818
21
49.0249123
0
LINE
8
DEFAULT_255_2_778
10
25.2017818
20
49.5826123
11
24.8540818
21
49.5826123
0
LINE
8
DEFAULT_255_2_778
10
24.8540818
20
49.5826123
11
24.8540818
21
49.5826123
0
LINE
8
DEFAULT_255_2_778
10
27.0218818
20
49.0699123
11
27.0218818
21
48.9799123
0
LINE
8
DEFAULT_255_2_778
10
25.8780818
20
48.9672123
11
25.8780818
21
49.0699123
0
LINE
8
DEFAULT_255_2_778
10
27.0215818
20
49.0699123
11
27.0218818
21
49.0699123
0
LINE
8
DEFAULT_255_2_778
10
26.8352818
20
48.9664123
11
26.8352818
21
49.0720123
0
LINE
8
DEFAULT_255_2_778
10
26.0648818
20
49.0847123
11
26.0648818
21
48.9802123
0
LINE
8
DEFAULT_255_2_778
10
26.8352818
20
48.9664123
11
26.8352818
21
48.9664123
0
LINE
8
DEFAULT_255_2_778
10
27.3853818
20
49.7369123
11
27.6099818
21
48.7632123
0
LINE
8
DEFAULT_255_2_778
10
27.6099818
20
48.7632123
11
27.6372818
21
48.5756123
0
LINE
8
DEFAULT_255_2_778
10
27.6372818
20
48.5756123
11
27.6772818
21
48.7447123
0
LINE
8
DEFAULT_255_2_778
10
27.6772818
20
48.7447123
11
27.9584818
21
49.7369123
0
LINE
8
DEFAULT_255_2_778
10
27.9584818
20
49.7369123
11
28.1166818
21
49.7369123
0
LINE
8
DEFAULT_255_2_778
10
28.1166818
20
49.7369123
11
28.3910818
21
48.7447123
0
LINE
8
DEFAULT_255_2_778
10
28.3910818
20
48.7447123
11
28.4302818
21
48.5727123
0
LINE
8
DEFAULT_255_2_778
10
28.4302818
20
48.5727123
11
28.4603818
21
48.7640123
0
LINE
8
DEFAULT_255_2_778
10
28.4603818
20
48.7640123
11
28.6810818
21
49.7366123
0
LINE
8
DEFAULT_255_2_778
10
28.6810818
20
49.7366123
11
28.8694818
21
49.7366123
0
LINE
8
DEFAULT_255_2_778
10
28.8694818
20
49.7366123
11
28.5246818
21
48.3147123
0
LINE
8
DEFAULT_255_2_778
10
28.5246818
20
48.3147123
11
28.3537818
21
48.3147123
0
LINE
8
DEFAULT_255_2_778
10
28.3537818
20
48.3147123
11
28.0608818
21
49.3508123
0
LINE
8
DEFAULT_255_2_778
10
28.0608818
20
49.3508123
11
28.0383818
21
49.4593123
0
LINE
8
DEFAULT_255_2_778
10
28.0383818
20
49.4593123
11
28.0158818
21
49.3508123
0
LINE
8
DEFAULT_255_2_778
10
28.0158818
20
49.3508123
11
27.7121818
21
48.3147123
0
LINE
8
DEFAULT_255_2_778
10
27.7121818
20
48.3147123
11
27.5412818
21
48.3147123
0
LINE
8
DEFAULT_255_2_778
10
27.5412818
20
48.3147123
11
27.1975818
21
49.7366123
0
LINE
8
DEFAULT_255_2_778
10
27.1975818
20
49.7366123
11
27.3851818
21
49.7366123
0
LINE
8
DEFAULT_255_2_778
10
27.3851818
20
49.7366123
11
27.3853818
21
49.7369123
0
LINE
8
DEFAULT_255_2_778
10
29.8814818
20
49.1254123
11
29.8814818
21
48.9722123
0
LINE
8
DEFAULT_255_2_778
10
29.8814818
20
48.9722123
11
29.2652818
21
48.9722123
0
LINE
8
DEFAULT_255_2_778
10
29.2652818
20
48.9722123
11
29.2652818
21
48.4682123
0
LINE
8
DEFAULT_255_2_778
10
29.2652818
20
48.4682123
11
29.9809818
21
48.4682123
0
LINE
8
DEFAULT_255_2_778
10
29.9809818
20
48.4682123
11
29.9809818
21
48.3150123
0
LINE
8
DEFAULT_255_2_778
10
29.9809818
20
48.3150123
11
29.0776818
21
48.3150123
0
LINE
8
DEFAULT_255_2_778
10
29.0776818
20
48.3150123
11
29.0776818
21
49.7369123
0
LINE
8
DEFAULT_255_2_778
10
29.0776818
20
49.7369123
11
29.9711818
21
49.7369123
0
LINE
8
DEFAULT_255_2_778
10
29.9711818
20
49.7369123
11
29.9711818
21
49.5826123
0
LINE
8
DEFAULT_255_2_778
10
29.9711818
20
49.5826123
11
29.2649818
21
49.5826123
0
LINE
8
DEFAULT_255_2_778
10
29.2649818
20
49.5826123
11
29.2649818
21
49.1257123
0
LINE
8
DEFAULT_255_2_778
10
29.2649818
20
49.1257123
11
29.8811818
21
49.1257123
0
LINE
8
DEFAULT_255_2_778
10
29.8811818
20
49.1257123
11
29.8814818
21
49.1254123
0
LINE
8
DEFAULT_255_2_778
10
31.0445818
20
48.3150123
11
30.7360818
21
48.8902123
0
LINE
8
DEFAULT_255_2_778
10
30.7360818
20
48.8902123
11
30.4021818
21
48.8902123
0
LINE
8
DEFAULT_255_2_778
10
30.4021818
20
48.8902123
11
30.4021818
21
48.3150123
0
LINE
8
DEFAULT_255_2_778
10
30.4021818
20
48.3150123
11
30.2137818
21
48.3150123
0
LINE
8
DEFAULT_255_2_778
10
30.2137818
20
48.3150123
11
30.2137818
21
49.7369123
0
LINE
8
DEFAULT_255_2_778
10
30.2137818
20
49.7369123
11
30.6844818
21
49.7369123
0
LINE
8
DEFAULT_255_2_778
10
30.9119818
20
48.9304123
11
31.2459818
21
48.3269123
0
LINE
8
DEFAULT_255_2_778
10
31.2459818
20
48.3269123
11
31.2459818
21
48.3153123
0
LINE
8
DEFAULT_255_2_778
10
31.2459818
20
48.3153123
11
31.0448818
21
48.3153123
0
LINE
8
DEFAULT_255_2_778
10
31.0448818
20
48.3153123
11
31.0445818
21
48.3150123
0
LINE
8
DEFAULT_255_2_778
10
30.4018818
20
49.5826123
11
30.4018818
21
49.0437123
0
LINE
8
DEFAULT_255_2_778
10
30.4018818
20
49.0437123
11
30.6900818
21
49.0437123
0
LINE
8
DEFAULT_255_2_778
10
30.6892818
20
49.5826123
11
30.4021818
21
49.5826123
0
LINE
8
DEFAULT_255_2_778
10
30.4021818
20
49.5826123
11
30.4018818
21
49.5826123
0
ARC
8
DEFAULT_255_2_778
10
12.8878788
20
57.4723121
40
0.6553698
50
311.6413023
51
332.6423892
0
ARC
8
DEFAULT_255_2_778
10
13.0730243
20
57.3945716
40
0.4554892
50
330.6247349
51
358.4614088
0
ARC
8
DEFAULT_255_2_778
10
13.106293
20
57.395783
40
0.4222701
50
358.1758942
51
27.7353956
0
ARC
8
DEFAULT_255_2_778
10
13.2112909
20
57.4413363
40
0.3082543
50
29.3239487
51
42.9685831
0
ARC
8
DEFAULT_255_2_778
10
13.2107768
20
57.4270186
40
0.3185505
50
44.790224
51
84.5950955
0
ARC
8
DEFAULT_255_2_778
10
13.1608224
20
57.1541411
40
0.5954053
50
82.2821557
51
90.2283699
0
ARC
8
DEFAULT_255_2_778
10
13.1442829
20
57.4050943
40
0.3447385
50
87.6448848
51
124.4612403
0
ARC
8
DEFAULT_255_2_778
10
13.1583478
20
57.4214718
40
0.3398347
50
127.9810883
51
165.4240916
0
ARC
8
DEFAULT_255_2_778
10
13.5028846
20
57.3096845
40
0.7017442
50
163.669818
51
175.6638683
0
ARC
8
DEFAULT_255_2_778
10
13.1257797
20
57.3609931
40
0.7766324
50
150.7855538
51
179.8710034
0
ARC
8
DEFAULT_255_2_778
10
13.0717419
20
57.3778021
40
0.7213591
50
132.1936777
51
149.8559055
0
ARC
8
DEFAULT_255_2_778
10
13.1203494
20
57.3178268
40
0.7984515
50
98.2082885
51
131.8873015
0
ARC
8
DEFAULT_255_2_778
10
13.1975157
20
56.925686
40
1.1977657
50
89.7640014
51
99.1836539
0
ARC
8
DEFAULT_255_2_778
10
13.2155517
20
57.0595508
40
1.0639715
50
74.1603172
51
90.7055981
0
ARC
8
DEFAULT_255_2_778
10
13.3131035
20
57.4059112
40
0.7041366
50
47.3300285
51
74.1041543
0
ARC
8
DEFAULT_255_2_778
10
13.3292915
20
57.4304164
40
0.6751632
50
359.3629145
51
46.9306337
0
ARC
8
DEFAULT_255_2_778
10
13.0538278
20
57.4017168
40
0.9508213
50
359.9954696
51
1.2771435
0
ARC
8
DEFAULT_255_2_778
10
13.188986
20
57.3884954
40
0.8157691
50
341.5515204
51
0.9233678
0
ARC
8
DEFAULT_255_2_778
10
13.4196722
20
57.3193333
40
0.5750994
50
328.0310621
51
340.8149201
0
ARC
8
DEFAULT_255_2_778
10
13.0061041
20
57.5970518
40
1.0731132
50
315.5633838
51
327.1430735
0
ARC
8
DEFAULT_255_2_778
10
12.2744939
20
58.2991257
40
2.0870659
50
309.103303
51
315.863065
0
ARC
8
DEFAULT_255_2_778
10
18.7075811
20
56.3154781
40
0.467336
50
52.1791237
51
91.0092949
0
ARC
8
DEFAULT_255_2_778
10
18.690899
20
56.3164258
40
0.4663924
50
88.9618474
51
127.861383
0
ARC
8
DEFAULT_255_2_778
10
18.5813623
20
56.4382231
40
0.3032319
50
125.6452819
51
180.6389429
0
ARC
8
DEFAULT_255_2_778
10
18.58189
20
56.4317274
40
0.3037568
50
179.4125777
51
234.3031975
0
ARC
8
DEFAULT_255_2_778
10
18.6911655
20
56.5540579
40
0.467188
50
232.1730699
51
271.0036997
0
ARC
8
DEFAULT_255_2_778
10
18.7078475
20
56.5534047
40
0.4665405
50
268.9562673
51
307.8553141
0
ARC
8
DEFAULT_255_2_778
10
18.8174361
20
56.4314602
40
0.3032319
50
305.6452819
51
0.6389429
0
ARC
8
DEFAULT_255_2_778
10
18.8169083
20
56.4379558
40
0.3037568
50
359.4125777
51
54.3031975
0
ARC
8
DEFAULT_255_2_778
10
18.6584783
20
57.4562072
40
0.2971589
50
226.98227
51
266.7200638
0
ARC
8
DEFAULT_255_2_778
10
18.6978622
20
57.7072143
40
0.5505742
50
264.121895
51
270.1339345
0
ARC
8
DEFAULT_255_2_778
10
18.7118465
20
57.5552643
40
0.3988249
50
268.1755789
51
294.4084792
0
ARC
8
DEFAULT_255_2_778
10
18.7683935
20
57.4140915
40
0.2469973
50
295.9965493
51
314.8369296
0
ARC
8
DEFAULT_255_2_778
10
18.7352107
20
57.4415214
40
0.2898756
50
315.6651156
51
2.3172047
0
ARC
8
DEFAULT_255_2_778
10
18.7352107
20
57.4649618
40
0.2898756
50
357.6827953
51
44.3348844
0
ARC
8
DEFAULT_255_2_778
10
18.7396955
20
57.4499782
40
0.2974617
50
47.0038677
51
86.7052447
0
ARC
8
DEFAULT_255_2_778
10
18.7004328
20
57.1997939
40
0.5500493
50
84.1191007
51
90.1337088
0
ARC
8
DEFAULT_255_2_778
10
18.6864166
20
57.3511862
40
0.3988587
50
88.1706591
51
114.4078176
0
ARC
8
DEFAULT_255_2_778
10
18.6296657
20
57.4928323
40
0.2465163
50
116.0008941
51
134.8697045
0
ARC
8
DEFAULT_255_2_778
10
18.6630877
20
57.4649618
40
0.2898756
50
135.6651156
51
182.3172047
0
ARC
8
DEFAULT_255_2_778
10
18.6630877
20
57.4415214
40
0.2898756
50
177.6827953
51
224.3348844
0
ARC
8
DEFAULT_255_2_778
10
18.9869408
20
56.3745014
40
0.5877134
50
306.9528454
51
0.2379
0
ARC
8
DEFAULT_255_2_778
10
18.830727
20
56.5446107
40
0.8178737
50
282.0291166
51
308.5343698
0
ARC
8
DEFAULT_255_2_778
10
18.7114822
20
57.0521767
40
1.3391899
50
269.480895
51
282.493121
0
ARC
8
DEFAULT_255_2_778
10
18.6863704
20
57.0399513
40
1.3269732
50
256.9787804
51
270.5604036
0
ARC
8
DEFAULT_255_2_778
10
18.565512
20
56.540054
40
0.8127152
50
231.406643
51
257.3395951
0
ARC
8
DEFAULT_255_2_778
10
18.4124091
20
56.3747752
40
0.5882639
50
179.7889936
51
233.020261
0
ARC
8
DEFAULT_255_2_778
10
18.7276619
20
56.3895067
40
0.9036
50
165.5489164
51
180.7967579
0
ARC
8
DEFAULT_255_2_778
10
18.3642322
20
56.4807437
40
0.5289057
50
147.2405409
51
165.2949145
0
ARC
8
DEFAULT_255_2_778
10
18.3204167
20
56.4905453
40
0.4870009
50
113.6046953
51
145.4205937
0
ARC
8
DEFAULT_255_2_778
10
18.4743334
20
56.1894774
40
0.8247649
50
106.6549937
51
115.0278223
0
ARC
8
DEFAULT_255_2_778
10
18.4704497
20
57.4918309
40
0.5624894
50
213.7671374
51
245.5850467
0
ARC
8
DEFAULT_255_2_778
10
18.4799767
20
57.4731642
40
0.5604205
50
179.5135081
51
211.6387878
0
ARC
8
DEFAULT_255_2_778
10
18.7097776
20
57.4921016
40
0.7903283
50
179.9971011
51
181.0279844
0
ARC
8
DEFAULT_255_2_778
10
18.5107651
20
57.4925588
40
0.5913161
50
131.5126864
51
180.0404238
0
ARC
8
DEFAULT_255_2_778
10
18.5640767
20
57.4491557
40
0.6592452
50
102.9605063
51
132.4820734
0
ARC
8
DEFAULT_255_2_778
10
18.687929
20
56.9655031
40
1.1584187
50
89.7430248
51
103.5651125
0
ARC
8
DEFAULT_255_2_778
10
18.7030026
20
56.5702003
40
1.5537411
50
89.9982828
51
90.3642652
0
ARC
8
DEFAULT_255_2_778
10
18.7158927
20
56.9704391
40
1.1535741
50
76.6444712
51
90.6379266
0
ARC
8
DEFAULT_255_2_778
10
18.8381656
20
57.4553364
40
0.6535834
50
47.2582864
51
77.2544765
0
ARC
8
DEFAULT_255_2_778
10
18.8856358
20
57.4930853
40
0.5937142
50
359.9089326
51
48.1503173
0
ARC
8
DEFAULT_255_2_778
10
18.8986964
20
57.4779081
40
0.5808272
50
332.0301085
51
1.4042128
0
ARC
8
DEFAULT_255_2_778
10
18.9391417
20
57.4789788
40
0.5459716
50
295.1865991
51
329.9397306
0
ARC
8
DEFAULT_255_2_778
10
18.8235974
20
57.6735549
40
0.7715273
50
295.9204161
51
296.8023131
0
ARC
8
DEFAULT_255_2_778
10
19.0022501
20
56.4085018
40
0.5927516
50
45.728584
51
74.4806298
0
ARC
8
DEFAULT_255_2_778
10
19.0194585
20
56.4544385
40
0.5482021
50
8.23034
51
43.6645184
0
ARC
8
DEFAULT_255_2_778
10
18.6641816
20
56.381688
40
0.9104799
50
359.7013143
51
9.5609218
0
ARC
8
DEFAULT_255_2_778
10
24.4329752
20
56.9262147
40
1.1585969
50
76.2894401
51
90.6293466
0
ARC
8
DEFAULT_255_2_778
10
24.5536693
20
57.3909862
40
0.6784993
50
44.7716347
51
76.8886881
0
ARC
8
DEFAULT_255_2_778
10
24.5207765
20
57.3602526
40
0.723497
50
358.9378904
51
44.6649286
0
ARC
8
DEFAULT_255_2_778
10
24.51338
20
57.3329694
40
0.7309008
50
335.9960395
51
1.0875222
0
ARC
8
DEFAULT_255_2_778
10
24.6407244
20
57.2863604
40
0.5956806
50
319.0233057
51
335.1086377
0
ARC
8
DEFAULT_255_2_778
10
24.6396089
20
57.2993318
40
0.6050967
50
284.7511668
51
318.1652446
0
ARC
8
DEFAULT_255_2_778
10
24.5271962
20
57.6476247
40
0.9707394
50
276.4561704
51
285.9331638
0
ARC
8
DEFAULT_255_2_778
10
24.351898
20
57.8708063
40
0.8753518
50
269.1916873
51
282.3640853
0
ARC
8
DEFAULT_255_2_778
10
24.453334
20
57.4157558
40
0.4091389
50
282.1334988
51
303.0304377
0
ARC
8
DEFAULT_255_2_778
10
24.5206426
20
57.2880334
40
0.2656973
50
305.8757797
51
355.9946896
0
ARC
8
DEFAULT_255_2_778
10
24.2686
20
57.3352088
40
0.5212524
50
352.755249
51
0.2014596
0
ARC
8
DEFAULT_255_2_778
10
24.2926097
20
57.3496685
40
0.4973998
50
358.5453457
51
20.1167569
0
ARC
8
DEFAULT_255_2_778
10
24.5122319
20
57.4276699
40
0.2643585
50
20.6136933
51
54.6320822
0
ARC
8
DEFAULT_255_2_778
10
24.3998615
20
57.2406115
40
0.4822257
50
56.6097189
51
81.8303852
0
ARC
8
DEFAULT_255_2_778
10
24.3165405
20
56.7884758
40
0.9417896
50
80.7215514
51
90.4070843
0
LINE
8
DEFAULT_255_2_778
10
9.3971492
20
56.7827416
11
9.3971492
21
55.7514416
0
LINE
8
DEFAULT_255_2_778
10
9.3971492
20
55.7514416
11
8.9431492
21
55.7514416
0
LINE
8
DEFAULT_255_2_778
10
8.9431492
20
55.7514416
11
8.9431492
21
58.0845416
0
LINE
8
DEFAULT_255_2_778
10
8.9431492
20
58.0845416
11
10.2470492
21
58.0845416
0
LINE
8
DEFAULT_255_2_778
10
10.2470492
20
58.0845416
11
10.2470492
21
57.7299416
0
LINE
8
DEFAULT_255_2_778
10
10.2470492
20
57.7299416
11
9.3974492
21
57.7299416
0
LINE
8
DEFAULT_255_2_778
10
9.3974492
20
57.7299416
11
9.3974492
21
57.1370416
0
LINE
8
DEFAULT_255_2_778
10
9.3974492
20
57.1370416
11
10.2470492
21
57.1370416
0
LINE
8
DEFAULT_255_2_778
10
10.2470492
20
57.1370416
11
10.2470492
21
56.7825416
0
LINE
8
DEFAULT_255_2_778
10
10.2470492
20
56.7825416
11
9.3974492
21
56.7825416
0
LINE
8
DEFAULT_255_2_778
10
9.3974492
20
56.7825416
11
9.3971492
21
56.7827416
0
LINE
8
DEFAULT_255_2_778
10
11.6495492
20
58.0847416
11
12.1329492
21
58.0847416
0
LINE
8
DEFAULT_255_2_778
10
12.1329492
20
58.0847416
11
11.5212492
21
57.0018416
0
LINE
8
DEFAULT_255_2_778
10
11.5212492
20
57.0018416
11
12.2096492
21
55.7514416
0
LINE
8
DEFAULT_255_2_778
10
12.2096492
20
55.7514416
11
11.7263492
21
55.7514416
0
LINE
8
DEFAULT_255_2_778
10
11.7263492
20
55.7514416
11
11.2757492
21
56.6473416
0
LINE
8
DEFAULT_255_2_778
10
11.2757492
20
56.6473416
11
10.8142492
21
55.7514416
0
LINE
8
DEFAULT_255_2_778
10
10.8142492
20
55.7514416
11
10.3345492
21
55.7514416
0
LINE
8
DEFAULT_255_2_778
10
10.3345492
20
55.7514416
11
11.0267492
21
57.0018416
0
LINE
8
DEFAULT_255_2_778
10
11.0267492
20
57.0018416
11
10.4335492
21
58.0847416
0
LINE
8
DEFAULT_255_2_778
10
10.4335492
20
58.0847416
11
10.9132492
21
58.0847416
0
LINE
8
DEFAULT_255_2_778
10
10.9132492
20
58.0847416
11
11.2757492
21
57.3468416
0
LINE
8
DEFAULT_255_2_778
10
11.2757492
20
57.3468416
11
11.6493492
21
58.0847416
0
LINE
8
DEFAULT_255_2_778
10
11.6493492
20
58.0847416
11
11.6495492
21
58.0847416
0
LINE
8
DEFAULT_255_2_778
10
13.9935492
20
56.1059416
11
13.9935492
21
55.7514416
0
LINE
8
DEFAULT_255_2_778
10
13.9935492
20
55.7514416
11
12.3308492
21
55.7514416
0
LINE
8
DEFAULT_255_2_778
10
12.3308492
20
55.7514416
11
12.3308492
21
56.1252416
0
LINE
8
DEFAULT_255_2_778
10
12.3308492
20
56.1252416
11
13.3233492
21
56.9825416
0
LINE
8
DEFAULT_255_2_778
10
12.8031492
20
57.3627416
11
12.3491492
21
57.3627416
0
LINE
8
DEFAULT_255_2_778
10
13.5908492
20
56.6795416
11
12.9023492
21
56.1059416
0
LINE
8
DEFAULT_255_2_778
10
12.9023492
20
56.1059416
11
13.9937492
21
56.1059416
0
LINE
8
DEFAULT_255_2_778
10
13.9937492
20
56.1059416
11
13.9935492
21
56.1059416
0
LINE
8
DEFAULT_255_2_778
10
14.8798492
20
57.3886416
11
14.8798492
21
55.7516416
0
LINE
8
DEFAULT_255_2_778
10
14.8798492
20
55.7516416
11
14.4769492
21
55.7516416
0
LINE
8
DEFAULT_255_2_778
10
14.4769492
20
55.7516416
11
14.4769492
21
58.0847416
0
LINE
8
DEFAULT_255_2_778
10
14.4769492
20
58.0847416
11
14.9603492
21
58.0847416
0
LINE
8
DEFAULT_255_2_778
10
14.9603492
20
58.0847416
11
15.7990492
21
56.5734416
0
LINE
8
DEFAULT_255_2_778
10
15.7990492
20
56.5734416
11
15.8064492
21
56.5734416
0
LINE
8
DEFAULT_255_2_778
10
15.8064492
20
56.5734416
11
15.8064492
21
58.0847416
0
LINE
8
DEFAULT_255_2_778
10
15.8064492
20
58.0847416
11
16.2094492
21
58.0847416
0
LINE
8
DEFAULT_255_2_778
10
16.2094492
20
58.0847416
11
16.2094492
21
55.7516416
0
LINE
8
DEFAULT_255_2_778
10
16.2094492
20
55.7516416
11
15.8138492
21
55.7516416
0
LINE
8
DEFAULT_255_2_778
10
15.8138492
20
55.7516416
11
14.8872492
21
57.3886416
0
LINE
8
DEFAULT_255_2_778
10
14.8872492
20
57.3886416
11
14.8798492
21
57.3886416
0
LINE
8
DEFAULT_255_2_778
10
14.8798492
20
57.3886416
11
14.8798492
21
57.3886416
0
LINE
8
DEFAULT_255_2_778
10
17.5201492
20
56.8343416
11
17.5201492
21
56.5121416
0
LINE
8
DEFAULT_255_2_778
10
17.5201492
20
56.5121416
11
16.6229492
21
56.5121416
0
LINE
8
DEFAULT_255_2_778
10
16.6229492
20
56.5121416
11
16.6229492
21
56.8343416
0
LINE
8
DEFAULT_255_2_778
10
16.6229492
20
56.8343416
11
17.5201492
21
56.8343416
0
LINE
8
DEFAULT_255_2_778
10
17.5201492
20
56.8343416
11
17.5201492
21
56.8343416
0
LINE
8
DEFAULT_255_2_778
10
18.9941492
20
56.6846416
11
18.9941492
21
56.6846416
0
LINE
8
DEFAULT_255_2_778
10
18.4557492
20
57.2389416
11
18.4557492
21
57.2389416
0
LINE
8
DEFAULT_255_2_778
10
19.5746492
20
56.3769416
11
19.5746492
21
56.3769416
0
LINE
8
DEFAULT_255_2_778
10
21.3436492
20
56.1059416
11
21.3436492
21
55.7514416
0
LINE
8
DEFAULT_255_2_778
10
21.3436492
20
55.7514416
11
19.9593492
21
55.7514416
0
LINE
8
DEFAULT_255_2_778
10
19.9593492
20
55.7514416
11
19.9593492
21
58.0845416
0
LINE
8
DEFAULT_255_2_778
10
19.9593492
20
58.0845416
11
21.3216492
21
58.0845416
0
LINE
8
DEFAULT_255_2_778
10
21.3216492
20
58.0845416
11
21.3216492
21
57.7299416
0
LINE
8
DEFAULT_255_2_778
10
21.3216492
20
57.7299416
11
20.4133492
21
57.7299416
0
LINE
8
DEFAULT_255_2_778
10
20.4133492
20
57.7299416
11
20.4133492
21
57.1434416
0
LINE
8
DEFAULT_255_2_778
10
20.4133492
20
57.1434416
11
21.3362492
21
57.1434416
0
LINE
8
DEFAULT_255_2_778
10
21.3362492
20
57.1434416
11
21.3362492
21
56.7888416
0
LINE
8
DEFAULT_255_2_778
10
21.3362492
20
56.7888416
11
20.4133492
21
56.7888416
0
LINE
8
DEFAULT_255_2_778
10
20.4133492
20
56.7888416
11
20.4133492
21
56.1057416
0
LINE
8
DEFAULT_255_2_778
10
20.4133492
20
56.1057416
11
21.3436492
21
56.1057416
0
LINE
8
DEFAULT_255_2_778
10
21.3436492
20
56.1057416
11
21.3436492
21
56.1059416
0
LINE
8
DEFAULT_255_2_778
10
22.6877492
20
55.7516416
11
22.2336492
21
55.7516416
0
LINE
8
DEFAULT_255_2_778
10
22.2336492
20
55.7516416
11
22.2336492
21
56.6928416
0
LINE
8
DEFAULT_255_2_778
10
22.2336492
20
56.6928416
11
21.5489492
21
58.0850416
0
LINE
8
DEFAULT_255_2_778
10
21.5489492
20
58.0850416
11
22.0323492
21
58.0850416
0
LINE
8
DEFAULT_255_2_778
10
22.0323492
20
58.0850416
11
22.4644492
21
57.1119416
0
LINE
8
DEFAULT_255_2_778
10
22.4644492
20
57.1119416
11
22.8964492
21
58.0850416
0
LINE
8
DEFAULT_255_2_778
10
22.8964492
20
58.0850416
11
23.3798492
21
58.0850416
0
LINE
8
DEFAULT_255_2_778
10
23.3798492
20
58.0850416
11
22.6877492
21
56.6928416
0
LINE
8
DEFAULT_255_2_778
10
22.6877492
20
56.6928416
11
22.6877492
21
55.7516416
0
LINE
8
DEFAULT_255_2_778
10
22.6877492
20
55.7516416
11
22.6877492
21
55.7516416
0
LINE
8
DEFAULT_255_2_778
10
24.0794492
20
56.7764416
11
24.0794492
21
55.7516416
0
LINE
8
DEFAULT_255_2_778
10
24.0794492
20
55.7516416
11
23.6217492
21
55.7516416
0
LINE
8
DEFAULT_255_2_778
10
23.6217492
20
55.7516416
11
23.6217492
21
58.0847416
0
LINE
8
DEFAULT_255_2_778
10
23.6217492
20
58.0847416
11
24.4202492
21
58.0847416
0
LINE
8
DEFAULT_255_2_778
10
24.6363492
20
56.6830416
11
25.3724492
21
55.7516416
0
LINE
8
DEFAULT_255_2_778
10
25.3724492
20
55.7516416
11
24.8377492
21
55.7516416
0
LINE
8
DEFAULT_255_2_778
10
24.8377492
20
55.7516416
11
24.0868492
21
56.7764416
0
LINE
8
DEFAULT_255_2_778
10
24.0868492
20
56.7764416
11
24.0794492
21
56.7764416
0
LINE
8
DEFAULT_255_2_778
10
24.0794492
20
56.7764416
11
24.0794492
21
56.7764416
0
LINE
8
DEFAULT_255_2_778
10
24.3101492
20
57.7302416
11
24.0757492
21
57.7302416
0
LINE
8
DEFAULT_255_2_778
10
24.0757492
20
57.7302416
11
24.0757492
21
56.9955416
0
LINE
8
DEFAULT_255_2_778
10
24.0757492
20
56.9955416
11
24.3395492
21
56.9955416
0
LINE
8
DEFAULT_255_2_778
10
24.3098492
20
57.7302416
11
24.3101492
21
57.7302416
0
ARC
8
DEFAULT_255_2_778
10
2.1931989
20
1.7493229
40
1.992957
50
245.6875148
51
270.0736
0
ARC
8
DEFAULT_255_2_778
10
2.1982314
20
1.7580933
40
2.0030218
50
189.7971401
51
245.6596155
0
ARC
8
DEFAULT_255_2_778
10
2.2090733
20
1.7557704
40
2.0133146
50
179.9773172
51
189.6794973
0
ARC
8
DEFAULT_255_2_778
10
41.2026623
20
1.7541852
40
1.993198
50
335.6873726
51
0.0684804
0
ARC
8
DEFAULT_255_2_778
10
41.1939966
20
1.759168
40
2.0031469
50
279.8052981
51
335.6595418
0
ARC
8
DEFAULT_255_2_778
10
41.1962907
20
1.7701169
40
2.0135495
50
269.9877133
51
279.6879127
0
ARC
8
DEFAULT_255_2_778
10
2.1886731
20
87.7590204
40
1.9929158
50
155.6886011
51
180.073395
0
ARC
8
DEFAULT_255_2_778
10
2.1975164
20
87.7539672
40
2.0030556
50
99.8027899
51
155.6610177
0
ARC
8
DEFAULT_255_2_778
10
2.1951439
20
87.743306
40
2.0131615
50
89.9824967
51
99.6845929
0
ARC
8
DEFAULT_255_2_778
10
41.1984182
20
87.7636553
40
1.9928139
50
65.6879682
51
90.0735817
0
ARC
8
DEFAULT_255_2_778
10
41.1932252
20
87.7546316
40
2.0031756
50
9.8044729
51
65.65887
0
ARC
8
DEFAULT_255_2_778
10
41.1822577
20
87.7568979
40
2.0136013
50
359.9877538
51
9.6877868
0
LINE
8
DEFAULT_255_2_778
10
43.1958589
20
23.7564675
11
43.1958589
21
65.7563675
0
LINE
8
DEFAULT_255_2_778
10
0.1957589
20
65.7563675
11
0.1957589
21
23.7564675
0
LINE
8
DEFAULT_255_2_778
10
0.1957589
20
1.7565675
11
0.1957589
21
23.7566675
0
LINE
8
DEFAULT_255_2_778
10
0.1957589
20
23.7566675
11
43.1958589
21
23.7566675
0
LINE
8
DEFAULT_255_2_778
10
43.1958589
20
23.7566675
11
43.1958589
21
1.7565675
0
LINE
8
DEFAULT_255_2_778
10
41.1958589
20
-0.2434325
11
2.1957589
21
-0.2436325
0
LINE
8
DEFAULT_255_2_778
10
2.1957589
20
89.7564675
11
41.1958589
21
89.7564675
0
LINE
8
DEFAULT_255_2_778
10
43.1958589
20
87.7564675
11
43.1958589
21
65.7563675
0
LINE
8
DEFAULT_255_2_778
10
43.1958589
20
65.7563675
11
0.1957589
21
65.7563675
0
LINE
8
DEFAULT_255_2_778
10
0.1957589
20
65.7563675
11
0.1957589
21
87.7564675
0
ENDSEC
0
EOF