0
SECTION
2
HEADER
9
$MEASUREMENT
70
1
0
ENDSEC
0
SECTION
2
TABLES
0
TABLE
2
LTYPE
0
LTYPE
72
65
70
64
2
CONTINUOUS
3
______
73
0
40
0
0
ENDTAB
0
TABLE
2
LAYER
0
LAYER
2
DEFAULT_255_2_778
70
0
62
255
6
CONTINUOUS
0
ENDTAB
0
ENDSEC
0
SECTION
2
ENTITIES
0
ARC
8
DEFAULT_255_2_778
10
38.240456
20
59.7563107
40
0.8001107
50
269.9992029
51
356.8661358
0
ARC
8
DEFAULT_255_2_778
10
38.2274481
20
59.7562625
40
0.8130969
50
356.9196393
51
0.0026422
0
ARC
8
DEFAULT_255_2_778
10
38.2404341
20
59.7563111
40
0.8001107
50
359.9992029
51
86.8661358
0
ARC
8
DEFAULT_255_2_778
10
38.2404824
20
59.7433033
40
0.8130969
50
86.9196393
51
90.0026422
0
ARC
8
DEFAULT_255_2_778
10
35.2403337
20
59.7562892
40
0.8001107
50
89.9992029
51
176.8661358
0
ARC
8
DEFAULT_255_2_778
10
35.2533416
20
59.7563375
40
0.8130969
50
176.9196393
51
180.0026422
0
ARC
8
DEFAULT_255_2_778
10
35.2403556
20
59.7562888
40
0.8001107
50
179.9992029
51
266.8661358
0
ARC
8
DEFAULT_255_2_778
10
35.2403074
20
59.7692967
40
0.8130969
50
266.9196393
51
270.0026422
0
LINE
8
DEFAULT_255_2_778
10
38.2404449
20
60.5564
11
35.2403449
21
60.5564
0
LINE
8
DEFAULT_255_2_778
10
35.2403449
20
58.9562
11
38.2404449
21
58.9562
0
ARC
8
DEFAULT_255_2_778
10
20.2449674
20
84.7595516
40
2.2543868
50
158.2386051
51
180.0898428
0
ARC
8
DEFAULT_255_2_778
10
20.2356453
20
84.7605336
40
2.2453665
50
100.4545112
51
158.173688
0
ARC
8
DEFAULT_255_2_778
10
20.2393947
20
84.7265047
40
2.2795122
50
89.9701221
51
100.3919857
0
ARC
8
DEFAULT_255_2_778
10
20.244132
20
84.7514879
40
2.2545315
50
68.2393107
51
90.0901832
0
ARC
8
DEFAULT_255_2_778
10
20.2451889
20
84.7610432
40
2.2452669
50
10.452684
51
68.1739611
0
ARC
8
DEFAULT_255_2_778
10
20.2108552
20
84.7572042
40
2.2797285
50
359.9701533
51
10.3910176
0
ARC
8
DEFAULT_255_2_778
10
20.2359186
20
84.7524616
40
2.2546676
50
338.2408662
51
0.0903398
0
ARC
8
DEFAULT_255_2_778
10
20.2457067
20
84.7513049
40
2.2451496
50
280.4535565
51
338.1756829
0
ARC
8
DEFAULT_255_2_778
10
20.2417766
20
84.7859685
40
2.2799523
50
269.9700133
51
280.3926283
0
ARC
8
DEFAULT_255_2_778
10
20.237042
20
84.7605367
40
2.2545229
50
248.2401607
51
270.0899995
0
ARC
8
DEFAULT_255_2_778
10
20.2359608
20
84.7509828
40
2.2452504
50
190.46182
51
248.1754031
0
ARC
8
DEFAULT_255_2_778
10
20.2703498
20
84.7548252
40
2.2797667
50
179.9700565
51
190.3998477
0
LINE
8
DEFAULT_255_2_778
10
17.9905834
20
84.7560166
11
17.9905834
21
84.7560166
0
ARC
8
DEFAULT_255_2_778
10
20.2449674
20
4.7595516
40
2.2543868
50
158.2386051
51
180.0898428
0
ARC
8
DEFAULT_255_2_778
10
20.2356453
20
4.7605336
40
2.2453665
50
100.4545112
51
158.173688
0
ARC
8
DEFAULT_255_2_778
10
20.2393947
20
4.7265047
40
2.2795122
50
89.9701221
51
100.3919857
0
ARC
8
DEFAULT_255_2_778
10
20.244132
20
4.7514879
40
2.2545315
50
68.2393107
51
90.0901832
0
ARC
8
DEFAULT_255_2_778
10
20.2451889
20
4.7610432
40
2.2452669
50
10.452684
51
68.1739611
0
ARC
8
DEFAULT_255_2_778
10
20.2108552
20
4.7572042
40
2.2797285
50
359.9701533
51
10.3910176
0
ARC
8
DEFAULT_255_2_778
10
20.2359186
20
4.7524616
40
2.2546676
50
338.2408662
51
0.0903398
0
ARC
8
DEFAULT_255_2_778
10
20.2457067
20
4.7513049
40
2.2451496
50
280.4535565
51
338.1756829
0
ARC
8
DEFAULT_255_2_778
10
20.2417766
20
4.7859685
40
2.2799523
50
269.9700133
51
280.3926283
0
ARC
8
DEFAULT_255_2_778
10
20.237042
20
4.7605367
40
2.2545229
50
248.2401607
51
270.0899995
0
ARC
8
DEFAULT_255_2_778
10
20.2359608
20
4.7509828
40
2.2452504
50
190.46182
51
248.1754031
0
ARC
8
DEFAULT_255_2_778
10
20.2703498
20
4.7548252
40
2.2797667
50
179.9700565
51
190.3998477
0
LINE
8
DEFAULT_255_2_778
10
17.9905834
20
4.7560166
11
17.9905834
21
4.7560166
0
ARC
8
DEFAULT_255_2_778
10
22.2430753
20
60.0654957
40
0.643184
50
69.7455015
51
91.1645634
0
ARC
8
DEFAULT_255_2_778
10
22.3134765
20
60.2734623
40
0.4237468
50
48.2388517
51
68.9411936
0
ARC
8
DEFAULT_255_2_778
10
22.3242488
20
60.2903608
40
0.4039799
50
357.6997825
51
47.7822343
0
ARC
8
DEFAULT_255_2_778
10
22.2796259
20
60.2603153
40
0.4484906
50
331.1318622
51
1.767293
0
ARC
8
DEFAULT_255_2_778
10
22.369713
20
60.2212951
40
0.3508834
50
310.7171568
51
329.6094319
0
ARC
8
DEFAULT_255_2_778
10
22.3054686
20
60.3111916
40
0.4610351
50
278.1723156
51
309.4807104
0
ARC
8
DEFAULT_255_2_778
10
22.2330037
20
60.6766106
40
0.8332794
50
269.6492931
51
279.5328117
0
ARC
8
DEFAULT_255_2_778
10
22.24254
20
60.3976729
40
0.4013219
50
268.2098577
51
293.6504428
0
ARC
8
DEFAULT_255_2_778
10
22.2992278
20
60.251091
40
0.2444074
50
295.2624698
51
311.2894376
0
ARC
8
DEFAULT_255_2_778
10
22.2854968
20
60.2532489
40
0.2552443
50
313.2861933
51
2.3583298
0
ARC
8
DEFAULT_255_2_778
10
22.1027129
20
60.2720272
40
0.4378903
50
358.9171628
51
0.0025767
0
ARC
8
DEFAULT_255_2_778
10
22.2735515
20
60.2841644
40
0.2673265
50
357.4019702
51
45.6260447
0
ARC
8
DEFAULT_255_2_778
10
22.2542796
20
60.2442767
40
0.3096375
50
48.2396655
51
90.0809974
0
ARC
8
DEFAULT_255_2_778
10
22.2304341
20
60.0479857
40
0.5064694
50
87.3509786
51
88.8155616
0
ARC
8
DEFAULT_255_2_778
10
23.1213134
20
59.9386424
40
0.9396784
50
342.5881704
51
0.78686
0
ARC
8
DEFAULT_255_2_778
10
23.3445564
20
59.8780166
40
0.7085799
50
335.7284779
51
341.8640555
0
ARC
8
DEFAULT_255_2_778
10
23.5005709
20
59.7946325
40
0.5322125
50
303.1115729
51
337.0077584
0
ARC
8
DEFAULT_255_2_778
10
23.5027389
20
59.8146742
40
0.5479639
50
268.7205202
51
301.7768229
0
ARC
8
DEFAULT_255_2_778
10
23.480688
20
59.8099417
40
0.5431835
50
237.9699724
51
271.035379
0
ARC
8
DEFAULT_255_2_778
10
23.4880022
20
59.8066686
40
0.5443457
50
204.0479832
51
237.1345586
0
ARC
8
DEFAULT_255_2_778
10
23.7428744
20
59.9244031
40
0.8250812
50
181.5850092
51
204.3017853
0
ARC
8
DEFAULT_255_2_778
10
24.0328995
20
59.9503039
40
1.115855
50
180.5882925
51
182.5025549
0
ARC
8
DEFAULT_255_2_778
10
23.8182446
20
60.054993
40
0.9012417
50
160.3124237
51
180.8548574
0
ARC
8
DEFAULT_255_2_778
10
23.6410269
20
60.1081036
40
0.7165566
50
155.6324301
51
159.5370249
0
ARC
8
DEFAULT_255_2_778
10
23.4880352
20
60.1901573
40
0.5434634
50
123.2694945
51
156.8577392
0
ARC
8
DEFAULT_255_2_778
10
23.4790229
20
60.1869319
40
0.5412963
50
89.0070481
51
122.2845643
0
ARC
8
DEFAULT_255_2_778
10
23.4993863
20
60.1768163
40
0.55144
50
58.2327026
51
91.1412395
0
ARC
8
DEFAULT_255_2_778
10
23.5013984
20
60.2001516
40
0.5306465
50
22.877493
51
57.090836
0
ARC
8
DEFAULT_255_2_778
10
23.2108309
20
60.0698139
40
0.8490577
50
1.6571595
51
23.3582071
0
ARC
8
DEFAULT_255_2_778
10
22.8864515
20
60.0419645
40
1.1742518
50
359.9796207
51
2.5577783
0
ARC
8
DEFAULT_255_2_778
10
22.987817
20
60.05613
40
0.8866741
50
359.1933283
51
13.771085
0
ARC
8
DEFAULT_255_2_778
10
23.3940649
20
60.1566091
40
0.4681864
50
13.6626345
51
36.0067583
0
ARC
8
DEFAULT_255_2_778
10
23.5035966
20
60.2322597
40
0.3351227
50
36.5528728
51
92.5642688
0
ARC
8
DEFAULT_255_2_778
10
23.4759706
20
60.2364587
40
0.3308294
50
87.8116461
51
143.8003389
0
ARC
8
DEFAULT_255_2_778
10
23.6296739
20
60.1289686
40
0.5183619
50
144.2465322
51
171.4608753
0
ARC
8
DEFAULT_255_2_778
10
24.0282286
20
60.0504366
40
0.9243442
50
170.3151741
51
179.6336475
0
ARC
8
DEFAULT_255_2_778
10
23.9332182
20
59.9392061
40
0.8294113
50
179.1267394
51
195.4566774
0
ARC
8
DEFAULT_255_2_778
10
23.6005198
20
59.8496797
40
0.4848921
50
195.7377839
51
215.711402
0
ARC
8
DEFAULT_255_2_778
10
23.4783134
20
59.7589192
40
0.3326957
50
215.3045522
51
272.0997567
0
ARC
8
DEFAULT_255_2_778
10
23.506596
20
59.7573837
40
0.3313279
50
267.21602
51
323.1430444
0
ARC
8
DEFAULT_255_2_778
10
23.3639987
20
59.8496936
40
0.5009303
50
324.4782091
51
350.3499189
0
ARC
8
DEFAULT_255_2_778
10
22.9162118
20
59.9431782
40
0.9582045
50
349.327434
51
359.6991518
0
ARC
8
DEFAULT_255_2_778
10
27.7362331
20
59.9717982
40
0.7368587
50
73.3944008
51
90.9898864
0
ARC
8
DEFAULT_255_2_778
10
27.8238041
20
60.2735307
40
0.4226901
50
50.4059313
51
73.0811581
0
ARC
8
DEFAULT_255_2_778
10
27.8472953
20
60.3180737
40
0.3735359
50
2.0963247
51
48.8277698
0
ARC
8
DEFAULT_255_2_778
10
27.6045714
20
60.2817822
40
0.6180322
50
359.9318289
51
4.6362517
0
ARC
8
DEFAULT_255_2_778
10
27.8395504
20
60.2728702
40
0.3831401
50
324.3284733
51
1.2228487
0
ARC
8
DEFAULT_255_2_778
10
27.8082673
20
60.3048151
40
0.4272514
50
289.5308001
51
323.2946465
0
ARC
8
DEFAULT_255_2_778
10
27.7427835
20
60.3589945
40
0.3439198
50
267.7203204
51
302.1159713
0
ARC
8
DEFAULT_255_2_778
10
27.7795201
20
60.2841845
40
0.2611709
50
304.0154036
51
311.1570587
0
ARC
8
DEFAULT_255_2_778
10
27.789704
20
60.2708256
40
0.2444131
50
311.4206241
51
2.3967856
0
ARC
8
DEFAULT_255_2_778
10
27.7693673
20
60.2956508
40
0.2649388
50
356.8401422
51
40.8981124
0
ARC
8
DEFAULT_255_2_778
10
27.8069779
20
60.3174484
40
0.2223879
50
42.9978257
51
48.166616
0
ARC
8
DEFAULT_255_2_778
10
27.7644463
20
60.2534293
40
0.2986578
50
50.2790798
51
86.7267052
0
ARC
8
DEFAULT_255_2_778
10
27.7264647
20
60.0022936
40
0.5520564
50
84.2786676
51
89.8091852
0
LINE
8
DEFAULT_255_2_778
10
22.2282032
20
59.8433469
11
21.8932032
21
59.8433469
0
LINE
8
DEFAULT_255_2_778
10
21.8932032
20
59.8433469
11
21.8932032
21
59.2867469
0
LINE
8
DEFAULT_255_2_778
10
21.8932032
20
59.2867469
11
21.7056032
21
59.2867469
0
LINE
8
DEFAULT_255_2_778
10
21.7056032
20
59.2867469
11
21.7056032
21
60.7085469
0
LINE
8
DEFAULT_255_2_778
10
21.7056032
20
60.7085469
11
22.2300032
21
60.7085469
0
LINE
8
DEFAULT_255_2_778
10
22.2279032
20
59.8433469
11
22.2282032
21
59.8433469
0
LINE
8
DEFAULT_255_2_778
10
21.8932032
20
60.5543469
11
21.8932032
21
59.9965469
0
LINE
8
DEFAULT_255_2_778
10
21.8932032
20
59.9965469
11
22.2300032
21
59.9965469
0
LINE
8
DEFAULT_255_2_778
10
22.2409032
20
60.5543469
11
21.8932032
21
60.5543469
0
LINE
8
DEFAULT_255_2_778
10
21.8932032
20
60.5543469
11
21.8932032
21
60.5543469
0
LINE
8
DEFAULT_255_2_778
10
24.0609032
20
60.0415469
11
24.0609032
21
59.9515469
0
LINE
8
DEFAULT_255_2_778
10
22.9171032
20
59.9388469
11
22.9171032
21
60.0415469
0
LINE
8
DEFAULT_255_2_778
10
24.0607032
20
60.0415469
11
24.0609032
21
60.0415469
0
LINE
8
DEFAULT_255_2_778
10
23.8744032
20
59.9381469
11
23.8744032
21
60.0436469
0
LINE
8
DEFAULT_255_2_778
10
23.1039032
20
60.0563469
11
23.1039032
21
59.9518469
0
LINE
8
DEFAULT_255_2_778
10
23.8744032
20
59.9381469
11
23.8744032
21
59.9381469
0
LINE
8
DEFAULT_255_2_778
10
24.4245032
20
60.7085469
11
24.6491032
21
59.7349469
0
LINE
8
DEFAULT_255_2_778
10
24.6491032
20
59.7349469
11
24.6763032
21
59.5473469
0
LINE
8
DEFAULT_255_2_778
10
24.6763032
20
59.5473469
11
24.7163032
21
59.7163469
0
LINE
8
DEFAULT_255_2_778
10
24.7163032
20
59.7163469
11
24.9975032
21
60.7085469
0
LINE
8
DEFAULT_255_2_778
10
24.9975032
20
60.7085469
11
25.1558032
21
60.7085469
0
LINE
8
DEFAULT_255_2_778
10
25.1558032
20
60.7085469
11
25.4301032
21
59.7163469
0
LINE
8
DEFAULT_255_2_778
10
25.4301032
20
59.7163469
11
25.4693032
21
59.5444469
0
LINE
8
DEFAULT_255_2_778
10
25.4693032
20
59.5444469
11
25.4995032
21
59.7356469
0
LINE
8
DEFAULT_255_2_778
10
25.4995032
20
59.7356469
11
25.7201032
21
60.7083469
0
LINE
8
DEFAULT_255_2_778
10
25.7201032
20
60.7083469
11
25.9085032
21
60.7083469
0
LINE
8
DEFAULT_255_2_778
10
25.9085032
20
60.7083469
11
25.5638032
21
59.2864469
0
LINE
8
DEFAULT_255_2_778
10
25.5638032
20
59.2864469
11
25.3928032
21
59.2864469
0
LINE
8
DEFAULT_255_2_778
10
25.3928032
20
59.2864469
11
25.0999032
21
60.3225469
0
LINE
8
DEFAULT_255_2_778
10
25.0999032
20
60.3225469
11
25.0774032
21
60.4310469
0
LINE
8
DEFAULT_255_2_778
10
25.0774032
20
60.4310469
11
25.0550032
21
60.3225469
0
LINE
8
DEFAULT_255_2_778
10
25.0550032
20
60.3225469
11
24.7512032
21
59.2864469
0
LINE
8
DEFAULT_255_2_778
10
24.7512032
20
59.2864469
11
24.5803032
21
59.2864469
0
LINE
8
DEFAULT_255_2_778
10
24.5803032
20
59.2864469
11
24.2366032
21
60.7083469
0
LINE
8
DEFAULT_255_2_778
10
24.2366032
20
60.7083469
11
24.4242032
21
60.7083469
0
LINE
8
DEFAULT_255_2_778
10
24.4242032
20
60.7083469
11
24.4245032
21
60.7085469
0
LINE
8
DEFAULT_255_2_778
10
26.9205032
20
60.0971469
11
26.9205032
21
59.9439469
0
LINE
8
DEFAULT_255_2_778
10
26.9205032
20
59.9439469
11
26.3043032
21
59.9439469
0
LINE
8
DEFAULT_255_2_778
10
26.3043032
20
59.9439469
11
26.3043032
21
59.4398469
0
LINE
8
DEFAULT_255_2_778
10
26.3043032
20
59.4398469
11
27.0200032
21
59.4398469
0
LINE
8
DEFAULT_255_2_778
10
27.0200032
20
59.4398469
11
27.0200032
21
59.2867469
0
LINE
8
DEFAULT_255_2_778
10
27.0200032
20
59.2867469
11
26.1167032
21
59.2867469
0
LINE
8
DEFAULT_255_2_778
10
26.1167032
20
59.2867469
11
26.1167032
21
60.7085469
0
LINE
8
DEFAULT_255_2_778
10
26.1167032
20
60.7085469
11
27.0102032
21
60.7085469
0
LINE
8
DEFAULT_255_2_778
10
27.0102032
20
60.7085469
11
27.0102032
21
60.5543469
0
LINE
8
DEFAULT_255_2_778
10
27.0102032
20
60.5543469
11
26.3041032
21
60.5543469
0
LINE
8
DEFAULT_255_2_778
10
26.3041032
20
60.5543469
11
26.3041032
21
60.0973469
0
LINE
8
DEFAULT_255_2_778
10
26.3041032
20
60.0973469
11
26.9203032
21
60.0973469
0
LINE
8
DEFAULT_255_2_778
10
26.9203032
20
60.0973469
11
26.9205032
21
60.0971469
0
LINE
8
DEFAULT_255_2_778
10
28.0836032
20
59.2867469
11
27.7751032
21
59.8619469
0
LINE
8
DEFAULT_255_2_778
10
27.7751032
20
59.8619469
11
27.4412032
21
59.8619469
0
LINE
8
DEFAULT_255_2_778
10
27.4412032
20
59.8619469
11
27.4412032
21
59.2867469
0
LINE
8
DEFAULT_255_2_778
10
27.4412032
20
59.2867469
11
27.2529032
21
59.2867469
0
LINE
8
DEFAULT_255_2_778
10
27.2529032
20
59.2867469
11
27.2529032
21
60.7085469
0
LINE
8
DEFAULT_255_2_778
10
27.2529032
20
60.7085469
11
27.7235032
21
60.7085469
0
LINE
8
DEFAULT_255_2_778
10
27.9511032
20
59.9021469
11
28.2850032
21
59.2986469
0
LINE
8
DEFAULT_255_2_778
10
28.2850032
20
59.2986469
11
28.2850032
21
59.2869469
0
LINE
8
DEFAULT_255_2_778
10
28.2850032
20
59.2869469
11
28.0839032
21
59.2869469
0
LINE
8
DEFAULT_255_2_778
10
28.0839032
20
59.2869469
11
28.0836032
21
59.2867469
0
LINE
8
DEFAULT_255_2_778
10
27.4410032
20
60.5543469
11
27.4410032
21
60.0153469
0
LINE
8
DEFAULT_255_2_778
10
27.4410032
20
60.0153469
11
27.7291032
21
60.0153469
0
LINE
8
DEFAULT_255_2_778
10
27.7283032
20
60.5543469
11
27.4412032
21
60.5543469
0
LINE
8
DEFAULT_255_2_778
10
27.4412032
20
60.5543469
11
27.4410032
21
60.5543469
0
LINE
8
DEFAULT_255_2_778
10
34.7946212
20
84.6062375
11
34.7946212
21
83.3203375
0
LINE
8
DEFAULT_255_2_778
10
34.7946212
20
83.3203375
11
34.6310212
21
83.3203375
0
LINE
8
DEFAULT_255_2_778
10
34.6310212
20
83.3203375
11
34.6310212
21
84.4041375
0
LINE
8
DEFAULT_255_2_778
10
34.6310212
20
84.4041375
11
34.3032212
21
84.2837375
0
LINE
8
DEFAULT_255_2_778
10
34.3032212
20
84.2837375
11
34.3032212
21
84.4313375
0
LINE
8
DEFAULT_255_2_778
10
34.3032212
20
84.4313375
11
34.7691212
21
84.6062375
0
LINE
8
DEFAULT_255_2_778
10
34.7691212
20
84.6062375
11
34.7946212
21
84.6062375
0
LINE
8
DEFAULT_255_2_778
10
34.7946212
20
84.6062375
11
34.7946212
21
84.6062375
0
ARC
8
DEFAULT_255_2_778
10
29.5425292
20
86.3056041
40
0.8309625
50
341.0366301
51
0.9160884
0
ARC
8
DEFAULT_255_2_778
10
29.7355362
20
86.2493614
40
0.6302259
50
335.7573552
51
340.1701859
0
ARC
8
DEFAULT_255_2_778
10
29.8694084
20
86.1777162
40
0.4788537
50
303.0820271
51
336.9969258
0
ARC
8
DEFAULT_255_2_778
10
29.8711056
20
86.195634
40
0.4930676
50
268.7193175
51
301.7801739
0
ARC
8
DEFAULT_255_2_778
10
29.8513942
20
86.1912708
40
0.4886585
50
237.9503149
51
271.0191062
0
ARC
8
DEFAULT_255_2_778
10
29.8588233
20
86.1892408
40
0.4909356
50
204.0728107
51
237.0896851
0
ARC
8
DEFAULT_255_2_778
10
30.0966507
20
86.2973524
40
0.752179
50
180.5055064
51
204.2022828
0
ARC
8
DEFAULT_255_2_778
10
30.3659658
20
86.3182613
40
1.021836
50
180.5983913
51
181.5446822
0
ARC
8
DEFAULT_255_2_778
10
30.1458931
20
86.4131935
40
0.801818
50
159.1166809
51
180.9507107
0
ARC
8
DEFAULT_255_2_778
10
29.9908882
20
86.4620304
40
0.6396594
50
155.6380534
51
158.2544865
0
ARC
8
DEFAULT_255_2_778
10
29.8577137
20
86.53374
40
0.4888733
50
123.2475228
51
156.8558559
0
ARC
8
DEFAULT_255_2_778
10
29.8496188
20
86.5308038
40
0.4869629
50
88.9802332
51
122.2615294
0
ARC
8
DEFAULT_255_2_778
10
29.8680523
20
86.5212402
40
0.4965454
50
58.2304561
51
91.1270622
0
ARC
8
DEFAULT_255_2_778
10
29.867462
20
86.540082
40
0.4809504
50
22.9980982
51
56.9887698
0
ARC
8
DEFAULT_255_2_778
10
29.599186
20
86.4228058
40
0.7737295
50
0.8526201
51
23.2305619
0
ARC
8
DEFAULT_255_2_778
10
29.3000916
20
86.3997946
40
1.0732938
50
359.9890556
51
1.8433529
0
ARC
8
DEFAULT_255_2_778
10
29.4247559
20
86.4143061
40
0.7810299
50
359.0817562
51
14.7872443
0
ARC
8
DEFAULT_255_2_778
10
29.7792769
20
86.5067865
40
0.4146479
50
14.9347011
51
36.0818856
0
ARC
8
DEFAULT_255_2_778
10
29.8721436
20
86.5715168
40
0.3014823
50
36.5341075
51
92.5965773
0
ARC
8
DEFAULT_255_2_778
10
29.8471926
20
86.5747148
40
0.2981887
50
87.8296111
51
143.7612122
0
ARC
8
DEFAULT_255_2_778
10
29.9914566
20
86.4756466
40
0.4731412
50
144.4124166
51
172.3067117
0
ARC
8
DEFAULT_255_2_778
10
30.3584529
20
86.4066351
40
0.846292
50
171.0026216
51
179.5630117
0
ARC
8
DEFAULT_255_2_778
10
30.2445532
20
86.3065394
40
0.732477
50
179.010432
51
196.51769
0
ARC
8
DEFAULT_255_2_778
10
29.9525463
20
86.2238299
40
0.4290214
50
197.0151212
51
215.8462869
0
ARC
8
DEFAULT_255_2_778
10
29.8490525
20
86.1454036
40
0.2992175
50
215.2786307
51
272.1131156
0
ARC
8
DEFAULT_255_2_778
10
29.8744725
20
86.144498
40
0.2984554
50
267.2369752
51
323.1456547
0
ARC
8
DEFAULT_255_2_778
10
29.7421666
20
86.2298777
40
0.4556647
50
324.5336084
51
351.2340053
0
ARC
8
DEFAULT_255_2_778
10
29.3317565
20
86.3116951
40
0.8739417
50
350.0331527
51
359.6915017
0
LINE
8
DEFAULT_255_2_778
10
30.3733854
20
86.3998896
11
30.3733854
21
86.3188896
0
LINE
8
DEFAULT_255_2_778
10
29.3441854
20
86.3075896
11
29.3441854
21
86.3998896
0
LINE
8
DEFAULT_255_2_778
10
30.3733854
20
86.3995896
11
30.3733854
21
86.3998896
0
LINE
8
DEFAULT_255_2_778
10
30.2056854
20
86.3067896
11
30.2056854
21
86.4017896
0
LINE
8
DEFAULT_255_2_778
10
29.5121854
20
86.4130896
11
29.5121854
21
86.3191896
0
LINE
8
DEFAULT_255_2_778
10
30.2056854
20
86.3069896
11
30.2056854
21
86.3067896
0
ARC
8
DEFAULT_255_2_778
10
31.1198975
20
86.1166641
40
0.4075685
50
316.0747595
51
1.8787477
0
ARC
8
DEFAULT_255_2_778
10
31.1008541
20
86.152514
40
0.4463323
50
274.6180105
51
314.4558027
0
ARC
8
DEFAULT_255_2_778
10
31.0585189
20
86.3785683
40
0.6754877
50
274.1197597
51
276.6539506
0
ARC
8
DEFAULT_255_2_778
10
31.0488509
20
86.2444751
40
0.5417172
50
245.1232453
51
271.4275742
0
ARC
8
DEFAULT_255_2_778
10
30.997405
20
86.1134684
40
0.4013131
50
227.7252109
51
243.918496
0
ARC
8
DEFAULT_255_2_778
10
30.9999567
20
86.1074182
40
0.3985973
50
179.6270662
51
226.8687461
0
ARC
8
DEFAULT_255_2_778
10
31.2177335
20
86.1333166
40
0.6168061
50
180.4542952
51
182.1652509
0
ARC
8
DEFAULT_255_2_778
10
31.0810764
20
86.1200087
40
0.3134298
50
177.4916363
51
213.5452006
0
ARC
8
DEFAULT_255_2_778
10
31.0128594
20
86.0851121
40
0.237447
50
215.6236849
51
224.7907498
0
ARC
8
DEFAULT_255_2_778
10
31.0368182
20
86.1223495
40
0.2808471
50
226.7388811
51
269.9120095
0
ARC
8
DEFAULT_255_2_778
10
31.0620724
20
86.3285076
40
0.4876817
50
266.9809239
51
270.0322529
0
ARC
8
DEFAULT_255_2_778
10
31.0754783
20
86.1727835
40
0.3322171
50
267.7347006
51
299.5772268
0
ARC
8
DEFAULT_255_2_778
10
31.118928
20
86.0795974
40
0.2298739
50
301.6236153
51
315.0964947
0
ARC
8
DEFAULT_255_2_778
10
31.0753801
20
86.1092382
40
0.2818112
50
317.0785125
51
0.4200862
0
ARC
8
DEFAULT_255_2_778
10
30.875182
20
86.1324415
40
0.4824648
50
357.4890313
51
0.0219177
0
LINE
8
DEFAULT_255_2_778
10
31.3576469
20
87.000226
11
31.5272469
21
87.000226
0
LINE
8
DEFAULT_255_2_778
10
31.5272469
20
87.000226
11
31.5272469
21
86.130026
0
LINE
8
DEFAULT_255_2_778
10
31.1070469
20
85.704826
11
31.0623469
21
85.702926
0
LINE
8
DEFAULT_255_2_778
10
30.6009469
20
86.128426
11
30.6009469
21
87.000226
0
LINE
8
DEFAULT_255_2_778
10
30.6009469
20
87.000226
11
30.7679469
21
87.000226
0
LINE
8
DEFAULT_255_2_778
10
30.7679469
20
87.000226
11
30.7679469
21
86.133726
0
LINE
8
DEFAULT_255_2_778
10
31.3576469
20
86.132626
11
31.3576469
21
87.000226
0
LINE
8
DEFAULT_255_2_778
10
31.3576469
20
87.000226
11
31.3576469
21
87.000226
0
LINE
8
DEFAULT_255_2_778
10
32.6776292
20
87.0001948
11
32.6776292
21
86.8612948
0
LINE
8
DEFAULT_255_2_778
10
32.6776292
20
86.8612948
11
32.2662292
21
86.8612948
0
LINE
8
DEFAULT_255_2_778
10
32.2662292
20
86.8612948
11
32.2662292
21
85.7203948
0
LINE
8
DEFAULT_255_2_778
10
32.2662292
20
85.7203948
11
32.0985292
21
85.7203948
0
LINE
8
DEFAULT_255_2_778
10
32.0985292
20
85.7203948
11
32.0985292
21
86.8612948
0
LINE
8
DEFAULT_255_2_778
10
32.0985292
20
86.8612948
11
31.6881292
21
86.8612948
0
LINE
8
DEFAULT_255_2_778
10
31.6881292
20
86.8612948
11
31.6881292
21
87.0001948
0
LINE
8
DEFAULT_255_2_778
10
31.6881292
20
87.0001948
11
32.6776292
21
87.0001948
0
LINE
8
DEFAULT_255_2_778
10
32.6776292
20
87.0001948
11
32.6776292
21
87.0001948
0
ARC
8
DEFAULT_255_2_778
10
33.7737394
20
86.2538836
40
1.1791391
50
349.764511
51
0.6012647
0
ARC
8
DEFAULT_255_2_778
10
34.3971446
20
86.1352441
40
0.5446059
50
329.5772712
51
350.3932163
0
ARC
8
DEFAULT_255_2_778
10
34.5591605
20
86.0503217
40
0.3620023
50
324.8397749
51
328.1825432
0
ARC
8
DEFAULT_255_2_778
10
34.586409
20
86.0360726
40
0.3315445
50
271.3411255
51
324.1412023
0
ARC
8
DEFAULT_255_2_778
10
34.5507333
20
86.2713911
40
0.5684341
50
269.9375361
51
274.3823902
0
ARC
8
DEFAULT_255_2_778
10
34.5365197
20
86.1094343
40
0.4067042
50
241.1105814
51
271.9154337
0
ARC
8
DEFAULT_255_2_778
10
34.4965586
20
86.017664
40
0.3071908
50
215.642227
51
239.3667636
0
ARC
8
DEFAULT_255_2_778
10
34.6622135
20
86.124251
40
0.5040217
50
191.1001317
51
214.5155515
0
ARC
8
DEFAULT_255_2_778
10
35.213054
20
86.2458068
40
1.0680415
50
180.0831259
51
191.8099682
0
ARC
8
DEFAULT_255_2_778
10
35.2961566
20
86.4734084
40
1.1512072
50
169.6461735
51
180.6047741
0
ARC
8
DEFAULT_255_2_778
10
34.6886569
20
86.5906766
40
0.5325594
50
148.9109651
51
170.3105254
0
ARC
8
DEFAULT_255_2_778
10
34.5344603
20
86.6732104
40
0.3580044
50
144.6075483
51
147.4795163
0
ARC
8
DEFAULT_255_2_778
10
34.5097699
20
86.6841082
40
0.3316094
50
92.00118
51
143.6717048
0
ARC
8
DEFAULT_255_2_778
10
34.5477069
20
86.4444503
40
0.5732076
50
89.9193726
51
94.9557001
0
ARC
8
DEFAULT_255_2_778
10
34.5616018
20
86.5923064
40
0.4255522
50
63.5880093
51
91.7624669
0
ARC
8
DEFAULT_255_2_778
10
34.6101676
20
86.7084283
40
0.3000589
50
36.1319755
51
62.0302086
0
ARC
8
DEFAULT_255_2_778
10
34.4583826
20
86.6111361
40
0.4801421
50
11.2825885
51
34.8287118
0
ARC
8
DEFAULT_255_2_778
10
33.8943885
20
86.4839148
40
1.0582254
50
0.5063302
51
12.0632639
0
ARC
8
DEFAULT_255_2_778
10
33.4051704
20
86.46206
40
1.5477168
50
0.5589044
51
1.1553252
0
ARC
8
DEFAULT_255_2_778
10
33.8315269
20
86.5005941
40
0.9586635
50
359.2746078
51
9.9653787
0
ARC
8
DEFAULT_255_2_778
10
34.4131655
20
86.6072634
40
0.3673674
50
9.2782537
51
29.7500085
0
ARC
8
DEFAULT_255_2_778
10
34.5622359
20
86.6851136
40
0.1994164
50
31.5839171
51
93.9457895
0
ARC
8
DEFAULT_255_2_778
10
34.5347507
20
86.6874037
40
0.1971346
50
85.9966784
51
148.5848227
0
ARC
8
DEFAULT_255_2_778
10
34.7150496
20
86.5944793
40
0.399709
50
150.6889162
51
172.3562545
0
ARC
8
DEFAULT_255_2_778
10
35.2699971
20
86.5000819
40
0.962484
50
171.1808744
51
179.947892
0
ARC
8
DEFAULT_255_2_778
10
35.2520094
20
86.229047
40
0.9445697
50
179.2835909
51
190.2752508
0
ARC
8
DEFAULT_255_2_778
10
34.7022644
20
86.1255659
40
0.3852011
50
189.716045
51
209.7440855
0
ARC
8
DEFAULT_255_2_778
10
34.5401773
20
86.0345054
40
0.199296
50
210.1329299
51
272.8577611
0
ARC
8
DEFAULT_255_2_778
10
34.5616001
20
86.0315307
40
0.1964096
50
266.647281
51
328.414528
0
ARC
8
DEFAULT_255_2_778
10
34.3932441
20
86.1229303
40
0.387835
50
329.9393371
51
351.7551786
0
ARC
8
DEFAULT_255_2_778
10
33.8173467
20
86.226128
40
0.9727754
50
350.6038798
51
359.7602359
0
LINE
8
DEFAULT_255_2_778
10
34.9528136
20
86.4771573
11
34.9528136
21
86.2662573
0
LINE
8
DEFAULT_255_2_778
10
34.1450136
20
86.2442573
11
34.1450136
21
86.4612573
0
LINE
8
DEFAULT_255_2_778
10
34.9528136
20
86.4771573
11
34.9528136
21
86.4771573
0
LINE
8
DEFAULT_255_2_778
10
34.7901136
20
86.2223573
11
34.7901136
21
86.4884573
0
LINE
8
DEFAULT_255_2_778
10
34.3075136
20
86.5009573
11
34.3075136
21
86.2408573
0
LINE
8
DEFAULT_255_2_778
10
34.7901136
20
86.2220573
11
34.7901136
21
86.2223573
0
LINE
8
DEFAULT_255_2_778
10
34.9813386
20
70.1998948
11
34.9813386
21
70.1086948
0
LINE
8
DEFAULT_255_2_778
10
34.9813386
20
70.1086948
11
34.4514386
21
68.9203948
0
LINE
8
DEFAULT_255_2_778
10
34.4514386
20
68.9203948
11
34.2809386
21
68.9203948
0
LINE
8
DEFAULT_255_2_778
10
34.2809386
20
68.9203948
11
34.8091386
21
70.0665948
0
LINE
8
DEFAULT_255_2_778
10
34.8091386
20
70.0665948
11
34.1164386
21
70.0665948
0
LINE
8
DEFAULT_255_2_778
10
34.1164386
20
70.0665948
11
34.1164386
21
70.2001948
0
LINE
8
DEFAULT_255_2_778
10
34.1164386
20
70.2001948
11
34.9813386
21
70.2001948
0
LINE
8
DEFAULT_255_2_778
10
34.9813386
20
70.2001948
11
34.9813386
21
70.1998948
0
ARC
8
DEFAULT_255_2_778
10
33.4668863
20
82.5309413
40
1.5011057
50
318.1481737
51
324.0616819
0
ARC
8
DEFAULT_255_2_778
10
34.2150563
20
81.9872668
40
0.5762611
50
324.1684826
51
331.3409174
0
ARC
8
DEFAULT_255_2_778
10
34.455202
20
81.8564962
40
0.302819
50
331.2608114
51
359.7914053
0
ARC
8
DEFAULT_255_2_778
10
34.5284693
20
81.8641558
40
0.2297169
50
357.8140377
51
42.6162874
0
ARC
8
DEFAULT_255_2_778
10
34.5454306
20
81.8717053
40
0.2122062
50
44.2171954
51
92.5960129
0
ARC
8
DEFAULT_255_2_778
10
34.520817
20
81.8324584
40
0.2516828
50
86.5827412
51
133.6416812
0
ARC
8
DEFAULT_255_2_778
10
34.5397695
20
81.8400316
40
0.2599733
50
137.8200169
51
182.181732
0
ARC
8
DEFAULT_255_2_778
10
34.7219074
20
81.8225198
40
0.4419883
50
179.0128226
51
180.003378
0
ARC
8
DEFAULT_255_2_778
10
34.4945999
20
81.8377845
40
0.3776905
50
134.2567836
51
182.3202464
0
ARC
8
DEFAULT_255_2_778
10
34.5083247
20
81.8073521
40
0.409224
50
90.5026382
51
132.6593239
0
ARC
8
DEFAULT_255_2_778
10
34.5352693
20
81.5815025
40
0.6357914
50
89.9774948
51
92.7527513
0
ARC
8
DEFAULT_255_2_778
10
34.5489311
20
81.7627819
40
0.4547097
50
63.5614971
51
91.6902314
0
ARC
8
DEFAULT_255_2_778
10
34.5976086
20
81.8796408
40
0.3285082
50
47.9540781
51
62.0886893
0
ARC
8
DEFAULT_255_2_778
10
34.602269
20
81.8878033
40
0.3193318
50
357.5932891
51
47.594189
0
ARC
8
DEFAULT_255_2_778
10
34.4982625
20
81.8873763
40
0.4232557
50
332.2173577
51
358.2422837
0
ARC
8
DEFAULT_255_2_778
10
34.0121917
20
82.1262904
40
0.9647753
50
320.7861291
51
333.1197366
0
ARC
8
DEFAULT_255_2_778
10
33.4581315
20
82.5557518
40
1.6656617
50
317.2122469
51
321.3895933
0
LINE
8
DEFAULT_255_2_778
10
34.9806191
20
81.0530937
11
34.9806191
21
80.9202937
0
LINE
8
DEFAULT_255_2_778
10
34.9806191
20
80.9202937
11
34.1421191
21
80.9202937
0
LINE
8
DEFAULT_255_2_778
10
34.1421191
20
80.9202937
11
34.1421191
21
81.0372937
0
LINE
8
DEFAULT_255_2_778
10
34.1421191
20
81.0372937
11
34.5850191
21
81.5293937
0
LINE
8
DEFAULT_255_2_778
10
34.2799191
20
81.8224937
11
34.1172191
21
81.8224937
0
LINE
8
DEFAULT_255_2_778
10
34.6805191
20
81.4242937
11
34.3376191
21
81.0525937
0
LINE
8
DEFAULT_255_2_778
10
34.3376191
20
81.0525937
11
34.9800191
21
81.0525937
0
LINE
8
DEFAULT_255_2_778
10
34.9800191
20
81.0525937
11
34.9806191
21
81.0530937
0
ARC
8
DEFAULT_255_2_778
10
34.5350208
20
79.5149546
40
0.2756229
50
268.060739
51
306.3182671
0
ARC
8
DEFAULT_255_2_778
10
34.5689248
20
79.4546578
40
0.2071293
50
308.6409195
51
311.6926989
0
ARC
8
DEFAULT_255_2_778
10
34.569924
20
79.4498383
40
0.2028808
50
312.3872818
51
2.6135653
0
ARC
8
DEFAULT_255_2_778
10
34.517129
20
79.4718192
40
0.2557817
50
357.1473526
51
31.0262333
0
ARC
8
DEFAULT_255_2_778
10
34.5802135
20
79.4890734
40
0.1936426
50
36.2796017
51
89.7765444
0
ARC
8
DEFAULT_255_2_778
10
34.5490906
20
79.2849787
40
0.3990114
50
85.4176025
51
90.0857021
0
ARC
8
DEFAULT_255_2_778
10
34.5367891
20
79.4519262
40
0.2323584
50
87.1125978
51
132.3717959
0
ARC
8
DEFAULT_255_2_778
10
34.5275921
20
79.4731775
40
0.2105945
50
134.4202135
51
182.4733003
0
ARC
8
DEFAULT_255_2_778
10
34.4809071
20
79.471354
40
0.3264941
50
131.2595155
51
181.2749324
0
ARC
8
DEFAULT_255_2_778
10
34.5331072
20
79.4121349
40
0.4054355
50
87.867489
51
131.2859621
0
ARC
8
DEFAULT_255_2_778
10
34.561508
20
79.3608756
40
0.4566081
50
64.2116776
51
91.6709214
0
ARC
8
DEFAULT_255_2_778
10
34.6125586
20
79.4853529
40
0.3224225
50
47.0865322
51
62.7566232
0
ARC
8
DEFAULT_255_2_778
10
34.5961258
20
79.4785192
40
0.3386967
50
359.1551642
51
45.8376469
0
ARC
8
DEFAULT_255_2_778
10
34.3897101
20
79.4551985
40
0.5453836
50
359.9885593
51
1.9256981
0
ARC
8
DEFAULT_255_2_778
10
34.6544406
20
79.4589475
40
0.2806797
50
323.8538843
51
359.2124498
0
ARC
8
DEFAULT_255_2_778
10
34.6136896
20
79.4788741
40
0.3254374
50
291.6952125
51
325.2529424
0
ARC
8
DEFAULT_255_2_778
10
34.6481366
20
78.8752837
40
0.3132035
50
37.4169629
51
74.0900844
0
ARC
8
DEFAULT_255_2_778
10
34.6481671
20
78.886353
40
0.306579
50
358.1937163
51
35.7771417
0
ARC
8
DEFAULT_255_2_778
10
34.6057375
20
78.8604002
40
0.3492363
50
312.6148362
51
2.6734057
0
ARC
8
DEFAULT_255_2_778
10
34.5710834
20
78.9171399
40
0.4146566
50
269.3305729
51
310.8301667
0
ARC
8
DEFAULT_255_2_778
10
34.549559
20
79.1284386
40
0.6261491
50
269.9940295
51
271.526461
0
ARC
8
DEFAULT_255_2_778
10
34.5351902
20
78.9576608
40
0.4555958
50
239.0860558
51
271.7991136
0
ARC
8
DEFAULT_255_2_778
10
34.5005471
20
78.8822018
40
0.3731684
50
229.1355803
51
237.6971103
0
ARC
8
DEFAULT_255_2_778
10
34.4666829
20
78.8458114
40
0.3234964
50
177.9489117
51
229.4545595
0
ARC
8
DEFAULT_255_2_778
10
34.5157659
20
78.8482357
40
0.2090727
50
177.490619
51
226.8555783
0
ARC
8
DEFAULT_255_2_778
10
34.5366698
20
78.8856116
40
0.2508501
50
229.2104195
51
272.9303441
0
ARC
8
DEFAULT_255_2_778
10
34.5626399
20
78.8983956
40
0.263634
50
267.1417481
51
303.6805505
0
ARC
8
DEFAULT_255_2_778
10
34.5991014
20
78.8288757
40
0.1857449
50
306.2144827
51
314.6741951
0
ARC
8
DEFAULT_255_2_778
10
34.5593715
20
78.8557098
40
0.2329492
50
316.9834164
51
2.3995093
0
ARC
8
DEFAULT_255_2_778
10
34.3782739
20
78.8734671
40
0.41392
50
358.8919447
51
0.0031084
0
ARC
8
DEFAULT_255_2_778
10
34.5771854
20
78.8870416
40
0.215435
50
356.3933926
51
47.1518137
0
ARC
8
DEFAULT_255_2_778
10
34.5531666
20
78.8320788
40
0.2727829
50
51.3076241
51
87.5430421
0
ARC
8
DEFAULT_255_2_778
10
34.5195955
20
78.5981261
40
0.5085036
50
84.8929966
51
89.2790529
0
LINE
8
DEFAULT_255_2_778
10
34.4034938
20
79.1065896
11
34.4034938
21
79.2394896
0
LINE
8
DEFAULT_255_2_778
10
34.4034938
20
79.2394896
11
34.5256938
21
79.2394896
0
LINE
8
DEFAULT_255_2_778
10
34.3171938
20
79.4640896
11
34.1544938
21
79.4640896
0
LINE
8
DEFAULT_255_2_778
10
34.1433938
20
78.8573896
11
34.3068938
21
78.8573896
0
LINE
8
DEFAULT_255_2_778
10
34.5259938
20
79.1065896
11
34.4036938
21
79.1065896
0
LINE
8
DEFAULT_255_2_778
10
34.4036938
20
79.1065896
11
34.4034938
21
79.1065896
0
LINE
8
DEFAULT_255_2_778
10
34.8331698
20
77.4000948
11
34.8331698
21
76.5502948
0
LINE
8
DEFAULT_255_2_778
10
34.8331698
20
76.5502948
11
35.0107698
21
76.5502948
0
LINE
8
DEFAULT_255_2_778
10
35.0107698
20
76.5502948
11
35.0107698
21
76.4173948
0
LINE
8
DEFAULT_255_2_778
10
35.0107698
20
76.4173948
11
34.8331698
21
76.4173948
0
LINE
8
DEFAULT_255_2_778
10
34.8331698
20
76.4173948
11
34.8331698
21
76.1202948
0
LINE
8
DEFAULT_255_2_778
10
34.8331698
20
76.1202948
11
34.6696698
21
76.1202948
0
LINE
8
DEFAULT_255_2_778
10
34.6696698
20
76.1202948
11
34.6696698
21
76.4173948
0
LINE
8
DEFAULT_255_2_778
10
34.6696698
20
76.4173948
11
34.0870698
21
76.4173948
0
LINE
8
DEFAULT_255_2_778
10
34.0870698
20
76.4173948
11
34.0870698
21
76.5131948
0
LINE
8
DEFAULT_255_2_778
10
34.0870698
20
76.5131948
11
34.6601698
21
77.4000948
0
LINE
8
DEFAULT_255_2_778
10
34.6601698
20
77.4000948
11
34.8331698
21
77.4000948
0
LINE
8
DEFAULT_255_2_778
10
34.8331698
20
77.4000948
11
34.8331698
21
77.4000948
0
LINE
8
DEFAULT_255_2_778
10
34.6503698
20
77.1426948
11
34.2714698
21
76.5502948
0
LINE
8
DEFAULT_255_2_778
10
34.2714698
20
76.5502948
11
34.6696698
21
76.5502948
0
LINE
8
DEFAULT_255_2_778
10
34.6696698
20
76.5502948
11
34.6696698
21
77.1778948
0
LINE
8
DEFAULT_255_2_778
10
34.6696698
20
77.1778948
11
34.6503698
21
77.1426948
0
LINE
8
DEFAULT_255_2_778
10
34.6503698
20
77.1426948
11
34.6503698
21
77.1426948
0
ARC
8
DEFAULT_255_2_778
10
34.5632131
20
74.1433759
40
0.4127421
50
89.0254153
51
120.0174158
0
ARC
8
DEFAULT_255_2_778
10
34.5863498
20
74.2031955
40
0.3532307
50
42.1979227
51
92.615079
0
ARC
8
DEFAULT_255_2_778
10
34.5249985
20
74.1659043
40
0.4239474
50
3.0178501
51
40.3618948
0
ARC
8
DEFAULT_255_2_778
10
34.2668675
20
74.1289131
40
0.6840665
50
359.9200324
51
4.9739806
0
ARC
8
DEFAULT_255_2_778
10
34.4513873
20
74.1146432
40
0.4997235
50
334.8652798
51
1.5268206
0
ARC
8
DEFAULT_255_2_778
10
34.5808184
20
74.0629692
40
0.3606926
50
316.8653583
51
333.5634754
0
ARC
8
DEFAULT_255_2_778
10
34.5760095
20
74.0784961
40
0.374904
50
270.9505423
51
315.6360932
0
ARC
8
DEFAULT_255_2_778
10
34.5460152
20
74.3071555
40
0.6045974
50
269.9638148
51
273.4339132
0
ARC
8
DEFAULT_255_2_778
10
34.5306401
20
74.1170094
40
0.4147222
50
234.7443894
51
272.0718343
0
ARC
8
DEFAULT_255_2_778
10
34.5052017
20
74.0662131
40
0.3586609
50
228.7740612
51
233.378688
0
ARC
8
DEFAULT_255_2_778
10
34.5219483
20
74.0741326
40
0.3757262
50
182.6809384
51
227.6491493
0
ARC
8
DEFAULT_255_2_778
10
34.5611786
20
74.0779899
40
0.2617242
50
184.6969865
51
223.9612996
0
ARC
8
DEFAULT_255_2_778
10
34.508394
20
74.0386285
40
0.1965814
50
226.383758
51
228.6936106
0
ARC
8
DEFAULT_255_2_778
10
34.5340344
20
74.0778112
40
0.2430298
50
230.2505091
51
272.7355565
0
ARC
8
DEFAULT_255_2_778
10
34.556262
20
74.0543918
40
0.2195909
50
267.2256723
51
319.6985053
0
ARC
8
DEFAULT_255_2_778
10
34.4838856
20
74.0981472
40
0.3033883
50
322.2382087
51
358.9766303
0
ARC
8
DEFAULT_255_2_778
10
34.2575384
20
74.1254218
40
0.5306951
50
356.4680941
51
0.0471323
0
ARC
8
DEFAULT_255_2_778
10
34.4915832
20
74.1402612
40
0.2969996
50
357.2203641
51
40.1990892
0
ARC
8
DEFAULT_255_2_778
10
34.542311
20
74.1721339
40
0.2378296
50
42.2225568
51
92.3803194
0
ARC
8
DEFAULT_255_2_778
10
34.5195839
20
74.1270721
40
0.2829781
50
87.3974225
51
119.7331997
0
ARC
8
DEFAULT_255_2_778
10
34.4775303
20
74.2172841
40
0.1839701
50
122.2955644
51
127.5404549
0
LINE
8
DEFAULT_255_2_778
10
34.3225333
20
74.3285583
11
34.1924333
21
74.3618583
0
LINE
8
DEFAULT_255_2_778
10
34.1924333
20
74.3618583
11
34.2575333
21
75.0000583
0
LINE
8
DEFAULT_255_2_778
10
34.2575333
20
75.0000583
11
34.9131333
21
75.0000583
0
LINE
8
DEFAULT_255_2_778
10
34.9131333
20
75.0000583
11
34.9131333
21
74.8497583
0
LINE
8
DEFAULT_255_2_778
10
34.9131333
20
74.8497583
11
34.3953333
21
74.8497583
0
LINE
8
DEFAULT_255_2_778
10
34.3953333
20
74.8497583
11
34.3567333
21
74.5007583
0
LINE
8
DEFAULT_255_2_778
10
34.1466333
20
74.0565583
11
34.3003333
21
74.0565583
0
LINE
8
DEFAULT_255_2_778
10
34.3654333
20
74.3631583
11
34.3223333
21
74.3280583
0
LINE
8
DEFAULT_255_2_778
10
34.3223333
20
74.3280583
11
34.3225333
21
74.3285583
0
ARC
8
DEFAULT_255_2_778
10
34.7375855
20
72.0000777
40
0.4628129
50
89.2904717
51
120.4638528
0
ARC
8
DEFAULT_255_2_778
10
34.6979465
20
72.0854104
40
0.3692757
50
121.875358
51
134.1315874
0
ARC
8
DEFAULT_255_2_778
10
34.7539429
20
72.0417439
40
0.4397166
50
135.4067806
51
171.919749
0
ARC
8
DEFAULT_255_2_778
10
35.0099912
20
71.9820772
40
0.7019893
50
170.0353025
51
174.9593978
0
ARC
8
DEFAULT_255_2_778
10
34.5699218
20
71.8130572
40
0.3469998
50
87.2423246
51
138.3302539
0
ARC
8
DEFAULT_255_2_778
10
34.5996276
20
71.8281251
40
0.3317853
50
40.1269462
51
92.2474158
0
ARC
8
DEFAULT_255_2_778
10
34.5105112
20
71.7629232
40
0.4420118
50
0.4806896
51
39.1444171
0
ARC
8
DEFAULT_255_2_778
10
34.2873788
20
71.7381615
40
0.6657377
50
359.9822425
51
2.4509726
0
ARC
8
DEFAULT_255_2_778
10
34.4512292
20
71.7243285
40
0.5020725
50
333.3266683
51
1.5552497
0
ARC
8
DEFAULT_255_2_778
10
34.5619202
20
71.6785529
40
0.3827133
50
317.7956922
51
332.0112968
0
ARC
8
DEFAULT_255_2_778
10
34.5732543
20
71.6735928
40
0.3710064
50
267.4451907
51
317.187254
0
ARC
8
DEFAULT_255_2_778
10
34.5472745
20
71.6682025
40
0.3653694
50
217.861526
51
271.4808513
0
ARC
8
DEFAULT_255_2_778
10
34.676763
20
71.7705711
40
0.530431
50
182.9504293
51
218.0068451
0
ARC
8
DEFAULT_255_2_778
10
34.9447266
20
71.8067105
40
0.8002103
50
179.9395218
51
184.5472601
0
ARC
8
DEFAULT_255_2_778
10
35.37365
20
71.8826439
40
1.2291989
50
168.0458743
51
180.5914601
0
ARC
8
DEFAULT_255_2_778
10
34.826342
20
72.0046683
40
0.6685122
50
144.5203044
51
168.5614105
0
ARC
8
DEFAULT_255_2_778
10
34.7040736
20
72.0800298
40
0.5252932
50
141.0914952
51
143.4733652
0
ARC
8
DEFAULT_255_2_778
10
34.6894377
20
72.0840954
40
0.5113864
50
96.7800799
51
140.4160106
0
ARC
8
DEFAULT_255_2_778
10
34.7539083
20
71.768315
40
0.8329989
50
90.6803851
51
98.6195746
0
ARC
8
DEFAULT_255_2_778
10
34.5587265
20
71.7650339
40
0.2594222
50
89.8475581
51
126.1708732
0
ARC
8
DEFAULT_255_2_778
10
34.5529802
20
71.7592936
40
0.2607882
50
124.4071337
51
159.9376288
0
ARC
8
DEFAULT_255_2_778
10
34.7754993
20
71.7760616
40
0.4676604
50
178.4201348
51
203.9385729
0
ARC
8
DEFAULT_255_2_778
10
34.6363422
20
71.7231191
40
0.3190937
50
205.3887467
51
216.3125088
0
ARC
8
DEFAULT_255_2_778
10
34.5577654
20
71.6510791
40
0.2134265
50
213.2190618
51
269.7184507
0
ARC
8
DEFAULT_255_2_778
10
34.5652003
20
71.6445323
40
0.207051
50
267.6517382
51
322.5235511
0
ARC
8
DEFAULT_255_2_778
10
34.4634926
20
71.7120421
40
0.3289468
50
323.9705337
51
1.1046652
0
ARC
8
DEFAULT_255_2_778
10
34.2620024
20
71.7305012
40
0.5305143
50
358.691206
51
0.0058351
0
ARC
8
DEFAULT_255_2_778
10
34.4455629
20
71.7441857
40
0.3472214
50
357.750215
51
31.9703739
0
ARC
8
DEFAULT_255_2_778
10
34.5203553
20
71.7806619
40
0.2646016
50
33.8453919
51
38.0518
0
ARC
8
DEFAULT_255_2_778
10
34.5655595
20
71.8206549
40
0.2043868
50
37.0341675
51
91.6661979
0
LINE
8
DEFAULT_255_2_778
10
34.7440167
20
72.6009552
11
34.7731167
21
72.6009552
0
LINE
8
DEFAULT_255_2_778
10
34.7731167
20
72.6009552
11
34.7731167
21
72.4628552
0
LINE
8
DEFAULT_255_2_778
10
34.7731167
20
72.4628552
11
34.7433167
21
72.4628552
0
LINE
8
DEFAULT_255_2_778
10
34.1445167
20
71.8075552
11
34.1445167
21
71.8699552
0
LINE
8
DEFAULT_255_2_778
10
34.7440167
20
72.6012552
11
34.7440167
21
72.6009552
0
LINE
8
DEFAULT_255_2_778
10
34.3080167
20
71.8487552
11
34.3080167
21
71.7889552
0
LINE
8
DEFAULT_255_2_778
10
34.5596167
20
72.0249552
11
34.5594167
21
72.0244552
0
ARC
8
DEFAULT_255_2_778
10
36.7383053
20
86.1578837
40
0.7978078
50
129.5171775
51
180.1424671
0
ARC
8
DEFAULT_255_2_778
10
36.73859
20
86.1584506
40
0.7975518
50
89.8555981
51
129.5588646
0
ARC
8
DEFAULT_255_2_778
10
36.7425838
20
86.1581947
40
0.7978078
50
39.5171775
51
90.1424671
0
ARC
8
DEFAULT_255_2_778
10
36.7431506
20
86.15791
40
0.7975518
50
359.8555981
51
39.5588646
0
ARC
8
DEFAULT_255_2_778
10
36.7428947
20
86.1539162
40
0.7978078
50
309.5171775
51
0.1424671
0
ARC
8
DEFAULT_255_2_778
10
36.7426101
20
86.1533494
40
0.7975518
50
269.8555981
51
309.5588646
0
ARC
8
DEFAULT_255_2_778
10
36.7386163
20
86.1536053
40
0.7978078
50
219.5171775
51
270.1424671
0
ARC
8
DEFAULT_255_2_778
10
36.7380494
20
86.1538899
40
0.7975518
50
179.8555981
51
219.5588646
0
LINE
8
DEFAULT_255_2_778
10
35.9405
20
86.1559
11
35.9405
21
86.1559
0
ARC
8
DEFAULT_255_2_778
10
36.7383053
20
76.5579837
40
0.7978078
50
129.5171775
51
180.1424671
0
ARC
8
DEFAULT_255_2_778
10
36.73859
20
76.5585506
40
0.7975518
50
89.8555981
51
129.5588646
0
ARC
8
DEFAULT_255_2_778
10
36.7425838
20
76.5582947
40
0.7978078
50
39.5171775
51
90.1424671
0
ARC
8
DEFAULT_255_2_778
10
36.7431506
20
76.55801
40
0.7975518
50
359.8555981
51
39.5588646
0
ARC
8
DEFAULT_255_2_778
10
36.7428947
20
76.5540162
40
0.7978078
50
309.5171775
51
0.1424671
0
ARC
8
DEFAULT_255_2_778
10
36.7426101
20
76.5534494
40
0.7975518
50
269.8555981
51
309.5588646
0
ARC
8
DEFAULT_255_2_778
10
36.7386163
20
76.5537053
40
0.7978078
50
219.5171775
51
270.1424671
0
ARC
8
DEFAULT_255_2_778
10
36.7380494
20
76.5539899
40
0.7975518
50
179.8555981
51
219.5588646
0
LINE
8
DEFAULT_255_2_778
10
35.9405
20
76.556
11
35.9405
21
76.556
0
ARC
8
DEFAULT_255_2_778
10
36.7383053
20
78.9577837
40
0.7978078
50
129.5171775
51
180.1424671
0
ARC
8
DEFAULT_255_2_778
10
36.73859
20
78.9583506
40
0.7975518
50
89.8555981
51
129.5588646
0
ARC
8
DEFAULT_255_2_778
10
36.7425838
20
78.9580947
40
0.7978078
50
39.5171775
51
90.1424671
0
ARC
8
DEFAULT_255_2_778
10
36.7431506
20
78.95781
40
0.7975518
50
359.8555981
51
39.5588646
0
ARC
8
DEFAULT_255_2_778
10
36.7428947
20
78.9538162
40
0.7978078
50
309.5171775
51
0.1424671
0
ARC
8
DEFAULT_255_2_778
10
36.7426101
20
78.9532494
40
0.7975518
50
269.8555981
51
309.5588646
0
ARC
8
DEFAULT_255_2_778
10
36.7386163
20
78.9535053
40
0.7978078
50
219.5171775
51
270.1424671
0
ARC
8
DEFAULT_255_2_778
10
36.7380494
20
78.9537899
40
0.7975518
50
179.8555981
51
219.5588646
0
LINE
8
DEFAULT_255_2_778
10
35.9405
20
78.9558
11
35.9405
21
78.9558
0
ARC
8
DEFAULT_255_2_778
10
36.7383053
20
81.3577837
40
0.7978078
50
129.5171775
51
180.1424671
0
ARC
8
DEFAULT_255_2_778
10
36.73859
20
81.3583506
40
0.7975518
50
89.8555981
51
129.5588646
0
ARC
8
DEFAULT_255_2_778
10
36.7425838
20
81.3580947
40
0.7978078
50
39.5171775
51
90.1424671
0
ARC
8
DEFAULT_255_2_778
10
36.7431506
20
81.35781
40
0.7975518
50
359.8555981
51
39.5588646
0
ARC
8
DEFAULT_255_2_778
10
36.7428947
20
81.3538162
40
0.7978078
50
309.5171775
51
0.1424671
0
ARC
8
DEFAULT_255_2_778
10
36.7426101
20
81.3532494
40
0.7975518
50
269.8555981
51
309.5588646
0
ARC
8
DEFAULT_255_2_778
10
36.7386163
20
81.3535053
40
0.7978078
50
219.5171775
51
270.1424671
0
ARC
8
DEFAULT_255_2_778
10
36.7380494
20
81.3537899
40
0.7975518
50
179.8555981
51
219.5588646
0
LINE
8
DEFAULT_255_2_778
10
35.9405
20
81.3558
11
35.9405
21
81.3558
0
ARC
8
DEFAULT_255_2_778
10
36.7383053
20
83.7578837
40
0.7978078
50
129.5171775
51
180.1424671
0
ARC
8
DEFAULT_255_2_778
10
36.73859
20
83.7584506
40
0.7975518
50
89.8555981
51
129.5588646
0
ARC
8
DEFAULT_255_2_778
10
36.7425838
20
83.7581947
40
0.7978078
50
39.5171775
51
90.1424671
0
ARC
8
DEFAULT_255_2_778
10
36.7431506
20
83.75791
40
0.7975518
50
359.8555981
51
39.5588646
0
ARC
8
DEFAULT_255_2_778
10
36.7428947
20
83.7539162
40
0.7978078
50
309.5171775
51
0.1424671
0
ARC
8
DEFAULT_255_2_778
10
36.7426101
20
83.7533494
40
0.7975518
50
269.8555981
51
309.5588646
0
ARC
8
DEFAULT_255_2_778
10
36.7386163
20
83.7536053
40
0.7978078
50
219.5171775
51
270.1424671
0
ARC
8
DEFAULT_255_2_778
10
36.7380494
20
83.7538899
40
0.7975518
50
179.8555981
51
219.5588646
0
LINE
8
DEFAULT_255_2_778
10
35.9405
20
83.7559
11
35.9405
21
83.7559
0
ARC
8
DEFAULT_255_2_778
10
36.7383053
20
71.7579837
40
0.7978078
50
129.5171775
51
180.1424671
0
ARC
8
DEFAULT_255_2_778
10
36.73859
20
71.7585506
40
0.7975518
50
89.8555981
51
129.5588646
0
ARC
8
DEFAULT_255_2_778
10
36.7425838
20
71.7582947
40
0.7978078
50
39.5171775
51
90.1424671
0
ARC
8
DEFAULT_255_2_778
10
36.7431506
20
71.75801
40
0.7975518
50
359.8555981
51
39.5588646
0
ARC
8
DEFAULT_255_2_778
10
36.7428947
20
71.7540162
40
0.7978078
50
309.5171775
51
0.1424671
0
ARC
8
DEFAULT_255_2_778
10
36.7426101
20
71.7534494
40
0.7975518
50
269.8555981
51
309.5588646
0
ARC
8
DEFAULT_255_2_778
10
36.7386163
20
71.7537053
40
0.7978078
50
219.5171775
51
270.1424671
0
ARC
8
DEFAULT_255_2_778
10
36.7380494
20
71.7539899
40
0.7975518
50
179.8555981
51
219.5588646
0
LINE
8
DEFAULT_255_2_778
10
35.9405
20
71.756
11
35.9405
21
71.756
0
ARC
8
DEFAULT_255_2_778
10
36.7383053
20
74.1579837
40
0.7978078
50
129.5171775
51
180.1424671
0
ARC
8
DEFAULT_255_2_778
10
36.73859
20
74.1585506
40
0.7975518
50
89.8555981
51
129.5588646
0
ARC
8
DEFAULT_255_2_778
10
36.7425838
20
74.1582947
40
0.7978078
50
39.5171775
51
90.1424671
0
ARC
8
DEFAULT_255_2_778
10
36.7431506
20
74.15801
40
0.7975518
50
359.8555981
51
39.5588646
0
ARC
8
DEFAULT_255_2_778
10
36.7428947
20
74.1540162
40
0.7978078
50
309.5171775
51
0.1424671
0
ARC
8
DEFAULT_255_2_778
10
36.7426101
20
74.1534494
40
0.7975518
50
269.8555981
51
309.5588646
0
ARC
8
DEFAULT_255_2_778
10
36.7386163
20
74.1537053
40
0.7978078
50
219.5171775
51
270.1424671
0
ARC
8
DEFAULT_255_2_778
10
36.7380494
20
74.1539899
40
0.7975518
50
179.8555981
51
219.5588646
0
LINE
8
DEFAULT_255_2_778
10
35.9405
20
74.156
11
35.9405
21
74.156
0
ARC
8
DEFAULT_255_2_778
10
36.7383053
20
69.3578837
40
0.7978078
50
129.5171775
51
180.1424671
0
ARC
8
DEFAULT_255_2_778
10
36.73859
20
69.3584506
40
0.7975518
50
89.8555981
51
129.5588646
0
ARC
8
DEFAULT_255_2_778
10
36.7425838
20
69.3581947
40
0.7978078
50
39.5171775
51
90.1424671
0
ARC
8
DEFAULT_255_2_778
10
36.7431506
20
69.35791
40
0.7975518
50
359.8555981
51
39.5588646
0
ARC
8
DEFAULT_255_2_778
10
36.7428947
20
69.3539162
40
0.7978078
50
309.5171775
51
0.1424671
0
ARC
8
DEFAULT_255_2_778
10
36.7426101
20
69.3533494
40
0.7975518
50
269.8555981
51
309.5588646
0
ARC
8
DEFAULT_255_2_778
10
36.7386163
20
69.3536053
40
0.7978078
50
219.5171775
51
270.1424671
0
ARC
8
DEFAULT_255_2_778
10
36.7380494
20
69.3538899
40
0.7975518
50
179.8555981
51
219.5588646
0
LINE
8
DEFAULT_255_2_778
10
35.9405
20
69.3559
11
35.9405
21
69.3559
0
LINE
8
DEFAULT_255_2_778
10
34.7946212
20
18.6062375
11
34.7946212
21
17.3203375
0
LINE
8
DEFAULT_255_2_778
10
34.7946212
20
17.3203375
11
34.6310212
21
17.3203375
0
LINE
8
DEFAULT_255_2_778
10
34.6310212
20
17.3203375
11
34.6310212
21
18.4041375
0
LINE
8
DEFAULT_255_2_778
10
34.6310212
20
18.4041375
11
34.3032212
21
18.2837375
0
LINE
8
DEFAULT_255_2_778
10
34.3032212
20
18.2837375
11
34.3032212
21
18.4313375
0
LINE
8
DEFAULT_255_2_778
10
34.3032212
20
18.4313375
11
34.7691212
21
18.6062375
0
LINE
8
DEFAULT_255_2_778
10
34.7691212
20
18.6062375
11
34.7946212
21
18.6062375
0
LINE
8
DEFAULT_255_2_778
10
34.7946212
20
18.6062375
11
34.7946212
21
18.6062375
0
ARC
8
DEFAULT_255_2_778
10
29.5425292
20
20.3055041
40
0.8309625
50
341.0366301
51
0.9160884
0
ARC
8
DEFAULT_255_2_778
10
29.7355362
20
20.2492614
40
0.6302259
50
335.7573552
51
340.1701859
0
ARC
8
DEFAULT_255_2_778
10
29.8694084
20
20.1776162
40
0.4788537
50
303.0820271
51
336.9969258
0
ARC
8
DEFAULT_255_2_778
10
29.8711056
20
20.195534
40
0.4930676
50
268.7193175
51
301.7801739
0
ARC
8
DEFAULT_255_2_778
10
29.8513942
20
20.1911708
40
0.4886585
50
237.9503149
51
271.0191062
0
ARC
8
DEFAULT_255_2_778
10
29.8588233
20
20.1891408
40
0.4909356
50
204.0728107
51
237.0896851
0
ARC
8
DEFAULT_255_2_778
10
30.0966507
20
20.2972524
40
0.752179
50
180.5055064
51
204.2022828
0
ARC
8
DEFAULT_255_2_778
10
30.3659658
20
20.3181613
40
1.021836
50
180.5983913
51
181.5446822
0
ARC
8
DEFAULT_255_2_778
10
30.1458931
20
20.4130935
40
0.801818
50
159.1166809
51
180.9507107
0
ARC
8
DEFAULT_255_2_778
10
29.9908882
20
20.4619304
40
0.6396594
50
155.6380534
51
158.2544865
0
ARC
8
DEFAULT_255_2_778
10
29.8577137
20
20.53364
40
0.4888733
50
123.2475228
51
156.8558559
0
ARC
8
DEFAULT_255_2_778
10
29.8496188
20
20.5307038
40
0.4869629
50
88.9802332
51
122.2615294
0
ARC
8
DEFAULT_255_2_778
10
29.8680523
20
20.5211402
40
0.4965454
50
58.2304561
51
91.1270622
0
ARC
8
DEFAULT_255_2_778
10
29.867462
20
20.539982
40
0.4809504
50
22.9980982
51
56.9887698
0
ARC
8
DEFAULT_255_2_778
10
29.599186
20
20.4227058
40
0.7737295
50
0.8526201
51
23.2305619
0
ARC
8
DEFAULT_255_2_778
10
29.3000916
20
20.3996946
40
1.0732938
50
359.9890556
51
1.8433529
0
ARC
8
DEFAULT_255_2_778
10
29.4247559
20
20.4142061
40
0.7810299
50
359.0817562
51
14.7872443
0
ARC
8
DEFAULT_255_2_778
10
29.7792769
20
20.5066865
40
0.4146479
50
14.9347011
51
36.0818856
0
ARC
8
DEFAULT_255_2_778
10
29.8721436
20
20.5714168
40
0.3014823
50
36.5341075
51
92.5965773
0
ARC
8
DEFAULT_255_2_778
10
29.8471926
20
20.5746148
40
0.2981887
50
87.8296111
51
143.7612122
0
ARC
8
DEFAULT_255_2_778
10
29.9914566
20
20.4755466
40
0.4731412
50
144.4124166
51
172.3067117
0
ARC
8
DEFAULT_255_2_778
10
30.3584529
20
20.4065351
40
0.846292
50
171.0026216
51
179.5630117
0
ARC
8
DEFAULT_255_2_778
10
30.2445532
20
20.3064394
40
0.732477
50
179.010432
51
196.51769
0
ARC
8
DEFAULT_255_2_778
10
29.9525463
20
20.2237299
40
0.4290214
50
197.0151212
51
215.8462869
0
ARC
8
DEFAULT_255_2_778
10
29.8490525
20
20.1453036
40
0.2992175
50
215.2786307
51
272.1131156
0
ARC
8
DEFAULT_255_2_778
10
29.8744725
20
20.144398
40
0.2984554
50
267.2369752
51
323.1456547
0
ARC
8
DEFAULT_255_2_778
10
29.7421666
20
20.2297777
40
0.4556647
50
324.5336084
51
351.2340053
0
ARC
8
DEFAULT_255_2_778
10
29.3317565
20
20.3115951
40
0.8739417
50
350.0331527
51
359.6915017
0
LINE
8
DEFAULT_255_2_778
10
30.3733854
20
20.3997896
11
30.3733854
21
20.3187896
0
LINE
8
DEFAULT_255_2_778
10
29.3441854
20
20.3074896
11
29.3441854
21
20.3997896
0
LINE
8
DEFAULT_255_2_778
10
30.3733854
20
20.3994896
11
30.3733854
21
20.3997896
0
LINE
8
DEFAULT_255_2_778
10
30.2056854
20
20.3066896
11
30.2056854
21
20.4016896
0
LINE
8
DEFAULT_255_2_778
10
29.5121854
20
20.4129896
11
29.5121854
21
20.3190896
0
LINE
8
DEFAULT_255_2_778
10
30.2056854
20
20.3068896
11
30.2056854
21
20.3066896
0
ARC
8
DEFAULT_255_2_778
10
31.1198975
20
20.1165641
40
0.4075685
50
316.0747595
51
1.8787477
0
ARC
8
DEFAULT_255_2_778
10
31.1008541
20
20.152414
40
0.4463323
50
274.6180105
51
314.4558027
0
ARC
8
DEFAULT_255_2_778
10
31.0585189
20
20.3784683
40
0.6754877
50
274.1197597
51
276.6539506
0
ARC
8
DEFAULT_255_2_778
10
31.0488509
20
20.2443751
40
0.5417172
50
245.1232453
51
271.4275742
0
ARC
8
DEFAULT_255_2_778
10
30.997405
20
20.1133684
40
0.4013131
50
227.7252109
51
243.918496
0
ARC
8
DEFAULT_255_2_778
10
30.9999567
20
20.1073182
40
0.3985973
50
179.6270662
51
226.8687461
0
ARC
8
DEFAULT_255_2_778
10
31.2177335
20
20.1332166
40
0.6168061
50
180.4542952
51
182.1652509
0
ARC
8
DEFAULT_255_2_778
10
31.0810764
20
20.1199087
40
0.3134298
50
177.4916363
51
213.5452006
0
ARC
8
DEFAULT_255_2_778
10
31.0128594
20
20.0850121
40
0.237447
50
215.6236849
51
224.7907498
0
ARC
8
DEFAULT_255_2_778
10
31.0368182
20
20.1222495
40
0.2808471
50
226.7388811
51
269.9120095
0
ARC
8
DEFAULT_255_2_778
10
31.0620724
20
20.3284076
40
0.4876817
50
266.9809239
51
270.0322529
0
ARC
8
DEFAULT_255_2_778
10
31.0754783
20
20.1726835
40
0.3322171
50
267.7347006
51
299.5772268
0
ARC
8
DEFAULT_255_2_778
10
31.118928
20
20.0794974
40
0.2298739
50
301.6236153
51
315.0964947
0
ARC
8
DEFAULT_255_2_778
10
31.0753801
20
20.1091382
40
0.2818112
50
317.0785125
51
0.4200862
0
ARC
8
DEFAULT_255_2_778
10
30.875182
20
20.1323415
40
0.4824648
50
357.4890313
51
0.0219177
0
LINE
8
DEFAULT_255_2_778
10
31.3576469
20
21.000126
11
31.5272469
21
21.000126
0
LINE
8
DEFAULT_255_2_778
10
31.5272469
20
21.000126
11
31.5272469
21
20.129926
0
LINE
8
DEFAULT_255_2_778
10
31.1070469
20
19.704726
11
31.0623469
21
19.702826
0
LINE
8
DEFAULT_255_2_778
10
30.6009469
20
20.128326
11
30.6009469
21
21.000126
0
LINE
8
DEFAULT_255_2_778
10
30.6009469
20
21.000126
11
30.7679469
21
21.000126
0
LINE
8
DEFAULT_255_2_778
10
30.7679469
20
21.000126
11
30.7679469
21
20.133626
0
LINE
8
DEFAULT_255_2_778
10
31.3576469
20
20.132526
11
31.3576469
21
21.000126
0
LINE
8
DEFAULT_255_2_778
10
31.3576469
20
21.000126
11
31.3576469
21
21.000126
0
LINE
8
DEFAULT_255_2_778
10
32.6776292
20
21.0000948
11
32.6776292
21
20.8611948
0
LINE
8
DEFAULT_255_2_778
10
32.6776292
20
20.8611948
11
32.2662292
21
20.8611948
0
LINE
8
DEFAULT_255_2_778
10
32.2662292
20
20.8611948
11
32.2662292
21
19.7202948
0
LINE
8
DEFAULT_255_2_778
10
32.2662292
20
19.7202948
11
32.0985292
21
19.7202948
0
LINE
8
DEFAULT_255_2_778
10
32.0985292
20
19.7202948
11
32.0985292
21
20.8611948
0
LINE
8
DEFAULT_255_2_778
10
32.0985292
20
20.8611948
11
31.6881292
21
20.8611948
0
LINE
8
DEFAULT_255_2_778
10
31.6881292
20
20.8611948
11
31.6881292
21
21.0000948
0
LINE
8
DEFAULT_255_2_778
10
31.6881292
20
21.0000948
11
32.6776292
21
21.0000948
0
LINE
8
DEFAULT_255_2_778
10
32.6776292
20
21.0000948
11
32.6776292
21
21.0000948
0
ARC
8
DEFAULT_255_2_778
10
33.7737394
20
20.2537836
40
1.1791391
50
349.764511
51
0.6012647
0
ARC
8
DEFAULT_255_2_778
10
34.3971446
20
20.1351441
40
0.5446059
50
329.5772712
51
350.3932163
0
ARC
8
DEFAULT_255_2_778
10
34.5591605
20
20.0502217
40
0.3620023
50
324.8397749
51
328.1825432
0
ARC
8
DEFAULT_255_2_778
10
34.586409
20
20.0359726
40
0.3315445
50
271.3411255
51
324.1412023
0
ARC
8
DEFAULT_255_2_778
10
34.5507333
20
20.2712911
40
0.5684341
50
269.9375361
51
274.3823902
0
ARC
8
DEFAULT_255_2_778
10
34.5365197
20
20.1093343
40
0.4067042
50
241.1105814
51
271.9154337
0
ARC
8
DEFAULT_255_2_778
10
34.4965586
20
20.017564
40
0.3071908
50
215.642227
51
239.3667636
0
ARC
8
DEFAULT_255_2_778
10
34.6622135
20
20.124151
40
0.5040217
50
191.1001317
51
214.5155515
0
ARC
8
DEFAULT_255_2_778
10
35.213054
20
20.2457068
40
1.0680415
50
180.0831259
51
191.8099682
0
ARC
8
DEFAULT_255_2_778
10
35.2961566
20
20.4733084
40
1.1512072
50
169.6461735
51
180.6047741
0
ARC
8
DEFAULT_255_2_778
10
34.6886569
20
20.5905766
40
0.5325594
50
148.9109651
51
170.3105254
0
ARC
8
DEFAULT_255_2_778
10
34.5344603
20
20.6731104
40
0.3580044
50
144.6075483
51
147.4795163
0
ARC
8
DEFAULT_255_2_778
10
34.5097699
20
20.6840082
40
0.3316094
50
92.00118
51
143.6717048
0
ARC
8
DEFAULT_255_2_778
10
34.5477069
20
20.4443503
40
0.5732076
50
89.9193726
51
94.9557001
0
ARC
8
DEFAULT_255_2_778
10
34.5616018
20
20.5922064
40
0.4255522
50
63.5880093
51
91.7624669
0
ARC
8
DEFAULT_255_2_778
10
34.6101676
20
20.7083283
40
0.3000589
50
36.1319755
51
62.0302086
0
ARC
8
DEFAULT_255_2_778
10
34.4583826
20
20.6110361
40
0.4801421
50
11.2825885
51
34.8287118
0
ARC
8
DEFAULT_255_2_778
10
33.8943885
20
20.4838148
40
1.0582254
50
0.5063302
51
12.0632639
0
ARC
8
DEFAULT_255_2_778
10
33.4051704
20
20.46196
40
1.5477168
50
0.5589044
51
1.1553252
0
ARC
8
DEFAULT_255_2_778
10
33.8327155
20
20.5008194
40
0.9574753
50
359.2721952
51
9.9911853
0
ARC
8
DEFAULT_255_2_778
10
34.4129185
20
20.6074249
40
0.3676011
50
9.3169706
51
29.7361101
0
ARC
8
DEFAULT_255_2_778
10
34.5622359
20
20.6853136
40
0.1994164
50
31.5839171
51
93.9457895
0
ARC
8
DEFAULT_255_2_778
10
34.5347789
20
20.6876583
40
0.1970781
50
86.00375
51
148.627466
0
ARC
8
DEFAULT_255_2_778
10
34.7144691
20
20.5947551
40
0.3991167
50
150.6701206
51
172.3632395
0
ARC
8
DEFAULT_255_2_778
10
35.2704263
20
20.5001978
40
0.9629132
50
171.1828529
51
179.9488578
0
ARC
8
DEFAULT_255_2_778
10
35.2516088
20
20.2291369
40
0.9441693
50
179.2826738
51
190.2774905
0
ARC
8
DEFAULT_255_2_778
10
34.701663
20
20.1255888
40
0.3845911
50
189.7161761
51
209.7656304
0
ARC
8
DEFAULT_255_2_778
10
34.5401773
20
20.0347054
40
0.199296
50
210.1329299
51
272.8577611
0
ARC
8
DEFAULT_255_2_778
10
34.5616291
20
20.0317856
40
0.1964661
50
266.6397696
51
328.3716315
0
ARC
8
DEFAULT_255_2_778
10
34.3926351
20
20.1232091
40
0.3884517
50
329.9614951
51
351.7537554
0
ARC
8
DEFAULT_255_2_778
10
33.816957
20
20.2263412
40
0.9731651
50
350.6057496
51
359.7595569
0
LINE
8
DEFAULT_255_2_778
10
34.9528136
20
20.4770573
11
34.9528136
21
20.2661573
0
LINE
8
DEFAULT_255_2_778
10
34.1450136
20
20.2441573
11
34.1450136
21
20.4611573
0
LINE
8
DEFAULT_255_2_778
10
34.9528136
20
20.4770573
11
34.9528136
21
20.4770573
0
LINE
8
DEFAULT_255_2_778
10
34.7901136
20
20.2222573
11
34.7901136
21
20.4886573
0
LINE
8
DEFAULT_255_2_778
10
34.3075136
20
20.5010573
11
34.3075136
21
20.2409573
0
LINE
8
DEFAULT_255_2_778
10
34.7901136
20
20.2222573
11
34.7901136
21
20.2222573
0
LINE
8
DEFAULT_255_2_778
10
34.9813386
20
4.1998948
11
34.9813386
21
4.1086948
0
LINE
8
DEFAULT_255_2_778
10
34.9813386
20
4.1086948
11
34.4514386
21
2.9203948
0
LINE
8
DEFAULT_255_2_778
10
34.4514386
20
2.9203948
11
34.2809386
21
2.9203948
0
LINE
8
DEFAULT_255_2_778
10
34.2809386
20
2.9203948
11
34.8091386
21
4.0665948
0
LINE
8
DEFAULT_255_2_778
10
34.8091386
20
4.0665948
11
34.1164386
21
4.0665948
0
LINE
8
DEFAULT_255_2_778
10
34.1164386
20
4.0665948
11
34.1164386
21
4.2001948
0
LINE
8
DEFAULT_255_2_778
10
34.1164386
20
4.2001948
11
34.9813386
21
4.2001948
0
LINE
8
DEFAULT_255_2_778
10
34.9813386
20
4.2001948
11
34.9813386
21
4.1998948
0
ARC
8
DEFAULT_255_2_778
10
33.4668863
20
16.5309413
40
1.5011057
50
318.1481737
51
324.0616819
0
ARC
8
DEFAULT_255_2_778
10
34.2150563
20
15.9872668
40
0.5762611
50
324.1684826
51
331.3409174
0
ARC
8
DEFAULT_255_2_778
10
34.455202
20
15.8564962
40
0.302819
50
331.2608114
51
359.7914053
0
ARC
8
DEFAULT_255_2_778
10
34.5284693
20
15.8641558
40
0.2297169
50
357.8140377
51
42.6162874
0
ARC
8
DEFAULT_255_2_778
10
34.5454306
20
15.8717053
40
0.2122062
50
44.2171954
51
92.5960129
0
ARC
8
DEFAULT_255_2_778
10
34.520817
20
15.8324584
40
0.2516828
50
86.5827412
51
133.6416812
0
ARC
8
DEFAULT_255_2_778
10
34.5397695
20
15.8400316
40
0.2599733
50
137.8200169
51
182.181732
0
ARC
8
DEFAULT_255_2_778
10
34.7219074
20
15.8225198
40
0.4419883
50
179.0128226
51
180.003378
0
ARC
8
DEFAULT_255_2_778
10
34.4945999
20
15.8377845
40
0.3776905
50
134.2567836
51
182.3202464
0
ARC
8
DEFAULT_255_2_778
10
34.5083247
20
15.8073521
40
0.409224
50
90.5026382
51
132.6593239
0
ARC
8
DEFAULT_255_2_778
10
34.5352693
20
15.5815025
40
0.6357914
50
89.9774948
51
92.7527513
0
ARC
8
DEFAULT_255_2_778
10
34.5489311
20
15.7627819
40
0.4547097
50
63.5614971
51
91.6902314
0
ARC
8
DEFAULT_255_2_778
10
34.5976086
20
15.8796408
40
0.3285082
50
47.9540781
51
62.0886893
0
ARC
8
DEFAULT_255_2_778
10
34.602269
20
15.8878033
40
0.3193318
50
357.5932891
51
47.594189
0
ARC
8
DEFAULT_255_2_778
10
34.4982625
20
15.8873763
40
0.4232557
50
332.2173577
51
358.2422837
0
ARC
8
DEFAULT_255_2_778
10
34.0121917
20
16.1262904
40
0.9647753
50
320.7861291
51
333.1197366
0
ARC
8
DEFAULT_255_2_778
10
33.4581315
20
16.5557518
40
1.6656617
50
317.2122469
51
321.3895933
0
LINE
8
DEFAULT_255_2_778
10
34.9806191
20
15.0530937
11
34.9806191
21
14.9202937
0
LINE
8
DEFAULT_255_2_778
10
34.9806191
20
14.9202937
11
34.1421191
21
14.9202937
0
LINE
8
DEFAULT_255_2_778
10
34.1421191
20
14.9202937
11
34.1421191
21
15.0372937
0
LINE
8
DEFAULT_255_2_778
10
34.1421191
20
15.0372937
11
34.5850191
21
15.5293937
0
LINE
8
DEFAULT_255_2_778
10
34.2799191
20
15.8224937
11
34.1172191
21
15.8224937
0
LINE
8
DEFAULT_255_2_778
10
34.6805191
20
15.4242937
11
34.3376191
21
15.0525937
0
LINE
8
DEFAULT_255_2_778
10
34.3376191
20
15.0525937
11
34.9800191
21
15.0525937
0
LINE
8
DEFAULT_255_2_778
10
34.9800191
20
15.0525937
11
34.9806191
21
15.0530937
0
ARC
8
DEFAULT_255_2_778
10
34.5350208
20
13.5148546
40
0.2756229
50
268.060739
51
306.3182671
0
ARC
8
DEFAULT_255_2_778
10
34.5689248
20
13.4545578
40
0.2071293
50
308.6409195
51
311.6926989
0
ARC
8
DEFAULT_255_2_778
10
34.569924
20
13.4497383
40
0.2028808
50
312.3872818
51
2.6135653
0
ARC
8
DEFAULT_255_2_778
10
34.517129
20
13.4717192
40
0.2557817
50
357.1473526
51
31.0262333
0
ARC
8
DEFAULT_255_2_778
10
34.5802135
20
13.4889734
40
0.1936426
50
36.2796017
51
89.7765444
0
ARC
8
DEFAULT_255_2_778
10
34.5490906
20
13.2848787
40
0.3990114
50
85.4176025
51
90.0857021
0
ARC
8
DEFAULT_255_2_778
10
34.5367891
20
13.4518262
40
0.2323584
50
87.1125978
51
132.3717959
0
ARC
8
DEFAULT_255_2_778
10
34.5275921
20
13.4730775
40
0.2105945
50
134.4202135
51
182.4733003
0
ARC
8
DEFAULT_255_2_778
10
34.4809071
20
13.471254
40
0.3264941
50
131.2595155
51
181.2749324
0
ARC
8
DEFAULT_255_2_778
10
34.5331072
20
13.4120349
40
0.4054355
50
87.867489
51
131.2859621
0
ARC
8
DEFAULT_255_2_778
10
34.561508
20
13.3607756
40
0.4566081
50
64.2116776
51
91.6709214
0
ARC
8
DEFAULT_255_2_778
10
34.6125586
20
13.4852529
40
0.3224225
50
47.0865322
51
62.7566232
0
ARC
8
DEFAULT_255_2_778
10
34.5961258
20
13.4784192
40
0.3386967
50
359.1551642
51
45.8376469
0
ARC
8
DEFAULT_255_2_778
10
34.3897101
20
13.4550985
40
0.5453836
50
359.9885593
51
1.9256981
0
ARC
8
DEFAULT_255_2_778
10
34.6544406
20
13.4588475
40
0.2806797
50
323.8538843
51
359.2124498
0
ARC
8
DEFAULT_255_2_778
10
34.6136896
20
13.4787741
40
0.3254374
50
291.6952125
51
325.2529424
0
ARC
8
DEFAULT_255_2_778
10
34.6481366
20
12.8751837
40
0.3132035
50
37.4169629
51
74.0900844
0
ARC
8
DEFAULT_255_2_778
10
34.6481671
20
12.886253
40
0.306579
50
358.1937163
51
35.7771417
0
ARC
8
DEFAULT_255_2_778
10
34.6057375
20
12.8603002
40
0.3492363
50
312.6148362
51
2.6734057
0
ARC
8
DEFAULT_255_2_778
10
34.5710834
20
12.9170399
40
0.4146566
50
269.3305729
51
310.8301667
0
ARC
8
DEFAULT_255_2_778
10
34.549559
20
13.1283386
40
0.6261491
50
269.9940295
51
271.526461
0
ARC
8
DEFAULT_255_2_778
10
34.5351902
20
12.9575608
40
0.4555958
50
239.0860558
51
271.7991136
0
ARC
8
DEFAULT_255_2_778
10
34.5005471
20
12.8821018
40
0.3731684
50
229.1355803
51
237.6971103
0
ARC
8
DEFAULT_255_2_778
10
34.4666829
20
12.8457114
40
0.3234964
50
177.9489117
51
229.4545595
0
ARC
8
DEFAULT_255_2_778
10
34.5157659
20
12.8481357
40
0.2090727
50
177.490619
51
226.8555783
0
ARC
8
DEFAULT_255_2_778
10
34.5366698
20
12.8855116
40
0.2508501
50
229.2104195
51
272.9303441
0
ARC
8
DEFAULT_255_2_778
10
34.5626399
20
12.8982956
40
0.263634
50
267.1417481
51
303.6805505
0
ARC
8
DEFAULT_255_2_778
10
34.5991014
20
12.8287757
40
0.1857449
50
306.2144827
51
314.6741951
0
ARC
8
DEFAULT_255_2_778
10
34.5593715
20
12.8556098
40
0.2329492
50
316.9834164
51
2.3995093
0
ARC
8
DEFAULT_255_2_778
10
34.3782739
20
12.8733671
40
0.41392
50
358.8919447
51
0.0031084
0
ARC
8
DEFAULT_255_2_778
10
34.5771854
20
12.8869416
40
0.215435
50
356.3933926
51
47.1518137
0
ARC
8
DEFAULT_255_2_778
10
34.5531666
20
12.8319788
40
0.2727829
50
51.3076241
51
87.5430421
0
ARC
8
DEFAULT_255_2_778
10
34.5195955
20
12.5980261
40
0.5085036
50
84.8929966
51
89.2790529
0
LINE
8
DEFAULT_255_2_778
10
34.4034938
20
13.1064896
11
34.4034938
21
13.2393896
0
LINE
8
DEFAULT_255_2_778
10
34.4034938
20
13.2393896
11
34.5256938
21
13.2393896
0
LINE
8
DEFAULT_255_2_778
10
34.3171938
20
13.4639896
11
34.1544938
21
13.4639896
0
LINE
8
DEFAULT_255_2_778
10
34.1433938
20
12.8572896
11
34.3068938
21
12.8572896
0
LINE
8
DEFAULT_255_2_778
10
34.5259938
20
13.1064896
11
34.4036938
21
13.1064896
0
LINE
8
DEFAULT_255_2_778
10
34.4036938
20
13.1064896
11
34.4034938
21
13.1064896
0
LINE
8
DEFAULT_255_2_778
10
34.8331698
20
11.3999948
11
34.8331698
21
10.5501948
0
LINE
8
DEFAULT_255_2_778
10
34.8331698
20
10.5501948
11
35.0107698
21
10.5501948
0
LINE
8
DEFAULT_255_2_778
10
35.0107698
20
10.5501948
11
35.0107698
21
10.4172948
0
LINE
8
DEFAULT_255_2_778
10
35.0107698
20
10.4172948
11
34.8331698
21
10.4172948
0
LINE
8
DEFAULT_255_2_778
10
34.8331698
20
10.4172948
11
34.8331698
21
10.1201948
0
LINE
8
DEFAULT_255_2_778
10
34.8331698
20
10.1201948
11
34.6696698
21
10.1201948
0
LINE
8
DEFAULT_255_2_778
10
34.6696698
20
10.1201948
11
34.6696698
21
10.4172948
0
LINE
8
DEFAULT_255_2_778
10
34.6696698
20
10.4172948
11
34.0870698
21
10.4172948
0
LINE
8
DEFAULT_255_2_778
10
34.0870698
20
10.4172948
11
34.0870698
21
10.5130948
0
LINE
8
DEFAULT_255_2_778
10
34.0870698
20
10.5130948
11
34.6601698
21
11.3999948
0
LINE
8
DEFAULT_255_2_778
10
34.6601698
20
11.3999948
11
34.8331698
21
11.3999948
0
LINE
8
DEFAULT_255_2_778
10
34.8331698
20
11.3999948
11
34.8331698
21
11.3999948
0
LINE
8
DEFAULT_255_2_778
10
34.6503698
20
11.1425948
11
34.2714698
21
10.5501948
0
LINE
8
DEFAULT_255_2_778
10
34.2714698
20
10.5501948
11
34.6696698
21
10.5501948
0
LINE
8
DEFAULT_255_2_778
10
34.6696698
20
10.5501948
11
34.6696698
21
11.1777948
0
LINE
8
DEFAULT_255_2_778
10
34.6696698
20
11.1777948
11
34.6503698
21
11.1425948
0
LINE
8
DEFAULT_255_2_778
10
34.6503698
20
11.1425948
11
34.6503698
21
11.1425948
0
ARC
8
DEFAULT_255_2_778
10
34.5632131
20
8.1432759
40
0.4127421
50
89.0254153
51
120.0174158
0
ARC
8
DEFAULT_255_2_778
10
34.5863498
20
8.2030955
40
0.3532307
50
42.1979227
51
92.615079
0
ARC
8
DEFAULT_255_2_778
10
34.5249985
20
8.1658043
40
0.4239474
50
3.0178501
51
40.3618948
0
ARC
8
DEFAULT_255_2_778
10
34.2668675
20
8.1288131
40
0.6840665
50
359.9200324
51
4.9739806
0
ARC
8
DEFAULT_255_2_778
10
34.4513873
20
8.1145432
40
0.4997235
50
334.8652798
51
1.5268206
0
ARC
8
DEFAULT_255_2_778
10
34.5808184
20
8.0628692
40
0.3606926
50
316.8653583
51
333.5634754
0
ARC
8
DEFAULT_255_2_778
10
34.5760095
20
8.0783961
40
0.374904
50
270.9505423
51
315.6360932
0
ARC
8
DEFAULT_255_2_778
10
34.5460152
20
8.3070555
40
0.6045974
50
269.9638148
51
273.4339132
0
ARC
8
DEFAULT_255_2_778
10
34.5306401
20
8.1169094
40
0.4147222
50
234.7443894
51
272.0718343
0
ARC
8
DEFAULT_255_2_778
10
34.5052017
20
8.0661131
40
0.3586609
50
228.7740612
51
233.378688
0
ARC
8
DEFAULT_255_2_778
10
34.5219483
20
8.0740326
40
0.3757262
50
182.6809384
51
227.6491493
0
ARC
8
DEFAULT_255_2_778
10
34.5611786
20
8.0778899
40
0.2617242
50
184.6969865
51
223.9612996
0
ARC
8
DEFAULT_255_2_778
10
34.508394
20
8.0385285
40
0.1965814
50
226.383758
51
228.6936106
0
ARC
8
DEFAULT_255_2_778
10
34.5340344
20
8.0777112
40
0.2430298
50
230.2505091
51
272.7355565
0
ARC
8
DEFAULT_255_2_778
10
34.556262
20
8.0542918
40
0.2195909
50
267.2256723
51
319.6985053
0
ARC
8
DEFAULT_255_2_778
10
34.4838856
20
8.0980472
40
0.3033883
50
322.2382087
51
358.9766303
0
ARC
8
DEFAULT_255_2_778
10
34.2575384
20
8.1253218
40
0.5306951
50
356.4680941
51
0.0471323
0
ARC
8
DEFAULT_255_2_778
10
34.4915832
20
8.1401612
40
0.2969996
50
357.2203641
51
40.1990892
0
ARC
8
DEFAULT_255_2_778
10
34.542311
20
8.1720339
40
0.2378296
50
42.2225568
51
92.3803194
0
ARC
8
DEFAULT_255_2_778
10
34.5195839
20
8.1269721
40
0.2829781
50
87.3974225
51
119.7331997
0
ARC
8
DEFAULT_255_2_778
10
34.4775303
20
8.2171841
40
0.1839701
50
122.2955644
51
127.5404549
0
LINE
8
DEFAULT_255_2_778
10
34.3225333
20
8.3284583
11
34.1924333
21
8.3617583
0
LINE
8
DEFAULT_255_2_778
10
34.1924333
20
8.3617583
11
34.2575333
21
8.9999583
0
LINE
8
DEFAULT_255_2_778
10
34.2575333
20
8.9999583
11
34.9131333
21
8.9999583
0
LINE
8
DEFAULT_255_2_778
10
34.9131333
20
8.9999583
11
34.9131333
21
8.8496583
0
LINE
8
DEFAULT_255_2_778
10
34.9131333
20
8.8496583
11
34.3953333
21
8.8496583
0
LINE
8
DEFAULT_255_2_778
10
34.3953333
20
8.8496583
11
34.3567333
21
8.5006583
0
LINE
8
DEFAULT_255_2_778
10
34.1466333
20
8.0564583
11
34.3003333
21
8.0564583
0
LINE
8
DEFAULT_255_2_778
10
34.3654333
20
8.3630583
11
34.3223333
21
8.3279583
0
LINE
8
DEFAULT_255_2_778
10
34.3223333
20
8.3279583
11
34.3225333
21
8.3284583
0
ARC
8
DEFAULT_255_2_778
10
34.7375855
20
6.0000777
40
0.4628129
50
89.2904717
51
120.4638528
0
ARC
8
DEFAULT_255_2_778
10
34.6979465
20
6.0854104
40
0.3692757
50
121.875358
51
134.1315874
0
ARC
8
DEFAULT_255_2_778
10
34.7539429
20
6.0417439
40
0.4397166
50
135.4067806
51
171.919749
0
ARC
8
DEFAULT_255_2_778
10
35.0099912
20
5.9820772
40
0.7019893
50
170.0353025
51
174.9593978
0
ARC
8
DEFAULT_255_2_778
10
34.5699218
20
5.8130572
40
0.3469998
50
87.2423246
51
138.3302539
0
ARC
8
DEFAULT_255_2_778
10
34.5996276
20
5.8281251
40
0.3317853
50
40.1269462
51
92.2474158
0
ARC
8
DEFAULT_255_2_778
10
34.5105112
20
5.7629232
40
0.4420118
50
0.4806896
51
39.1444171
0
ARC
8
DEFAULT_255_2_778
10
34.2873788
20
5.7381615
40
0.6657377
50
359.9822425
51
2.4509726
0
ARC
8
DEFAULT_255_2_778
10
34.4512292
20
5.7243285
40
0.5020725
50
333.3266683
51
1.5552497
0
ARC
8
DEFAULT_255_2_778
10
34.5619202
20
5.6785529
40
0.3827133
50
317.7956922
51
332.0112968
0
ARC
8
DEFAULT_255_2_778
10
34.5732543
20
5.6735928
40
0.3710064
50
267.4451907
51
317.187254
0
ARC
8
DEFAULT_255_2_778
10
34.5472745
20
5.6682025
40
0.3653694
50
217.861526
51
271.4808513
0
ARC
8
DEFAULT_255_2_778
10
34.676763
20
5.7705711
40
0.530431
50
182.9504293
51
218.0068451
0
ARC
8
DEFAULT_255_2_778
10
34.9447266
20
5.8067105
40
0.8002103
50
179.9395218
51
184.5472601
0
ARC
8
DEFAULT_255_2_778
10
35.37365
20
5.8826439
40
1.2291989
50
168.0458743
51
180.5914601
0
ARC
8
DEFAULT_255_2_778
10
34.826342
20
6.0046683
40
0.6685122
50
144.5203044
51
168.5614105
0
ARC
8
DEFAULT_255_2_778
10
34.7040736
20
6.0800298
40
0.5252932
50
141.0914952
51
143.4733652
0
ARC
8
DEFAULT_255_2_778
10
34.6894377
20
6.0840954
40
0.5113864
50
96.7800799
51
140.4160106
0
ARC
8
DEFAULT_255_2_778
10
34.7539083
20
5.768315
40
0.8329989
50
90.6803851
51
98.6195746
0
ARC
8
DEFAULT_255_2_778
10
34.5587265
20
5.7650339
40
0.2594222
50
89.8475581
51
126.1708732
0
ARC
8
DEFAULT_255_2_778
10
34.5529802
20
5.7592936
40
0.2607882
50
124.4071337
51
159.9376288
0
ARC
8
DEFAULT_255_2_778
10
34.7754993
20
5.7760616
40
0.4676604
50
178.4201348
51
203.9385729
0
ARC
8
DEFAULT_255_2_778
10
34.6363422
20
5.7231191
40
0.3190937
50
205.3887467
51
216.3125088
0
ARC
8
DEFAULT_255_2_778
10
34.5577654
20
5.6510791
40
0.2134265
50
213.2190618
51
269.7184507
0
ARC
8
DEFAULT_255_2_778
10
34.5652003
20
5.6445323
40
0.207051
50
267.6517382
51
322.5235511
0
ARC
8
DEFAULT_255_2_778
10
34.4634926
20
5.7120421
40
0.3289468
50
323.9705337
51
1.1046652
0
ARC
8
DEFAULT_255_2_778
10
34.2620024
20
5.7305012
40
0.5305143
50
358.691206
51
0.0058351
0
ARC
8
DEFAULT_255_2_778
10
34.4455629
20
5.7441857
40
0.3472214
50
357.750215
51
31.9703739
0
ARC
8
DEFAULT_255_2_778
10
34.5203553
20
5.7806619
40
0.2646016
50
33.8453919
51
38.0518
0
ARC
8
DEFAULT_255_2_778
10
34.5655595
20
5.8206549
40
0.2043868
50
37.0341675
51
91.6661979
0
LINE
8
DEFAULT_255_2_778
10
34.7440167
20
6.6009552
11
34.7731167
21
6.6009552
0
LINE
8
DEFAULT_255_2_778
10
34.7731167
20
6.6009552
11
34.7731167
21
6.4628552
0
LINE
8
DEFAULT_255_2_778
10
34.7731167
20
6.4628552
11
34.7433167
21
6.4628552
0
LINE
8
DEFAULT_255_2_778
10
34.1445167
20
5.8075552
11
34.1445167
21
5.8699552
0
LINE
8
DEFAULT_255_2_778
10
34.7440167
20
6.6012552
11
34.7440167
21
6.6009552
0
LINE
8
DEFAULT_255_2_778
10
34.3080167
20
5.8487552
11
34.3080167
21
5.7889552
0
LINE
8
DEFAULT_255_2_778
10
34.5596167
20
6.0249552
11
34.5594167
21
6.0244552
0
ARC
8
DEFAULT_255_2_778
10
36.7383053
20
3.3578837
40
0.7978078
50
129.5171775
51
180.1424671
0
ARC
8
DEFAULT_255_2_778
10
36.73859
20
3.3584506
40
0.7975518
50
89.8555981
51
129.5588646
0
ARC
8
DEFAULT_255_2_778
10
36.7425838
20
3.3581947
40
0.7978078
50
39.5171775
51
90.1424671
0
ARC
8
DEFAULT_255_2_778
10
36.7431506
20
3.35791
40
0.7975518
50
359.8555981
51
39.5588646
0
ARC
8
DEFAULT_255_2_778
10
36.7428947
20
3.3539162
40
0.7978078
50
309.5171775
51
0.1424671
0
ARC
8
DEFAULT_255_2_778
10
36.7426101
20
3.3533494
40
0.7975518
50
269.8555981
51
309.5588646
0
ARC
8
DEFAULT_255_2_778
10
36.7386163
20
3.3536053
40
0.7978078
50
219.5171775
51
270.1424671
0
ARC
8
DEFAULT_255_2_778
10
36.7380494
20
3.3538899
40
0.7975518
50
179.8555981
51
219.5588646
0
LINE
8
DEFAULT_255_2_778
10
35.9405
20
3.3559
11
35.9405
21
3.3559
0
ARC
8
DEFAULT_255_2_778
10
36.7383053
20
12.9576837
40
0.7978078
50
129.5171775
51
180.1424671
0
ARC
8
DEFAULT_255_2_778
10
36.73859
20
12.9582506
40
0.7975518
50
89.8555981
51
129.5588646
0
ARC
8
DEFAULT_255_2_778
10
36.7425838
20
12.9579947
40
0.7978078
50
39.5171775
51
90.1424671
0
ARC
8
DEFAULT_255_2_778
10
36.7431506
20
12.95771
40
0.7975518
50
359.8555981
51
39.5588646
0
ARC
8
DEFAULT_255_2_778
10
36.7428947
20
12.9537162
40
0.7978078
50
309.5171775
51
0.1424671
0
ARC
8
DEFAULT_255_2_778
10
36.7426101
20
12.9531494
40
0.7975518
50
269.8555981
51
309.5588646
0
ARC
8
DEFAULT_255_2_778
10
36.7386163
20
12.9534053
40
0.7978078
50
219.5171775
51
270.1424671
0
ARC
8
DEFAULT_255_2_778
10
36.7380494
20
12.9536899
40
0.7975518
50
179.8555981
51
219.5588646
0
LINE
8
DEFAULT_255_2_778
10
35.9405
20
12.9557
11
35.9405
21
12.9557
0
ARC
8
DEFAULT_255_2_778
10
36.7383053
20
10.5579837
40
0.7978078
50
129.5171775
51
180.1424671
0
ARC
8
DEFAULT_255_2_778
10
36.73859
20
10.5585506
40
0.7975518
50
89.8555981
51
129.5588646
0
ARC
8
DEFAULT_255_2_778
10
36.7425838
20
10.5582947
40
0.7978078
50
39.5171775
51
90.1424671
0
ARC
8
DEFAULT_255_2_778
10
36.7431506
20
10.55801
40
0.7975518
50
359.8555981
51
39.5588646
0
ARC
8
DEFAULT_255_2_778
10
36.7428947
20
10.5540162
40
0.7978078
50
309.5171775
51
0.1424671
0
ARC
8
DEFAULT_255_2_778
10
36.7426101
20
10.5534494
40
0.7975518
50
269.8555981
51
309.5588646
0
ARC
8
DEFAULT_255_2_778
10
36.7386163
20
10.5537053
40
0.7978078
50
219.5171775
51
270.1424671
0
ARC
8
DEFAULT_255_2_778
10
36.7380494
20
10.5539899
40
0.7975518
50
179.8555981
51
219.5588646
0
LINE
8
DEFAULT_255_2_778
10
35.9405
20
10.556
11
35.9405
21
10.556
0
ARC
8
DEFAULT_255_2_778
10
36.7383053
20
8.1578837
40
0.7978078
50
129.5171775
51
180.1424671
0
ARC
8
DEFAULT_255_2_778
10
36.73859
20
8.1584506
40
0.7975518
50
89.8555981
51
129.5588646
0
ARC
8
DEFAULT_255_2_778
10
36.7425838
20
8.1581947
40
0.7978078
50
39.5171775
51
90.1424671
0
ARC
8
DEFAULT_255_2_778
10
36.7431506
20
8.15791
40
0.7975518
50
359.8555981
51
39.5588646
0
ARC
8
DEFAULT_255_2_778
10
36.7428947
20
8.1539162
40
0.7978078
50
309.5171775
51
0.1424671
0
ARC
8
DEFAULT_255_2_778
10
36.7426101
20
8.1533494
40
0.7975518
50
269.8555981
51
309.5588646
0
ARC
8
DEFAULT_255_2_778
10
36.7386163
20
8.1536053
40
0.7978078
50
219.5171775
51
270.1424671
0
ARC
8
DEFAULT_255_2_778
10
36.7380494
20
8.1538899
40
0.7975518
50
179.8555981
51
219.5588646
0
LINE
8
DEFAULT_255_2_778
10
35.9405
20
8.1559
11
35.9405
21
8.1559
0
ARC
8
DEFAULT_255_2_778
10
36.7383053
20
5.7578837
40
0.7978078
50
129.5171775
51
180.1424671
0
ARC
8
DEFAULT_255_2_778
10
36.73859
20
5.7584506
40
0.7975518
50
89.8555981
51
129.5588646
0
ARC
8
DEFAULT_255_2_778
10
36.7425838
20
5.7581947
40
0.7978078
50
39.5171775
51
90.1424671
0
ARC
8
DEFAULT_255_2_778
10
36.7431506
20
5.75791
40
0.7975518
50
359.8555981
51
39.5588646
0
ARC
8
DEFAULT_255_2_778
10
36.7428947
20
5.7539162
40
0.7978078
50
309.5171775
51
0.1424671
0
ARC
8
DEFAULT_255_2_778
10
36.7426101
20
5.7533494
40
0.7975518
50
269.8555981
51
309.5588646
0
ARC
8
DEFAULT_255_2_778
10
36.7386163
20
5.7536053
40
0.7978078
50
219.5171775
51
270.1424671
0
ARC
8
DEFAULT_255_2_778
10
36.7380494
20
5.7538899
40
0.7975518
50
179.8555981
51
219.5588646
0
LINE
8
DEFAULT_255_2_778
10
35.9405
20
5.7559
11
35.9405
21
5.7559
0
ARC
8
DEFAULT_255_2_778
10
36.7383053
20
17.7577837
40
0.7978078
50
129.5171775
51
180.1424671
0
ARC
8
DEFAULT_255_2_778
10
36.73859
20
17.7583506
40
0.7975518
50
89.8555981
51
129.5588646
0
ARC
8
DEFAULT_255_2_778
10
36.7425838
20
17.7580947
40
0.7978078
50
39.5171775
51
90.1424671
0
ARC
8
DEFAULT_255_2_778
10
36.7431506
20
17.75781
40
0.7975518
50
359.8555981
51
39.5588646
0
ARC
8
DEFAULT_255_2_778
10
36.7428947
20
17.7538162
40
0.7978078
50
309.5171775
51
0.1424671
0
ARC
8
DEFAULT_255_2_778
10
36.7426101
20
17.7532494
40
0.7975518
50
269.8555981
51
309.5588646
0
ARC
8
DEFAULT_255_2_778
10
36.7386163
20
17.7535053
40
0.7978078
50
219.5171775
51
270.1424671
0
ARC
8
DEFAULT_255_2_778
10
36.7380494
20
17.7537899
40
0.7975518
50
179.8555981
51
219.5588646
0
LINE
8
DEFAULT_255_2_778
10
35.9405
20
17.7558
11
35.9405
21
17.7558
0
ARC
8
DEFAULT_255_2_778
10
36.7383053
20
15.3577837
40
0.7978078
50
129.5171775
51
180.1424671
0
ARC
8
DEFAULT_255_2_778
10
36.73859
20
15.3583506
40
0.7975518
50
89.8555981
51
129.5588646
0
ARC
8
DEFAULT_255_2_778
10
36.7425838
20
15.3580947
40
0.7978078
50
39.5171775
51
90.1424671
0
ARC
8
DEFAULT_255_2_778
10
36.7431506
20
15.35781
40
0.7975518
50
359.8555981
51
39.5588646
0
ARC
8
DEFAULT_255_2_778
10
36.7428947
20
15.3538162
40
0.7978078
50
309.5171775
51
0.1424671
0
ARC
8
DEFAULT_255_2_778
10
36.7426101
20
15.3532494
40
0.7975518
50
269.8555981
51
309.5588646
0
ARC
8
DEFAULT_255_2_778
10
36.7386163
20
15.3535053
40
0.7978078
50
219.5171775
51
270.1424671
0
ARC
8
DEFAULT_255_2_778
10
36.7380494
20
15.3537899
40
0.7975518
50
179.8555981
51
219.5588646
0
LINE
8
DEFAULT_255_2_778
10
35.9405
20
15.3558
11
35.9405
21
15.3558
0
ARC
8
DEFAULT_255_2_778
10
36.7383053
20
20.1578837
40
0.7978078
50
129.5171775
51
180.1424671
0
ARC
8
DEFAULT_255_2_778
10
36.73859
20
20.1584506
40
0.7975518
50
89.8555981
51
129.5588646
0
ARC
8
DEFAULT_255_2_778
10
36.7425838
20
20.1581947
40
0.7978078
50
39.5171775
51
90.1424671
0
ARC
8
DEFAULT_255_2_778
10
36.7431506
20
20.15791
40
0.7975518
50
359.8555981
51
39.5588646
0
ARC
8
DEFAULT_255_2_778
10
36.7428947
20
20.1539162
40
0.7978078
50
309.5171775
51
0.1424671
0
ARC
8
DEFAULT_255_2_778
10
36.7426101
20
20.1533494
40
0.7975518
50
269.8555981
51
309.5588646
0
ARC
8
DEFAULT_255_2_778
10
36.7386163
20
20.1536053
40
0.7978078
50
219.5171775
51
270.1424671
0
ARC
8
DEFAULT_255_2_778
10
36.7380494
20
20.1538899
40
0.7975518
50
179.8555981
51
219.5588646
0
LINE
8
DEFAULT_255_2_778
10
35.9405
20
20.1559
11
35.9405
21
20.1559
0
ARC
8
DEFAULT_255_2_778
10
2.30329
20
87.7222807
40
2.0628106
50
157.146368
51
180.087367
0
ARC
8
DEFAULT_255_2_778
10
2.2532291
20
87.7523157
40
2.0050314
50
95.829591
51
157.3816833
0
ARC
8
DEFAULT_255_2_778
10
2.2401973
20
87.7675615
40
1.9885737
50
89.9918017
51
95.5006687
0
ARC
8
DEFAULT_255_2_778
10
38.2372913
20
87.7741396
40
1.9819982
50
44.345976
51
89.9077695
0
ARC
8
DEFAULT_255_2_778
10
38.1842215
20
87.7221898
40
2.0562624
50
0.0001593
51
44.3475277
0
ARC
8
DEFAULT_255_2_778
10
38.2892672
20
87.7221956
40
1.9512169
50
359.9101352
51
359.9999991
0
ARC
8
DEFAULT_255_2_778
10
0.7405774
20
65.2561888
40
0.5000956
50
134.9958871
51
179.9946851
0
ARC
8
DEFAULT_255_2_778
10
0.7404839
20
65.2565878
40
0.4997474
50
89.9887792
51
135.0206486
0
ARC
8
DEFAULT_255_2_778
10
39.7406063
20
65.2562598
40
0.5000754
50
359.9971846
51
89.9913517
0
ARC
8
DEFAULT_255_2_778
10
39.7406917
20
24.2561253
40
0.4999901
50
269.9988673
51
0.0011385
0
ARC
8
DEFAULT_255_2_778
10
0.7404934
20
24.2561468
40
0.5000116
50
180.0013268
51
270.0101312
0
ARC
8
DEFAULT_255_2_778
10
38.1702376
20
1.798571
40
2.070248
50
315.8103794
51
0.109712
0
ARC
8
DEFAULT_255_2_778
10
38.2363508
20
1.7342148
40
1.9779839
50
270.1196618
51
315.8121917
0
ARC
8
DEFAULT_255_2_778
10
2.238376
20
1.7110286
40
1.9547945
50
243.9139141
51
270.0617231
0
ARC
8
DEFAULT_255_2_778
10
2.2825617
20
1.7833785
40
2.0392191
50
196.2626732
51
243.6927639
0
ARC
8
DEFAULT_255_2_778
10
2.3307456
20
1.8004751
40
2.0902647
50
179.9435301
51
196.3426867
0
LINE
8
DEFAULT_255_2_778
10
0.2404818
20
65.3126352
11
0.2404818
21
87.7191352
0
LINE
8
DEFAULT_255_2_778
10
2.2404818
20
89.7561352
11
38.2404818
21
89.7561352
0
LINE
8
DEFAULT_255_2_778
10
40.2404818
20
87.7191352
11
40.2404818
21
65.3126352
0
LINE
8
DEFAULT_255_2_778
10
0.7405818
20
65.7563352
11
39.7406818
21
65.7563352
0
LINE
8
DEFAULT_255_2_778
10
40.2406818
20
65.2562352
11
40.2406818
21
24.2561352
0
LINE
8
DEFAULT_255_2_778
10
39.7406818
20
23.7561352
11
0.7405818
21
23.7561352
0
LINE
8
DEFAULT_255_2_778
10
0.2404818
20
24.2561352
11
0.2404818
21
65.2562352
0
LINE
8
DEFAULT_255_2_778
10
40.2404818
20
24.3127352
11
40.2404818
21
1.8025352
0
LINE
8
DEFAULT_255_2_778
10
38.2404818
20
-0.2437648
11
2.2404818
21
-0.2437648
0
LINE
8
DEFAULT_255_2_778
10
0.2404818
20
1.8025352
11
0.2404818
21
24.3127352
0
LINE
8
DEFAULT_255_2_778
10
6.9643818
20
31.7901352
11
6.9643818
21
31.5602352
0
LINE
8
DEFAULT_255_2_778
10
6.9643818
20
31.5602352
11
6.0692818
21
31.5602352
0
LINE
8
DEFAULT_255_2_778
10
6.0692818
20
31.5602352
11
6.0692818
21
30.6183352
0
LINE
8
DEFAULT_255_2_778
10
6.0692818
20
30.6183352
11
5.7879818
21
30.6183352
0
LINE
8
DEFAULT_255_2_778
10
5.7879818
20
30.6183352
11
5.7879818
21
32.7511352
0
LINE
8
DEFAULT_255_2_778
10
5.7879818
20
32.7511352
11
7.1092818
21
32.7511352
0
LINE
8
DEFAULT_255_2_778
10
7.1092818
20
32.7511352
11
7.1092818
21
32.5196352
0
LINE
8
DEFAULT_255_2_778
10
7.1092818
20
32.5196352
11
6.0692818
21
32.5196352
0
LINE
8
DEFAULT_255_2_778
10
6.0692818
20
32.5196352
11
6.0692818
21
31.7901352
0
LINE
8
DEFAULT_255_2_778
10
6.0692818
20
31.7901352
11
6.9643818
21
31.7901352
0
LINE
8
DEFAULT_255_2_778
10
6.9643818
20
31.7901352
11
6.9643818
21
31.7901352
0
ARC
8
DEFAULT_255_2_778
10
16.6451704
20
31.6785602
40
0.8439078
50
90.1362377
51
110.8855764
0
ARC
8
DEFAULT_255_2_778
10
16.5722747
20
31.888482
40
0.621828
50
111.5058496
51
134.1221765
0
ARC
8
DEFAULT_255_2_778
10
16.6311633
20
31.8403134
40
0.6974588
50
134.8401029
51
166.7942467
0
ARC
8
DEFAULT_255_2_778
10
17.0027068
20
31.7331728
40
1.0838274
50
165.7671068
51
175.2105879
0
ARC
8
DEFAULT_255_2_778
10
16.3476295
20
31.4502675
40
0.5657049
50
91.0059746
51
138.6956998
0
ARC
8
DEFAULT_255_2_778
10
16.3821087
20
31.1812161
40
0.8358498
50
89.975665
51
93.045724
0
ARC
8
DEFAULT_255_2_778
10
16.404168
20
31.4648017
40
0.5526903
50
40.0949957
51
92.2505995
0
ARC
8
DEFAULT_255_2_778
10
16.2802694
20
31.3691268
40
0.7091208
50
5.4025199
51
39.5610221
0
ARC
8
DEFAULT_255_2_778
10
15.9526412
20
31.3160392
40
1.0405247
50
359.8803129
51
6.6142966
0
ARC
8
DEFAULT_255_2_778
10
16.0789218
20
31.3005294
40
0.9143392
50
341.6765875
51
0.8357229
0
ARC
8
DEFAULT_255_2_778
10
16.3318559
20
31.2221992
40
0.6496245
50
317.8871444
51
341.2215787
0
ARC
8
DEFAULT_255_2_778
10
16.3673561
20
31.1950714
40
0.6051089
50
271.0919777
51
317.5384961
0
ARC
8
DEFAULT_255_2_778
10
16.3328253
20
31.4686503
40
0.8797847
50
269.976456
51
273.0011935
0
ARC
8
DEFAULT_255_2_778
10
16.3167348
20
31.1975149
40
0.6088525
50
217.83327
51
271.4803298
0
ARC
8
DEFAULT_255_2_778
10
16.5032689
20
31.35295
40
0.8515565
50
187.8078808
51
218.3950248
0
ARC
8
DEFAULT_255_2_778
10
16.8926147
20
31.4252724
40
1.247259
50
179.7935963
51
188.6696321
0
ARC
8
DEFAULT_255_2_778
10
17.8441081
20
31.5464481
40
2.1987815
50
171.2089409
51
180.3330873
0
ARC
8
DEFAULT_255_2_778
10
17.0356774
20
31.6757308
40
1.3800959
50
157.342765
51
171.3837306
0
ARC
8
DEFAULT_255_2_778
10
16.646207
20
31.8349619
40
0.9593491
50
141.3705439
51
157.1583223
0
ARC
8
DEFAULT_255_2_778
10
16.5383111
20
31.9098591
40
0.8283512
50
101.6296442
51
140.7585504
0
ARC
8
DEFAULT_255_2_778
10
16.6547965
20
31.449132
40
1.3032747
50
90.4542645
51
102.5625182
0
ARC
8
DEFAULT_255_2_778
10
16.3358522
20
31.3596901
40
0.4317765
50
89.8790437
51
126.2787805
0
ARC
8
DEFAULT_255_2_778
10
16.3264779
20
31.3490935
40
0.4349918
50
124.4571949
51
159.944464
0
ARC
8
DEFAULT_255_2_778
10
16.7764858
20
31.3857922
40
0.8587201
50
179.1343515
51
196.9044405
0
ARC
8
DEFAULT_255_2_778
10
16.4891986
20
31.3032014
40
0.559849
50
197.3664387
51
216.0335078
0
ARC
8
DEFAULT_255_2_778
10
16.3339664
20
31.168005
40
0.3552435
50
213.1270025
51
269.7253881
0
ARC
8
DEFAULT_255_2_778
10
16.346617
20
31.1570609
40
0.3445943
50
267.6127982
51
322.5168594
0
ARC
8
DEFAULT_255_2_778
10
16.207814
20
31.2547917
40
0.5142574
50
323.2870786
51
355.576772
0
ARC
8
DEFAULT_255_2_778
10
15.9140673
20
31.2987703
40
0.810798
50
354.0789834
51
0.1127298
0
ARC
8
DEFAULT_255_2_778
10
16.0771378
20
31.3135812
40
0.6478608
50
358.831152
51
21.1592263
0
ARC
8
DEFAULT_255_2_778
10
16.2614772
20
31.3769641
40
0.4531314
50
22.098705
51
37.9560228
0
ARC
8
DEFAULT_255_2_778
10
16.3468994
20
31.4510632
40
0.3402534
50
36.9647561
51
91.7070047
0
ARC
8
DEFAULT_255_2_778
10
22.1061577
20
33.657762
40
2.1783477
50
247.0897204
51
254.3018555
0
ARC
8
DEFAULT_255_2_778
10
21.7057872
20
32.7229252
40
1.1614051
50
235.6901887
51
247.329757
0
ARC
8
DEFAULT_255_2_778
10
21.456301
20
32.3463465
40
0.7097501
50
227.5834913
51
235.1905536
0
ARC
8
DEFAULT_255_2_778
10
21.3086708
20
32.1969946
40
0.4999788
50
179.0292126
51
228.5289046
0
ARC
8
DEFAULT_255_2_778
10
21.3372729
20
32.2134131
40
0.5285689
50
127.5870569
51
180.8615243
0
ARC
8
DEFAULT_255_2_778
10
21.4804802
20
32.0492419
40
0.7461336
50
97.4032691
51
128.6116897
0
ARC
8
DEFAULT_255_2_778
10
21.5469618
20
31.6854828
40
1.1155895
50
89.7995998
51
98.3820294
0
ARC
8
DEFAULT_255_2_778
10
21.56525
20
31.894961
40
0.9062188
50
66.4764978
51
90.9096133
0
ARC
8
DEFAULT_255_2_778
10
21.607378
20
32.0161377
40
0.7783589
50
63.7232091
51
65.7596757
0
ARC
8
DEFAULT_255_2_778
10
21.6684419
20
32.1160589
40
0.6618132
50
32.7482192
51
64.6338353
0
ARC
8
DEFAULT_255_2_778
10
21.7084107
20
32.1432965
40
0.6134644
50
359.6515428
51
32.6279846
0
ARC
8
DEFAULT_255_2_778
10
21.6100507
20
32.1542
40
0.4226665
50
358.0157977
51
33.7246851
0
ARC
8
DEFAULT_255_2_778
10
21.6621721
20
32.177716
40
0.3663802
50
35.191608
51
48.1816748
0
ARC
8
DEFAULT_255_2_778
10
21.613996
20
32.109567
40
0.4493928
50
49.3975605
51
83.3641746
0
ARC
8
DEFAULT_255_2_778
10
21.5544649
20
31.7857574
40
0.7782154
50
81.7653251
51
90.2430448
0
ARC
8
DEFAULT_255_2_778
10
21.5384892
20
31.8968613
40
0.6672247
50
88.9115511
51
107.6487331
0
ARC
8
DEFAULT_255_2_778
10
21.4597832
20
32.15836
40
0.394195
50
108.2708011
51
127.6740252
0
ARC
8
DEFAULT_255_2_778
10
21.4115579
20
32.2244365
40
0.3124295
50
128.0799555
51
182.654733
0
ARC
8
DEFAULT_255_2_778
10
21.3808364
20
32.209925
40
0.2813726
50
179.9917261
51
233.3210083
0
ARC
8
DEFAULT_255_2_778
10
21.6015663
20
32.4843479
40
0.6334428
50
232.1357513
51
246.4049252
0
ARC
8
DEFAULT_255_2_778
10
21.9736205
20
33.2970476
40
1.5272008
50
245.8177816
51
252.9870724
0
ARC
8
DEFAULT_255_2_778
10
22.2626924
20
34.1854648
40
2.4613739
50
252.6034009
51
254.3391737
0
ARC
8
DEFAULT_255_2_778
10
20.9375403
20
29.4154178
40
2.4893342
50
68.7435401
51
74.6079841
0
ARC
8
DEFAULT_255_2_778
10
21.3878263
20
30.5608357
40
1.2586021
50
59.6241516
51
68.943311
0
ARC
8
DEFAULT_255_2_778
10
21.6801762
20
31.0479906
40
0.6905128
50
38.3621355
51
60.1119306
0
ARC
8
DEFAULT_255_2_778
10
21.8166696
20
31.1676271
40
0.509319
50
31.212826
51
37.3388749
0
ARC
8
DEFAULT_255_2_778
10
21.7785029
20
31.1555059
40
0.5483231
50
358.605894
51
30.2292852
0
ARC
8
DEFAULT_255_2_778
10
21.8164665
20
31.1274866
40
0.5104083
50
306.4573787
51
1.648018
0
ARC
8
DEFAULT_255_2_778
10
21.6684473
20
31.3195274
40
0.7528395
50
279.8581185
51
306.8330651
0
ARC
8
DEFAULT_255_2_778
10
21.5741528
20
31.7727828
40
1.2156428
50
269.6281707
51
280.5792993
0
ARC
8
DEFAULT_255_2_778
10
21.5582539
20
31.5839623
40
1.026828
50
246.3512449
51
270.446946
0
ARC
8
DEFAULT_255_2_778
10
21.4269935
20
31.3131625
40
0.72621
50
220.1009592
51
247.2674219
0
ARC
8
DEFAULT_255_2_778
10
21.3491493
20
31.2352852
40
0.6165747
50
215.2234247
51
219.2249167
0
ARC
8
DEFAULT_255_2_778
10
21.3159675
20
31.2125474
40
0.5763541
50
179.2426454
51
215.2794348
0
ARC
8
DEFAULT_255_2_778
10
21.4050142
20
31.2054372
40
0.3761389
50
177.7559056
51
232.3901749
0
ARC
8
DEFAULT_255_2_778
10
21.5049004
20
31.3444284
40
0.5472339
50
232.9864926
51
263.5368847
0
ARC
8
DEFAULT_255_2_778
10
21.5631291
20
31.6815798
40
0.8890198
50
262.253763
51
270.2020244
0
ARC
8
DEFAULT_255_2_778
10
21.5788291
20
31.5626317
40
0.7701686
50
269.0651769
51
285.0225842
0
ARC
8
DEFAULT_255_2_778
10
21.6709131
20
31.214943
40
0.4104963
50
285.1878324
51
306.6178384
0
ARC
8
DEFAULT_255_2_778
10
21.7353725
20
31.1276731
40
0.3020024
50
306.6779939
51
2.1429082
0
ARC
8
DEFAULT_255_2_778
10
21.7406941
20
31.1542569
40
0.2968638
50
357.0474117
51
51.6803858
0
ARC
8
DEFAULT_255_2_778
10
21.5463962
20
30.8784004
40
0.6340378
50
53.3618994
51
66.1114649
0
ARC
8
DEFAULT_255_2_778
10
21.1289238
20
29.9772506
40
1.6271364
50
65.5205424
51
71.7204375
0
ARC
8
DEFAULT_255_2_778
10
20.7066495
20
28.7457866
40
2.9289422
50
71.4326424
51
73.9432481
0
LINE
8
DEFAULT_255_2_778
10
7.6279638
20
32.7510656
11
8.1420638
21
31.9337656
0
LINE
8
DEFAULT_255_2_778
10
8.1420638
20
31.9337656
11
8.6532638
21
32.7510656
0
LINE
8
DEFAULT_255_2_778
10
8.6532638
20
32.7510656
11
8.9842638
21
32.7510656
0
LINE
8
DEFAULT_255_2_778
10
8.9842638
20
32.7510656
11
8.3103638
21
31.6935656
0
LINE
8
DEFAULT_255_2_778
10
8.3103638
20
31.6935656
11
9.0003638
21
30.6182656
0
LINE
8
DEFAULT_255_2_778
10
9.0003638
20
30.6182656
11
8.6664638
21
30.6182656
0
LINE
8
DEFAULT_255_2_778
10
8.6664638
20
30.6182656
11
8.1420638
21
31.4503656
0
LINE
8
DEFAULT_255_2_778
10
8.1420638
20
31.4503656
11
7.6147638
21
30.6182656
0
LINE
8
DEFAULT_255_2_778
10
7.6147638
20
30.6182656
11
7.2821638
21
30.6182656
0
LINE
8
DEFAULT_255_2_778
10
7.2821638
20
30.6182656
11
7.9735638
21
31.6935656
0
LINE
8
DEFAULT_255_2_778
10
7.9735638
20
31.6935656
11
7.2982638
21
32.7510656
0
LINE
8
DEFAULT_255_2_778
10
7.2982638
20
32.7510656
11
7.6279638
21
32.7510656
0
LINE
8
DEFAULT_255_2_778
10
7.6279638
20
32.7510656
11
7.6279638
21
32.7510656
0
LINE
8
DEFAULT_255_2_778
10
13.7088638
20
31.6347656
11
13.7088638
21
31.4135656
0
LINE
8
DEFAULT_255_2_778
10
13.7088638
20
31.4135656
11
12.9939638
21
31.4135656
0
LINE
8
DEFAULT_255_2_778
10
12.9939638
20
31.4135656
11
12.9939638
21
31.6347656
0
LINE
8
DEFAULT_255_2_778
10
12.9939638
20
31.6347656
11
13.7088638
21
31.6347656
0
LINE
8
DEFAULT_255_2_778
10
13.7088638
20
31.6347656
11
13.7088638
21
31.6347656
0
LINE
8
DEFAULT_255_2_778
10
14.8352638
20
32.7613656
11
14.8352638
21
30.6182656
0
LINE
8
DEFAULT_255_2_778
10
14.8352638
20
30.6182656
11
14.5626638
21
30.6182656
0
LINE
8
DEFAULT_255_2_778
10
14.5626638
20
30.6182656
11
14.5626638
21
32.4242656
0
LINE
8
DEFAULT_255_2_778
10
14.5626638
20
32.4242656
11
14.0163638
21
32.2237656
0
LINE
8
DEFAULT_255_2_778
10
14.0163638
20
32.2237656
11
14.0163638
21
32.4697656
0
LINE
8
DEFAULT_255_2_778
10
14.0163638
20
32.4697656
11
14.7926638
21
32.7613656
0
LINE
8
DEFAULT_255_2_778
10
14.7926638
20
32.7613656
11
14.8352638
21
32.7613656
0
LINE
8
DEFAULT_255_2_778
10
14.8352638
20
32.7613656
11
14.8352638
21
32.7613656
0
LINE
8
DEFAULT_255_2_778
10
16.6444638
20
32.7523656
11
16.6928638
21
32.7523656
0
LINE
8
DEFAULT_255_2_778
10
16.6928638
20
32.7523656
11
16.6928638
21
32.5224656
0
LINE
8
DEFAULT_255_2_778
10
16.6928638
20
32.5224656
11
16.6431638
21
32.5224656
0
LINE
8
DEFAULT_255_2_778
10
15.6453638
20
31.4297656
11
15.6453638
21
31.5336656
0
LINE
8
DEFAULT_255_2_778
10
16.6444638
20
32.7523656
11
16.6444638
21
32.7523656
0
LINE
8
DEFAULT_255_2_778
10
15.9178638
20
31.4982656
11
15.9178638
21
31.3987656
0
LINE
8
DEFAULT_255_2_778
10
16.3367638
20
31.7911656
11
16.3367638
21
31.7914656
0
LINE
8
DEFAULT_255_2_778
10
18.5896638
20
31.8339656
11
18.5896638
21
31.6040656
0
LINE
8
DEFAULT_255_2_778
10
18.5896638
20
31.6040656
11
17.6654638
21
31.6040656
0
LINE
8
DEFAULT_255_2_778
10
17.6654638
20
31.6040656
11
17.6654638
21
30.8481656
0
LINE
8
DEFAULT_255_2_778
10
17.6654638
20
30.8481656
11
18.7391638
21
30.8481656
0
LINE
8
DEFAULT_255_2_778
10
18.7391638
20
30.8481656
11
18.7391638
21
30.6182656
0
LINE
8
DEFAULT_255_2_778
10
18.7391638
20
30.6182656
11
17.3842638
21
30.6182656
0
LINE
8
DEFAULT_255_2_778
10
17.3842638
20
30.6182656
11
17.3842638
21
32.7510656
0
LINE
8
DEFAULT_255_2_778
10
17.3842638
20
32.7510656
11
18.7245638
21
32.7510656
0
LINE
8
DEFAULT_255_2_778
10
18.7245638
20
32.7510656
11
18.7245638
21
32.5195656
0
LINE
8
DEFAULT_255_2_778
10
18.7245638
20
32.5195656
11
17.6654638
21
32.5195656
0
LINE
8
DEFAULT_255_2_778
10
17.6654638
20
32.5195656
11
17.6654638
21
31.8339656
0
LINE
8
DEFAULT_255_2_778
10
17.6654638
20
31.8339656
11
18.5896638
21
31.8339656
0
LINE
8
DEFAULT_255_2_778
10
18.5896638
20
31.8339656
11
18.5896638
21
31.8339656
0
LINE
8
DEFAULT_255_2_778
10
19.1857638
20
32.7510656
11
19.7395638
21
31.6802656
0
LINE
8
DEFAULT_255_2_778
10
19.7395638
20
31.6802656
11
20.2962638
21
32.7510656
0
LINE
8
DEFAULT_255_2_778
10
20.2962638
20
32.7510656
11
20.6155638
21
32.7510656
0
LINE
8
DEFAULT_255_2_778
10
20.6155638
20
32.7510656
11
19.8802638
21
31.4135656
0
LINE
8
DEFAULT_255_2_778
10
19.8802638
20
31.4135656
11
19.8802638
21
30.6182656
0
LINE
8
DEFAULT_255_2_778
10
19.8802638
20
30.6182656
11
19.5990638
21
30.6182656
0
LINE
8
DEFAULT_255_2_778
10
19.5990638
20
30.6182656
11
19.5990638
21
31.4135656
0
LINE
8
DEFAULT_255_2_778
10
19.5990638
20
31.4135656
11
18.8637638
21
32.7510656
0
LINE
8
DEFAULT_255_2_778
10
18.8637638
20
32.7510656
11
19.1860638
21
32.7510656
0
LINE
8
DEFAULT_255_2_778
10
19.1860638
20
32.7510656
11
19.1857638
21
32.7510656
0
LINE
8
DEFAULT_255_2_778
10
22.3218638
20
32.1395656
11
22.0324638
21
32.1395656
0
LINE
8
DEFAULT_255_2_778
10
20.7396638
20
31.2201656
11
21.0291638
21
31.2201656
0
LINE
8
DEFAULT_255_2_778
10
21.5167638
20
31.5604656
11
21.5167638
21
31.5606656
0
ARC
8
DEFAULT_255_2_778
10
8.0126127
20
33.4623504
40
2.7929865
50
318.3850845
51
322.5459427
0
ARC
8
DEFAULT_255_2_778
10
9.3085651
20
32.4769024
40
1.1649448
50
322.260092
51
329.9252461
0
ARC
8
DEFAULT_255_2_778
10
9.7567166
20
32.2080456
40
0.6424455
50
330.6458101
51
331.8214857
0
ARC
8
DEFAULT_255_2_778
10
9.8880427
20
32.1431868
40
0.4960801
50
331.2621131
51
359.8016894
0
ARC
8
DEFAULT_255_2_778
10
10.0081356
20
32.1557027
40
0.3762536
50
357.8320941
51
42.6393304
0
ARC
8
DEFAULT_255_2_778
10
10.0357098
20
32.1685009
40
0.3474233
50
44.1672143
51
92.5884142
0
ARC
8
DEFAULT_255_2_778
10
10.0065688
20
32.0431855
40
0.4725757
50
88.368958
51
116.1245582
0
ARC
8
DEFAULT_255_2_778
10
9.9570099
20
32.1632621
40
0.3430465
50
117.5237731
51
135.7656002
0
ARC
8
DEFAULT_255_2_778
10
10.0048579
20
32.1291911
40
0.4011972
50
137.0462967
51
176.3613746
0
ARC
8
DEFAULT_255_2_778
10
10.2620974
20
32.0891842
40
0.6608787
50
174.3148162
51
180.1052851
0
ARC
8
DEFAULT_255_2_778
10
10.0022328
20
32.1026476
40
0.6673744
50
152.2968511
51
181.2602315
0
ARC
8
DEFAULT_255_2_778
10
9.9258728
20
32.1306511
40
0.5868467
50
133.5800562
51
151.2515612
0
ARC
8
DEFAULT_255_2_778
10
9.962735
20
32.0845201
40
0.6456962
50
95.7204804
51
133.127701
0
ARC
8
DEFAULT_255_2_778
10
10.0176652
20
31.7655197
40
0.9688529
50
89.860752
51
97.0725045
0
ARC
8
DEFAULT_255_2_778
10
10.0328851
20
31.9123354
40
0.822135
50
71.8665829
51
90.8966319
0
ARC
8
DEFAULT_255_2_778
10
10.1118717
20
32.167405
40
0.5551674
50
48.1846328
51
71.4205532
0
ARC
8
DEFAULT_255_2_778
10
10.1314463
20
32.1963631
40
0.5205555
50
358.3206285
51
47.6652919
0
ARC
8
DEFAULT_255_2_778
10
9.8895395
20
32.1731629
40
0.7622803
50
0.0005153
51
0.5971524
0
ARC
8
DEFAULT_255_2_778
10
10.0138875
20
32.1855363
40
0.6380522
50
336.9290914
51
358.8894394
0
ARC
8
DEFAULT_255_2_778
10
9.4748684
20
32.4038125
40
1.2195413
50
325.5294399
51
337.418027
0
ARC
8
DEFAULT_255_2_778
10
8.6673472
20
32.9474575
40
2.1929871
50
318.3632391
51
325.7607352
0
ARC
8
DEFAULT_255_2_778
10
8.0250314
20
33.4969659
40
3.038175
50
317.2941407
51
318.666322
0
LINE
8
DEFAULT_255_2_778
10
10.7481198
20
30.8272698
11
10.7481198
21
30.6100698
0
LINE
8
DEFAULT_255_2_778
10
10.7481198
20
30.6100698
11
9.3752198
21
30.6100698
0
LINE
8
DEFAULT_255_2_778
10
9.3752198
20
30.6100698
11
9.3752198
21
30.8015698
0
LINE
8
DEFAULT_255_2_778
10
9.3752198
20
30.8015698
11
10.1007198
21
31.6074698
0
LINE
8
DEFAULT_255_2_778
10
9.6012198
20
32.0879698
11
9.3350198
21
32.0879698
0
LINE
8
DEFAULT_255_2_778
10
10.2576198
20
31.4363698
11
9.6962198
21
30.8274698
0
LINE
8
DEFAULT_255_2_778
10
9.6962198
20
30.8274698
11
10.7481198
21
30.8274698
0
LINE
8
DEFAULT_255_2_778
10
10.7481198
20
30.8274698
11
10.7481198
21
30.8272698
0
LINE
8
DEFAULT_255_2_778
10
12.7098198
20
32.7055698
11
12.7098198
21
30.6100698
0
LINE
8
DEFAULT_255_2_778
10
12.7098198
20
30.6100698
11
12.4319198
21
30.6100698
0
LINE
8
DEFAULT_255_2_778
10
12.4319198
20
30.6100698
11
11.3771198
21
32.2247698
0
LINE
8
DEFAULT_255_2_778
10
11.3771198
20
32.2247698
11
11.3771198
21
30.6100698
0
LINE
8
DEFAULT_255_2_778
10
11.3771198
20
30.6100698
11
11.0992198
21
30.6100698
0
LINE
8
DEFAULT_255_2_778
10
11.0992198
20
30.6100698
11
11.0992198
21
32.7055698
0
LINE
8
DEFAULT_255_2_778
10
11.0992198
20
32.7055698
11
11.3771198
21
32.7055698
0
LINE
8
DEFAULT_255_2_778
10
11.3771198
20
32.7055698
11
12.4349198
21
31.0836698
0
LINE
8
DEFAULT_255_2_778
10
12.4349198
20
31.0836698
11
12.4349198
21
32.7055698
0
LINE
8
DEFAULT_255_2_778
10
12.4349198
20
32.7055698
11
12.7098198
21
32.7055698
0
LINE
8
DEFAULT_255_2_778
10
12.7098198
20
32.7055698
11
12.7098198
21
32.7055698
0
ENDSEC
0
EOF