0
SECTION
2
HEADER
9
$MEASUREMENT
70
1
0
ENDSEC
0
SECTION
2
TABLES
0
TABLE
2
LTYPE
0
LTYPE
72
65
70
64
2
CONTINUOUS
3
______
73
0
40
0
0
ENDTAB
0
TABLE
2
LAYER
0
LAYER
2
DEFAULT_255_2_778
70
0
62
255
6
CONTINUOUS
0
ENDTAB
0
ENDSEC
0
SECTION
2
ENTITIES
0
ARC
8
DEFAULT_255_2_778
10
34.456545
20
22.5569646
40
0.3001309
50
180.0058902
51
269.9750049
0
ARC
8
DEFAULT_255_2_778
10
34.4565235
20
66.9568243
40
0.3001094
50
90.0208901
51
179.9791099
0
ARC
8
DEFAULT_255_2_778
10
34.4565235
20
66.9568243
40
0.3001094
50
90.0208901
51
179.9791099
0
ARC
8
DEFAULT_255_2_778
10
34.4565235
20
66.9568243
40
0.3001094
50
90.0208901
51
179.9791099
0
ARC
8
DEFAULT_255_2_778
10
34.4565235
20
66.9568243
40
0.3001094
50
90.0208901
51
179.9791099
0
LINE
8
DEFAULT_255_2_778
10
72.1564141
20
22.2568337
11
34.4564141
21
22.2568337
0
LINE
8
DEFAULT_255_2_778
10
34.1564141
20
22.5569337
11
34.1564141
21
66.9569337
0
LINE
8
DEFAULT_255_2_778
10
34.4564141
20
67.2569337
11
72.1564141
21
67.2569337
0
LINE
8
DEFAULT_255_2_778
10
34.1564141
20
67.2569337
11
34.1564141
21
22.2568337
0
LINE
8
DEFAULT_255_2_778
10
34.1564141
20
22.2568337
11
74.1564141
21
22.2568337
0
LINE
8
DEFAULT_255_2_778
10
74.1564141
20
22.2568337
11
74.1564141
21
67.2569337
0
LINE
8
DEFAULT_255_2_778
10
74.1564141
20
67.2569337
11
34.1564141
21
67.2569337
0
ARC
8
DEFAULT_255_2_778
10
86.6562584
20
60.9572967
40
0.5000969
50
269.9996485
51
0.0003515
0
ARC
8
DEFAULT_255_2_778
10
11.1562677
20
52.8895902
40
1.0001962
50
1.9982412
51
81.8560914
0
ARC
8
DEFAULT_255_2_778
10
11.1439864
20
52.8896146
40
1.0124691
50
359.9991592
51
1.972625
0
ARC
8
DEFAULT_255_2_778
10
11.1563309
20
36.6240366
40
1.0001245
50
279.8064116
51
0.0036176
0
ARC
8
DEFAULT_255_2_778
10
11.1547034
20
36.6364459
40
1.0126298
50
278.1326449
51
279.7775657
0
ARC
8
DEFAULT_255_2_778
10
6.1565604
20
33.8893667
40
1.0001088
50
98.1398433
51
178.3379967
0
ARC
8
DEFAULT_255_2_778
10
6.1696179
20
33.8893146
40
1.0131624
50
178.3564701
51
180.000839
0
ARC
8
DEFAULT_255_2_778
10
6.1565798
20
55.6240366
40
1.0001245
50
179.9963824
51
260.1935884
0
ARC
8
DEFAULT_255_2_778
10
6.1582074
20
55.6364459
40
1.0126298
50
260.2224343
51
261.8673551
0
ARC
8
DEFAULT_255_2_778
10
84.9566659
20
30.1723853
40
2.0001895
50
0.0032793
51
47.7218028
0
ARC
8
DEFAULT_255_2_778
10
30.263657
20
32.8111721
40
30.0059163
50
184.8832487
51
196.8530809
0
ARC
8
DEFAULT_255_2_778
10
2.0248928
20
24.2567972
40
0.4998976
50
196.8492306
51
269.9923923
0
LINE
8
DEFAULT_255_2_778
10
2.0248264
20
23.7568997
11
2.0250554
21
23.7568998
0
ARC
8
DEFAULT_255_2_778
10
4.6131334
20
0.7559228
40
0.9974016
50
182.3284877
51
226.2540314
0
ARC
8
DEFAULT_255_2_778
10
4.6146835
20
0.7543109
40
0.9973115
50
226.1256686
51
270.0558364
0
LINE
8
DEFAULT_255_2_778
10
5.1564554
20
34.1387998
11
5.1564553
21
34.1390651
0
ARC
8
DEFAULT_255_2_778
10
6.156513
20
34.1389801
40
1.0000577
50
116.5726266
51
179.9951307
0
ARC
8
DEFAULT_255_2_778
10
6.1562977
20
36.3749194
40
1.0000577
50
296.5726266
51
359.9951307
0
LINE
8
DEFAULT_255_2_778
10
7.1563554
20
36.3748344
11
7.1563554
21
36.3750998
0
LINE
8
DEFAULT_255_2_778
10
7.1563554
20
53.1390998
11
7.1563554
21
53.1393651
0
ARC
8
DEFAULT_255_2_778
10
6.1562977
20
53.1392801
40
1.0000577
50
0.0048693
51
63.4273734
0
ARC
8
DEFAULT_255_2_778
10
6.1570768
20
55.375444
40
1.0004213
50
180.0025336
51
243.4144935
0
ARC
8
DEFAULT_255_2_778
10
4.6149419
20
88.759573
40
0.9973272
50
89.9475231
51
134.2082988
0
ARC
8
DEFAULT_255_2_778
10
4.6134192
20
88.7578595
40
0.9974961
50
134.0769751
51
177.6592452
0
ARC
8
DEFAULT_255_2_778
10
2.0248033
20
65.2566591
40
0.5001407
50
89.994037
51
163.1420537
0
ARC
8
DEFAULT_255_2_778
10
30.2570667
20
56.7035932
40
29.9995581
50
163.1455668
51
175.1177566
0
ARC
8
DEFAULT_255_2_778
10
500.1492312
20
44.7566997
40
499.9931758
50
178.3381552
51
180
0
ARC
8
DEFAULT_255_2_778
10
500.1492312
20
44.7566999
40
499.9931758
50
180
51
181.6618448
0
LINE
8
DEFAULT_255_2_778
10
83.1563554
20
58.7569998
11
83.9064554
21
57.2570998
0
LINE
8
DEFAULT_255_2_778
10
83.9064554
20
57.2570998
11
83.1563554
21
55.7570998
0
LINE
8
DEFAULT_255_2_778
10
84.2562554
20
62.4571998
11
84.4562554
21
61.2572998
0
LINE
8
DEFAULT_255_2_778
10
84.4562554
20
61.2572998
11
85.1563554
21
60.4571998
0
LINE
8
DEFAULT_255_2_778
10
85.1563554
20
60.4571998
11
86.6562554
21
60.4571998
0
LINE
8
DEFAULT_255_2_778
10
87.1563554
20
60.9572998
11
87.1563554
21
62.4571998
0
LINE
8
DEFAULT_255_2_778
10
9.1563554
20
62.2571998
11
9.1563554
21
66.7568998
0
LINE
8
DEFAULT_255_2_778
10
9.1563554
20
66.7568998
11
7.1563554
21
66.7568998
0
LINE
8
DEFAULT_255_2_778
10
7.1563554
20
66.7568998
11
7.1563554
21
62.2568998
0
LINE
8
DEFAULT_255_2_778
10
7.1563554
20
62.2568998
11
9.1563554
21
62.2571998
0
LINE
8
DEFAULT_255_2_778
10
9.1563554
20
27.2569998
11
9.1563554
21
22.7569998
0
LINE
8
DEFAULT_255_2_778
10
9.1563554
20
22.7569998
11
7.1563554
21
22.7569998
0
LINE
8
DEFAULT_255_2_778
10
7.1563554
20
22.7569998
11
7.1563554
21
27.2569998
0
LINE
8
DEFAULT_255_2_778
10
7.1563554
20
27.2569998
11
9.1563554
21
27.2569998
0
LINE
8
DEFAULT_255_2_778
10
12.1564554
20
52.8895998
11
12.1564554
21
36.6240998
0
LINE
8
DEFAULT_255_2_778
10
11.2979554
20
35.6339998
11
6.0149554
21
34.8793998
0
LINE
8
DEFAULT_255_2_778
10
5.1564554
20
33.8892998
11
5.1564554
21
-0.2435002
0
LINE
8
DEFAULT_255_2_778
10
5.1564554
20
-0.2435002
11
87.1563554
21
-0.2435002
0
LINE
8
DEFAULT_255_2_778
10
87.1563554
20
-0.2435002
11
87.1563554
21
25.0564998
0
LINE
8
DEFAULT_255_2_778
10
87.1563554
20
25.0564998
11
84.6562554
21
27.0564998
0
LINE
8
DEFAULT_255_2_778
10
84.6562554
20
27.0564998
11
83.1563554
21
27.0564998
0
LINE
8
DEFAULT_255_2_778
10
83.1563554
20
27.0564998
11
83.1563554
21
62.4568998
0
LINE
8
DEFAULT_255_2_778
10
83.1563554
20
62.4568998
11
87.1563554
21
62.4568998
0
LINE
8
DEFAULT_255_2_778
10
87.1563554
20
62.4568998
11
87.1563554
21
89.7568998
0
LINE
8
DEFAULT_255_2_778
10
87.1563554
20
89.7568998
11
5.1564554
21
89.7568998
0
LINE
8
DEFAULT_255_2_778
10
5.1564554
20
89.7568998
11
5.1564554
21
55.6240998
0
LINE
8
DEFAULT_255_2_778
10
6.0149554
20
54.6339998
11
11.2979554
21
53.8796998
0
LINE
8
DEFAULT_255_2_778
10
85.0566554
20
26.7370998
11
85.0566554
21
31.0571998
0
LINE
8
DEFAULT_255_2_778
10
85.0566554
20
31.0571998
11
83.1566554
21
31.0571998
0
LINE
8
DEFAULT_255_2_778
10
83.1566554
20
31.5572998
11
84.1567554
21
31.5572998
0
LINE
8
DEFAULT_255_2_778
10
84.1567554
20
31.5572998
11
84.3567554
21
33.0571998
0
LINE
8
DEFAULT_255_2_778
10
84.3567554
20
33.0571998
11
84.7568554
21
33.0571998
0
LINE
8
DEFAULT_255_2_778
10
84.7568554
20
33.0571998
11
86.3022554
21
31.6522998
0
LINE
8
DEFAULT_255_2_778
10
86.9568554
20
30.1724998
11
86.9568554
21
25.2170998
0
LINE
8
DEFAULT_255_2_778
10
2.0250554
20
23.7568998
11
2.6563554
21
23.7568998
0
LINE
8
DEFAULT_255_2_778
10
2.6563554
20
23.7568998
11
3.6165554
21
0.7153998
0
LINE
8
DEFAULT_255_2_778
10
4.6156554
20
-0.2430002
11
5.1564554
21
-0.2430002
0
LINE
8
DEFAULT_255_2_778
10
5.1564554
20
-0.2430002
11
5.1564554
21
34.1387998
0
LINE
8
DEFAULT_255_2_778
10
5.7091554
20
35.0333998
11
6.6036554
21
35.4804998
0
LINE
8
DEFAULT_255_2_778
10
7.1563554
20
36.3750998
11
7.1563554
21
53.1390998
0
LINE
8
DEFAULT_255_2_778
10
6.6036554
20
54.0336998
11
5.7093554
21
54.4807998
0
LINE
8
DEFAULT_255_2_778
10
5.1566554
20
55.3753998
11
5.1566554
21
89.7568998
0
LINE
8
DEFAULT_255_2_778
10
5.1566554
20
89.7568998
11
4.6158554
21
89.7568998
0
LINE
8
DEFAULT_255_2_778
10
3.6167554
20
88.7985998
11
2.6563554
21
65.7567998
0
LINE
8
DEFAULT_255_2_778
10
2.6563554
20
65.7567998
11
2.0248554
21
65.7567998
0
LINE
8
DEFAULT_255_2_778
10
0.3663554
20
30.2565998
11
0.3666554
21
30.2568998
0
ENDSEC
0
EOF