0
SECTION
2
HEADER
9
$MEASUREMENT
70
1
0
ENDSEC
0
SECTION
2
TABLES
0
TABLE
2
LTYPE
0
LTYPE
72
65
70
64
2
CONTINUOUS
3
______
73
0
40
0
0
ENDTAB
0
TABLE
2
LAYER
0
LAYER
2
DEFAULT_255_2_778
70
0
62
255
6
CONTINUOUS
0
LAYER
2
DEFAULT_255_1_234
70
0
62
255
6
CONTINUOUS
0
ENDTAB
0
ENDSEC
0
SECTION
2
ENTITIES
0
ARC
8
DEFAULT_255_2_778
10
3.5700693
20
202.8052013
40
0.7914215
50
129.1312896
51
180.1450914
0
ARC
8
DEFAULT_255_2_778
10
3.5703345
20
202.8056884
40
0.7912112
50
89.854026
51
129.1684493
0
ARC
8
DEFAULT_255_2_778
10
25.7993937
20
202.8053749
40
0.7915249
50
39.4792447
51
90.147911
0
ARC
8
DEFAULT_255_2_778
10
25.7999935
20
202.8052216
40
0.7911595
50
359.8533901
51
39.5154338
0
ARC
8
DEFAULT_255_2_778
10
25.7996693
20
-1.986351
40
0.7914836
50
309.4761667
51
0.1482649
0
ARC
8
DEFAULT_255_2_778
10
25.799398
20
-1.9867821
40
0.7913235
50
269.8517415
51
309.511178
0
ARC
8
DEFAULT_255_2_778
10
3.570342
20
-1.9867239
40
0.7913815
50
219.1282118
51
270.1454017
0
ARC
8
DEFAULT_255_2_778
10
3.5700247
20
-1.9863414
40
0.7913769
50
179.8524075
51
219.1641908
0
LINE
8
DEFAULT_255_2_778
10
3.5723503
20
203.5968971
11
25.7973503
21
203.5968971
0
LINE
8
DEFAULT_255_2_778
10
26.5911503
20
202.8031971
11
26.5911503
21
-1.9843029
0
LINE
8
DEFAULT_255_2_778
10
25.7973503
20
-2.7781029
11
3.5723503
21
-2.7781029
0
LINE
8
DEFAULT_255_2_778
10
2.7786503
20
-1.9843029
11
2.7786503
21
202.8031971
0
LINE
8
DEFAULT_255_1_234
10
7.736485
20
-0.0087609
11
7.736485
21
-0.1348592
0
LINE
8
DEFAULT_255_1_234
10
7.736485
20
-0.1348592
11
7.2457458
21
-0.1348592
0
LINE
8
DEFAULT_255_1_234
10
7.2457458
20
-0.1348592
11
7.2457458
21
-0.6513
0
LINE
8
DEFAULT_255_1_234
10
7.2457458
20
-0.6513
11
7.0915364
21
-0.6513
0
LINE
8
DEFAULT_255_1_234
10
7.0915364
20
-0.6513
11
7.0915364
21
0.5181211
0
LINE
8
DEFAULT_255_1_234
10
7.0915364
20
0.5181211
11
7.8159992
21
0.5181211
0
LINE
8
DEFAULT_255_1_234
10
7.8159992
20
0.5181211
11
7.8159992
21
0.3912196
0
LINE
8
DEFAULT_255_1_234
10
7.8159992
20
0.3912196
11
7.2457458
21
0.3912196
0
LINE
8
DEFAULT_255_1_234
10
7.2457458
20
0.3912196
11
7.2457458
21
-0.0087609
0
LINE
8
DEFAULT_255_1_234
10
7.2457458
20
-0.0087609
11
7.736485
21
-0.0087609
0
LINE
8
DEFAULT_255_1_234
10
8.1003227
20
0.5181211
11
8.3822367
21
0.0699501
0
LINE
8
DEFAULT_255_1_234
10
8.3822367
20
0.0699501
11
8.6625444
21
0.5181211
0
LINE
8
DEFAULT_255_1_234
10
8.6625444
20
0.5181211
11
8.8440617
21
0.5181211
0
LINE
8
DEFAULT_255_1_234
10
8.8440617
20
0.5181211
11
8.4746017
21
-0.0617704
0
LINE
8
DEFAULT_255_1_234
10
8.4746017
20
-0.0617704
11
8.8528966
21
-0.6513
0
LINE
8
DEFAULT_255_1_234
10
8.8528966
20
-0.6513
11
8.6697729
21
-0.6513
0
LINE
8
DEFAULT_255_1_234
10
8.6697729
20
-0.6513
11
8.3822367
21
-0.1950973
0
LINE
8
DEFAULT_255_1_234
10
8.3822367
20
-0.1950973
11
8.0930941
21
-0.6513
0
LINE
8
DEFAULT_255_1_234
10
8.0930941
20
-0.6513
11
7.9107737
21
-0.6513
0
LINE
8
DEFAULT_255_1_234
10
7.9107737
20
-0.6513
11
8.2898717
21
-0.0617704
0
LINE
8
DEFAULT_255_1_234
10
8.2898717
20
-0.0617704
11
7.9196086
21
0.5181211
0
LINE
8
DEFAULT_255_1_234
10
7.9196086
20
0.5181211
11
8.1003227
21
0.5181211
0
LINE
8
DEFAULT_255_1_234
10
9.7596798
20
-0.5300208
11
9.7596798
21
-0.6513
0
LINE
8
DEFAULT_255_1_234
10
9.7596798
20
-0.6513
11
8.993452
21
-0.6513
0
LINE
8
DEFAULT_255_1_234
10
8.993452
20
-0.6513
11
8.993452
21
-0.5444779
0
LINE
8
DEFAULT_255_1_234
10
8.993452
20
-0.5444779
11
9.3982516
21
-0.0947005
0
LINE
8
DEFAULT_255_1_234
10
9.1195503
20
0.1735595
11
8.9709631
21
0.1735595
0
LINE
8
DEFAULT_255_1_234
10
9.4857976
20
-0.1902782
11
9.1725598
21
-0.5300208
0
LINE
8
DEFAULT_255_1_234
10
9.1725598
20
-0.5300208
11
9.7596798
21
-0.5300208
0
ARC
8
DEFAULT_255_1_234
10
8.0492349
20
1.0982527
40
1.8008286
50
318.5132453
51
320.7828378
0
ARC
8
DEFAULT_255_1_234
10
8.5779324
20
0.6679426
40
1.1191493
50
320.7372736
51
323.9737074
0
ARC
8
DEFAULT_255_1_234
10
8.969918
20
0.3839361
40
0.6350923
50
323.8961724
51
328.6421089
0
ARC
8
DEFAULT_255_1_234
10
9.1745776
20
0.2577031
40
0.3946393
50
328.8299013
51
331.789948
0
ARC
8
DEFAULT_255_1_234
10
9.2742954
20
0.2062509
40
0.2824501
50
331.4255242
51
352.9364833
0
ARC
8
DEFAULT_255_1_234
10
9.2879455
20
0.2031976
40
0.2685315
50
353.2248685
51
0.0169286
0
ARC
8
DEFAULT_255_1_234
10
9.3089332
20
0.205495
40
0.2475536
50
359.4866256
51
15.9339782
0
ARC
8
DEFAULT_255_1_234
10
9.3596317
20
0.2191286
40
0.1950618
50
16.1714718
51
43.5284424
0
ARC
8
DEFAULT_255_1_234
10
9.3673625
20
0.2268573
40
0.184134
50
43.4415429
51
83.1661404
0
ARC
8
DEFAULT_255_1_234
10
9.3539544
20
0.1531771
40
0.258926
50
82.160215
51
90.1505798
0
ARC
8
DEFAULT_255_1_234
10
9.3507971
20
0.0994865
40
0.3126255
50
89.5460705
51
102.5418777
0
ARC
8
DEFAULT_255_1_234
10
9.3265057
20
0.2025665
40
0.2067346
50
102.1739365
51
129.2061916
0
ARC
8
DEFAULT_255_1_234
10
9.3186129
20
0.2150094
40
0.1921118
50
129.7279328
51
135.7542026
0
ARC
8
DEFAULT_255_1_234
10
9.3307656
20
0.2053045
40
0.2075944
50
136.175737
51
166.3674722
0
ARC
8
DEFAULT_255_1_234
10
9.4314576
20
0.1783182
40
0.3118201
50
165.9092917
51
178.8683903
0
ARC
8
DEFAULT_255_1_234
10
9.5179437
20
0.1736179
40
0.3983935
50
178.438168
51
180.0083905
0
ARC
8
DEFAULT_255_1_234
10
9.3778039
20
0.1775231
40
0.4068601
50
163.2878735
51
180.5581814
0
ARC
8
DEFAULT_255_1_234
10
9.29763
20
0.199584
40
0.3237344
50
133.454115
51
162.9470031
0
ARC
8
DEFAULT_255_1_234
10
9.3154842
20
0.1806
40
0.349795
50
100.7869394
51
133.4384016
0
ARC
8
DEFAULT_255_1_234
10
9.3502613
20
0.0257319
40
0.5084616
50
89.6605301
51
101.3704185
0
ARC
8
DEFAULT_255_1_234
10
9.3568952
20
0.0318496
40
0.502348
50
78.2171172
51
90.4130393
0
ARC
8
DEFAULT_255_1_234
10
9.392403
20
0.1942637
40
0.3361092
50
55.9268222
51
78.4888551
0
ARC
8
DEFAULT_255_1_234
10
9.4120471
20
0.2281324
40
0.2970617
50
47.9292255
51
55.4054003
0
ARC
8
DEFAULT_255_1_234
10
9.4222031
20
0.2384502
40
0.2825983
50
4.3347696
51
48.0560701
0
ARC
8
DEFAULT_255_1_234
10
9.3126425
20
0.2214601
40
0.393225
50
359.925209
51
5.5967654
0
ARC
8
DEFAULT_255_1_234
10
9.3555317
20
0.2270816
40
0.3503892
50
337.8914096
51
358.9967724
0
ARC
8
DEFAULT_255_1_234
10
9.0841729
20
0.3317706
40
0.6412172
50
326.9135351
51
338.3505194
0
ARC
8
DEFAULT_255_1_234
10
8.6856032
20
0.5872284
40
1.1146189
50
319.6472867
51
327.095818
0
ARC
8
DEFAULT_255_1_234
10
8.3023036
20
0.9034
40
1.6114559
50
317.2586784
51
319.9046139
0
LINE
8
DEFAULT_255_1_234
10
10.8544058
20
0.5181211
11
10.8544058
21
-0.6513
0
LINE
8
DEFAULT_255_1_234
10
10.8544058
20
-0.6513
11
10.6993932
21
-0.6513
0
LINE
8
DEFAULT_255_1_234
10
10.6993932
20
-0.6513
11
10.1106668
21
0.249861
0
LINE
8
DEFAULT_255_1_234
10
10.1106668
20
0.249861
11
10.1106668
21
-0.6513
0
LINE
8
DEFAULT_255_1_234
10
10.1106668
20
-0.6513
11
9.9556542
21
-0.6513
0
LINE
8
DEFAULT_255_1_234
10
9.9556542
20
-0.6513
11
9.9556542
21
0.5181211
0
LINE
8
DEFAULT_255_1_234
10
9.9556542
20
0.5181211
11
10.1106668
21
0.5181211
0
LINE
8
DEFAULT_255_1_234
10
10.1106668
20
0.5181211
11
10.7009996
21
-0.3870558
0
LINE
8
DEFAULT_255_1_234
10
10.7009996
20
-0.3870558
11
10.7009996
21
0.5181211
0
LINE
8
DEFAULT_255_1_234
10
10.7009996
20
0.5181211
11
10.8544058
21
0.5181211
0
LINE
8
DEFAULT_255_1_234
10
11.4142179
20
-0.0938974
11
11.4142179
21
-0.2151766
0
LINE
8
DEFAULT_255_1_234
10
11.4142179
20
-0.2151766
11
11.0222691
21
-0.2151766
0
LINE
8
DEFAULT_255_1_234
10
11.0222691
20
-0.2151766
11
11.0222691
21
-0.0938974
0
LINE
8
DEFAULT_255_1_234
10
11.0222691
20
-0.0938974
11
11.4142179
21
-0.0938974
0
LINE
8
DEFAULT_255_1_234
10
12.1708077
20
0.5181211
11
12.1708077
21
-0.258548
0
LINE
8
DEFAULT_255_1_234
10
12.1708077
20
-0.258548
11
12.3330488
21
-0.258548
0
LINE
8
DEFAULT_255_1_234
10
12.3330488
20
-0.258548
11
12.3330488
21
-0.3798272
0
LINE
8
DEFAULT_255_1_234
10
12.3330488
20
-0.3798272
11
12.1708077
21
-0.3798272
0
LINE
8
DEFAULT_255_1_234
10
12.1708077
20
-0.3798272
11
12.1708077
21
-0.6513
0
LINE
8
DEFAULT_255_1_234
10
12.1708077
20
-0.6513
11
12.0214173
21
-0.6513
0
LINE
8
DEFAULT_255_1_234
10
12.0214173
20
-0.6513
11
12.0214173
21
-0.3798272
0
LINE
8
DEFAULT_255_1_234
10
12.0214173
20
-0.3798272
11
11.4889131
21
-0.3798272
0
LINE
8
DEFAULT_255_1_234
10
11.4889131
20
-0.3798272
11
11.4889131
21
-0.2922813
0
LINE
8
DEFAULT_255_1_234
10
11.4889131
20
-0.2922813
11
12.0125824
21
0.5181211
0
LINE
8
DEFAULT_255_1_234
10
12.0125824
20
0.5181211
11
12.1708077
21
0.5181211
0
LINE
8
DEFAULT_255_1_234
10
12.0037475
20
0.2827912
11
11.6575796
21
-0.258548
0
LINE
8
DEFAULT_255_1_234
10
11.6575796
20
-0.258548
11
12.0214173
21
-0.258548
0
LINE
8
DEFAULT_255_1_234
10
12.0214173
20
-0.258548
11
12.0214173
21
0.3149181
0
LINE
8
DEFAULT_255_1_234
10
12.0214173
20
0.3149181
11
12.0037475
21
0.2827912
0
ARC
8
DEFAULT_255_1_234
10
12.8941572
20
0.2103703
40
0.2822356
50
338.8763615
51
0.5166041
0
ARC
8
DEFAULT_255_1_234
10
12.9110226
20
0.2058208
40
0.2648703
50
325.8412414
51
338.4795939
0
ARC
8
DEFAULT_255_1_234
10
12.8719594
20
0.2329042
40
0.3124019
50
296.7586019
51
325.753654
0
ARC
8
DEFAULT_255_1_234
10
12.8431702
20
0.2813789
40
0.368668
50
296.0902311
51
297.3618122
0
ARC
8
DEFAULT_255_1_234
10
12.868916
20
-0.3740959
40
0.3518806
50
47.9009248
51
67.1946869
0
ARC
8
DEFAULT_255_1_234
10
12.8885402
20
-0.3494605
40
0.320451
50
35.236241
51
47.551371
0
ARC
8
DEFAULT_255_1_234
10
12.914702
20
-0.3320007
40
0.2890103
50
359.2759738
51
35.4014081
0
ARC
8
DEFAULT_255_1_234
10
12.8402051
20
-0.3393174
40
0.3635026
50
343.1294516
51
0.5776525
0
ARC
8
DEFAULT_255_1_234
10
12.9126595
20
-0.359267
40
0.2883832
50
310.8497458
51
342.744803
0
ARC
8
DEFAULT_255_1_234
10
12.8708709
20
-0.3115706
40
0.3517954
50
281.5473923
51
310.9169905
0
ARC
8
DEFAULT_255_1_234
10
12.8352158
20
-0.1562916
40
0.5110832
50
269.6192722
51
281.9789957
0
ARC
8
DEFAULT_255_1_234
10
12.8279947
20
-0.1562172
40
0.5111606
50
257.4584469
51
270.4287458
0
ARC
8
DEFAULT_255_1_234
10
12.789909
20
-0.3165656
40
0.3463762
50
228.7553743
51
257.8484423
0
ARC
8
DEFAULT_255_1_234
10
12.7589289
20
-0.3538558
40
0.297916
50
184.0104442
51
228.5071787
0
ARC
8
DEFAULT_255_1_234
10
12.8752233
20
-0.3361488
40
0.4152734
50
179.9315461
51
185.3254504
0
ARC
8
DEFAULT_255_1_234
10
12.7575878
20
-0.3324008
40
0.2976554
50
145.6795913
51
180.6259649
0
ARC
8
DEFAULT_255_1_234
10
12.7739228
20
-0.3438071
40
0.3175776
50
115.5537925
51
145.6416199
0
ARC
8
DEFAULT_255_1_234
10
12.8080158
20
-0.4048972
40
0.3874232
50
113.2437915
51
116.2054627
0
ARC
8
DEFAULT_255_1_234
10
12.792737
20
0.234958
40
0.3154751
50
222.9548379
51
244.1372485
0
ARC
8
DEFAULT_255_1_234
10
12.7805446
20
0.2212834
40
0.2972382
50
213.3439227
51
222.6271327
0
ARC
8
DEFAULT_255_1_234
10
12.761338
20
0.2082308
40
0.274019
50
180.4316517
51
213.2713999
0
ARC
8
DEFAULT_255_1_234
10
12.8188382
20
0.212911
40
0.33158
50
179.9992944
51
181.1655061
0
ARC
8
DEFAULT_255_1_234
10
12.8597799
20
0.2163561
40
0.3725376
50
164.6186108
51
180.5292368
0
ARC
8
DEFAULT_255_1_234
10
12.7699662
20
0.2405101
40
0.2795349
50
132.2454369
51
164.5092287
0
ARC
8
DEFAULT_255_1_234
10
12.7986766
20
0.2080028
40
0.3229019
50
100.7052766
51
132.1387266
0
ARC
8
DEFAULT_255_1_234
10
12.8291738
20
0.0702086
40
0.4639835
50
89.6732617
51
101.2449487
0
ARC
8
DEFAULT_255_1_234
10
12.8353936
20
0.087699
40
0.4464999
50
76.2876631
51
90.4586123
0
ARC
8
DEFAULT_255_1_234
10
12.8660168
20
0.209922
40
0.3205023
50
47.8240157
51
76.4266918
0
ARC
8
DEFAULT_255_1_234
10
12.8882717
20
0.235959
40
0.2862661
50
6.9168658
51
47.6261438
0
ARC
8
DEFAULT_255_1_234
10
12.7696121
20
0.214037
40
0.4067708
50
359.8419705
51
7.9694496
0
ARC
8
DEFAULT_255_1_234
10
12.8038017
20
-0.3300075
40
0.2513121
50
359.4454068
51
16.9256425
0
ARC
8
DEFAULT_255_1_234
10
12.8506828
20
-0.3170967
40
0.2027071
50
17.292259
51
45.462717
0
ARC
8
DEFAULT_255_1_234
10
12.8452765
20
-0.3217566
40
0.2098212
50
45.3028762
51
83.1921472
0
ARC
8
DEFAULT_255_1_234
10
12.8309449
20
-0.4019105
40
0.2911472
50
82.2614531
51
90.143954
0
ARC
8
DEFAULT_255_1_234
10
12.8278569
20
-0.378605
40
0.2678513
50
89.4959189
51
104.8579811
0
ARC
8
DEFAULT_255_1_234
10
12.8101828
20
-0.311611
40
0.1985654
50
104.8855873
51
135.2448349
0
ARC
8
DEFAULT_255_1_234
10
12.81516
20
-0.3160664
40
0.2052373
50
135.3398955
51
172.104394
0
ARC
8
DEFAULT_255_1_234
10
12.8958658
20
-0.3315075
40
0.2873299
50
171.2651929
51
180.1859362
0
ARC
8
DEFAULT_255_1_234
10
12.878936
20
-0.3347267
40
0.2704083
50
179.515471
51
193.6466734
0
ARC
8
DEFAULT_255_1_234
10
12.7973129
20
-0.3555223
40
0.1861855
50
193.3540587
51
225.8256931
0
ARC
8
DEFAULT_255_1_234
10
12.8013886
20
-0.3484476
40
0.1941102
50
226.418029
51
255.8553723
0
ARC
8
DEFAULT_255_1_234
10
12.8270319
20
-0.2548002
40
0.2911917
50
255.4655572
51
268.7985967
0
ARC
8
DEFAULT_255_1_234
10
12.8317511
20
-0.1709509
40
0.3751331
50
268.3464808
51
270.0104874
0
ARC
8
DEFAULT_255_1_234
10
12.8340899
20
-0.2393862
40
0.3067064
50
269.575914
51
282.0823146
0
ARC
8
DEFAULT_255_1_234
10
12.8565808
20
-0.3388197
40
0.2047712
50
281.7522535
51
306.6056425
0
ARC
8
DEFAULT_255_1_234
10
12.8664234
20
-0.3549513
40
0.1859604
50
307.1350025
51
314.0277951
0
ARC
8
DEFAULT_255_1_234
10
12.8628318
20
-0.3523234
40
0.1903475
50
314.2553419
51
350.169324
0
ARC
8
DEFAULT_255_1_234
10
12.7776786
20
-0.3338591
40
0.2774269
50
349.4145679
51
0.2930737
0
ARC
8
DEFAULT_255_1_234
10
12.829722
20
0.1820353
40
0.2300764
50
89.477591
51
105.729794
0
ARC
8
DEFAULT_255_1_234
10
12.8161133
20
0.2325637
40
0.1777519
50
105.922966
51
135.1662921
0
ARC
8
DEFAULT_255_1_234
10
12.8181636
20
0.2311419
40
0.1802087
50
135.3053131
51
168.9882338
0
ARC
8
DEFAULT_255_1_234
10
12.9009208
20
0.2121721
40
0.2650806
50
168.3802067
51
180.3602358
0
ARC
8
DEFAULT_255_1_234
10
12.8780787
20
0.2084041
40
0.2422425
50
179.5029707
51
194.9126783
0
ARC
8
DEFAULT_255_1_234
10
12.8195448
20
0.193011
40
0.1817188
50
194.9722181
51
224.1943972
0
ARC
8
DEFAULT_255_1_234
10
12.8167316
20
0.1907169
40
0.1781027
50
224.2961434
51
262.0157375
0
ARC
8
DEFAULT_255_1_234
10
12.8309559
20
0.2638661
40
0.2525492
50
261.1250369
51
270.1959853
0
ARC
8
DEFAULT_255_1_234
10
12.8339314
20
0.2451339
40
0.233825
50
269.4825617
51
285.0988277
0
ARC
8
DEFAULT_255_1_234
10
12.8493473
20
0.187299
40
0.1739712
50
285.1585659
51
315.9484648
0
ARC
8
DEFAULT_255_1_234
10
12.8404485
20
0.1954886
40
0.1860616
50
316.0412958
51
351.9162715
0
ARC
8
DEFAULT_255_1_234
10
12.7671439
20
0.2096245
40
0.2606517
50
351.1056823
51
0.1936567
0
ARC
8
DEFAULT_255_1_234
10
12.7934268
20
0.2126369
40
0.234377
50
359.4789506
51
16.0679113
0
ARC
8
DEFAULT_255_1_234
10
12.8410227
20
0.225481
40
0.1850875
50
16.3251951
51
44.791304
0
ARC
8
DEFAULT_255_1_234
10
12.8392509
20
0.2255339
40
0.186312
50
44.3958661
51
88.2498933
0
ARC
8
DEFAULT_255_1_234
10
12.8319062
20
0.1644154
40
0.2476868
50
86.9833827
51
90.0200148
0
LINE
8
DEFAULT_255_1_234
10
14.0903931
20
0.0153343
11
14.0903931
21
-0.110764
0
LINE
8
DEFAULT_255_1_234
10
14.0903931
20
-0.110764
11
13.5835904
21
-0.110764
0
LINE
8
DEFAULT_255_1_234
10
13.5835904
20
-0.110764
11
13.5835904
21
-0.5252017
0
LINE
8
DEFAULT_255_1_234
10
13.5835904
20
-0.5252017
11
14.1723168
21
-0.5252017
0
LINE
8
DEFAULT_255_1_234
10
14.1723168
20
-0.5252017
11
14.1723168
21
-0.6513
0
LINE
8
DEFAULT_255_1_234
10
14.1723168
20
-0.6513
11
13.4293811
21
-0.6513
0
LINE
8
DEFAULT_255_1_234
10
13.4293811
20
-0.6513
11
13.4293811
21
0.5181211
0
LINE
8
DEFAULT_255_1_234
10
13.4293811
20
0.5181211
11
14.1642851
21
0.5181211
0
LINE
8
DEFAULT_255_1_234
10
14.1642851
20
0.5181211
11
14.1642851
21
0.3912196
0
LINE
8
DEFAULT_255_1_234
10
14.1642851
20
0.3912196
11
13.5835904
21
0.3912196
0
LINE
8
DEFAULT_255_1_234
10
13.5835904
20
0.3912196
11
13.5835904
21
0.0153343
0
LINE
8
DEFAULT_255_1_234
10
13.5835904
20
0.0153343
11
14.0903931
21
0.0153343
0
LINE
8
DEFAULT_255_1_234
10
15.0469731
20
-0.6513
11
14.7931702
21
-0.1782306
0
LINE
8
DEFAULT_255_1_234
10
14.7931702
20
-0.1782306
11
14.5184848
21
-0.1782306
0
LINE
8
DEFAULT_255_1_234
10
14.5184848
20
-0.1782306
11
14.5184848
21
-0.6513
0
LINE
8
DEFAULT_255_1_234
10
14.5184848
20
-0.6513
11
14.3634722
21
-0.6513
0
LINE
8
DEFAULT_255_1_234
10
14.3634722
20
-0.6513
11
14.3634722
21
0.5181211
0
LINE
8
DEFAULT_255_1_234
10
14.3634722
20
0.5181211
11
14.750602
21
0.5181211
0
LINE
8
DEFAULT_255_1_234
10
14.9377415
20
-0.1453005
11
15.212427
21
-0.6416619
0
LINE
8
DEFAULT_255_1_234
10
15.212427
20
-0.6416619
11
15.212427
21
-0.6513
0
LINE
8
DEFAULT_255_1_234
10
15.212427
20
-0.6513
11
15.0469731
21
-0.6513
0
LINE
8
DEFAULT_255_1_234
10
14.5184848
20
0.3912196
11
14.5184848
21
-0.0521323
0
LINE
8
DEFAULT_255_1_234
10
14.5184848
20
-0.0521323
11
14.755421
21
-0.0521323
0
LINE
8
DEFAULT_255_1_234
10
14.7546179
20
0.3912196
11
14.5184848
21
0.3912196
0
ARC
8
DEFAULT_255_1_234
10
14.7547659
20
-0.1780239
40
0.6961575
50
80.653586
51
90.3427061
0
ARC
8
DEFAULT_255_1_234
10
14.7967134
20
0.0682348
40
0.4463577
50
65.6987447
51
80.8329603
0
ARC
8
DEFAULT_255_1_234
10
14.8444775
20
0.1777322
40
0.3269094
50
50.0017161
51
65.4305835
0
ARC
8
DEFAULT_255_1_234
10
14.8663239
20
0.2072482
40
0.2902647
50
11.628416
51
49.5603263
0
ARC
8
DEFAULT_255_1_234
10
14.7127575
20
0.1697299
40
0.4482792
50
359.5655735
51
12.3691
0
ARC
8
DEFAULT_255_1_234
10
14.8204435
20
0.1634644
40
0.3405924
50
341.9983148
51
0.4822259
0
ARC
8
DEFAULT_255_1_234
10
14.8599275
20
0.1527471
40
0.2997359
50
323.8609373
51
341.61416
0
ARC
8
DEFAULT_255_1_234
10
14.8297519
20
0.1760484
40
0.3378487
50
296.7018614
51
323.6876402
0
ARC
8
DEFAULT_255_1_234
10
14.7856415
20
0.2549235
40
0.4281516
50
290.8086567
51
297.2323311
0
ARC
8
DEFAULT_255_1_234
10
14.7579944
20
0.3072351
40
0.3593766
50
269.589728
51
281.8058135
0
ARC
8
DEFAULT_255_1_234
10
14.7830843
20
0.1924743
40
0.2419125
50
281.5501019
51
303.9357432
0
ARC
8
DEFAULT_255_1_234
10
14.7968031
20
0.1686936
40
0.2145323
50
304.4415616
51
311.2106213
0
ARC
8
DEFAULT_255_1_234
10
14.8100136
20
0.1547632
40
0.1953505
50
310.9875673
51
356.2715578
0
ARC
8
DEFAULT_255_1_234
10
14.7343785
20
0.1660422
40
0.2716331
50
354.9348262
51
0.0609027
0
ARC
8
DEFAULT_255_1_234
10
14.7156659
20
0.1687435
40
0.2903554
50
359.5239371
51
12.8808918
0
ARC
8
DEFAULT_255_1_234
10
14.8134215
20
0.1926728
40
0.1897315
50
12.4173452
51
43.1022135
0
ARC
8
DEFAULT_255_1_234
10
14.8195819
20
0.1963724
40
0.1827118
50
43.5751728
51
48.203944
0
ARC
8
DEFAULT_255_1_234
10
14.8026311
20
0.1742302
40
0.2105272
50
48.7809703
51
72.6969569
0
ARC
8
DEFAULT_255_1_234
10
14.7671936
20
0.066682
40
0.3237537
50
72.3702241
51
84.8791103
0
ARC
8
DEFAULT_255_1_234
10
14.7524412
20
-0.0675231
40
0.4587478
50
84.5400526
51
89.7281406
0
LINE
8
DEFAULT_255_1_234
10
15.6630075
20
-0.0938974
11
15.6630075
21
-0.2151766
0
LINE
8
DEFAULT_255_1_234
10
15.6630075
20
-0.2151766
11
15.2710586
21
-0.2151766
0
LINE
8
DEFAULT_255_1_234
10
15.2710586
20
-0.2151766
11
15.2710586
21
-0.0938974
0
LINE
8
DEFAULT_255_1_234
10
15.2710586
20
-0.0938974
11
15.6630075
21
-0.0938974
0
LINE
8
DEFAULT_255_1_234
10
16.4991114
20
0.5181211
11
16.654124
21
0.5181211
0
LINE
8
DEFAULT_255_1_234
10
16.654124
20
0.5181211
11
16.654124
21
-0.277021
0
LINE
8
DEFAULT_255_1_234
10
16.2702069
20
-0.6657571
11
16.229245
21
-0.6673635
0
LINE
8
DEFAULT_255_1_234
10
15.8075788
20
-0.2786273
11
15.8075788
21
0.5181211
0
LINE
8
DEFAULT_255_1_234
10
15.8075788
20
0.5181211
11
15.9601818
21
0.5181211
0
LINE
8
DEFAULT_255_1_234
10
15.9601818
20
0.5181211
11
15.9601818
21
-0.2738083
0
LINE
8
DEFAULT_255_1_234
10
16.4991114
20
-0.2746115
11
16.4991114
21
0.5181211
0
ARC
8
DEFAULT_255_1_234
10
16.2188138
20
-0.2790072
40
0.4353147
50
343.0898354
51
0.2614217
0
ARC
8
DEFAULT_255_1_234
10
16.301654
20
-0.3021163
40
0.3493402
50
315.3345598
51
342.7641223
0
ARC
8
DEFAULT_255_1_234
10
16.2792988
20
-0.2789318
40
0.3815385
50
284.6606969
51
315.2182466
0
ARC
8
DEFAULT_255_1_234
10
16.2337701
20
-0.1243245
40
0.5426573
50
273.8500273
51
285.1797701
0
ARC
8
DEFAULT_255_1_234
10
16.2249752
20
-0.0901525
40
0.5772268
50
257.6317484
51
270.4238298
0
ARC
8
DEFAULT_255_1_234
10
16.182495
20
-0.2722802
40
0.3902347
50
230.6087562
51
257.9964012
0
ARC
8
DEFAULT_255_1_234
10
16.1692952
20
-0.2929198
40
0.3659186
50
227.7440991
51
230.1551448
0
ARC
8
DEFAULT_255_1_234
10
16.1558783
20
-0.3090529
40
0.3449568
50
189.2524587
51
227.5916061
0
ARC
8
DEFAULT_255_1_234
10
16.308047
20
-0.2762987
40
0.5004737
50
180.2665968
51
190.1525252
0
ARC
8
DEFAULT_255_1_234
10
16.330249
20
-0.2766082
40
0.3700778
50
179.5665184
51
191.9952995
0
ARC
8
DEFAULT_255_1_234
10
16.2074596
20
-0.3039957
40
0.2442808
50
191.6974072
51
215.1404042
0
ARC
8
DEFAULT_255_1_234
10
16.1836511
20
-0.3181892
40
0.2166522
50
215.6950207
51
224.8513522
0
ARC
8
DEFAULT_255_1_234
10
16.1892254
20
-0.3102303
40
0.2262237
50
225.2846858
51
255.0111758
0
ARC
8
DEFAULT_255_1_234
10
16.2216214
20
-0.1988545
40
0.3421979
50
254.5944985
51
267.9129803
0
ARC
8
DEFAULT_255_1_234
10
16.2290695
20
-0.0904097
40
0.4508556
50
267.4689655
51
270.0223026
0
ARC
8
DEFAULT_255_1_234
10
16.232084
20
-0.1493151
40
0.3919604
50
269.5849941
51
281.1843768
0
ARC
8
DEFAULT_255_1_234
10
16.2599605
20
-0.2845941
40
0.2538457
50
280.9344262
51
300.9743589
0
ARC
8
DEFAULT_255_1_234
10
16.2812211
20
-0.3237312
40
0.2093566
50
301.4980046
51
315.1466847
0
ARC
8
DEFAULT_255_1_234
10
16.2667749
20
-0.3118764
40
0.2279656
50
315.5952539
51
345.6678731
0
ARC
8
DEFAULT_255_1_234
10
16.1548266
20
-0.2806991
40
0.3441564
50
345.2524969
51
358.6304371
0
ARC
8
DEFAULT_255_1_234
10
16.0530619
20
-0.2747084
40
0.4460494
50
358.1735671
51
0.0124524
0
LINE
8
DEFAULT_255_1_234
10
17.6372087
20
-0.6513
11
17.5255676
21
-0.3460939
0
LINE
8
DEFAULT_255_1_234
10
17.5255676
20
-0.3460939
11
17.0356315
21
-0.3460939
0
LINE
8
DEFAULT_255_1_234
10
17.0356315
20
-0.3460939
11
16.9255967
21
-0.6513
0
LINE
8
DEFAULT_255_1_234
10
16.9255967
20
-0.6513
11
16.7665683
21
-0.6513
0
LINE
8
DEFAULT_255_1_234
10
16.7665683
20
-0.6513
11
17.213133
21
0.5181211
0
LINE
8
DEFAULT_255_1_234
10
17.213133
20
0.5181211
11
17.3480662
21
0.5181211
0
LINE
8
DEFAULT_255_1_234
10
17.3480662
20
0.5181211
11
17.795434
21
-0.6513
0
LINE
8
DEFAULT_255_1_234
10
17.795434
20
-0.6513
11
17.6372087
21
-0.6513
0
LINE
8
DEFAULT_255_1_234
10
17.2805996
20
0.3277689
11
17.0822156
21
-0.2191925
0
LINE
8
DEFAULT_255_1_234
10
17.0822156
20
-0.2191925
11
17.4797867
21
-0.2191925
0
LINE
8
DEFAULT_255_1_234
10
17.4797867
20
-0.2191925
11
17.2805996
21
0.3277689
0
LINE
8
DEFAULT_255_1_234
10
18.4026334
20
0.5237433
11
18.4026334
21
-0.6513
0
LINE
8
DEFAULT_255_1_234
10
18.4026334
20
-0.6513
11
18.2532431
21
-0.6513
0
LINE
8
DEFAULT_255_1_234
10
18.2532431
20
-0.6513
11
18.2532431
21
0.3390133
0
LINE
8
DEFAULT_255_1_234
10
18.2532431
20
0.3390133
11
17.9536592
21
0.2289785
0
LINE
8
DEFAULT_255_1_234
10
17.9536592
20
0.2289785
11
17.9536592
21
0.3639117
0
LINE
8
DEFAULT_255_1_234
10
17.9536592
20
0.3639117
11
18.3793414
21
0.5237433
0
LINE
8
DEFAULT_255_1_234
10
18.3793414
20
0.5237433
11
18.4026334
21
0.5237433
0
LINE
8
DEFAULT_255_1_234
10
19.3704579
20
0.5181211
11
18.8829313
21
-0.7516967
0
LINE
8
DEFAULT_255_1_234
10
18.8829313
20
-0.7516967
11
18.7552267
21
-0.7516967
0
LINE
8
DEFAULT_255_1_234
10
18.7552267
20
-0.7516967
11
19.2435564
21
0.5181211
0
LINE
8
DEFAULT_255_1_234
10
19.2435564
20
0.5181211
11
19.3704579
21
0.5181211
0
LINE
8
DEFAULT_255_1_234
10
20.2226253
20
0.5181211
11
20.3776378
21
0.5181211
0
LINE
8
DEFAULT_255_1_234
10
20.3776378
20
0.5181211
11
20.3776378
21
-0.277021
0
LINE
8
DEFAULT_255_1_234
10
19.9937208
20
-0.6657571
11
19.9527589
21
-0.6673635
0
LINE
8
DEFAULT_255_1_234
10
19.5310926
20
-0.2786273
11
19.5310926
21
0.5181211
0
LINE
8
DEFAULT_255_1_234
10
19.5310926
20
0.5181211
11
19.6836957
21
0.5181211
0
LINE
8
DEFAULT_255_1_234
10
19.6836957
20
0.5181211
11
19.6836957
21
-0.2738083
0
LINE
8
DEFAULT_255_1_234
10
20.2226253
20
-0.2746115
11
20.2226253
21
0.5181211
0
ARC
8
DEFAULT_255_1_234
10
19.9423277
20
-0.2790072
40
0.4353147
50
343.0898354
51
0.2614217
0
ARC
8
DEFAULT_255_1_234
10
20.0251678
20
-0.3021163
40
0.3493402
50
315.3345598
51
342.7641223
0
ARC
8
DEFAULT_255_1_234
10
20.0028127
20
-0.2789318
40
0.3815385
50
284.6606969
51
315.2182466
0
ARC
8
DEFAULT_255_1_234
10
19.957284
20
-0.1243245
40
0.5426573
50
273.8500273
51
285.1797701
0
ARC
8
DEFAULT_255_1_234
10
19.948489
20
-0.0901525
40
0.5772268
50
257.6317484
51
270.4238298
0
ARC
8
DEFAULT_255_1_234
10
19.9060088
20
-0.2722802
40
0.3902347
50
230.6087562
51
257.9964012
0
ARC
8
DEFAULT_255_1_234
10
19.8928091
20
-0.2929198
40
0.3659186
50
227.7440991
51
230.1551448
0
ARC
8
DEFAULT_255_1_234
10
19.8793922
20
-0.3090529
40
0.3449568
50
189.2524587
51
227.5916061
0
ARC
8
DEFAULT_255_1_234
10
20.0315609
20
-0.2762987
40
0.5004737
50
180.2665968
51
190.1525252
0
ARC
8
DEFAULT_255_1_234
10
20.0537628
20
-0.2766082
40
0.3700778
50
179.5665184
51
191.9952995
0
ARC
8
DEFAULT_255_1_234
10
19.9309735
20
-0.3039957
40
0.2442808
50
191.6974072
51
215.1404042
0
ARC
8
DEFAULT_255_1_234
10
19.907165
20
-0.3181892
40
0.2166522
50
215.6950207
51
224.8513522
0
ARC
8
DEFAULT_255_1_234
10
19.9127393
20
-0.3102303
40
0.2262237
50
225.2846858
51
255.0111758
0
ARC
8
DEFAULT_255_1_234
10
19.9451353
20
-0.1988545
40
0.3421979
50
254.5944985
51
267.9129803
0
ARC
8
DEFAULT_255_1_234
10
19.9525834
20
-0.0904097
40
0.4508556
50
267.4689655
51
270.0223026
0
ARC
8
DEFAULT_255_1_234
10
19.9555979
20
-0.1493151
40
0.3919604
50
269.5849941
51
281.1843768
0
ARC
8
DEFAULT_255_1_234
10
19.9834744
20
-0.2845941
40
0.2538457
50
280.9344262
51
300.9743589
0
ARC
8
DEFAULT_255_1_234
10
20.0047349
20
-0.3237312
40
0.2093566
50
301.4980046
51
315.1466847
0
ARC
8
DEFAULT_255_1_234
10
19.9902888
20
-0.3118764
40
0.2279656
50
315.5952539
51
345.6678731
0
ARC
8
DEFAULT_255_1_234
10
19.8783404
20
-0.2806991
40
0.3441564
50
345.2524969
51
358.6304371
0
ARC
8
DEFAULT_255_1_234
10
19.7765758
20
-0.2747084
40
0.4460494
50
358.1735671
51
0.0124524
0
LINE
8
DEFAULT_255_1_234
10
20.7760121
20
0.5181211
11
20.7760121
21
-0.5252017
0
LINE
8
DEFAULT_255_1_234
10
20.7760121
20
-0.5252017
11
21.330202
21
-0.5252017
0
LINE
8
DEFAULT_255_1_234
10
21.330202
20
-0.5252017
11
21.330202
21
-0.6513
0
LINE
8
DEFAULT_255_1_234
10
21.330202
20
-0.6513
11
20.6209995
21
-0.6513
0
LINE
8
DEFAULT_255_1_234
10
20.6209995
20
-0.6513
11
20.6209995
21
0.5181211
0
LINE
8
DEFAULT_255_1_234
10
20.6209995
20
0.5181211
11
20.7760121
21
0.5181211
0
LINE
8
DEFAULT_255_1_234
10
11.589485
20
197.3241391
11
11.589485
21
197.1980408
0
LINE
8
DEFAULT_255_1_234
10
11.589485
20
197.1980408
11
11.0987458
21
197.1980408
0
LINE
8
DEFAULT_255_1_234
10
11.0987458
20
197.1980408
11
11.0987458
21
196.6816
0
LINE
8
DEFAULT_255_1_234
10
11.0987458
20
196.6816
11
10.9445364
21
196.6816
0
LINE
8
DEFAULT_255_1_234
10
10.9445364
20
196.6816
11
10.9445364
21
197.8510211
0
LINE
8
DEFAULT_255_1_234
10
10.9445364
20
197.8510211
11
11.6689992
21
197.8510211
0
LINE
8
DEFAULT_255_1_234
10
11.6689992
20
197.8510211
11
11.6689992
21
197.7241196
0
LINE
8
DEFAULT_255_1_234
10
11.6689992
20
197.7241196
11
11.0987458
21
197.7241196
0
LINE
8
DEFAULT_255_1_234
10
11.0987458
20
197.7241196
11
11.0987458
21
197.3241391
0
LINE
8
DEFAULT_255_1_234
10
11.0987458
20
197.3241391
11
11.589485
21
197.3241391
0
LINE
8
DEFAULT_255_1_234
10
12.5468682
20
197.2390026
11
12.5468682
21
197.1177234
0
LINE
8
DEFAULT_255_1_234
10
12.5468682
20
197.1177234
11
12.1549193
21
197.1177234
0
LINE
8
DEFAULT_255_1_234
10
12.1549193
20
197.1177234
11
12.1549193
21
197.2390026
0
LINE
8
DEFAULT_255_1_234
10
12.1549193
20
197.2390026
11
12.5468682
21
197.2390026
0
LINE
8
DEFAULT_255_1_234
10
13.8978065
20
197.5128849
11
13.742794
21
197.5128849
0
LINE
8
DEFAULT_255_1_234
10
13.0504582
20
197.0205394
11
13.2054707
21
197.0205394
0
ARC
8
DEFAULT_255_1_234
10
13.8086753
20
198.4075768
40
1.252368
50
248.9199003
51
254.1439814
0
ARC
8
DEFAULT_255_1_234
10
13.6406248
20
197.9749234
40
0.788226
50
241.633709
51
249.0064503
0
ARC
8
DEFAULT_255_1_234
10
13.4877642
20
197.6948317
40
0.4691427
50
230.498225
51
241.8087113
0
ARC
8
DEFAULT_255_1_234
10
13.4093216
20
197.5948906
40
0.3421437
50
227.4064532
51
229.9881192
0
ARC
8
DEFAULT_255_1_234
10
13.3605737
20
197.5473088
40
0.2741476
50
200.6781896
51
228.1763934
0
ARC
8
DEFAULT_255_1_234
10
13.3678048
20
197.5458077
40
0.2804109
50
179.5061581
51
199.8694617
0
ARC
8
DEFAULT_255_1_234
10
13.3668799
20
197.553221
40
0.2795204
50
132.4834203
51
181.0242172
0
ARC
8
DEFAULT_255_1_234
10
13.4264382
20
197.4969704
40
0.3612768
50
129.2532479
51
133.4242687
0
ARC
8
DEFAULT_255_1_234
10
13.4410831
20
197.4749965
40
0.3875675
50
101.98776
51
128.8742646
0
ARC
8
DEFAULT_255_1_234
10
13.4809442
20
197.3028741
40
0.5642249
50
89.5906553
51
102.3169264
0
ARC
8
DEFAULT_255_1_234
10
13.4879934
20
197.3347148
40
0.5323783
50
77.2360837
51
90.3248275
0
ARC
8
DEFAULT_255_1_234
10
13.5087013
20
197.43144
40
0.4334697
50
63.837784
51
77.0809408
0
ARC
8
DEFAULT_255_1_234
10
13.5364775
20
197.4831911
40
0.3747796
50
45.9864267
51
64.1607727
0
ARC
8
DEFAULT_255_1_234
10
13.5625656
20
197.5129866
40
0.3352302
50
32.2747395
51
45.6547121
0
ARC
8
DEFAULT_255_1_234
10
13.5692097
20
197.514888
40
0.328603
50
359.6507365
51
32.6130309
0
ARC
8
DEFAULT_255_1_234
10
13.4749192
20
197.515366
40
0.2678863
50
359.469343
51
14.9832209
0
ARC
8
DEFAULT_255_1_234
10
13.5454255
20
197.5342539
40
0.1948938
50
14.9781179
51
48.2004265
0
ARC
8
DEFAULT_255_1_234
10
13.5289899
20
197.5135983
40
0.2212521
50
48.5927837
51
74.1241538
0
ARC
8
DEFAULT_255_1_234
10
13.4956388
20
197.4035248
40
0.3362561
50
73.7888341
51
86.6652678
0
ARC
8
DEFAULT_255_1_234
10
13.4853954
20
197.2827881
40
0.4573953
50
86.2640471
51
90.0526343
0
ARC
8
DEFAULT_255_1_234
10
13.4825666
20
197.3223192
40
0.4178709
50
89.6697524
51
99.2309573
0
ARC
8
DEFAULT_255_1_234
10
13.4583117
20
197.4667964
40
0.2713749
50
99.069534
51
113.7658566
0
ARC
8
DEFAULT_255_1_234
10
13.4309308
20
197.5313677
40
0.2012469
50
114.0401004
51
127.9850673
0
ARC
8
DEFAULT_255_1_234
10
13.4068872
20
197.560973
40
0.1631167
50
127.7287463
51
176.7105154
0
ARC
8
DEFAULT_255_1_234
10
13.474759
20
197.5508693
40
0.2315392
50
175.1779447
51
180.0581938
0
ARC
8
DEFAULT_255_1_234
10
13.3904436
20
197.5496428
40
0.1472271
50
179.6142195
51
228.1246017
0
ARC
8
DEFAULT_255_1_234
10
13.4346105
20
197.5905308
40
0.2072299
50
226.5779593
51
230.8800004
0
ARC
8
DEFAULT_255_1_234
10
13.4817184
20
197.6530636
40
0.2854818
50
231.4635071
51
241.9260842
0
ARC
8
DEFAULT_255_1_234
10
13.6014362
20
197.87338
40
0.53622
50
241.7178533
51
248.3259551
0
ARC
8
DEFAULT_255_1_234
10
13.7399734
20
198.2166064
40
0.9063478
50
248.2007737
51
252.4528373
0
ARC
8
DEFAULT_255_1_234
10
13.8603459
20
198.5887441
40
1.2974635
50
252.3391078
51
254.3469452
0
ARC
8
DEFAULT_255_1_234
10
13.1061161
20
195.8910148
40
1.5037162
50
71.0197183
51
74.4087047
0
ARC
8
DEFAULT_255_1_234
10
13.2755846
20
196.3802111
40
0.9859993
50
66.1847285
51
71.086374
0
ARC
8
DEFAULT_255_1_234
10
13.4312159
20
196.73062
40
0.6025855
50
59.3536294
51
66.2691831
0
ARC
8
DEFAULT_255_1_234
10
13.5200811
20
196.8809609
40
0.4279449
50
49.1020879
51
59.3293958
0
ARC
8
DEFAULT_255_1_234
10
13.6019551
20
196.9742834
40
0.3038015
50
32.7919921
51
49.2505539
0
ARC
8
DEFAULT_255_1_234
10
13.6340641
20
196.9971191
40
0.264448
50
31.1181161
51
32.4005348
0
ARC
8
DEFAULT_255_1_234
10
13.6252179
20
196.9935779
40
0.2738556
50
8.1116974
51
30.7958831
0
ARC
8
DEFAULT_255_1_234
10
13.5441847
20
196.9797753
40
0.3560327
50
359.8389159
51
8.4706516
0
ARC
8
DEFAULT_255_1_234
10
13.6067638
20
196.9749137
40
0.2934776
50
337.4731098
51
0.7537279
0
ARC
8
DEFAULT_255_1_234
10
13.6246333
20
196.9729387
40
0.2762607
50
307.5917067
51
336.4315538
0
ARC
8
DEFAULT_255_1_234
10
13.5786161
20
197.0242102
40
0.3449979
50
307.6551545
51
308.4529766
0
ARC
8
DEFAULT_255_1_234
10
13.555588
20
197.059725
40
0.3871988
50
284.3734338
51
307.1424381
0
ARC
8
DEFAULT_255_1_234
10
13.506071
20
197.2418932
40
0.5759636
50
272.4382747
51
284.646547
0
ARC
8
DEFAULT_255_1_234
10
13.4933919
20
197.4218893
40
0.7563528
50
269.9708387
51
272.8178037
0
ARC
8
DEFAULT_255_1_234
10
13.4890958
20
197.2180716
40
0.5525489
50
248.2707594
51
270.4055579
0
ARC
8
DEFAULT_255_1_234
10
13.48367
20
197.1990192
40
0.5328452
50
246.1383403
51
248.0542782
0
ARC
8
DEFAULT_255_1_234
10
13.4418079
20
197.1110843
40
0.4355005
50
233.1670131
51
246.4950969
0
ARC
8
DEFAULT_255_1_234
10
13.3863983
20
197.0362812
40
0.3424126
50
215.3403242
51
233.0843104
0
ARC
8
DEFAULT_255_1_234
10
13.3591415
20
197.0164549
40
0.3087104
50
179.2419209
51
215.2648451
0
ARC
8
DEFAULT_255_1_234
10
13.4359009
20
197.0178666
40
0.2304457
50
179.335461
51
199.1045811
0
ARC
8
DEFAULT_255_1_234
10
13.4026685
20
197.0091766
40
0.1962176
50
199.8828939
51
232.7063202
0
ARC
8
DEFAULT_255_1_234
10
13.4498953
20
197.0685788
40
0.2720938
50
232.3738199
51
255.5136649
0
ARC
8
DEFAULT_255_1_234
10
13.483982
20
197.1929835
40
0.4010747
50
255.2446292
51
267.5320849
0
ARC
8
DEFAULT_255_1_234
10
13.4927444
20
197.3162702
40
0.5246356
50
267.1557994
51
270.0286766
0
ARC
8
DEFAULT_255_1_234
10
13.4955216
20
197.271895
40
0.4802668
50
269.7000017
51
278.1660162
0
ARC
8
DEFAULT_255_1_234
10
13.5211221
20
197.0988515
40
0.3053425
50
278.0231263
51
290.625471
0
ARC
8
DEFAULT_255_1_234
10
13.5558908
20
197.0061025
40
0.206291
50
290.6619762
51
307.0370976
0
ARC
8
DEFAULT_255_1_234
10
13.5859297
20
196.9692504
40
0.1587906
50
306.3943566
51
355.3030547
0
ARC
8
DEFAULT_255_1_234
10
13.5347228
20
196.9769113
40
0.2104809
50
354.3660432
51
0.0698737
0
ARC
8
DEFAULT_255_1_234
10
13.5489574
20
196.9791617
40
0.1962563
50
359.417946
51
16.1971788
0
ARC
8
DEFAULT_255_1_234
10
13.5944884
20
196.9916418
40
0.149053
50
16.4723299
51
52.6262157
0
ARC
8
DEFAULT_255_1_234
10
13.5123938
20
196.8832433
40
0.2850296
50
52.7386432
51
62.4979148
0
ARC
8
DEFAULT_255_1_234
10
13.3739015
20
196.6226283
40
0.5801521
50
62.2515216
51
68.1220564
0
ARC
8
DEFAULT_255_1_234
10
13.2018926
20
196.1998872
40
1.0365451
50
68.0062803
51
71.8053402
0
ARC
8
DEFAULT_255_1_234
10
13.0223297
20
195.6613758
40
1.6042013
50
71.7183119
51
73.9258742
0
LINE
8
DEFAULT_255_1_234
10
14.0367556
20
197.0920218
11
14.0367556
21
197.1193297
0
LINE
8
DEFAULT_255_1_234
10
14.7740692
20
197.1353932
11
14.7740692
21
197.0735488
0
LINE
8
DEFAULT_255_1_234
10
14.7740692
20
197.0735488
11
14.1853428
21
197.0735488
0
LINE
8
DEFAULT_255_1_234
10
14.6720661
20
196.9040792
11
14.7628248
21
196.8333999
0
LINE
8
DEFAULT_255_1_234
10
14.1901618
20
197.1956313
11
14.625482
21
197.1956313
0
LINE
8
DEFAULT_255_1_234
10
14.625482
20
197.1956313
11
14.625482
21
197.2068757
0
ARC
8
DEFAULT_255_1_234
10
14.4306921
20
197.1031332
40
0.4376191
50
252.3266134
51
270.5810217
0
ARC
8
DEFAULT_255_1_234
10
14.410201
20
197.0290644
40
0.3608374
50
223.3000567
51
251.8561855
0
ARC
8
DEFAULT_255_1_234
10
14.4313371
20
197.0495937
40
0.3902993
50
190.9374509
51
223.3654032
0
ARC
8
DEFAULT_255_1_234
10
14.6038343
20
197.0885885
40
0.5670891
50
179.6531105
51
191.4989439
0
ARC
8
DEFAULT_255_1_234
10
14.6160356
20
197.1225417
40
0.5792888
50
167.4007466
51
180.3176909
0
ARC
8
DEFAULT_255_1_234
10
14.5108417
20
197.1447885
40
0.471777
50
154.1835823
51
167.250763
0
ARC
8
DEFAULT_255_1_234
10
14.4476884
20
197.1780417
40
0.4004528
50
134.3149965
51
154.5315275
0
ARC
8
DEFAULT_255_1_234
10
14.4259379
20
197.1971228
40
0.371612
50
122.8616532
51
133.9707695
0
ARC
8
DEFAULT_255_1_234
10
14.4155954
20
197.2193703
40
0.3473289
50
89.8249009
51
123.4199222
0
ARC
8
DEFAULT_255_1_234
10
14.4205995
20
197.1546967
40
0.4120197
50
74.7876118
51
90.5482747
0
ARC
8
DEFAULT_255_1_234
10
14.4499738
20
197.263203
40
0.2996077
50
39.8178249
51
74.7633718
0
ARC
8
DEFAULT_255_1_234
10
14.3987058
20
197.2232351
40
0.3645855
50
16.8990863
51
39.4829761
0
ARC
8
DEFAULT_255_1_234
10
14.2092355
20
197.1625526
40
0.5635218
50
4.9636328
51
17.2026414
0
ARC
8
DEFAULT_255_1_234
10
13.9674425
20
197.137034
40
0.8066286
50
359.8834553
51
5.2834307
0
ARC
8
DEFAULT_255_1_234
10
14.5711949
20
197.0801803
40
0.3859091
50
180.9846213
51
194.9401313
0
ARC
8
DEFAULT_255_1_234
10
14.4662227
20
197.0514849
40
0.2770883
50
194.80314
51
222.0412631
0
ARC
8
DEFAULT_255_1_234
10
14.4358109
20
197.0213116
40
0.2343055
50
221.5417084
51
268.8614402
0
ARC
8
DEFAULT_255_1_234
10
14.4431103
20
197.0889686
40
0.3021528
50
267.732405
51
270.0097136
0
ARC
8
DEFAULT_255_1_234
10
14.4448914
20
197.1091105
40
0.3222994
50
269.6924892
51
280.4117579
0
ARC
8
DEFAULT_255_1_234
10
14.462532
20
197.0172193
40
0.2287344
50
280.2255091
51
298.6338936
0
ARC
8
DEFAULT_255_1_234
10
14.4742112
20
196.9928223
40
0.2017294
50
299.0430333
51
300.4643464
0
ARC
8
DEFAULT_255_1_234
10
14.4062118
20
197.1062038
40
0.3339357
50
300.6577328
51
322.0378878
0
ARC
8
DEFAULT_255_1_234
10
14.3711657
20
197.1366021
40
0.3802736
50
321.6750233
51
322.3046845
0
ARC
8
DEFAULT_255_1_234
10
14.4642618
20
197.019937
40
0.3520454
50
276.9728461
51
328.0035423
0
ARC
8
DEFAULT_255_1_234
10
14.4365671
20
197.1679841
40
0.5024498
50
269.8361028
51
278.0581756
0
ARC
8
DEFAULT_255_1_234
10
14.4138408
20
197.2424757
40
0.202159
50
89.2018686
51
117.2851756
0
ARC
8
DEFAULT_255_1_234
10
14.4191578
20
197.2382752
40
0.2083484
50
118.0551165
51
137.4540413
0
ARC
8
DEFAULT_255_1_234
10
14.4566317
20
197.2042304
40
0.2589774
50
137.5109581
51
158.8516286
0
ARC
8
DEFAULT_255_1_234
10
14.5704153
20
197.1583074
40
0.38167
50
158.5845963
51
170.1721436
0
ARC
8
DEFAULT_255_1_234
10
14.6873542
20
197.1350823
40
0.5008657
50
169.8376422
51
173.0566086
0
ARC
8
DEFAULT_255_1_234
10
14.2176616
20
197.1861509
40
0.4083467
50
2.9091802
51
12.8847116
0
ARC
8
DEFAULT_255_1_234
10
14.3547293
20
197.2184101
40
0.2675383
50
12.6957781
51
28.6404489
0
ARC
8
DEFAULT_255_1_234
10
14.4088964
20
197.2464458
40
0.2065654
50
29.0169854
51
41.1487595
0
ARC
8
DEFAULT_255_1_234
10
14.4291749
20
197.2641003
40
0.1796786
50
41.1646065
51
85.0013516
0
ARC
8
DEFAULT_255_1_234
10
14.4170845
20
197.1906431
40
0.2539726
50
83.7280015
51
90.0964893
0
LINE
8
DEFAULT_255_1_234
10
15.3660083
20
197.5554531
11
15.3660083
21
197.4173072
0
LINE
8
DEFAULT_255_1_234
10
15.0945355
20
197.2984375
11
15.0945355
21
196.6816
0
LINE
8
DEFAULT_255_1_234
10
15.0945355
20
196.6816
11
14.9459484
21
196.6816
0
LINE
8
DEFAULT_255_1_234
10
14.9459484
20
196.6816
11
14.9459484
21
197.5506341
0
LINE
8
DEFAULT_255_1_234
10
14.9459484
20
197.5506341
11
15.0905197
21
197.5506341
0
LINE
8
DEFAULT_255_1_234
10
15.0905197
20
197.5506341
11
15.0929292
21
197.4502374
0
ARC
8
DEFAULT_255_1_234
10
15.2993489
20
197.0113342
40
0.4114092
50
80.6754243
51
86.8932892
0
ARC
8
DEFAULT_255_1_234
10
15.2933023
20
196.91457
40
0.5083596
50
86.8038578
51
90.0431435
0
ARC
8
DEFAULT_255_1_234
10
15.2896004
20
197.1602866
40
0.2626638
50
89.2759698
51
106.6213787
0
ARC
8
DEFAULT_255_1_234
10
15.2691568
20
197.234583
40
0.1856317
50
107.1346045
51
157.6458115
0
ARC
8
DEFAULT_255_1_234
10
15.3383169
20
197.1962311
40
0.2643398
50
155.6586782
51
157.2539184
0
ARC
8
DEFAULT_255_1_234
10
15.3178371
20
197.3131157
40
0.2634121
50
127.8165941
51
148.6302098
0
ARC
8
DEFAULT_255_1_234
10
15.292484
20
197.3391218
40
0.2273596
50
91.3329982
51
126.7875809
0
ARC
8
DEFAULT_255_1_234
10
15.3000781
20
197.2676195
40
0.299078
50
89.986594
51
92.4688449
0
ARC
8
DEFAULT_255_1_234
10
15.3009176
20
197.2951078
40
0.2715908
50
85.3589899
51
90.1623399
0
ARC
8
DEFAULT_255_1_234
10
15.3093691
20
197.3955164
40
0.1708278
50
78.401942
51
85.4594656
0
ARC
8
DEFAULT_255_1_234
10
15.3238575
20
197.4646236
40
0.1002194
50
67.7858312
51
78.5728455
0
ARC
8
DEFAULT_255_1_234
10
15.3346428
20
197.4925887
40
0.0702548
50
63.4835954
51
67.3062642
0
LINE
8
DEFAULT_255_1_234
10
15.6639858
20
197.5506341
11
15.6639858
21
196.6816
0
LINE
8
DEFAULT_255_1_234
10
15.6639858
20
196.6816
11
15.5153986
21
196.6816
0
LINE
8
DEFAULT_255_1_234
10
15.5153986
20
196.6816
11
15.5153986
21
197.5506341
0
LINE
8
DEFAULT_255_1_234
10
15.5153986
20
197.5506341
11
15.6639858
21
197.5506341
0
ARC
8
DEFAULT_255_1_234
10
15.6012135
20
197.7820889
40
0.097867
50
161.415052
51
180.5526306
0
ARC
8
DEFAULT_255_1_234
10
15.5887913
20
197.7855077
40
0.0850062
50
138.1827368
51
160.9307106
0
ARC
8
DEFAULT_255_1_234
10
15.5777859
20
197.7950588
40
0.0704362
50
104.6368899
51
138.0039868
0
ARC
8
DEFAULT_255_1_234
10
15.5885014
20
197.7583963
40
0.1086221
50
92.0600725
51
105.2189128
0
ARC
8
DEFAULT_255_1_234
10
15.5908362
20
197.7241117
40
0.1429728
50
89.9756393
51
92.5012496
0
ARC
8
DEFAULT_255_1_234
10
15.5918381
20
197.7466731
40
0.1204151
50
78.0235316
51
90.4478182
0
ARC
8
DEFAULT_255_1_234
10
15.6010473
20
197.7880295
40
0.0780493
50
55.051506
51
78.3369085
0
ARC
8
DEFAULT_255_1_234
10
15.6060748
20
197.7964711
40
0.0682538
50
42.0501187
51
54.4513741
0
ARC
8
DEFAULT_255_1_234
10
15.5925615
20
197.7840798
40
0.0865878
50
1.7497075
51
42.1496013
0
ARC
8
DEFAULT_255_1_234
10
15.5670948
20
197.7811738
40
0.1121515
50
359.9852656
51
2.8364544
0
ARC
8
DEFAULT_255_1_234
10
15.583694
20
197.7802229
40
0.0955566
50
342.1070653
51
0.552888
0
ARC
8
DEFAULT_255_1_234
10
15.5979637
20
197.7762904
40
0.0807713
50
316.7107116
51
341.6516965
0
ARC
8
DEFAULT_255_1_234
10
15.6046674
20
197.7702823
40
0.0717724
50
285.4397031
51
316.5324284
0
ARC
8
DEFAULT_255_1_234
10
15.5936591
20
197.8068554
40
0.1099597
50
272.3547054
51
285.8953117
0
ARC
8
DEFAULT_255_1_234
10
15.5909749
20
197.8434048
40
0.1465932
50
269.9695369
51
272.8160237
0
ARC
8
DEFAULT_255_1_234
10
15.5899931
20
197.8214863
40
0.1246779
50
258.8431134
51
270.4153935
0
ARC
8
DEFAULT_255_1_234
10
15.5809973
20
197.7779414
40
0.0802162
50
238.5431189
51
259.1288175
0
ARC
8
DEFAULT_255_1_234
10
15.5741858
20
197.7655856
40
0.0661247
50
222.5062634
51
237.9906969
0
ARC
8
DEFAULT_255_1_234
10
15.5869445
20
197.7771889
40
0.0833707
50
184.1069131
51
222.460413
0
ARC
8
DEFAULT_255_1_234
10
15.6138686
20
197.7810349
40
0.1105176
50
179.9429482
51
185.0960898
0
LINE
8
DEFAULT_255_1_234
10
15.8639761
20
197.0920218
11
15.8639761
21
197.1193297
0
LINE
8
DEFAULT_255_1_234
10
16.6012896
20
197.1353932
11
16.6012896
21
197.0735488
0
LINE
8
DEFAULT_255_1_234
10
16.6012896
20
197.0735488
11
16.0125632
21
197.0735488
0
LINE
8
DEFAULT_255_1_234
10
16.4992866
20
196.9040792
11
16.5900452
21
196.8333999
0
LINE
8
DEFAULT_255_1_234
10
16.0173823
20
197.1956313
11
16.4527025
21
197.1956313
0
LINE
8
DEFAULT_255_1_234
10
16.4527025
20
197.1956313
11
16.4527025
21
197.2068757
0
ARC
8
DEFAULT_255_1_234
10
16.2579126
20
197.1031332
40
0.4376191
50
252.3266134
51
270.5810217
0
ARC
8
DEFAULT_255_1_234
10
16.2374215
20
197.0290644
40
0.3608374
50
223.3000567
51
251.8561855
0
ARC
8
DEFAULT_255_1_234
10
16.2585576
20
197.0495937
40
0.3902993
50
190.9374509
51
223.3654032
0
ARC
8
DEFAULT_255_1_234
10
16.4310548
20
197.0885885
40
0.5670891
50
179.6531105
51
191.4989439
0
ARC
8
DEFAULT_255_1_234
10
16.443256
20
197.1225417
40
0.5792888
50
167.4007466
51
180.3176909
0
ARC
8
DEFAULT_255_1_234
10
16.3380622
20
197.1447885
40
0.471777
50
154.1835823
51
167.250763
0
ARC
8
DEFAULT_255_1_234
10
16.2749089
20
197.1780417
40
0.4004528
50
134.3149965
51
154.5315275
0
ARC
8
DEFAULT_255_1_234
10
16.2531584
20
197.1971228
40
0.371612
50
122.8616532
51
133.9707695
0
ARC
8
DEFAULT_255_1_234
10
16.2428158
20
197.2193703
40
0.3473289
50
89.8249009
51
123.4199222
0
ARC
8
DEFAULT_255_1_234
10
16.2478199
20
197.1546967
40
0.4120197
50
74.7876118
51
90.5482747
0
ARC
8
DEFAULT_255_1_234
10
16.2771943
20
197.263203
40
0.2996077
50
39.8178249
51
74.7633718
0
ARC
8
DEFAULT_255_1_234
10
16.2259263
20
197.2232351
40
0.3645855
50
16.8990863
51
39.4829761
0
ARC
8
DEFAULT_255_1_234
10
16.0364559
20
197.1625526
40
0.5635218
50
4.9636328
51
17.2026414
0
ARC
8
DEFAULT_255_1_234
10
15.7946629
20
197.137034
40
0.8066286
50
359.8834553
51
5.2834307
0
ARC
8
DEFAULT_255_1_234
10
16.3984154
20
197.0801803
40
0.3859091
50
180.9846213
51
194.9401313
0
ARC
8
DEFAULT_255_1_234
10
16.2934432
20
197.0514849
40
0.2770883
50
194.80314
51
222.0412631
0
ARC
8
DEFAULT_255_1_234
10
16.2630313
20
197.0213116
40
0.2343055
50
221.5417084
51
268.8614402
0
ARC
8
DEFAULT_255_1_234
10
16.2703308
20
197.0889686
40
0.3021528
50
267.732405
51
270.0097136
0
ARC
8
DEFAULT_255_1_234
10
16.2721118
20
197.1091105
40
0.3222994
50
269.6924892
51
280.4117579
0
ARC
8
DEFAULT_255_1_234
10
16.2897525
20
197.0172193
40
0.2287344
50
280.2255091
51
298.6338936
0
ARC
8
DEFAULT_255_1_234
10
16.3014317
20
196.9928223
40
0.2017294
50
299.0430333
51
300.4643464
0
ARC
8
DEFAULT_255_1_234
10
16.2334322
20
197.1062038
40
0.3339357
50
300.6577328
51
322.0378878
0
ARC
8
DEFAULT_255_1_234
10
16.1983862
20
197.1366021
40
0.3802736
50
321.6750233
51
322.3046845
0
ARC
8
DEFAULT_255_1_234
10
16.2914823
20
197.019937
40
0.3520454
50
276.9728461
51
328.0035423
0
ARC
8
DEFAULT_255_1_234
10
16.2637876
20
197.1679841
40
0.5024498
50
269.8361028
51
278.0581756
0
ARC
8
DEFAULT_255_1_234
10
16.2410613
20
197.2424757
40
0.202159
50
89.2018686
51
117.2851756
0
ARC
8
DEFAULT_255_1_234
10
16.2463782
20
197.2382752
40
0.2083484
50
118.0551165
51
137.4540413
0
ARC
8
DEFAULT_255_1_234
10
16.2838522
20
197.2042304
40
0.2589774
50
137.5109581
51
158.8516286
0
ARC
8
DEFAULT_255_1_234
10
16.3976358
20
197.1583074
40
0.38167
50
158.5845963
51
170.1721436
0
ARC
8
DEFAULT_255_1_234
10
16.5145747
20
197.1350823
40
0.5008657
50
169.8376422
51
173.0566086
0
ARC
8
DEFAULT_255_1_234
10
16.0448821
20
197.1861509
40
0.4083467
50
2.9091802
51
12.8847116
0
ARC
8
DEFAULT_255_1_234
10
16.1819497
20
197.2184101
40
0.2675383
50
12.6957781
51
28.6404489
0
ARC
8
DEFAULT_255_1_234
10
16.2361168
20
197.2464458
40
0.2065654
50
29.0169854
51
41.1487595
0
ARC
8
DEFAULT_255_1_234
10
16.2563953
20
197.2641003
40
0.1796786
50
41.1646065
51
85.0013516
0
ARC
8
DEFAULT_255_1_234
10
16.244305
20
197.1906431
40
0.2539726
50
83.7280015
51
90.0964893
0
LINE
8
DEFAULT_255_1_234
10
17.4197238
20
197.2952248
11
17.2703334
21
197.2952248
0
LINE
8
DEFAULT_255_1_234
10
16.737026
20
196.9490569
11
16.8856132
21
196.9490569
0
ARC
8
DEFAULT_255_1_234
10
17.1515153
20
196.9135959
40
0.1276617
50
359.3334982
51
18.5871358
0
ARC
8
DEFAULT_255_1_234
10
17.172379
20
196.9191133
40
0.1061371
50
19.3540742
51
54.6485071
0
ARC
8
DEFAULT_255_1_234
10
17.1219692
20
196.8495919
40
0.1920087
50
54.3827097
51
65.0622807
0
ARC
8
DEFAULT_255_1_234
10
17.0451089
20
196.68789
40
0.3710447
50
64.8282493
51
71.4200025
0
ARC
8
DEFAULT_255_1_234
10
16.9548964
20
196.4232107
40
0.6506741
50
71.3164301
51
75.8006402
0
ARC
8
DEFAULT_255_1_234
10
16.8707784
20
196.0991561
40
0.9854641
50
75.6809531
51
78.0061883
0
ARC
8
DEFAULT_255_1_234
10
17.3156317
20
198.197077
40
1.1591028
50
254.6901892
51
258.0466452
0
ARC
8
DEFAULT_255_1_234
10
17.2118226
20
197.8211781
40
0.7691345
50
249.9010773
51
254.755261
0
ARC
8
DEFAULT_255_1_234
10
17.1114568
20
197.5485982
40
0.478665
50
243.3097214
51
249.9709442
0
ARC
8
DEFAULT_255_1_234
10
17.0485589
20
197.4231778
40
0.3383568
50
234.4047477
51
243.2862168
0
ARC
8
DEFAULT_255_1_234
10
16.9863112
20
197.3372232
40
0.2322322
50
220.8667099
51
234.5493881
0
ARC
8
DEFAULT_255_1_234
10
16.9521053
20
197.3060817
40
0.1859923
50
214.3062465
51
220.5065136
0
ARC
8
DEFAULT_255_1_234
10
16.9495132
20
197.302988
40
0.1821108
50
186.912965
51
213.9618616
0
ARC
8
DEFAULT_255_1_234
10
17.0027227
20
197.3116009
40
0.2359799
50
179.8808832
51
187.4339886
0
ARC
8
DEFAULT_255_1_234
10
16.9872361
20
197.3136088
40
0.2204978
50
132.005434
51
180.3942919
0
ARC
8
DEFAULT_255_1_234
10
17.0528974
20
197.2530083
40
0.3095791
50
129.2319861
51
133.5302299
0
ARC
8
DEFAULT_255_1_234
10
17.0582482
20
197.2435928
40
0.3202615
50
100.4410011
51
128.9081242
0
ARC
8
DEFAULT_255_1_234
10
17.0856366
20
197.1150455
40
0.4516583
50
89.6985377
51
100.9026564
0
ARC
8
DEFAULT_255_1_234
10
17.0913408
20
197.0990166
40
0.4676928
50
77.6965325
51
90.4076836
0
ARC
8
DEFAULT_255_1_234
10
17.1244392
20
197.2417413
40
0.3211988
50
50.7276602
51
78.0399361
0
ARC
8
DEFAULT_255_1_234
10
17.168885
20
197.2935296
40
0.2529778
50
25.7545084
51
51.0957453
0
ARC
8
DEFAULT_255_1_234
10
17.1690075
20
197.2985206
40
0.250738
50
359.2468627
51
24.7394243
0
ARC
8
DEFAULT_255_1_234
10
17.1405527
20
197.2956664
40
0.1297815
50
359.8050318
51
45.1544908
0
ARC
8
DEFAULT_255_1_234
10
17.0998669
20
197.2608794
40
0.1831883
50
43.8047702
51
49.6271585
0
ARC
8
DEFAULT_255_1_234
10
17.100657
20
197.2609678
40
0.18261
50
49.7980766
51
82.1218353
0
ARC
8
DEFAULT_255_1_234
10
17.0887542
20
197.1962998
40
0.2483163
50
81.4465357
51
90.1710293
0
ARC
8
DEFAULT_255_1_234
10
17.0863145
20
197.143688
40
0.300932
50
89.6766211
51
99.1264602
0
ARC
8
DEFAULT_255_1_234
10
17.0691607
20
197.2470537
40
0.1961547
50
98.968313
51
113.4570237
0
ARC
8
DEFAULT_255_1_234
10
17.0495692
20
197.2938965
40
0.1453859
50
113.722589
51
127.4763106
0
ARC
8
DEFAULT_255_1_234
10
17.0327338
20
197.3139124
40
0.1192639
50
126.9083309
51
150.3165862
0
ARC
8
DEFAULT_255_1_234
10
17.0279671
20
197.3189981
40
0.112623
50
151.3635175
51
180.0701457
0
ARC
8
DEFAULT_255_1_234
10
17.0588456
20
197.316899
40
0.1435149
50
179.2169974
51
179.9954013
0
ARC
8
DEFAULT_255_1_234
10
17.0227513
20
197.3156056
40
0.1074286
50
179.3040112
51
198.4225446
0
ARC
8
DEFAULT_255_1_234
10
17.0035646
20
197.3106127
40
0.0876573
50
199.2895851
51
238.6034594
0
ARC
8
DEFAULT_255_1_234
10
17.0638493
20
197.405245
40
0.1998512
50
237.9846301
51
246.8744712
0
ARC
8
DEFAULT_255_1_234
10
17.1496438
20
197.6015205
40
0.4140547
50
246.6234531
51
251.8168941
0
ARC
8
DEFAULT_255_1_234
10
17.2526982
20
197.9109905
40
0.7402308
50
251.713434
51
255.0778414
0
ARC
8
DEFAULT_255_1_234
10
17.3726244
20
198.3576563
40
1.2027155
50
255.0367487
51
257.4705983
0
ARC
8
DEFAULT_255_1_234
10
16.8618254
20
196.0562863
40
1.1546601
50
73.6837552
51
77.5016755
0
ARC
8
DEFAULT_255_1_234
10
16.9707029
20
196.4262581
40
0.7690009
50
68.7044154
51
73.7249639
0
ARC
8
DEFAULT_255_1_234
10
17.061005
20
196.6589654
40
0.5193873
50
63.590599
51
68.6626804
0
ARC
8
DEFAULT_255_1_234
10
17.1381069
20
196.8127123
40
0.3473927
50
54.7106439
51
63.7013633
0
ARC
8
DEFAULT_255_1_234
10
17.2005523
20
196.89994
40
0.2401192
50
41.0622434
51
54.8487496
0
ARC
8
DEFAULT_255_1_234
10
17.2346909
20
196.9312592
40
0.1938094
50
34.4950568
51
40.7105546
0
ARC
8
DEFAULT_255_1_234
10
17.2393717
20
196.9361078
40
0.1872106
50
9.3763373
51
34.0833615
0
ARC
8
DEFAULT_255_1_234
10
17.1740587
20
196.9235728
40
0.2536988
50
359.7694872
51
9.7663171
0
ARC
8
DEFAULT_255_1_234
10
17.1938088
20
196.9192764
40
0.2339696
50
335.8654732
51
0.8022045
0
ARC
8
DEFAULT_255_1_234
10
17.2013133
20
196.9206197
40
0.2277108
50
307.7357725
51
334.7849066
0
ARC
8
DEFAULT_255_1_234
10
17.1612308
20
196.9656645
40
0.2878951
50
307.0241536
51
308.5578354
0
ARC
8
DEFAULT_255_1_234
10
17.135464
20
197.0042801
40
0.3342515
50
282.9362969
51
306.5646424
0
ARC
8
DEFAULT_255_1_234
10
17.0992937
20
197.1510108
40
0.4853615
50
271.1026298
51
283.2200835
0
ARC
8
DEFAULT_255_1_234
10
17.0929181
20
197.2751418
40
0.6096052
50
269.9919117
51
271.4772449
0
ARC
8
DEFAULT_255_1_234
10
17.0902936
20
197.1673436
40
0.5018135
50
259.0723564
51
270.289833
0
ARC
8
DEFAULT_255_1_234
10
17.0690668
20
197.0556271
40
0.388099
50
245.4963068
51
259.0227342
0
ARC
8
DEFAULT_255_1_234
10
17.0412624
20
196.9974615
40
0.3236422
50
228.9684658
51
245.7044727
0
ARC
8
DEFAULT_255_1_234
10
17.0147068
20
196.9647575
40
0.2815426
50
214.4011705
51
228.6759915
0
ARC
8
DEFAULT_255_1_234
10
16.9857809
20
196.948929
40
0.2487548
50
179.9705531
51
215.1572795
0
ARC
8
DEFAULT_255_1_234
10
17.0558409
20
196.9562806
40
0.1703809
50
182.4299387
51
203.0329699
0
ARC
8
DEFAULT_255_1_234
10
17.0374066
20
196.9506396
40
0.1512226
50
203.798802
51
232.548466
0
ARC
8
DEFAULT_255_1_234
10
17.0650587
20
196.9857826
40
0.1959374
50
232.3782728
51
256.3934612
0
ARC
8
DEFAULT_255_1_234
10
17.0880949
20
197.0747842
40
0.2878639
50
256.104506
51
268.4626716
0
ARC
8
DEFAULT_255_1_234
10
17.0927434
20
197.1544487
40
0.3676329
50
268.0715632
51
270.0138206
0
ARC
8
DEFAULT_255_1_234
10
17.0945958
20
197.1272083
40
0.3403971
50
269.7031147
51
278.8341955
0
ARC
8
DEFAULT_255_1_234
10
17.1128051
20
197.0141876
40
0.2259217
50
278.6728789
51
292.8232582
0
ARC
8
DEFAULT_255_1_234
10
17.132859
20
196.9640449
40
0.171929
50
293.1452328
51
303.6655899
0
ARC
8
DEFAULT_255_1_234
10
17.1593469
20
196.9264204
40
0.1259367
50
303.1248165
51
321.742847
0
ARC
8
DEFAULT_255_1_234
10
17.1779349
20
196.9101156
40
0.1012531
50
322.4748573
51
1.1291126
0
LINE
8
DEFAULT_255_2_778
10
9.3932417
20
187.7218475
11
10.7161417
21
187.7218475
0
LINE
8
DEFAULT_255_2_778
10
10.7161417
20
187.7218475
11
10.7161417
21
99.0864475
0
LINE
8
DEFAULT_255_2_778
10
10.7161417
20
93.7947475
11
10.7161417
21
5.1593475
0
LINE
8
DEFAULT_255_2_778
10
10.7161417
20
5.1593475
11
9.3932417
21
5.1593475
0
LINE
8
DEFAULT_255_2_778
10
9.3932834
20
99.0864333
11
12.0390834
21
99.0864333
0
LINE
8
DEFAULT_255_2_778
10
12.0390834
20
99.0864333
11
12.0390834
21
93.7947333
0
LINE
8
DEFAULT_255_2_778
10
12.0390834
20
93.7947333
11
9.3932834
21
93.7947333
0
LINE
8
DEFAULT_255_2_778
10
9.3932834
20
93.7947333
11
9.3932834
21
99.0864333
0
LINE
8
DEFAULT_255_2_778
10
10.187
20
94.3239666
11
10.187
21
98.5572666
0
LINE
8
DEFAULT_255_2_778
10
9.9224167
20
97.763575
11
10.1870167
21
98.557275
0
LINE
8
DEFAULT_255_2_778
10
10.1870167
20
98.557275
11
10.4516167
21
97.763575
0
LINE
8
DEFAULT_255_2_778
10
10.4516167
20
97.763575
11
9.9224167
21
97.763575
0
LINE
8
DEFAULT_255_2_778
10
11.2453
20
98.5572666
11
11.2453
21
94.3239666
0
LINE
8
DEFAULT_255_2_778
10
10.9807167
20
95.117675
11
11.2453167
21
94.323975
0
LINE
8
DEFAULT_255_2_778
10
11.2453167
20
94.323975
11
11.5099167
21
95.117675
0
LINE
8
DEFAULT_255_2_778
10
11.5099167
20
95.117675
11
10.9807167
21
95.117675
0
LINE
8
DEFAULT_255_2_778
10
19.9765417
20
187.7219071
11
18.6536417
21
187.7219071
0
LINE
8
DEFAULT_255_2_778
10
18.6536417
20
187.7219071
11
18.6536417
21
99.0865071
0
LINE
8
DEFAULT_255_2_778
10
17.3307834
20
99.0864333
11
19.9765834
21
99.0864333
0
LINE
8
DEFAULT_255_2_778
10
19.9765834
20
99.0864333
11
19.9765834
21
93.7947333
0
LINE
8
DEFAULT_255_2_778
10
19.9765834
20
93.7947333
11
17.3307834
21
93.7947333
0
LINE
8
DEFAULT_255_2_778
10
17.3307834
20
93.7947333
11
17.3307834
21
99.0864333
0
LINE
8
DEFAULT_255_2_778
10
18.1245
20
94.3239666
11
18.1245
21
98.5572666
0
LINE
8
DEFAULT_255_2_778
10
17.8599167
20
97.763575
11
18.1245167
21
98.557275
0
LINE
8
DEFAULT_255_2_778
10
18.1245167
20
98.557275
11
18.3891167
21
97.763575
0
LINE
8
DEFAULT_255_2_778
10
18.3891167
20
97.763575
11
17.8599167
21
97.763575
0
LINE
8
DEFAULT_255_2_778
10
19.1828
20
98.5572666
11
19.1828
21
94.3239666
0
LINE
8
DEFAULT_255_2_778
10
18.9182167
20
95.117675
11
19.1828167
21
94.323975
0
LINE
8
DEFAULT_255_2_778
10
19.1828167
20
94.323975
11
19.4474167
21
95.117675
0
LINE
8
DEFAULT_255_2_778
10
19.4474167
20
95.117675
11
18.9182167
21
95.117675
0
LINE
8
DEFAULT_255_2_778
10
18.6536417
20
93.7948071
11
18.6536417
21
5.1594071
0
LINE
8
DEFAULT_255_2_778
10
18.6536417
20
5.1594071
11
19.9765417
21
5.1594071
0
LINE
8
DEFAULT_255_2_778
10
10.5738396
20
199.6493073
11
9.3932396
21
199.6493073
0
LINE
8
DEFAULT_255_2_778
10
9.3932396
20
199.6493073
11
9.9837396
21
200.6719073
0
LINE
8
DEFAULT_255_2_778
10
9.9837396
20
200.6719073
11
11.1643396
21
200.6719073
0
LINE
8
DEFAULT_255_2_778
10
11.1643396
20
200.6719073
11
10.5738396
21
199.6493073
0
LINE
8
DEFAULT_255_2_778
10
10.5738396
20
199.6493073
11
10.5738396
21
199.6493073
0
LINE
8
DEFAULT_255_2_778
10
11.7546396
20
199.6493073
11
12.9354396
21
199.6493073
0
LINE
8
DEFAULT_255_2_778
10
12.9354396
20
199.6493073
11
12.3451396
21
200.6719073
0
LINE
8
DEFAULT_255_2_778
10
12.3451396
20
200.6719073
11
11.1643396
21
200.6719073
0
LINE
8
DEFAULT_255_2_778
10
11.1643396
20
200.6719073
11
11.7546396
21
199.6493073
0
LINE
8
DEFAULT_255_2_778
10
11.7546396
20
199.6493073
11
11.7546396
21
199.6493073
0
LINE
8
DEFAULT_255_2_778
10
11.7545823
20
201.6945146
11
11.1642823
21
202.7171146
0
LINE
8
DEFAULT_255_2_778
10
11.1642823
20
202.7171146
11
10.5737823
21
201.6945146
0
LINE
8
DEFAULT_255_2_778
10
10.5737823
20
201.6945146
11
11.1642823
21
200.6719146
0
LINE
8
DEFAULT_255_2_778
10
11.1642823
20
200.6719146
11
11.7545823
21
201.6945146
0
LINE
8
DEFAULT_255_2_778
10
11.7545823
20
201.6945146
11
11.7545823
21
201.6945146
0
ARC
8
DEFAULT_255_2_778
10
16.5183731
20
201.3407426
40
0.5650491
50
268.7543645
51
289.1417717
0
ARC
8
DEFAULT_255_2_778
10
16.606208
20
201.0855531
40
0.2951681
50
289.2776255
51
3.7648372
0
ARC
8
DEFAULT_255_2_778
10
16.3901618
20
201.1121085
40
0.5106278
50
359.1949826
51
0.0020862
0
ARC
8
DEFAULT_255_2_778
10
16.547449
20
201.0980832
40
0.1541914
50
280.2616216
51
358.5297855
0
ARC
8
DEFAULT_255_2_778
10
16.5080075
20
201.210655
40
0.2726346
50
269.5969454
51
284.2065679
0
ARC
8
DEFAULT_255_2_778
10
16.4981967
20
201.1950316
40
0.2571258
50
246.5290903
51
271.7590909
0
ARC
8
DEFAULT_255_2_778
10
16.4527148
20
201.0870009
40
0.1399248
50
188.1071678
51
245.9934684
0
ARC
8
DEFAULT_255_2_778
10
16.4829007
20
201.0939617
40
0.1708111
50
179.9445314
51
188.990814
0
ARC
8
DEFAULT_255_2_778
10
16.4924507
20
201.1007849
40
0.3763411
50
178.2272621
51
205.8283807
0
ARC
8
DEFAULT_255_2_778
10
16.4132476
20
201.0830833
40
0.2979176
50
209.4028057
51
263.0375728
0
ARC
8
DEFAULT_255_2_778
10
16.5005111
20
201.4577629
40
0.6816586
50
259.5722942
51
270.4689037
0
ARC
8
DEFAULT_255_2_778
10
17.411252
20
201.5139767
40
0.1217154
50
2.0482843
51
87.015299
0
ARC
8
DEFAULT_255_2_778
10
17.4060617
20
201.5183852
40
0.126828
50
353.0600847
51
359.9737428
0
ARC
8
DEFAULT_255_2_778
10
17.4110442
20
201.5152555
40
0.1215295
50
270.5739762
51
354.2410513
0
ARC
8
DEFAULT_255_2_778
10
17.4065059
20
201.5514297
40
0.1578027
50
269.9941256
51
272.0902921
0
ARC
8
DEFAULT_255_2_778
10
17.414084
20
201.1005295
40
0.1400686
50
358.2807293
51
95.6106825
0
ARC
8
DEFAULT_255_2_778
10
17.4103233
20
201.0966963
40
0.1437669
50
266.9962473
51
359.8528392
0
ARC
8
DEFAULT_255_2_778
10
17.4725249
20
201.1369988
40
0.3335288
50
268.2414507
51
302.0223478
0
ARC
8
DEFAULT_255_2_778
10
17.5091261
20
201.061683
40
0.2504234
50
304.0600275
51
2.0468005
0
ARC
8
DEFAULT_255_2_778
10
17.4832788
20
201.0683521
40
0.2761203
50
0.4720601
51
65.8403529
0
ARC
8
DEFAULT_255_2_778
10
17.5191655
20
201.1331061
40
0.2024466
50
67.606893
51
75.8693222
0
ARC
8
DEFAULT_255_2_778
10
17.5042026
20
201.540722
40
0.2208874
50
286.9473417
51
358.0074963
0
ARC
8
DEFAULT_255_2_778
10
17.4710866
20
201.5495045
40
0.2544031
50
356.2897886
51
0.0050857
0
ARC
8
DEFAULT_255_2_778
10
17.497262
20
201.5545946
40
0.2282839
50
358.7280137
51
81.8073164
0
ARC
8
DEFAULT_255_2_778
10
17.4216369
20
201.3031283
40
0.4895182
50
77.2355086
51
90.5088275
0
ARC
8
DEFAULT_255_2_778
10
17.5842742
20
200.3386263
40
0.130243
50
89.9974494
51
92.6776592
0
ARC
8
DEFAULT_255_2_778
10
17.5843316
20
200.3391872
40
0.129682
50
45.0880141
51
90.022782
0
ARC
8
DEFAULT_255_2_778
10
17.5844118
20
200.339219
40
0.1296029
50
0.001866
51
45.1031959
0
ARC
8
DEFAULT_255_2_778
10
17.5845123
20
200.3392202
40
0.1295026
50
357.4803735
51
0.0013544
0
ARC
8
DEFAULT_255_2_778
10
17.5901979
20
200.3353512
40
0.1237052
50
339.8672523
51
359.1550732
0
ARC
8
DEFAULT_255_2_778
10
17.5794513
20
200.3325079
40
0.1329691
50
272.0853006
51
342.6124646
0
ARC
8
DEFAULT_255_2_778
10
17.6596145
20
200.3707661
40
0.2575135
50
286.787355
51
290.6121696
0
ARC
8
DEFAULT_255_2_778
10
17.6689461
20
200.3564533
40
0.24086
50
289.7330405
51
342.3216972
0
ARC
8
DEFAULT_255_2_778
10
17.641261
20
200.3612954
40
0.268735
50
343.130572
51
0.3905272
0
ARC
8
DEFAULT_255_2_778
10
17.6578783
20
200.3786767
40
0.2525904
50
356.4706028
51
80.1788963
0
ARC
8
DEFAULT_255_2_778
10
17.5921649
20
200.1517163
40
0.4881286
50
77.1212301
51
90.4900821
0
ARC
8
DEFAULT_255_2_778
10
17.5166337
20
199.854036
40
0.1865405
50
50.1507009
51
92.9634648
0
ARC
8
DEFAULT_255_2_778
10
17.5301354
20
199.8823678
40
0.1563319
50
12.621233
51
47.2950617
0
ARC
8
DEFAULT_255_2_778
10
16.8485884
20
199.7494726
40
0.8506657
50
2.8173892
51
11.3253986
0
ARC
8
DEFAULT_255_2_778
10
-29.2295733
20
196.2531175
40
47.060992
50
4.3048394
51
4.3117143
0
ARC
8
DEFAULT_255_2_778
10
18.5500859
20
199.825584
40
0.8523717
50
182.6850102
51
191.2954256
0
ARC
8
DEFAULT_255_2_778
10
17.9656837
20
199.7192399
40
0.2586603
50
193.5512904
51
195.3825538
0
ARC
8
DEFAULT_255_2_778
10
19.3415679
20
199.9768916
40
1.4608773
50
182.5958701
51
192.9049706
0
ARC
8
DEFAULT_255_2_778
10
17.6207606
20
199.9052215
40
0.261487
50
1.2064311
51
30.4123358
0
ARC
8
DEFAULT_255_2_778
10
17.6663626
20
199.920276
40
0.2147766
50
33.1081154
51
71.7312197
0
LINE
8
DEFAULT_255_2_778
10
13.4657897
20
200.0848271
11
13.9385897
21
200.0848271
0
LINE
8
DEFAULT_255_2_778
10
13.9385897
20
200.0848271
11
13.9385897
21
200.2562271
0
LINE
8
DEFAULT_255_2_778
10
13.9385897
20
200.2562271
11
13.4657897
21
200.2562271
0
LINE
8
DEFAULT_255_2_778
10
13.4657897
20
200.2562271
11
13.4657897
21
200.4671271
0
LINE
8
DEFAULT_255_2_778
10
13.4657897
20
200.4671271
11
13.9977897
21
200.4671271
0
LINE
8
DEFAULT_255_2_778
10
13.9977897
20
200.4671271
11
13.9977897
21
200.6385271
0
LINE
8
DEFAULT_255_2_778
10
13.9977897
20
200.6385271
11
13.4657897
21
200.6385271
0
LINE
8
DEFAULT_255_2_778
10
13.4657897
20
200.6385271
11
13.2651897
21
200.6385271
0
LINE
8
DEFAULT_255_2_778
10
13.2651897
20
200.6385271
11
13.2651897
21
200.4671271
0
LINE
8
DEFAULT_255_2_778
10
13.2651897
20
200.4671271
11
13.2651897
21
199.8207271
0
LINE
8
DEFAULT_255_2_778
10
13.2651897
20
199.8207271
11
13.2651897
21
199.6492271
0
LINE
8
DEFAULT_255_2_778
10
13.2651897
20
199.6492271
11
13.4657897
21
199.6492271
0
LINE
8
DEFAULT_255_2_778
10
13.4657897
20
199.6492271
11
14.0118897
21
199.6492271
0
LINE
8
DEFAULT_255_2_778
10
14.0118897
20
199.6492271
11
14.0118897
21
199.8207271
0
LINE
8
DEFAULT_255_2_778
10
14.0118897
20
199.8207271
11
13.4657897
21
199.8207271
0
LINE
8
DEFAULT_255_2_778
10
13.4657897
20
199.8207271
11
13.4657897
21
200.0845271
0
LINE
8
DEFAULT_255_2_778
10
13.4657897
20
200.0845271
11
13.4657897
21
200.0848271
0
LINE
8
DEFAULT_255_2_778
10
13.4519897
20
201.5389271
11
13.6620897
21
200.8036271
0
LINE
8
DEFAULT_255_2_778
10
13.6620897
20
200.8036271
11
13.6704897
21
200.8036271
0
LINE
8
DEFAULT_255_2_778
10
13.6704897
20
200.8036271
11
13.8464897
21
200.8036271
0
LINE
8
DEFAULT_255_2_778
10
13.8464897
20
200.8036271
11
13.8546897
21
200.8036271
0
LINE
8
DEFAULT_255_2_778
10
13.8546897
20
200.8036271
11
14.0647897
21
201.5389271
0
LINE
8
DEFAULT_255_2_778
10
14.0647897
20
201.5389271
11
14.0647897
21
200.8036271
0
LINE
8
DEFAULT_255_2_778
10
14.0647897
20
200.8036271
11
14.2515897
21
200.8036271
0
LINE
8
DEFAULT_255_2_778
10
14.2515897
20
200.8036271
11
14.2515897
21
201.7929271
0
LINE
8
DEFAULT_255_2_778
10
14.2515897
20
201.7929271
11
14.1496897
21
201.7929271
0
LINE
8
DEFAULT_255_2_778
10
14.1496897
20
201.7929271
11
14.0615897
21
201.7929271
0
LINE
8
DEFAULT_255_2_778
10
14.0615897
20
201.7929271
11
13.9655897
21
201.7929271
0
LINE
8
DEFAULT_255_2_778
10
13.9655897
20
201.7929271
11
13.7583897
21
201.0986271
0
LINE
8
DEFAULT_255_2_778
10
13.7583897
20
201.0986271
11
13.5511897
21
201.7929271
0
LINE
8
DEFAULT_255_2_778
10
13.5511897
20
201.7929271
11
13.4551897
21
201.7929271
0
LINE
8
DEFAULT_255_2_778
10
13.4551897
20
201.7929271
11
13.3669897
21
201.7929271
0
LINE
8
DEFAULT_255_2_778
10
13.3669897
20
201.7929271
11
13.2651897
21
201.7929271
0
LINE
8
DEFAULT_255_2_778
10
13.2651897
20
201.7929271
11
13.2651897
21
200.8036271
0
LINE
8
DEFAULT_255_2_778
10
13.2651897
20
200.8036271
11
13.4519897
21
200.8036271
0
LINE
8
DEFAULT_255_2_778
10
13.4519897
20
200.8036271
11
13.4519897
21
201.5389271
0
LINE
8
DEFAULT_255_2_778
10
13.4519897
20
201.5389271
11
13.4519897
21
201.5389271
0
LINE
8
DEFAULT_255_2_778
10
18.0056897
20
201.7929271
11
17.8064897
21
201.7929271
0
LINE
8
DEFAULT_255_2_778
10
17.8064897
20
201.7929271
11
17.8064897
21
200.8036271
0
LINE
8
DEFAULT_255_2_778
10
17.8064897
20
200.8036271
11
18.0056897
21
200.8036271
0
LINE
8
DEFAULT_255_2_778
10
18.0056897
20
200.8036271
11
18.0056897
21
201.7929271
0
LINE
8
DEFAULT_255_2_778
10
18.0056897
20
201.7929271
11
18.0056897
21
201.7929271
0
LINE
8
DEFAULT_255_2_778
10
18.1681897
20
200.6388271
11
17.9689897
21
200.6388271
0
LINE
8
DEFAULT_255_2_778
10
17.9689897
20
200.6388271
11
17.9689897
21
199.6495271
0
LINE
8
DEFAULT_255_2_778
10
17.9689897
20
199.6495271
11
18.1681897
21
199.6495271
0
LINE
8
DEFAULT_255_2_778
10
18.1681897
20
199.6495271
11
18.1681897
21
200.6388271
0
LINE
8
DEFAULT_255_2_778
10
18.1681897
20
200.6388271
11
18.1681897
21
200.6388271
0
LINE
8
DEFAULT_255_2_778
10
19.9765897
20
201.7929271
11
19.7773897
21
201.7929271
0
LINE
8
DEFAULT_255_2_778
10
19.7773897
20
201.7929271
11
19.7773897
21
200.8036271
0
LINE
8
DEFAULT_255_2_778
10
19.7773897
20
200.8036271
11
19.9765897
21
200.8036271
0
LINE
8
DEFAULT_255_2_778
10
19.9765897
20
200.8036271
11
19.9765897
21
201.7929271
0
LINE
8
DEFAULT_255_2_778
10
19.9765897
20
201.7929271
11
19.9765897
21
201.7929271
0
LINE
8
DEFAULT_255_2_778
10
14.5298897
20
201.7929271
11
14.3306897
21
201.7929271
0
LINE
8
DEFAULT_255_2_778
10
14.3306897
20
201.7929271
11
14.3306897
21
200.8036271
0
LINE
8
DEFAULT_255_2_778
10
14.3306897
20
200.8036271
11
14.5298897
21
200.8036271
0
LINE
8
DEFAULT_255_2_778
10
14.5298897
20
200.8036271
11
14.5298897
21
201.7929271
0
LINE
8
DEFAULT_255_2_778
10
14.5298897
20
201.7929271
11
14.5298897
21
201.7929271
0
LINE
8
DEFAULT_255_2_778
10
19.4989897
20
201.4069271
11
19.1029897
21
201.4069271
0
LINE
8
DEFAULT_255_2_778
10
19.1029897
20
201.4069271
11
19.1029897
21
201.7926271
0
LINE
8
DEFAULT_255_2_778
10
19.1029897
20
201.7926271
11
18.9068897
21
201.7926271
0
LINE
8
DEFAULT_255_2_778
10
18.9068897
20
201.7926271
11
18.9068897
21
200.8036271
0
LINE
8
DEFAULT_255_2_778
10
18.9068897
20
200.8036271
11
19.1029897
21
200.8036271
0
LINE
8
DEFAULT_255_2_778
10
19.1029897
20
200.8036271
11
19.1029897
21
201.2354271
0
LINE
8
DEFAULT_255_2_778
10
19.1029897
20
201.2354271
11
19.4989897
21
201.2354271
0
LINE
8
DEFAULT_255_2_778
10
19.4989897
20
201.2354271
11
19.4989897
21
200.8036271
0
LINE
8
DEFAULT_255_2_778
10
19.4989897
20
200.8036271
11
19.6950897
21
200.8036271
0
LINE
8
DEFAULT_255_2_778
10
19.6950897
20
200.8036271
11
19.6950897
21
201.7926271
0
LINE
8
DEFAULT_255_2_778
10
19.6950897
20
201.7926271
11
19.4989897
21
201.7926271
0
LINE
8
DEFAULT_255_2_778
10
19.4989897
20
201.7926271
11
19.4989897
21
201.4069271
0
LINE
8
DEFAULT_255_2_778
10
19.4989897
20
201.4069271
11
19.4989897
21
201.4069271
0
LINE
8
DEFAULT_255_2_778
10
14.8246897
20
200.8036271
11
15.0280897
21
200.8036271
0
LINE
8
DEFAULT_255_2_778
10
15.0280897
20
200.8036271
11
15.0280897
21
201.6215271
0
LINE
8
DEFAULT_255_2_778
10
15.0280897
20
201.6215271
11
15.2696897
21
201.6215271
0
LINE
8
DEFAULT_255_2_778
10
15.2696897
20
201.6215271
11
15.2696897
21
201.7929271
0
LINE
8
DEFAULT_255_2_778
10
15.2696897
20
201.7929271
11
15.0280897
21
201.7929271
0
LINE
8
DEFAULT_255_2_778
10
15.0280897
20
201.7929271
11
14.8246897
21
201.7929271
0
LINE
8
DEFAULT_255_2_778
10
14.8246897
20
201.7929271
11
14.5830897
21
201.7929271
0
LINE
8
DEFAULT_255_2_778
10
14.5830897
20
201.7929271
11
14.5830897
21
201.6215271
0
LINE
8
DEFAULT_255_2_778
10
14.5830897
20
201.6215271
11
14.8246897
21
201.6215271
0
LINE
8
DEFAULT_255_2_778
10
14.8246897
20
201.6215271
11
14.8246897
21
200.8036271
0
LINE
8
DEFAULT_255_2_778
10
14.8246897
20
200.8036271
11
14.8246897
21
200.8036271
0
LINE
8
DEFAULT_255_2_778
10
16.6422897
20
199.6495271
11
16.8454897
21
199.6495271
0
LINE
8
DEFAULT_255_2_778
10
16.8454897
20
199.6495271
11
16.8454897
21
200.4673271
0
LINE
8
DEFAULT_255_2_778
10
16.8454897
20
200.4673271
11
17.0873897
21
200.4673271
0
LINE
8
DEFAULT_255_2_778
10
17.0873897
20
200.4673271
11
17.0873897
21
200.6391271
0
LINE
8
DEFAULT_255_2_778
10
17.0873897
20
200.6391271
11
16.8454897
21
200.6391271
0
LINE
8
DEFAULT_255_2_778
10
16.8454897
20
200.6391271
11
16.6422897
21
200.6391271
0
LINE
8
DEFAULT_255_2_778
10
16.6422897
20
200.6391271
11
16.4004897
21
200.6391271
0
LINE
8
DEFAULT_255_2_778
10
16.4004897
20
200.6391271
11
16.4004897
21
200.4673271
0
LINE
8
DEFAULT_255_2_778
10
16.4004897
20
200.4673271
11
16.6422897
21
200.4673271
0
LINE
8
DEFAULT_255_2_778
10
16.6422897
20
200.4673271
11
16.6422897
21
199.6495271
0
LINE
8
DEFAULT_255_2_778
10
16.6422897
20
199.6495271
11
16.6422897
21
199.6495271
0
LINE
8
DEFAULT_255_2_778
10
16.9007897
20
201.1121271
11
16.9007897
21
201.7926271
0
LINE
8
DEFAULT_255_2_778
10
16.9007897
20
201.7926271
11
16.7015897
21
201.7926271
0
LINE
8
DEFAULT_255_2_778
10
16.7015897
20
201.7926271
11
16.7015897
21
201.0941271
0
LINE
8
DEFAULT_255_2_778
10
16.3120897
20
201.0941271
11
16.3120897
21
201.7926271
0
LINE
8
DEFAULT_255_2_778
10
16.3120897
20
201.7926271
11
16.1162897
21
201.7926271
0
LINE
8
DEFAULT_255_2_778
10
16.1162897
20
201.7926271
11
16.1162897
21
201.1124271
0
LINE
8
DEFAULT_255_2_778
10
15.0000897
20
200.0848271
11
15.4730897
21
200.0848271
0
LINE
8
DEFAULT_255_2_778
10
15.4730897
20
200.0848271
11
15.4730897
21
200.2562271
0
LINE
8
DEFAULT_255_2_778
10
15.4730897
20
200.2562271
11
15.0000897
21
200.2562271
0
LINE
8
DEFAULT_255_2_778
10
15.0000897
20
200.2562271
11
15.0000897
21
200.4671271
0
LINE
8
DEFAULT_255_2_778
10
15.0000897
20
200.4671271
11
15.5320897
21
200.4671271
0
LINE
8
DEFAULT_255_2_778
10
15.5320897
20
200.4671271
11
15.5320897
21
200.6385271
0
LINE
8
DEFAULT_255_2_778
10
15.5320897
20
200.6385271
11
15.0000897
21
200.6385271
0
LINE
8
DEFAULT_255_2_778
10
15.0000897
20
200.6385271
11
14.7997897
21
200.6385271
0
LINE
8
DEFAULT_255_2_778
10
14.7997897
20
200.6385271
11
14.7997897
21
200.4671271
0
LINE
8
DEFAULT_255_2_778
10
14.7997897
20
200.4671271
11
14.7997897
21
199.8207271
0
LINE
8
DEFAULT_255_2_778
10
14.7997897
20
199.8207271
11
14.7997897
21
199.6492271
0
LINE
8
DEFAULT_255_2_778
10
14.7997897
20
199.6492271
11
15.0000897
21
199.6492271
0
LINE
8
DEFAULT_255_2_778
10
15.0000897
20
199.6492271
11
15.5461897
21
199.6492271
0
LINE
8
DEFAULT_255_2_778
10
15.5461897
20
199.6492271
11
15.5461897
21
199.8207271
0
LINE
8
DEFAULT_255_2_778
10
15.5461897
20
199.8207271
11
15.0000897
21
199.8207271
0
LINE
8
DEFAULT_255_2_778
10
15.0000897
20
199.8207271
11
15.0000897
21
200.0845271
0
LINE
8
DEFAULT_255_2_778
10
15.0000897
20
200.0845271
11
15.0000897
21
200.0848271
0
LINE
8
DEFAULT_255_2_778
10
17.4064897
20
201.3936271
11
17.1690897
21
201.3936271
0
LINE
8
DEFAULT_255_2_778
10
17.1690897
20
201.3936271
11
17.1690897
21
201.6352271
0
LINE
8
DEFAULT_255_2_778
10
17.1690897
20
201.6352271
11
17.4175897
21
201.6352271
0
LINE
8
DEFAULT_255_2_778
10
17.4175897
20
201.6352271
11
17.4175897
21
201.6355271
0
LINE
8
DEFAULT_255_2_778
10
17.4027897
20
200.9528271
11
17.1690897
21
200.9528271
0
LINE
8
DEFAULT_255_2_778
10
17.1690897
20
200.9528271
11
17.1690897
21
201.2399271
0
LINE
8
DEFAULT_255_2_778
10
17.1690897
20
201.2399271
11
17.4003897
21
201.2399271
0
LINE
8
DEFAULT_255_2_778
10
17.1767897
20
200.8036271
11
17.4622897
21
200.8036271
0
LINE
8
DEFAULT_255_2_778
10
17.4172897
20
201.7926271
11
17.1770897
21
201.7926271
0
LINE
8
DEFAULT_255_2_778
10
17.1770897
20
201.7926271
11
16.9722897
21
201.7926271
0
LINE
8
DEFAULT_255_2_778
10
16.9722897
20
201.7926271
11
16.9711897
21
201.7926271
0
LINE
8
DEFAULT_255_2_778
10
16.9711897
20
201.7926271
11
16.9711897
21
200.8036271
0
LINE
8
DEFAULT_255_2_778
10
16.9711897
20
200.8036271
11
16.9722897
21
200.8036271
0
LINE
8
DEFAULT_255_2_778
10
16.9722897
20
200.8036271
11
17.1770897
21
200.8036271
0
LINE
8
DEFAULT_255_2_778
10
17.1770897
20
200.8036271
11
17.1767897
21
200.8036271
0
LINE
8
DEFAULT_255_2_778
10
17.3368897
20
200.1993271
11
17.3368897
21
200.4687271
0
LINE
8
DEFAULT_255_2_778
10
17.3368897
20
200.4687271
11
17.5781897
21
200.4687271
0
LINE
8
DEFAULT_255_2_778
10
17.5842897
20
200.1996271
11
17.3370897
21
200.1996271
0
LINE
8
DEFAULT_255_2_778
10
17.3370897
20
200.1996271
11
17.3368897
21
200.1993271
0
LINE
8
DEFAULT_255_2_778
10
17.5879897
20
200.6398271
11
17.3368897
21
200.6398271
0
LINE
8
DEFAULT_255_2_778
10
17.3368897
20
200.6398271
11
17.1383897
21
200.6398271
0
LINE
8
DEFAULT_255_2_778
10
17.1383897
20
200.6398271
11
17.1362897
21
200.6398271
0
LINE
8
DEFAULT_255_2_778
10
17.1362897
20
200.6398271
11
17.1362897
21
199.6506271
0
LINE
8
DEFAULT_255_2_778
10
17.1362897
20
199.6506271
11
17.3368897
21
199.6506271
0
LINE
8
DEFAULT_255_2_778
10
17.3368897
20
199.6506271
11
17.3368897
21
200.0403271
0
LINE
8
DEFAULT_255_2_778
10
17.3368897
20
200.0403271
11
17.5069897
21
200.0403271
0
LINE
8
DEFAULT_255_2_778
10
17.7162897
20
199.6506271
11
17.9175897
21
199.6506271
0
LINE
8
DEFAULT_255_2_778
10
14.2763897
20
200.6388271
11
14.0760897
21
200.6388271
0
LINE
8
DEFAULT_255_2_778
10
14.0760897
20
200.6388271
11
14.0760897
21
199.8210271
0
LINE
8
DEFAULT_255_2_778
10
14.0760897
20
199.8210271
11
14.0760897
21
199.6495271
0
LINE
8
DEFAULT_255_2_778
10
14.0760897
20
199.6495271
11
14.2763897
21
199.6495271
0
LINE
8
DEFAULT_255_2_778
10
14.2763897
20
199.6495271
11
14.7428897
21
199.6495271
0
LINE
8
DEFAULT_255_2_778
10
14.7428897
20
199.6495271
11
14.7428897
21
199.8210271
0
LINE
8
DEFAULT_255_2_778
10
14.7428897
20
199.8210271
11
14.2763897
21
199.8210271
0
LINE
8
DEFAULT_255_2_778
10
14.2763897
20
199.8210271
11
14.2763897
21
200.6388271
0
LINE
8
DEFAULT_255_2_778
10
14.2763897
20
200.6388271
11
14.2763897
21
200.6388271
0
ARC
8
DEFAULT_255_2_778
10
15.4584271
20
200.2646969
40
0.9681224
50
72.4822103
51
81.3184214
0
ARC
8
DEFAULT_255_2_778
10
15.7160297
20
201.0413918
40
0.1503783
50
28.8883513
51
77.0092434
0
ARC
8
DEFAULT_255_2_778
10
15.7432379
20
201.0703196
40
0.113238
50
358.9917455
51
22.7117017
0
ARC
8
DEFAULT_255_2_778
10
15.7394861
20
201.0744918
40
0.1171346
50
289.2958104
51
356.9831562
0
ARC
8
DEFAULT_255_2_778
10
15.6668261
20
201.2319882
40
0.2902651
50
268.4665462
51
292.5613311
0
ARC
8
DEFAULT_255_2_778
10
15.6496856
20
201.1729179
40
0.2312808
50
236.4956947
51
272.3225735
0
ARC
8
DEFAULT_255_2_778
10
15.6106646
20
201.1046839
40
0.1529307
50
178.9722202
51
234.5742435
0
ARC
8
DEFAULT_255_2_778
10
15.5656113
20
201.0951079
40
0.3002058
50
177.6481608
51
245.5596397
0
ARC
8
DEFAULT_255_2_778
10
15.6409971
20
201.2673561
40
0.488217
50
245.8690375
51
267.169035
0
ARC
8
DEFAULT_255_2_778
10
15.6671503
20
201.5183916
40
0.7403648
50
266.1069867
51
270.0547972
0
ARC
8
DEFAULT_255_2_778
10
15.6772894
20
201.3496135
40
0.5716642
50
269.0547216
51
287.7147747
0
ARC
8
DEFAULT_255_2_778
10
15.7598889
20
201.1039091
40
0.3125017
50
286.995984
51
325.1221533
0
ARC
8
DEFAULT_255_2_778
10
15.7678294
20
201.087361
40
0.2966627
50
326.8673922
51
0.8625726
0
ARC
8
DEFAULT_255_2_778
10
15.7898286
20
201.0959409
40
0.2746606
50
359.1417932
51
76.9739731
0
ARC
8
DEFAULT_255_2_778
10
15.6705461
20
200.8150719
40
0.577616
50
71.7185727
51
79.1315439
0
ARC
8
DEFAULT_255_2_778
10
14.2492968
20
193.461467
40
8.0673056
50
79.0662148
51
79.6216572
0
ARC
8
DEFAULT_255_2_778
10
16.4356585
20
205.3391581
40
4.0099443
50
259.1227669
51
259.4665204
0
ARC
8
DEFAULT_255_2_778
10
15.7836732
20
202.0441142
40
0.6513291
50
249.9945768
51
260.7485895
0
ARC
8
DEFAULT_255_2_778
10
15.5880401
20
201.5330999
40
0.1046098
50
178.6705173
51
254.9333545
0
ARC
8
DEFAULT_255_2_778
10
15.6049957
20
201.5296688
40
0.1216785
50
93.288632
51
177.2403935
0
ARC
8
DEFAULT_255_2_778
10
15.6585677
20
201.3426752
40
0.3143588
50
89.6189463
51
101.1057977
0
ARC
8
DEFAULT_255_2_778
10
15.6722733
20
201.454516
40
0.2028439
50
53.5634072
51
93.2825843
0
ARC
8
DEFAULT_255_2_778
10
15.7018505
20
201.5127144
40
0.1388739
50
357.1985816
51
49.1152298
0
ARC
8
DEFAULT_255_2_778
10
15.7254907
20
201.5059274
40
0.3087677
50
359.9999335
51
2.3703878
0
ARC
8
DEFAULT_255_2_778
10
15.7353555
20
201.5074337
40
0.298851
50
2.1600756
51
60.1092229
0
ARC
8
DEFAULT_255_2_778
10
15.6766212
20
201.4008133
40
0.4205645
50
60.4106856
51
86.1444419
0
ARC
8
DEFAULT_255_2_778
10
15.6536151
20
201.2241228
40
0.5985046
50
85.0843314
51
90.0628677
0
ARC
8
DEFAULT_255_2_778
10
15.6529718
20
201.3475466
40
0.4750804
50
90.001616
51
92.2300394
0
ARC
8
DEFAULT_255_2_778
10
15.6281193
20
201.452687
40
0.3696351
50
89.0131319
51
149.6364996
0
ARC
8
DEFAULT_255_2_778
10
15.5505461
20
201.5249055
40
0.2671974
50
154.5962367
51
180.4885883
0
ARC
8
DEFAULT_255_2_778
10
15.5651524
20
201.523384
40
0.281795
50
180.1539064
51
255.1120325
0
ARC
8
DEFAULT_255_2_778
10
15.7094242
20
201.846232
40
0.6333958
50
249.9962237
51
260.4976723
0
ARC
8
DEFAULT_255_2_778
10
18.2470963
20
200.2658351
40
0.967002
50
72.4685023
51
81.3064395
0
ARC
8
DEFAULT_255_2_778
10
18.5045397
20
201.041427
40
0.1503535
50
28.8782248
51
76.9904304
0
ARC
8
DEFAULT_255_2_778
10
18.5317197
20
201.0703189
40
0.1132561
50
358.9922779
51
22.7082666
0
ARC
8
DEFAULT_255_2_778
10
18.5280402
20
201.0744088
40
0.1170763
50
289.2761556
51
357.0223042
0
ARC
8
DEFAULT_255_2_778
10
18.4553612
20
201.2322836
40
0.2905613
50
268.4611814
51
292.5289055
0
ARC
8
DEFAULT_255_2_778
10
18.4381801
20
201.1738175
40
0.2321799
50
236.6698634
51
272.3149402
0
ARC
8
DEFAULT_255_2_778
10
18.39878
20
201.1046762
40
0.1528464
50
178.9687581
51
234.7686008
0
ARC
8
DEFAULT_255_2_778
10
18.3540113
20
201.0951079
40
0.3002058
50
177.6481608
51
245.5596397
0
ARC
8
DEFAULT_255_2_778
10
18.4293971
20
201.2673561
40
0.488217
50
245.8690375
51
267.169035
0
ARC
8
DEFAULT_255_2_778
10
18.4555503
20
201.5183916
40
0.7403648
50
266.1069867
51
270.0547972
0
ARC
8
DEFAULT_255_2_778
10
18.4656836
20
201.3502451
40
0.5722957
50
269.0563423
51
287.7048702
0
ARC
8
DEFAULT_255_2_778
10
18.548344
20
201.1042682
40
0.312856
50
286.9832601
51
325.0871916
0
ARC
8
DEFAULT_255_2_778
10
18.5567708
20
201.0873856
40
0.2964208
50
326.8311942
51
0.8585267
0
ARC
8
DEFAULT_255_2_778
10
18.5785756
20
201.0960282
40
0.2746149
50
359.1234265
51
76.9343785
0
ARC
8
DEFAULT_255_2_778
10
18.4596421
20
200.8161965
40
0.5764934
50
71.6999697
51
79.1198353
0
ARC
8
DEFAULT_255_2_778
10
17.0173657
20
193.3394392
40
8.1910887
50
79.0843627
51
79.6321368
0
ARC
8
DEFAULT_255_2_778
10
19.2200266
20
205.3189177
40
3.9892176
50
259.1314419
51
259.4772924
0
ARC
8
DEFAULT_255_2_778
10
18.5723251
20
202.0435131
40
0.6507003
50
249.9919323
51
260.7592458
0
ARC
8
DEFAULT_255_2_778
10
18.376901
20
201.5330546
40
0.1045718
50
178.6452075
51
254.9151907
0
ARC
8
DEFAULT_255_2_778
10
18.3939581
20
201.5296016
40
0.121744
50
93.2745253
51
177.21023
0
ARC
8
DEFAULT_255_2_778
10
18.4475726
20
201.3425052
40
0.3145287
50
89.6200387
51
101.1027534
0
ARC
8
DEFAULT_255_2_778
10
18.4613489
20
201.4558453
40
0.2015212
50
53.1490002
51
93.3256649
0
ARC
8
DEFAULT_255_2_778
10
18.4902753
20
201.5126519
40
0.1391457
50
357.2298288
51
48.6469881
0
ARC
8
DEFAULT_255_2_778
10
18.5137232
20
201.5059226
40
0.3092351
50
0.0008291
51
2.3676985
0
ARC
8
DEFAULT_255_2_778
10
18.5240744
20
201.5074868
40
0.2988304
50
2.1500394
51
60.0956838
0
ARC
8
DEFAULT_255_2_778
10
18.4654399
20
201.4009909
40
0.4203859
50
60.40452
51
86.1455285
0
ARC
8
DEFAULT_255_2_778
10
18.4424157
20
201.2241686
40
0.5984588
50
85.0841409
51
90.0629301
0
ARC
8
DEFAULT_255_2_778
10
18.4417778
20
201.3471392
40
0.4754878
50
90.0023409
51
92.3231329
0
ARC
8
DEFAULT_255_2_778
10
18.4167555
20
201.4524604
40
0.3698206
50
89.1093915
51
149.6400816
0
ARC
8
DEFAULT_255_2_778
10
18.338761
20
201.5248917
40
0.2669122
50
154.6001925
51
180.486137
0
ARC
8
DEFAULT_255_2_778
10
18.3537607
20
201.5235152
40
0.2819037
50
180.1805176
51
255.132702
0
ARC
8
DEFAULT_255_2_778
10
18.4982264
20
201.8467784
40
0.6339516
50
250.0026216
51
260.4967164
0
ARC
8
DEFAULT_255_2_778
10
16.008917
20
200.0539283
40
0.2519711
50
190.2626864
51
267.3480013
0
ARC
8
DEFAULT_255_2_778
10
16.2443543
20
200.1452548
40
0.5022041
50
179.6723028
51
195.7380858
0
ARC
8
DEFAULT_255_2_778
10
16.1790511
20
200.1607671
40
0.4370755
50
148.7005643
51
181.6572045
0
ARC
8
DEFAULT_255_2_778
10
15.9957576
20
200.2708723
40
0.2232598
50
89.6148479
51
148.4074796
0
ARC
8
DEFAULT_255_2_778
10
16.0060936
20
200.292949
40
0.201372
50
41.9769772
51
92.5146611
0
ARC
8
DEFAULT_255_2_778
10
15.9522078
20
200.2552523
40
0.2667646
50
15.1848537
51
40.2549591
0
ARC
8
DEFAULT_255_2_778
10
16.028123
20
200.2655326
40
0.3935735
50
8.7091682
51
82.0550801
0
ARC
8
DEFAULT_255_2_778
10
15.9931241
20
200.1190871
40
0.543642
50
80.5350289
51
90.1544743
0
ARC
8
DEFAULT_255_2_778
10
15.9818804
20
200.2077192
40
0.4551129
50
88.7689246
51
119.6437418
0
ARC
8
DEFAULT_255_2_778
10
16.0077717
20
200.2114647
40
0.4653013
50
122.644121
51
173.3997839
0
ARC
8
DEFAULT_255_2_778
10
16.2711934
20
200.1471568
40
0.7351371
50
170.7798304
51
180.1348114
0
ARC
8
DEFAULT_255_2_778
10
16.1377257
20
200.1317615
40
0.6018225
50
178.6988735
51
210.5289552
0
ARC
8
DEFAULT_255_2_778
10
15.970325
20
200.0409953
40
0.4115783
50
211.4828222
51
265.8686737
0
ARC
8
DEFAULT_255_2_778
10
15.9909864
20
200.1657011
40
0.5375742
50
264.6297133
51
270.0503073
0
ARC
8
DEFAULT_255_2_778
10
16.0020995
20
200.0975749
40
0.4695684
50
268.7014824
51
300.1403067
0
ARC
8
DEFAULT_255_2_778
10
16.0350333
20
200.0191852
40
0.385394
50
301.7580058
51
353.77968
0
ARC
8
DEFAULT_255_2_778
10
16.0012256
20
200.0135219
40
0.2113379
50
268.8430278
51
350.1661143
0
ARC
8
DEFAULT_255_2_778
10
18.6896799
20
200.0538824
40
0.2519281
50
190.2538303
51
267.3332171
0
ARC
8
DEFAULT_255_2_778
10
18.9252249
20
200.1452581
40
0.5022746
50
179.672724
51
195.7362088
0
ARC
8
DEFAULT_255_2_778
10
18.8600432
20
200.1607917
40
0.4372682
50
148.7196987
51
181.6596982
0
ARC
8
DEFAULT_255_2_778
10
18.676443
20
200.2709906
40
0.2231415
50
89.6108896
51
148.4244661
0
ARC
8
DEFAULT_255_2_778
10
18.686876
20
200.292967
40
0.2013576
50
42.5913083
51
92.5383066
0
ARC
8
DEFAULT_255_2_778
10
18.6345542
20
200.2565973
40
0.2646316
50
15.0085433
51
40.7215892
0
ARC
8
DEFAULT_255_2_778
10
18.708623
20
200.2655326
40
0.3935735
50
8.7091682
51
82.0550801
0
ARC
8
DEFAULT_255_2_778
10
18.6736241
20
200.1190871
40
0.543642
50
80.5350289
51
90.1544743
0
ARC
8
DEFAULT_255_2_778
10
18.6623804
20
200.2077192
40
0.4551129
50
88.7689246
51
119.6437418
0
ARC
8
DEFAULT_255_2_778
10
18.6882717
20
200.2114647
40
0.4653013
50
122.644121
51
173.3997839
0
ARC
8
DEFAULT_255_2_778
10
18.9516934
20
200.1471568
40
0.7351371
50
170.7798304
51
180.1348114
0
ARC
8
DEFAULT_255_2_778
10
18.8177822
20
200.13182
40
0.6013778
50
178.7034849
51
210.5604279
0
ARC
8
DEFAULT_255_2_778
10
18.6511312
20
200.0413377
40
0.4119265
50
211.5090145
51
265.8592607
0
ARC
8
DEFAULT_255_2_778
10
18.6716883
20
200.1654521
40
0.5373252
50
264.628472
51
270.0501277
0
ARC
8
DEFAULT_255_2_778
10
18.682837
20
200.0973685
40
0.4693629
50
268.6963312
51
300.2191972
0
ARC
8
DEFAULT_255_2_778
10
18.7155684
20
200.0194124
40
0.3856821
50
301.8465101
51
353.7503927
0
ARC
8
DEFAULT_255_2_778
10
18.6820648
20
200.0133604
40
0.2111733
50
268.8857714
51
350.2028431
0
LINE
8
DEFAULT_255_2_778
10
15.4577584
20
201.1074271
11
15.2656584
21
201.1074271
0
LINE
8
DEFAULT_255_2_778
10
15.8405584
20
201.5059271
11
16.0342584
21
201.5059271
0
LINE
8
DEFAULT_255_2_778
10
18.2459584
20
201.1074271
11
18.0540584
21
201.1074271
0
LINE
8
DEFAULT_255_2_778
10
18.6292584
20
201.5059271
11
18.8229584
21
201.5059271
0
LINE
8
DEFAULT_255_2_778
10
16.2096584
20
200.3251271
11
16.4171584
21
200.3251271
0
LINE
8
DEFAULT_255_2_778
10
16.4181584
20
199.9774271
11
16.2094584
21
199.9774271
0
LINE
8
DEFAULT_255_2_778
10
18.8901584
20
200.3251271
11
19.0976584
21
200.3251271
0
LINE
8
DEFAULT_255_2_778
10
19.0989584
20
199.9774271
11
18.8901584
21
199.9774271
0
LINE
8
DEFAULT_255_1_234
10
11.7284657
20
197.7463565
11
11.7284657
21
197.6716614
0
LINE
8
DEFAULT_255_1_234
10
11.5236563
20
197.1881507
11
11.7324815
21
197.0243033
0
LINE
8
DEFAULT_255_1_234
10
11.7324815
20
197.0243033
11
11.6272658
21
196.9271192
0
LINE
8
DEFAULT_255_1_234
10
11.6272658
20
196.9271192
11
11.3806914
21
197.1230937
0
LINE
8
DEFAULT_255_1_234
10
10.7871459
20
197.6612201
11
10.7871459
21
197.7455534
0
LINE
8
DEFAULT_255_1_234
10
11.5742563
20
197.6604169
11
11.5742563
21
197.7471597
0
LINE
8
DEFAULT_255_1_234
10
10.9413553
20
197.757601
11
10.9413553
21
197.6716614
0
ARC
8
DEFAULT_255_1_234
10
10.8330909
20
197.6677707
40
0.8953833
50
351.453011
51
0.2489685
0
ARC
8
DEFAULT_255_1_234
10
11.0915709
20
197.6277933
40
0.6338333
50
338.6861641
51
351.5540711
0
ARC
8
DEFAULT_255_1_234
10
11.1849593
20
197.5947828
40
0.5348431
50
336.2887631
51
338.3442418
0
ARC
8
DEFAULT_255_1_234
10
11.2189215
20
197.5761698
40
0.4962747
50
321.1170344
51
336.6795229
0
ARC
8
DEFAULT_255_1_234
10
11.2821044
20
197.5275206
40
0.4165565
50
305.4419708
51
320.8705636
0
ARC
8
DEFAULT_255_1_234
10
11.2624514
20
197.6022707
40
0.4935497
50
271.6373023
51
283.8611969
0
ARC
8
DEFAULT_255_1_234
10
11.2586767
20
197.6678572
40
0.5592206
50
269.9930596
51
271.8318864
0
ARC
8
DEFAULT_255_1_234
10
11.254921
20
197.5870681
40
0.4784458
50
252.5219675
51
270.4416499
0
ARC
8
DEFAULT_255_1_234
10
11.2405469
20
197.5331592
40
0.422716
50
237.5352116
51
252.1857531
0
ARC
8
DEFAULT_255_1_234
10
11.2494665
20
197.5445363
40
0.4371052
50
209.063312
51
237.3492538
0
ARC
8
DEFAULT_255_1_234
10
11.3364513
20
197.5991685
40
0.5397041
50
205.1183774
51
209.6470015
0
ARC
8
DEFAULT_255_1_234
10
11.416155
20
197.632983
40
0.6262326
50
188.7215458
51
204.8240747
0
ARC
8
DEFAULT_255_1_234
10
11.6159078
20
197.6666067
40
0.8287794
50
180.3723947
51
188.9252049
0
ARC
8
DEFAULT_255_1_234
10
11.613183
20
197.7495402
40
0.8260467
50
169.5253763
51
180.2765336
0
ARC
8
DEFAULT_255_1_234
10
11.4229279
20
197.7845309
40
0.6326007
50
155.8315255
51
169.5089989
0
ARC
8
DEFAULT_255_1_234
10
11.294878
20
197.8439348
40
0.4914567
50
139.6258461
51
156.0379525
0
ARC
8
DEFAULT_255_1_234
10
11.2359113
20
197.8913799
40
0.4158054
50
122.6416387
51
139.3430715
0
ARC
8
DEFAULT_255_1_234
10
11.2459733
20
197.8730451
40
0.4366739
50
93.0223692
51
122.455762
0
ARC
8
DEFAULT_255_1_234
10
11.256773
20
197.7765709
40
0.5336137
50
89.975342
51
93.6341897
0
ARC
8
DEFAULT_255_1_234
10
11.2606616
20
197.8145375
40
0.4956606
50
73.9665422
51
90.4229648
0
ARC
8
DEFAULT_255_1_234
10
11.2790263
20
197.8860451
40
0.4218674
50
57.5178019
51
73.6813337
0
ARC
8
DEFAULT_255_1_234
10
11.2746046
20
197.8824462
40
0.4272816
50
28.7261108
51
57.2767933
0
ARC
8
DEFAULT_255_1_234
10
11.1835378
20
197.8261688
40
0.534218
50
24.2448911
51
29.3248482
0
ARC
8
DEFAULT_255_1_234
10
11.0909479
20
197.7878819
40
0.6343711
50
9.064382
51
23.9639114
0
ARC
8
DEFAULT_255_1_234
10
10.8653807
20
197.7499925
40
0.8630926
50
359.7586264
51
9.1891435
0
ARC
8
DEFAULT_255_1_234
10
10.7399287
20
197.7513343
40
0.834338
50
359.7133237
51
7.96545
0
ARC
8
DEFAULT_255_1_234
10
11.0361504
20
197.7940681
40
0.5350538
50
7.8291991
51
20.0421623
0
ARC
8
DEFAULT_255_1_234
10
11.1986067
20
197.8531606
40
0.3621841
50
20.0677553
51
35.9161685
0
ARC
8
DEFAULT_255_1_234
10
11.2761105
20
197.910767
40
0.2656263
50
35.6594382
51
85.1578074
0
ARC
8
DEFAULT_255_1_234
10
11.2576361
20
197.7992378
40
0.3784238
50
83.7959068
51
90.095906
0
ARC
8
DEFAULT_255_1_234
10
11.2533295
20
197.8725601
40
0.3051229
50
89.3102392
51
109.9889877
0
ARC
8
DEFAULT_255_1_234
10
11.2450778
20
197.9081433
40
0.2688988
50
110.9285147
51
143.9411762
0
ARC
8
DEFAULT_255_1_234
10
11.3381724
20
197.8369236
40
0.3860887
50
143.5289163
51
163.2980757
0
ARC
8
DEFAULT_255_1_234
10
11.5289545
20
197.7769433
40
0.5860659
50
163.0418846
51
174.3140048
0
ARC
8
DEFAULT_255_1_234
10
11.7693657
20
197.7491854
40
0.8280531
50
174.0509143
51
179.4176892
0
ARC
8
DEFAULT_255_1_234
10
11.7179992
20
197.6673634
40
0.7766558
50
179.6829237
51
188.9631324
0
ARC
8
DEFAULT_255_1_234
10
11.4509553
20
197.6238752
40
0.5060992
50
188.8100743
51
202.9300012
0
ARC
8
DEFAULT_255_1_234
10
11.3293182
20
197.5743855
40
0.3747967
50
203.2069261
51
215.7876482
0
ARC
8
DEFAULT_255_1_234
10
11.2444579
20
197.5072671
40
0.2667526
50
214.7521006
51
264.2834488
0
ARC
8
DEFAULT_255_1_234
10
11.2580234
20
197.592778
40
0.3532247
50
263.4755397
51
270.0949833
0
ARC
8
DEFAULT_255_1_234
10
11.2622345
20
197.5666374
40
0.3271036
50
269.3649385
51
287.5152008
0
ARC
8
DEFAULT_255_1_234
10
11.2800503
20
197.5019238
40
0.2600406
50
288.0630309
51
323.8113348
0
ARC
8
DEFAULT_255_1_234
10
11.1929345
20
197.5669049
40
0.3687189
50
323.6547608
51
342.6590488
0
ARC
8
DEFAULT_255_1_234
10
10.989796
20
197.6329952
40
0.5823286
50
342.4091907
51
353.6451149
0
ARC
8
DEFAULT_255_1_234
10
10.7066471
20
197.668219
40
0.8676442
50
353.4029884
51
359.4847795
0
LINE
8
DEFAULT_255_1_234
10
12.6593441
20
197.6821026
11
12.6593441
21
197.5608234
0
LINE
8
DEFAULT_255_1_234
10
12.6593441
20
197.5608234
11
12.2673953
21
197.5608234
0
LINE
8
DEFAULT_255_1_234
10
12.2673953
20
197.5608234
11
12.2673953
21
197.6821026
0
LINE
8
DEFAULT_255_1_234
10
12.2673953
20
197.6821026
11
12.6593441
21
197.6821026
0
LINE
8
DEFAULT_255_1_234
10
14.0102825
20
197.9559849
11
13.85527
21
197.9559849
0
LINE
8
DEFAULT_255_1_234
10
13.1629341
20
197.4636394
11
13.3179467
21
197.4636394
0
ARC
8
DEFAULT_255_1_234
10
13.9211513
20
198.8506768
40
1.252368
50
248.9199003
51
254.1439814
0
ARC
8
DEFAULT_255_1_234
10
13.7531007
20
198.4180234
40
0.788226
50
241.633709
51
249.0064503
0
ARC
8
DEFAULT_255_1_234
10
13.6002402
20
198.1379317
40
0.4691427
50
230.498225
51
241.8087113
0
ARC
8
DEFAULT_255_1_234
10
13.5217976
20
198.0379906
40
0.3421437
50
227.4064532
51
229.9881192
0
ARC
8
DEFAULT_255_1_234
10
13.4730497
20
197.9904088
40
0.2741476
50
200.6781896
51
228.1763934
0
ARC
8
DEFAULT_255_1_234
10
13.4802807
20
197.9889077
40
0.2804109
50
179.5061581
51
199.8694617
0
ARC
8
DEFAULT_255_1_234
10
13.4793559
20
197.996321
40
0.2795204
50
132.4834203
51
181.0242172
0
ARC
8
DEFAULT_255_1_234
10
13.5389141
20
197.9400704
40
0.3612768
50
129.2532479
51
133.4242687
0
ARC
8
DEFAULT_255_1_234
10
13.5535591
20
197.9180965
40
0.3875675
50
101.98776
51
128.8742646
0
ARC
8
DEFAULT_255_1_234
10
13.5934202
20
197.7459741
40
0.5642249
50
89.5906553
51
102.3169264
0
ARC
8
DEFAULT_255_1_234
10
13.6004694
20
197.7778148
40
0.5323783
50
77.2360837
51
90.3248275
0
ARC
8
DEFAULT_255_1_234
10
13.6211773
20
197.87454
40
0.4334697
50
63.837784
51
77.0809408
0
ARC
8
DEFAULT_255_1_234
10
13.6489535
20
197.9262911
40
0.3747796
50
45.9864267
51
64.1607727
0
ARC
8
DEFAULT_255_1_234
10
13.6750416
20
197.9560866
40
0.3352302
50
32.2747395
51
45.6547121
0
ARC
8
DEFAULT_255_1_234
10
13.6816857
20
197.957988
40
0.328603
50
359.6507365
51
32.6130309
0
ARC
8
DEFAULT_255_1_234
10
13.5873952
20
197.958466
40
0.2678863
50
359.469343
51
14.9832209
0
ARC
8
DEFAULT_255_1_234
10
13.6579014
20
197.9773539
40
0.1948938
50
14.9781179
51
48.2004265
0
ARC
8
DEFAULT_255_1_234
10
13.6414658
20
197.9566983
40
0.2212521
50
48.5927837
51
74.1241538
0
ARC
8
DEFAULT_255_1_234
10
13.6081148
20
197.8466248
40
0.3362561
50
73.7888341
51
86.6652678
0
ARC
8
DEFAULT_255_1_234
10
13.5978714
20
197.7258881
40
0.4573953
50
86.2640471
51
90.0526343
0
ARC
8
DEFAULT_255_1_234
10
13.5950426
20
197.7654192
40
0.4178709
50
89.6697524
51
99.2309573
0
ARC
8
DEFAULT_255_1_234
10
13.5707877
20
197.9098964
40
0.2713749
50
99.069534
51
113.7658566
0
ARC
8
DEFAULT_255_1_234
10
13.5434068
20
197.9744677
40
0.2012469
50
114.0401004
51
127.9850673
0
ARC
8
DEFAULT_255_1_234
10
13.5193632
20
198.004073
40
0.1631167
50
127.7287463
51
176.7105154
0
ARC
8
DEFAULT_255_1_234
10
13.5872349
20
197.9939693
40
0.2315392
50
175.1779447
51
180.0581938
0
ARC
8
DEFAULT_255_1_234
10
13.5029196
20
197.9927428
40
0.1472271
50
179.6142195
51
228.1246017
0
ARC
8
DEFAULT_255_1_234
10
13.5470865
20
198.0336308
40
0.2072299
50
226.5779593
51
230.8800004
0
ARC
8
DEFAULT_255_1_234
10
13.5941944
20
198.0961636
40
0.2854818
50
231.4635071
51
241.9260842
0
ARC
8
DEFAULT_255_1_234
10
13.7139122
20
198.31648
40
0.53622
50
241.7178533
51
248.3259551
0
ARC
8
DEFAULT_255_1_234
10
13.8524493
20
198.6597064
40
0.9063478
50
248.2007737
51
252.4528373
0
ARC
8
DEFAULT_255_1_234
10
13.9728218
20
199.0318441
40
1.2974635
50
252.3391078
51
254.3469452
0
ARC
8
DEFAULT_255_1_234
10
13.2185921
20
196.3341148
40
1.5037162
50
71.0197183
51
74.4087047
0
ARC
8
DEFAULT_255_1_234
10
13.3880606
20
196.8233111
40
0.9859993
50
66.1847285
51
71.086374
0
ARC
8
DEFAULT_255_1_234
10
13.5436918
20
197.17372
40
0.6025855
50
59.3536294
51
66.2691831
0
ARC
8
DEFAULT_255_1_234
10
13.6325571
20
197.3240609
40
0.4279449
50
49.1020879
51
59.3293958
0
ARC
8
DEFAULT_255_1_234
10
13.7144311
20
197.4173834
40
0.3038015
50
32.7919921
51
49.2505539
0
ARC
8
DEFAULT_255_1_234
10
13.7465401
20
197.4402191
40
0.264448
50
31.1181161
51
32.4005348
0
ARC
8
DEFAULT_255_1_234
10
13.7376938
20
197.4366779
40
0.2738556
50
8.1116974
51
30.7958831
0
ARC
8
DEFAULT_255_1_234
10
13.6566607
20
197.4228753
40
0.3560327
50
359.8389159
51
8.4706516
0
ARC
8
DEFAULT_255_1_234
10
13.7192398
20
197.4180137
40
0.2934776
50
337.4731098
51
0.7537279
0
ARC
8
DEFAULT_255_1_234
10
13.7371093
20
197.4160387
40
0.2762607
50
307.5917067
51
336.4315538
0
ARC
8
DEFAULT_255_1_234
10
13.6910921
20
197.4673102
40
0.3449979
50
307.6551545
51
308.4529766
0
ARC
8
DEFAULT_255_1_234
10
13.668064
20
197.502825
40
0.3871988
50
284.3734338
51
307.1424381
0
ARC
8
DEFAULT_255_1_234
10
13.618547
20
197.6849932
40
0.5759636
50
272.4382747
51
284.646547
0
ARC
8
DEFAULT_255_1_234
10
13.6058679
20
197.8649893
40
0.7563528
50
269.9708387
51
272.8178037
0
ARC
8
DEFAULT_255_1_234
10
13.6015718
20
197.6611716
40
0.5525489
50
248.2707594
51
270.4055579
0
ARC
8
DEFAULT_255_1_234
10
13.5961459
20
197.6421192
40
0.5328452
50
246.1383403
51
248.0542782
0
ARC
8
DEFAULT_255_1_234
10
13.5542838
20
197.5541843
40
0.4355005
50
233.1670131
51
246.4950969
0
ARC
8
DEFAULT_255_1_234
10
13.4988743
20
197.4793812
40
0.3424126
50
215.3403242
51
233.0843104
0
ARC
8
DEFAULT_255_1_234
10
13.4716175
20
197.4595549
40
0.3087104
50
179.2419209
51
215.2648451
0
ARC
8
DEFAULT_255_1_234
10
13.5483768
20
197.4609666
40
0.2304457
50
179.335461
51
199.1045811
0
ARC
8
DEFAULT_255_1_234
10
13.5151445
20
197.4522766
40
0.1962176
50
199.8828939
51
232.7063202
0
ARC
8
DEFAULT_255_1_234
10
13.5623713
20
197.5116788
40
0.2720938
50
232.3738199
51
255.5136649
0
ARC
8
DEFAULT_255_1_234
10
13.596458
20
197.6360835
40
0.4010747
50
255.2446292
51
267.5320849
0
ARC
8
DEFAULT_255_1_234
10
13.6052203
20
197.7593702
40
0.5246356
50
267.1557994
51
270.0286766
0
ARC
8
DEFAULT_255_1_234
10
13.6079976
20
197.714995
40
0.4802668
50
269.7000017
51
278.1660162
0
ARC
8
DEFAULT_255_1_234
10
13.633598
20
197.5419515
40
0.3053425
50
278.0231263
51
290.625471
0
ARC
8
DEFAULT_255_1_234
10
13.6683667
20
197.4492025
40
0.206291
50
290.6619762
51
307.0370976
0
ARC
8
DEFAULT_255_1_234
10
13.6984057
20
197.4123504
40
0.1587906
50
306.3943566
51
355.3030547
0
ARC
8
DEFAULT_255_1_234
10
13.6471988
20
197.4200113
40
0.2104809
50
354.3660432
51
0.0698737
0
ARC
8
DEFAULT_255_1_234
10
13.6614333
20
197.4222617
40
0.1962563
50
359.417946
51
16.1971788
0
ARC
8
DEFAULT_255_1_234
10
13.7069644
20
197.4347418
40
0.149053
50
16.4723299
51
52.6262157
0
ARC
8
DEFAULT_255_1_234
10
13.6248698
20
197.3263433
40
0.2850296
50
52.7386432
51
62.4979148
0
ARC
8
DEFAULT_255_1_234
10
13.4863774
20
197.0657283
40
0.5801521
50
62.2515216
51
68.1220564
0
ARC
8
DEFAULT_255_1_234
10
13.3143685
20
196.6429872
40
1.0365451
50
68.0062803
51
71.8053402
0
ARC
8
DEFAULT_255_1_234
10
13.1348057
20
196.1044758
40
1.6042013
50
71.7183119
51
73.9258742
0
LINE
8
DEFAULT_255_1_234
10
14.1492316
20
197.5351218
11
14.1492316
21
197.5624297
0
LINE
8
DEFAULT_255_1_234
10
14.8865452
20
197.5784932
11
14.8865452
21
197.5166488
0
LINE
8
DEFAULT_255_1_234
10
14.8865452
20
197.5166488
11
14.2978188
21
197.5166488
0
LINE
8
DEFAULT_255_1_234
10
14.7845421
20
197.3471792
11
14.8753007
21
197.2764999
0
LINE
8
DEFAULT_255_1_234
10
14.3026378
20
197.6387313
11
14.737958
21
197.6387313
0
LINE
8
DEFAULT_255_1_234
10
14.737958
20
197.6387313
11
14.737958
21
197.6499757
0
ARC
8
DEFAULT_255_1_234
10
14.5431681
20
197.5462332
40
0.4376191
50
252.3266134
51
270.5810217
0
ARC
8
DEFAULT_255_1_234
10
14.522677
20
197.4721644
40
0.3608374
50
223.3000567
51
251.8561855
0
ARC
8
DEFAULT_255_1_234
10
14.5438131
20
197.4926937
40
0.3902993
50
190.9374509
51
223.3654032
0
ARC
8
DEFAULT_255_1_234
10
14.7163103
20
197.5316885
40
0.5670891
50
179.6531105
51
191.4989439
0
ARC
8
DEFAULT_255_1_234
10
14.7285115
20
197.5656417
40
0.5792888
50
167.4007466
51
180.3176909
0
ARC
8
DEFAULT_255_1_234
10
14.6233177
20
197.5878885
40
0.471777
50
154.1835823
51
167.250763
0
ARC
8
DEFAULT_255_1_234
10
14.5601644
20
197.6211417
40
0.4004528
50
134.3149965
51
154.5315275
0
ARC
8
DEFAULT_255_1_234
10
14.5384139
20
197.6402228
40
0.371612
50
122.8616532
51
133.9707695
0
ARC
8
DEFAULT_255_1_234
10
14.5280714
20
197.6624703
40
0.3473289
50
89.8249009
51
123.4199222
0
ARC
8
DEFAULT_255_1_234
10
14.5330755
20
197.5977967
40
0.4120197
50
74.7876118
51
90.5482747
0
ARC
8
DEFAULT_255_1_234
10
14.5624498
20
197.706303
40
0.2996077
50
39.8178249
51
74.7633718
0
ARC
8
DEFAULT_255_1_234
10
14.5111818
20
197.6663351
40
0.3645855
50
16.8990863
51
39.4829761
0
ARC
8
DEFAULT_255_1_234
10
14.3217114
20
197.6056526
40
0.5635218
50
4.9636328
51
17.2026414
0
ARC
8
DEFAULT_255_1_234
10
14.0799185
20
197.580134
40
0.8066286
50
359.8834553
51
5.2834307
0
ARC
8
DEFAULT_255_1_234
10
14.6836709
20
197.5232803
40
0.3859091
50
180.9846213
51
194.9401313
0
ARC
8
DEFAULT_255_1_234
10
14.5786987
20
197.4945849
40
0.2770883
50
194.80314
51
222.0412631
0
ARC
8
DEFAULT_255_1_234
10
14.5482869
20
197.4644116
40
0.2343055
50
221.5417084
51
268.8614402
0
ARC
8
DEFAULT_255_1_234
10
14.5555863
20
197.5320686
40
0.3021528
50
267.732405
51
270.0097136
0
ARC
8
DEFAULT_255_1_234
10
14.5573673
20
197.5522105
40
0.3222994
50
269.6924892
51
280.4117579
0
ARC
8
DEFAULT_255_1_234
10
14.575008
20
197.4603193
40
0.2287344
50
280.2255091
51
298.6338936
0
ARC
8
DEFAULT_255_1_234
10
14.5866872
20
197.4359223
40
0.2017294
50
299.0430333
51
300.4643464
0
ARC
8
DEFAULT_255_1_234
10
14.5186878
20
197.5493038
40
0.3339357
50
300.6577328
51
322.0378878
0
ARC
8
DEFAULT_255_1_234
10
14.4836417
20
197.5797021
40
0.3802736
50
321.6750233
51
322.3046845
0
ARC
8
DEFAULT_255_1_234
10
14.5767378
20
197.463037
40
0.3520454
50
276.9728461
51
328.0035423
0
ARC
8
DEFAULT_255_1_234
10
14.5490431
20
197.6110841
40
0.5024498
50
269.8361028
51
278.0581756
0
ARC
8
DEFAULT_255_1_234
10
14.5263168
20
197.6855757
40
0.202159
50
89.2018686
51
117.2851756
0
ARC
8
DEFAULT_255_1_234
10
14.5316337
20
197.6813752
40
0.2083484
50
118.0551165
51
137.4540413
0
ARC
8
DEFAULT_255_1_234
10
14.5691077
20
197.6473304
40
0.2589774
50
137.5109581
51
158.8516286
0
ARC
8
DEFAULT_255_1_234
10
14.6828913
20
197.6014074
40
0.38167
50
158.5845963
51
170.1721436
0
ARC
8
DEFAULT_255_1_234
10
14.7998302
20
197.5781823
40
0.5008657
50
169.8376422
51
173.0566086
0
ARC
8
DEFAULT_255_1_234
10
14.3301376
20
197.6292509
40
0.4083467
50
2.9091802
51
12.8847116
0
ARC
8
DEFAULT_255_1_234
10
14.4672053
20
197.6615101
40
0.2675383
50
12.6957781
51
28.6404489
0
ARC
8
DEFAULT_255_1_234
10
14.5213723
20
197.6895458
40
0.2065654
50
29.0169854
51
41.1487595
0
ARC
8
DEFAULT_255_1_234
10
14.5416509
20
197.7072003
40
0.1796786
50
41.1646065
51
85.0013516
0
ARC
8
DEFAULT_255_1_234
10
14.5295605
20
197.6337431
40
0.2539726
50
83.7280015
51
90.0964893
0
LINE
8
DEFAULT_255_1_234
10
15.4784843
20
197.9985531
11
15.4784843
21
197.8604072
0
LINE
8
DEFAULT_255_1_234
10
15.2070115
20
197.7415375
11
15.2070115
21
197.1247
0
LINE
8
DEFAULT_255_1_234
10
15.2070115
20
197.1247
11
15.0584244
21
197.1247
0
LINE
8
DEFAULT_255_1_234
10
15.0584244
20
197.1247
11
15.0584244
21
197.9937341
0
LINE
8
DEFAULT_255_1_234
10
15.0584244
20
197.9937341
11
15.2029957
21
197.9937341
0
LINE
8
DEFAULT_255_1_234
10
15.2029957
20
197.9937341
11
15.2054052
21
197.8933374
0
ARC
8
DEFAULT_255_1_234
10
15.4118248
20
197.4544342
40
0.4114092
50
80.6754243
51
86.8932892
0
ARC
8
DEFAULT_255_1_234
10
15.4057783
20
197.35767
40
0.5083596
50
86.8038578
51
90.0431435
0
ARC
8
DEFAULT_255_1_234
10
15.4020763
20
197.6033866
40
0.2626638
50
89.2759698
51
106.6213787
0
ARC
8
DEFAULT_255_1_234
10
15.3816327
20
197.677683
40
0.1856317
50
107.1346045
51
157.6458115
0
ARC
8
DEFAULT_255_1_234
10
15.4507929
20
197.6393311
40
0.2643398
50
155.6586782
51
157.2539184
0
ARC
8
DEFAULT_255_1_234
10
15.4303131
20
197.7562157
40
0.2634121
50
127.8165941
51
148.6302098
0
ARC
8
DEFAULT_255_1_234
10
15.40496
20
197.7822218
40
0.2273596
50
91.3329982
51
126.7875809
0
ARC
8
DEFAULT_255_1_234
10
15.412554
20
197.7107195
40
0.299078
50
89.986594
51
92.4688449
0
ARC
8
DEFAULT_255_1_234
10
15.4133935
20
197.7382078
40
0.2715908
50
85.3589899
51
90.1623399
0
ARC
8
DEFAULT_255_1_234
10
15.4218451
20
197.8386164
40
0.1708278
50
78.401942
51
85.4594656
0
ARC
8
DEFAULT_255_1_234
10
15.4363335
20
197.9077236
40
0.1002194
50
67.7858312
51
78.5728455
0
ARC
8
DEFAULT_255_1_234
10
15.4471188
20
197.9356887
40
0.0702548
50
63.4835954
51
67.3062642
0
LINE
8
DEFAULT_255_1_234
10
15.7764618
20
197.9937341
11
15.7764618
21
197.1247
0
LINE
8
DEFAULT_255_1_234
10
15.7764618
20
197.1247
11
15.6278746
21
197.1247
0
LINE
8
DEFAULT_255_1_234
10
15.6278746
20
197.1247
11
15.6278746
21
197.9937341
0
LINE
8
DEFAULT_255_1_234
10
15.6278746
20
197.9937341
11
15.7764618
21
197.9937341
0
ARC
8
DEFAULT_255_1_234
10
15.7136895
20
198.2251889
40
0.097867
50
161.415052
51
180.5526306
0
ARC
8
DEFAULT_255_1_234
10
15.7012673
20
198.2286077
40
0.0850062
50
138.1827368
51
160.9307106
0
ARC
8
DEFAULT_255_1_234
10
15.6902619
20
198.2381588
40
0.0704362
50
104.6368899
51
138.0039868
0
ARC
8
DEFAULT_255_1_234
10
15.7009773
20
198.2014963
40
0.1086221
50
92.0600725
51
105.2189128
0
ARC
8
DEFAULT_255_1_234
10
15.7033122
20
198.1672117
40
0.1429728
50
89.9756393
51
92.5012496
0
ARC
8
DEFAULT_255_1_234
10
15.7043141
20
198.1897731
40
0.1204151
50
78.0235316
51
90.4478182
0
ARC
8
DEFAULT_255_1_234
10
15.7135233
20
198.2311295
40
0.0780493
50
55.051506
51
78.3369085
0
ARC
8
DEFAULT_255_1_234
10
15.7185507
20
198.2395711
40
0.0682538
50
42.0501187
51
54.4513741
0
ARC
8
DEFAULT_255_1_234
10
15.7050374
20
198.2271798
40
0.0865878
50
1.7497075
51
42.1496013
0
ARC
8
DEFAULT_255_1_234
10
15.6795707
20
198.2242738
40
0.1121515
50
359.9852656
51
2.8364544
0
ARC
8
DEFAULT_255_1_234
10
15.6961699
20
198.2233229
40
0.0955566
50
342.1070653
51
0.552888
0
ARC
8
DEFAULT_255_1_234
10
15.7104397
20
198.2193904
40
0.0807713
50
316.7107116
51
341.6516965
0
ARC
8
DEFAULT_255_1_234
10
15.7171434
20
198.2133823
40
0.0717724
50
285.4397031
51
316.5324284
0
ARC
8
DEFAULT_255_1_234
10
15.7061351
20
198.2499554
40
0.1099597
50
272.3547054
51
285.8953117
0
ARC
8
DEFAULT_255_1_234
10
15.7034509
20
198.2865048
40
0.1465932
50
269.9695369
51
272.8160237
0
ARC
8
DEFAULT_255_1_234
10
15.702469
20
198.2645863
40
0.1246779
50
258.8431134
51
270.4153935
0
ARC
8
DEFAULT_255_1_234
10
15.6934733
20
198.2210414
40
0.0802162
50
238.5431189
51
259.1288175
0
ARC
8
DEFAULT_255_1_234
10
15.6866618
20
198.2086856
40
0.0661247
50
222.5062634
51
237.9906969
0
ARC
8
DEFAULT_255_1_234
10
15.6994205
20
198.2202889
40
0.0833707
50
184.1069131
51
222.460413
0
ARC
8
DEFAULT_255_1_234
10
15.7263446
20
198.2241349
40
0.1105176
50
179.9429482
51
185.0960898
0
LINE
8
DEFAULT_255_1_234
10
15.9764521
20
197.5351218
11
15.9764521
21
197.5624297
0
LINE
8
DEFAULT_255_1_234
10
16.7137656
20
197.5784932
11
16.7137656
21
197.5166488
0
LINE
8
DEFAULT_255_1_234
10
16.7137656
20
197.5166488
11
16.1250392
21
197.5166488
0
LINE
8
DEFAULT_255_1_234
10
16.6117625
20
197.3471792
11
16.7025212
21
197.2764999
0
LINE
8
DEFAULT_255_1_234
10
16.1298583
20
197.6387313
11
16.5651785
21
197.6387313
0
LINE
8
DEFAULT_255_1_234
10
16.5651785
20
197.6387313
11
16.5651785
21
197.6499757
0
ARC
8
DEFAULT_255_1_234
10
16.3703886
20
197.5462332
40
0.4376191
50
252.3266134
51
270.5810217
0
ARC
8
DEFAULT_255_1_234
10
16.3498975
20
197.4721644
40
0.3608374
50
223.3000567
51
251.8561855
0
ARC
8
DEFAULT_255_1_234
10
16.3710335
20
197.4926937
40
0.3902993
50
190.9374509
51
223.3654032
0
ARC
8
DEFAULT_255_1_234
10
16.5435308
20
197.5316885
40
0.5670891
50
179.6531105
51
191.4989439
0
ARC
8
DEFAULT_255_1_234
10
16.555732
20
197.5656417
40
0.5792888
50
167.4007466
51
180.3176909
0
ARC
8
DEFAULT_255_1_234
10
16.4505381
20
197.5878885
40
0.471777
50
154.1835823
51
167.250763
0
ARC
8
DEFAULT_255_1_234
10
16.3873849
20
197.6211417
40
0.4004528
50
134.3149965
51
154.5315275
0
ARC
8
DEFAULT_255_1_234
10
16.3656344
20
197.6402228
40
0.371612
50
122.8616532
51
133.9707695
0
ARC
8
DEFAULT_255_1_234
10
16.3552918
20
197.6624703
40
0.3473289
50
89.8249009
51
123.4199222
0
ARC
8
DEFAULT_255_1_234
10
16.3602959
20
197.5977967
40
0.4120197
50
74.7876118
51
90.5482747
0
ARC
8
DEFAULT_255_1_234
10
16.3896702
20
197.706303
40
0.2996077
50
39.8178249
51
74.7633718
0
ARC
8
DEFAULT_255_1_234
10
16.3384023
20
197.6663351
40
0.3645855
50
16.8990863
51
39.4829761
0
ARC
8
DEFAULT_255_1_234
10
16.1489319
20
197.6056526
40
0.5635218
50
4.9636328
51
17.2026414
0
ARC
8
DEFAULT_255_1_234
10
15.9071389
20
197.580134
40
0.8066286
50
359.8834553
51
5.2834307
0
ARC
8
DEFAULT_255_1_234
10
16.5108914
20
197.5232803
40
0.3859091
50
180.9846213
51
194.9401313
0
ARC
8
DEFAULT_255_1_234
10
16.4059191
20
197.4945849
40
0.2770883
50
194.80314
51
222.0412631
0
ARC
8
DEFAULT_255_1_234
10
16.3755073
20
197.4644116
40
0.2343055
50
221.5417084
51
268.8614402
0
ARC
8
DEFAULT_255_1_234
10
16.3828068
20
197.5320686
40
0.3021528
50
267.732405
51
270.0097136
0
ARC
8
DEFAULT_255_1_234
10
16.3845878
20
197.5522105
40
0.3222994
50
269.6924892
51
280.4117579
0
ARC
8
DEFAULT_255_1_234
10
16.4022285
20
197.4603193
40
0.2287344
50
280.2255091
51
298.6338936
0
ARC
8
DEFAULT_255_1_234
10
16.4139077
20
197.4359223
40
0.2017294
50
299.0430333
51
300.4643464
0
ARC
8
DEFAULT_255_1_234
10
16.3459082
20
197.5493038
40
0.3339357
50
300.6577328
51
322.0378878
0
ARC
8
DEFAULT_255_1_234
10
16.3108621
20
197.5797021
40
0.3802736
50
321.6750233
51
322.3046845
0
ARC
8
DEFAULT_255_1_234
10
16.4039583
20
197.463037
40
0.3520454
50
276.9728461
51
328.0035423
0
ARC
8
DEFAULT_255_1_234
10
16.3762635
20
197.6110841
40
0.5024498
50
269.8361028
51
278.0581756
0
ARC
8
DEFAULT_255_1_234
10
16.3535373
20
197.6855757
40
0.202159
50
89.2018686
51
117.2851756
0
ARC
8
DEFAULT_255_1_234
10
16.3588542
20
197.6813752
40
0.2083484
50
118.0551165
51
137.4540413
0
ARC
8
DEFAULT_255_1_234
10
16.3963282
20
197.6473304
40
0.2589774
50
137.5109581
51
158.8516286
0
ARC
8
DEFAULT_255_1_234
10
16.5101117
20
197.6014074
40
0.38167
50
158.5845963
51
170.1721436
0
ARC
8
DEFAULT_255_1_234
10
16.6270507
20
197.5781823
40
0.5008657
50
169.8376422
51
173.0566086
0
ARC
8
DEFAULT_255_1_234
10
16.1573581
20
197.6292509
40
0.4083467
50
2.9091802
51
12.8847116
0
ARC
8
DEFAULT_255_1_234
10
16.2944257
20
197.6615101
40
0.2675383
50
12.6957781
51
28.6404489
0
ARC
8
DEFAULT_255_1_234
10
16.3485928
20
197.6895458
40
0.2065654
50
29.0169854
51
41.1487595
0
ARC
8
DEFAULT_255_1_234
10
16.3688713
20
197.7072003
40
0.1796786
50
41.1646065
51
85.0013516
0
ARC
8
DEFAULT_255_1_234
10
16.356781
20
197.6337431
40
0.2539726
50
83.7280015
51
90.0964893
0
LINE
8
DEFAULT_255_1_234
10
17.5321998
20
197.7383248
11
17.3828094
21
197.7383248
0
LINE
8
DEFAULT_255_1_234
10
16.849502
20
197.3921569
11
16.9980892
21
197.3921569
0
ARC
8
DEFAULT_255_1_234
10
17.2639913
20
197.3566959
40
0.1276617
50
359.3334982
51
18.5871358
0
ARC
8
DEFAULT_255_1_234
10
17.284855
20
197.3622133
40
0.1061371
50
19.3540742
51
54.6485071
0
ARC
8
DEFAULT_255_1_234
10
17.2344452
20
197.2926919
40
0.1920087
50
54.3827097
51
65.0622807
0
ARC
8
DEFAULT_255_1_234
10
17.1575848
20
197.13099
40
0.3710447
50
64.8282493
51
71.4200025
0
ARC
8
DEFAULT_255_1_234
10
17.0673724
20
196.8663107
40
0.6506741
50
71.3164301
51
75.8006402
0
ARC
8
DEFAULT_255_1_234
10
16.9832544
20
196.5422561
40
0.9854641
50
75.6809531
51
78.0061883
0
ARC
8
DEFAULT_255_1_234
10
17.4281077
20
198.640177
40
1.1591028
50
254.6901892
51
258.0466452
0
ARC
8
DEFAULT_255_1_234
10
17.3242985
20
198.2642781
40
0.7691345
50
249.9010773
51
254.755261
0
ARC
8
DEFAULT_255_1_234
10
17.2239327
20
197.9916982
40
0.478665
50
243.3097214
51
249.9709442
0
ARC
8
DEFAULT_255_1_234
10
17.1610349
20
197.8662778
40
0.3383568
50
234.4047477
51
243.2862168
0
ARC
8
DEFAULT_255_1_234
10
17.0987872
20
197.7803232
40
0.2322322
50
220.8667099
51
234.5493881
0
ARC
8
DEFAULT_255_1_234
10
17.0645813
20
197.7491817
40
0.1859923
50
214.3062465
51
220.5065136
0
ARC
8
DEFAULT_255_1_234
10
17.0619892
20
197.746088
40
0.1821108
50
186.912965
51
213.9618616
0
ARC
8
DEFAULT_255_1_234
10
17.1151987
20
197.7547009
40
0.2359799
50
179.8808832
51
187.4339886
0
ARC
8
DEFAULT_255_1_234
10
17.099712
20
197.7567088
40
0.2204978
50
132.005434
51
180.3942919
0
ARC
8
DEFAULT_255_1_234
10
17.1653734
20
197.6961083
40
0.3095791
50
129.2319861
51
133.5302299
0
ARC
8
DEFAULT_255_1_234
10
17.1707242
20
197.6866928
40
0.3202615
50
100.4410011
51
128.9081242
0
ARC
8
DEFAULT_255_1_234
10
17.1981126
20
197.5581455
40
0.4516583
50
89.6985377
51
100.9026564
0
ARC
8
DEFAULT_255_1_234
10
17.2038168
20
197.5421166
40
0.4676928
50
77.6965325
51
90.4076836
0
ARC
8
DEFAULT_255_1_234
10
17.2369152
20
197.6848413
40
0.3211988
50
50.7276602
51
78.0399361
0
ARC
8
DEFAULT_255_1_234
10
17.281361
20
197.7366296
40
0.2529778
50
25.7545084
51
51.0957453
0
ARC
8
DEFAULT_255_1_234
10
17.2814835
20
197.7416206
40
0.250738
50
359.2468627
51
24.7394243
0
ARC
8
DEFAULT_255_1_234
10
17.2530287
20
197.7387664
40
0.1297815
50
359.8050318
51
45.1544908
0
ARC
8
DEFAULT_255_1_234
10
17.2123429
20
197.7039794
40
0.1831883
50
43.8047702
51
49.6271585
0
ARC
8
DEFAULT_255_1_234
10
17.213133
20
197.7040678
40
0.18261
50
49.7980766
51
82.1218353
0
ARC
8
DEFAULT_255_1_234
10
17.2012302
20
197.6393998
40
0.2483163
50
81.4465357
51
90.1710293
0
ARC
8
DEFAULT_255_1_234
10
17.1987905
20
197.586788
40
0.300932
50
89.6766211
51
99.1264602
0
ARC
8
DEFAULT_255_1_234
10
17.1816367
20
197.6901537
40
0.1961547
50
98.968313
51
113.4570237
0
ARC
8
DEFAULT_255_1_234
10
17.1620452
20
197.7369965
40
0.1453859
50
113.722589
51
127.4763106
0
ARC
8
DEFAULT_255_1_234
10
17.1452098
20
197.7570124
40
0.1192639
50
126.9083309
51
150.3165862
0
ARC
8
DEFAULT_255_1_234
10
17.1404431
20
197.7620981
40
0.112623
50
151.3635175
51
180.0701457
0
ARC
8
DEFAULT_255_1_234
10
17.1713215
20
197.759999
40
0.1435149
50
179.2169974
51
179.9954013
0
ARC
8
DEFAULT_255_1_234
10
17.1352273
20
197.7587056
40
0.1074286
50
179.3040112
51
198.4225446
0
ARC
8
DEFAULT_255_1_234
10
17.1160406
20
197.7537127
40
0.0876573
50
199.2895851
51
238.6034594
0
ARC
8
DEFAULT_255_1_234
10
17.1763253
20
197.848345
40
0.1998512
50
237.9846301
51
246.8744712
0
ARC
8
DEFAULT_255_1_234
10
17.2621198
20
198.0446205
40
0.4140547
50
246.6234531
51
251.8168941
0
ARC
8
DEFAULT_255_1_234
10
17.3651741
20
198.3540905
40
0.7402308
50
251.713434
51
255.0778414
0
ARC
8
DEFAULT_255_1_234
10
17.4851004
20
198.8007563
40
1.2027155
50
255.0367487
51
257.4705983
0
ARC
8
DEFAULT_255_1_234
10
16.9743014
20
196.4993863
40
1.1546601
50
73.6837552
51
77.5016755
0
ARC
8
DEFAULT_255_1_234
10
17.0831789
20
196.8693581
40
0.7690009
50
68.7044154
51
73.7249639
0
ARC
8
DEFAULT_255_1_234
10
17.1734809
20
197.1020654
40
0.5193873
50
63.590599
51
68.6626804
0
ARC
8
DEFAULT_255_1_234
10
17.2505828
20
197.2558123
40
0.3473927
50
54.7106439
51
63.7013633
0
ARC
8
DEFAULT_255_1_234
10
17.3130283
20
197.34304
40
0.2401192
50
41.0622434
51
54.8487496
0
ARC
8
DEFAULT_255_1_234
10
17.3471669
20
197.3743592
40
0.1938094
50
34.4950568
51
40.7105546
0
ARC
8
DEFAULT_255_1_234
10
17.3518477
20
197.3792078
40
0.1872106
50
9.3763373
51
34.0833615
0
ARC
8
DEFAULT_255_1_234
10
17.2865347
20
197.3666728
40
0.2536988
50
359.7694872
51
9.7663171
0
ARC
8
DEFAULT_255_1_234
10
17.3062848
20
197.3623764
40
0.2339696
50
335.8654732
51
0.8022045
0
ARC
8
DEFAULT_255_1_234
10
17.3137892
20
197.3637197
40
0.2277108
50
307.7357725
51
334.7849066
0
ARC
8
DEFAULT_255_1_234
10
17.2737068
20
197.4087645
40
0.2878951
50
307.0241536
51
308.5578354
0
ARC
8
DEFAULT_255_1_234
10
17.2479399
20
197.4473801
40
0.3342515
50
282.9362969
51
306.5646424
0
ARC
8
DEFAULT_255_1_234
10
17.2117697
20
197.5941108
40
0.4853615
50
271.1026298
51
283.2200835
0
ARC
8
DEFAULT_255_1_234
10
17.2053941
20
197.7182418
40
0.6096052
50
269.9919117
51
271.4772449
0
ARC
8
DEFAULT_255_1_234
10
17.2027696
20
197.6104436
40
0.5018135
50
259.0723564
51
270.289833
0
ARC
8
DEFAULT_255_1_234
10
17.1815428
20
197.4987271
40
0.388099
50
245.4963068
51
259.0227342
0
ARC
8
DEFAULT_255_1_234
10
17.1537384
20
197.4405615
40
0.3236422
50
228.9684658
51
245.7044727
0
ARC
8
DEFAULT_255_1_234
10
17.1271828
20
197.4078575
40
0.2815426
50
214.4011705
51
228.6759915
0
ARC
8
DEFAULT_255_1_234
10
17.0982569
20
197.392029
40
0.2487548
50
179.9705531
51
215.1572795
0
ARC
8
DEFAULT_255_1_234
10
17.1683168
20
197.3993806
40
0.1703809
50
182.4299387
51
203.0329699
0
ARC
8
DEFAULT_255_1_234
10
17.1498826
20
197.3937396
40
0.1512226
50
203.798802
51
232.548466
0
ARC
8
DEFAULT_255_1_234
10
17.1775347
20
197.4288826
40
0.1959374
50
232.3782728
51
256.3934612
0
ARC
8
DEFAULT_255_1_234
10
17.2005709
20
197.5178842
40
0.2878639
50
256.104506
51
268.4626716
0
ARC
8
DEFAULT_255_1_234
10
17.2052193
20
197.5975487
40
0.3676329
50
268.0715632
51
270.0138206
0
ARC
8
DEFAULT_255_1_234
10
17.2070718
20
197.5703083
40
0.3403971
50
269.7031147
51
278.8341955
0
ARC
8
DEFAULT_255_1_234
10
17.2252811
20
197.4572876
40
0.2259217
50
278.6728789
51
292.8232582
0
ARC
8
DEFAULT_255_1_234
10
17.2453349
20
197.4071449
40
0.171929
50
293.1452328
51
303.6655899
0
ARC
8
DEFAULT_255_1_234
10
17.2718228
20
197.3695204
40
0.1259367
50
303.1248165
51
321.742847
0
ARC
8
DEFAULT_255_1_234
10
17.2904109
20
197.3532156
40
0.1012531
50
322.4748573
51
1.1291126
0
LINE
8
DEFAULT_255_1_234
10
4.9290119
20
195.2616792
11
4.9290119
21
195.1404
0
LINE
8
DEFAULT_255_1_234
10
4.9290119
20
195.1404
11
4.162784
21
195.1404
0
LINE
8
DEFAULT_255_1_234
10
4.162784
20
195.1404
11
4.162784
21
195.2472221
0
LINE
8
DEFAULT_255_1_234
10
4.162784
20
195.2472221
11
4.5675836
21
195.6969995
0
LINE
8
DEFAULT_255_1_234
10
4.2888823
20
195.9652595
11
4.1402952
21
195.9652595
0
LINE
8
DEFAULT_255_1_234
10
4.6551296
20
195.6014218
11
4.3418918
21
195.2616792
0
LINE
8
DEFAULT_255_1_234
10
4.3418918
20
195.2616792
11
4.9290119
21
195.2616792
0
ARC
8
DEFAULT_255_1_234
10
3.218567
20
196.8899527
40
1.8008286
50
318.5132453
51
320.7828378
0
ARC
8
DEFAULT_255_1_234
10
3.7472644
20
196.4596426
40
1.1191493
50
320.7372736
51
323.9737074
0
ARC
8
DEFAULT_255_1_234
10
4.1392501
20
196.1756361
40
0.6350923
50
323.8961724
51
328.6421089
0
ARC
8
DEFAULT_255_1_234
10
4.3439096
20
196.0494031
40
0.3946393
50
328.8299013
51
331.789948
0
ARC
8
DEFAULT_255_1_234
10
4.4436274
20
195.9979509
40
0.2824501
50
331.4255242
51
352.9364833
0
ARC
8
DEFAULT_255_1_234
10
4.4572775
20
195.9948976
40
0.2685315
50
353.2248685
51
0.0169286
0
ARC
8
DEFAULT_255_1_234
10
4.4782652
20
195.997195
40
0.2475536
50
359.4866256
51
15.9339782
0
ARC
8
DEFAULT_255_1_234
10
4.5289637
20
196.0108286
40
0.1950618
50
16.1714718
51
43.5284424
0
ARC
8
DEFAULT_255_1_234
10
4.5366946
20
196.0185573
40
0.184134
50
43.4415429
51
83.1661404
0
ARC
8
DEFAULT_255_1_234
10
4.5232864
20
195.9448771
40
0.258926
50
82.160215
51
90.1505798
0
ARC
8
DEFAULT_255_1_234
10
4.5201291
20
195.8911865
40
0.3126255
50
89.5460705
51
102.5418777
0
ARC
8
DEFAULT_255_1_234
10
4.4958377
20
195.9942665
40
0.2067346
50
102.1739365
51
129.2061916
0
ARC
8
DEFAULT_255_1_234
10
4.4879449
20
196.0067094
40
0.1921118
50
129.7279328
51
135.7542026
0
ARC
8
DEFAULT_255_1_234
10
4.5000977
20
195.9970045
40
0.2075944
50
136.175737
51
166.3674722
0
ARC
8
DEFAULT_255_1_234
10
4.6007896
20
195.9700182
40
0.3118201
50
165.9092917
51
178.8683903
0
ARC
8
DEFAULT_255_1_234
10
4.6872757
20
195.9653179
40
0.3983935
50
178.438168
51
180.0083905
0
ARC
8
DEFAULT_255_1_234
10
4.5471359
20
195.9692231
40
0.4068601
50
163.2878735
51
180.5581814
0
ARC
8
DEFAULT_255_1_234
10
4.4669621
20
195.991284
40
0.3237344
50
133.454115
51
162.9470031
0
ARC
8
DEFAULT_255_1_234
10
4.4848162
20
195.9723
40
0.349795
50
100.7869394
51
133.4384016
0
ARC
8
DEFAULT_255_1_234
10
4.5195934
20
195.8174319
40
0.5084616
50
89.6605301
51
101.3704185
0
ARC
8
DEFAULT_255_1_234
10
4.5262273
20
195.8235496
40
0.502348
50
78.2171172
51
90.4130393
0
ARC
8
DEFAULT_255_1_234
10
4.5617351
20
195.9859637
40
0.3361092
50
55.9268222
51
78.4888551
0
ARC
8
DEFAULT_255_1_234
10
4.5813791
20
196.0198324
40
0.2970617
50
47.9292255
51
55.4054003
0
ARC
8
DEFAULT_255_1_234
10
4.5915352
20
196.0301502
40
0.2825983
50
4.3347696
51
48.0560701
0
ARC
8
DEFAULT_255_1_234
10
4.4819745
20
196.0131601
40
0.393225
50
359.925209
51
5.5967654
0
ARC
8
DEFAULT_255_1_234
10
4.5248637
20
196.0187816
40
0.3503892
50
337.8914096
51
358.9967724
0
ARC
8
DEFAULT_255_1_234
10
4.2535049
20
196.1234706
40
0.6412172
50
326.9135351
51
338.3505194
0
ARC
8
DEFAULT_255_1_234
10
3.8549353
20
196.3789284
40
1.1146189
50
319.6472867
51
327.095818
0
ARC
8
DEFAULT_255_1_234
10
3.4716356
20
196.6951
40
1.6114559
50
317.2586784
51
319.9046139
0
LINE
8
DEFAULT_255_1_234
10
5.7137127
20
196.3098211
11
5.7137127
21
195.533152
0
LINE
8
DEFAULT_255_1_234
10
5.7137127
20
195.533152
11
5.8759538
21
195.533152
0
LINE
8
DEFAULT_255_1_234
10
5.8759538
20
195.533152
11
5.8759538
21
195.4118728
0
LINE
8
DEFAULT_255_1_234
10
5.8759538
20
195.4118728
11
5.7137127
21
195.4118728
0
LINE
8
DEFAULT_255_1_234
10
5.7137127
20
195.4118728
11
5.7137127
21
195.1404
0
LINE
8
DEFAULT_255_1_234
10
5.7137127
20
195.1404
11
5.5643224
21
195.1404
0
LINE
8
DEFAULT_255_1_234
10
5.5643224
20
195.1404
11
5.5643224
21
195.4118728
0
LINE
8
DEFAULT_255_1_234
10
5.5643224
20
195.4118728
11
5.0318181
21
195.4118728
0
LINE
8
DEFAULT_255_1_234
10
5.0318181
20
195.4118728
11
5.0318181
21
195.4994187
0
LINE
8
DEFAULT_255_1_234
10
5.0318181
20
195.4994187
11
5.5554875
21
196.3098211
0
LINE
8
DEFAULT_255_1_234
10
5.5554875
20
196.3098211
11
5.7137127
21
196.3098211
0
LINE
8
DEFAULT_255_1_234
10
5.5466525
20
196.0744912
11
5.2004846
21
195.533152
0
LINE
8
DEFAULT_255_1_234
10
5.2004846
20
195.533152
11
5.5643224
21
195.533152
0
LINE
8
DEFAULT_255_1_234
10
5.5643224
20
195.533152
11
5.5643224
21
196.1066181
0
LINE
8
DEFAULT_255_1_234
10
5.5643224
20
196.1066181
11
5.5466525
21
196.0744912
0
LINE
8
DEFAULT_255_1_234
10
6.103252
20
196.3098211
11
6.435766
21
195.3452093
0
LINE
8
DEFAULT_255_1_234
10
6.435766
20
195.3452093
11
6.7698863
21
196.3098211
0
LINE
8
DEFAULT_255_1_234
10
6.7698863
20
196.3098211
11
6.9385528
21
196.3098211
0
LINE
8
DEFAULT_255_1_234
10
6.9385528
20
196.3098211
11
6.5048389
21
195.1404
0
LINE
8
DEFAULT_255_1_234
10
6.5048389
20
195.1404
11
6.3682994
21
195.1404
0
LINE
8
DEFAULT_255_1_234
10
6.3682994
20
195.1404
11
5.9353887
21
196.3098211
0
LINE
8
DEFAULT_255_1_234
10
5.9353887
20
196.3098211
11
6.103252
21
196.3098211
0
LINE
8
DEFAULT_255_1_234
10
4.3681299
20
5.8098211
11
4.6500439
21
5.3616501
0
LINE
8
DEFAULT_255_1_234
10
4.6500439
20
5.3616501
11
4.9303516
21
5.8098211
0
LINE
8
DEFAULT_255_1_234
10
4.9303516
20
5.8098211
11
5.1118689
21
5.8098211
0
LINE
8
DEFAULT_255_1_234
10
5.1118689
20
5.8098211
11
4.7424089
21
5.2299296
0
LINE
8
DEFAULT_255_1_234
10
4.7424089
20
5.2299296
11
5.1207038
21
4.6404
0
LINE
8
DEFAULT_255_1_234
10
5.1207038
20
4.6404
11
4.9375802
21
4.6404
0
LINE
8
DEFAULT_255_1_234
10
4.9375802
20
4.6404
11
4.6500439
21
5.0966027
0
LINE
8
DEFAULT_255_1_234
10
4.6500439
20
5.0966027
11
4.3609014
21
4.6404
0
LINE
8
DEFAULT_255_1_234
10
4.3609014
20
4.6404
11
4.1785809
21
4.6404
0
LINE
8
DEFAULT_255_1_234
10
4.1785809
20
4.6404
11
4.557679
21
5.2299296
0
LINE
8
DEFAULT_255_1_234
10
4.557679
20
5.2299296
11
4.1874158
21
5.8098211
0
LINE
8
DEFAULT_255_1_234
10
4.1874158
20
5.8098211
11
4.3681299
21
5.8098211
0
LINE
8
DEFAULT_255_1_234
10
6.0274871
20
4.7616792
11
6.0274871
21
4.6404
0
LINE
8
DEFAULT_255_1_234
10
6.0274871
20
4.6404
11
5.2612592
21
4.6404
0
LINE
8
DEFAULT_255_1_234
10
5.2612592
20
4.6404
11
5.2612592
21
4.7472221
0
LINE
8
DEFAULT_255_1_234
10
5.2612592
20
4.7472221
11
5.6660588
21
5.1969995
0
LINE
8
DEFAULT_255_1_234
10
5.3873575
20
5.4652595
11
5.2387704
21
5.4652595
0
LINE
8
DEFAULT_255_1_234
10
5.7536048
20
5.1014218
11
5.440367
21
4.7616792
0
LINE
8
DEFAULT_255_1_234
10
5.440367
20
4.7616792
11
6.0274871
21
4.7616792
0
ARC
8
DEFAULT_255_1_234
10
4.3170422
20
6.3899527
40
1.8008286
50
318.5132453
51
320.7828378
0
ARC
8
DEFAULT_255_1_234
10
4.8457396
20
5.9596426
40
1.1191493
50
320.7372736
51
323.9737074
0
ARC
8
DEFAULT_255_1_234
10
5.2377252
20
5.6756361
40
0.6350923
50
323.8961724
51
328.6421089
0
ARC
8
DEFAULT_255_1_234
10
5.4423848
20
5.5494031
40
0.3946393
50
328.8299013
51
331.789948
0
ARC
8
DEFAULT_255_1_234
10
5.5421026
20
5.4979509
40
0.2824501
50
331.4255242
51
352.9364833
0
ARC
8
DEFAULT_255_1_234
10
5.5557527
20
5.4948976
40
0.2685315
50
353.2248685
51
0.0169286
0
ARC
8
DEFAULT_255_1_234
10
5.5767404
20
5.497195
40
0.2475536
50
359.4866256
51
15.9339782
0
ARC
8
DEFAULT_255_1_234
10
5.6274389
20
5.5108286
40
0.1950618
50
16.1714718
51
43.5284424
0
ARC
8
DEFAULT_255_1_234
10
5.6351698
20
5.5185573
40
0.184134
50
43.4415429
51
83.1661404
0
ARC
8
DEFAULT_255_1_234
10
5.6217616
20
5.4448771
40
0.258926
50
82.160215
51
90.1505798
0
ARC
8
DEFAULT_255_1_234
10
5.6186043
20
5.3911865
40
0.3126255
50
89.5460705
51
102.5418777
0
ARC
8
DEFAULT_255_1_234
10
5.5943129
20
5.4942665
40
0.2067346
50
102.1739365
51
129.2061916
0
ARC
8
DEFAULT_255_1_234
10
5.5864201
20
5.5067094
40
0.1921118
50
129.7279328
51
135.7542026
0
ARC
8
DEFAULT_255_1_234
10
5.5985729
20
5.4970045
40
0.2075944
50
136.175737
51
166.3674722
0
ARC
8
DEFAULT_255_1_234
10
5.6992648
20
5.4700182
40
0.3118201
50
165.9092917
51
178.8683903
0
ARC
8
DEFAULT_255_1_234
10
5.7857509
20
5.4653179
40
0.3983935
50
178.438168
51
180.0083905
0
ARC
8
DEFAULT_255_1_234
10
5.6456111
20
5.4692231
40
0.4068601
50
163.2878735
51
180.5581814
0
ARC
8
DEFAULT_255_1_234
10
5.5654373
20
5.491284
40
0.3237344
50
133.454115
51
162.9470031
0
ARC
8
DEFAULT_255_1_234
10
5.5832914
20
5.4723
40
0.349795
50
100.7869394
51
133.4384016
0
ARC
8
DEFAULT_255_1_234
10
5.6180686
20
5.3174319
40
0.5084616
50
89.6605301
51
101.3704185
0
ARC
8
DEFAULT_255_1_234
10
5.6247024
20
5.3235496
40
0.502348
50
78.2171172
51
90.4130393
0
ARC
8
DEFAULT_255_1_234
10
5.6602103
20
5.4859637
40
0.3361092
50
55.9268222
51
78.4888551
0
ARC
8
DEFAULT_255_1_234
10
5.6798543
20
5.5198324
40
0.2970617
50
47.9292255
51
55.4054003
0
ARC
8
DEFAULT_255_1_234
10
5.6900103
20
5.5301502
40
0.2825983
50
4.3347696
51
48.0560701
0
ARC
8
DEFAULT_255_1_234
10
5.5804497
20
5.5131601
40
0.393225
50
359.925209
51
5.5967654
0
ARC
8
DEFAULT_255_1_234
10
5.6233389
20
5.5187816
40
0.3503892
50
337.8914096
51
358.9967724
0
ARC
8
DEFAULT_255_1_234
10
5.3519801
20
5.6234706
40
0.6412172
50
326.9135351
51
338.3505194
0
ARC
8
DEFAULT_255_1_234
10
4.9534105
20
5.8789284
40
1.1146189
50
319.6472867
51
327.095818
0
ARC
8
DEFAULT_255_1_234
10
4.5701108
20
6.1951
40
1.6114559
50
317.2586784
51
319.9046139
0
LINE
8
DEFAULT_255_1_234
10
6.4009629
20
5.1761169
11
6.4009629
21
5.2973962
0
LINE
8
DEFAULT_255_1_234
10
6.4009629
20
5.2973962
11
6.5126041
21
5.2973962
0
LINE
8
DEFAULT_255_1_234
10
6.3222519
20
5.5030087
11
6.1736647
21
5.5030087
0
LINE
8
DEFAULT_255_1_234
10
6.1632234
20
4.9488188
11
6.3126138
21
4.9488188
0
LINE
8
DEFAULT_255_1_234
10
6.5126041
20
5.1761169
11
6.4009629
21
5.1761169
0
ARC
8
DEFAULT_255_1_234
10
6.5096907
20
5.6366713
40
0.3392876
50
270.4919872
51
281.8951556
0
ARC
8
DEFAULT_255_1_234
10
6.5338169
20
5.5264702
40
0.2264817
50
281.6691735
51
301.2943132
0
ARC
8
DEFAULT_255_1_234
10
6.5508379
20
5.4953304
40
0.1910381
50
301.7833094
51
311.7545298
0
ARC
8
DEFAULT_255_1_234
10
6.5599955
20
5.4851748
40
0.1773635
50
311.7323931
51
354.2802411
0
ARC
8
DEFAULT_255_1_234
10
6.487358
20
5.4976722
40
0.2509385
50
353.0937916
51
0.1181479
0
ARC
8
DEFAULT_255_1_234
10
6.4412365
20
5.5024386
40
0.2970898
50
359.1805295
51
15.0453146
0
ARC
8
DEFAULT_255_1_234
10
6.5758202
20
5.5416992
40
0.1569564
50
13.9577229
51
77.6713066
0
ARC
8
DEFAULT_255_1_234
10
6.5371731
20
5.4031949
40
0.3006298
50
76.1116566
51
90.7026153
0
ARC
8
DEFAULT_255_1_234
10
6.5312569
20
5.4305545
40
0.2732568
50
89.5324876
51
103.531937
0
ARC
8
DEFAULT_255_1_234
10
6.5112013
20
5.5104884
40
0.1908508
50
103.2931773
51
133.5619022
0
ARC
8
DEFAULT_255_1_234
10
6.5067502
20
5.5164375
40
0.1834746
50
133.8349307
51
173.5344437
0
ARC
8
DEFAULT_255_1_234
10
6.5790545
20
5.5036213
40
0.2568033
50
172.5096846
51
180.1366907
0
ARC
8
DEFAULT_255_1_234
10
6.4839439
20
5.5070622
40
0.3103056
50
155.3484492
51
180.7484736
0
ARC
8
DEFAULT_255_1_234
10
6.4790528
20
5.5041846
40
0.3070957
50
131.5744599
51
154.4798489
0
ARC
8
DEFAULT_255_1_234
10
6.5103675
20
5.472531
40
0.3515643
50
96.9875458
51
131.9690667
0
ARC
8
DEFAULT_255_1_234
10
6.5323155
20
5.3479636
40
0.4779224
50
89.8596053
51
97.7825159
0
ARC
8
DEFAULT_255_1_234
10
6.5371218
20
5.3217616
40
0.5041361
50
78.3655447
51
90.4131539
0
ARC
8
DEFAULT_255_1_234
10
6.5729136
20
5.4876887
40
0.3344039
50
56.6229102
51
78.638727
0
ARC
8
DEFAULT_255_1_234
10
6.594408
20
5.5252805
40
0.2912001
50
47.0253525
51
56.0854072
0
ARC
8
DEFAULT_255_1_234
10
6.596386
20
5.5292223
40
0.2869704
50
10.9208013
51
46.7778124
0
ARC
8
DEFAULT_255_1_234
10
6.4599926
20
5.4976857
40
0.426899
50
359.6364486
51
11.6087304
0
ARC
8
DEFAULT_255_1_234
10
6.643477
20
5.4961752
40
0.243409
50
332.3549906
51
359.7179418
0
ARC
8
DEFAULT_255_1_234
10
6.5784372
20
5.5270142
40
0.3153459
50
325.2333722
51
332.8745602
0
ARC
8
DEFAULT_255_1_234
10
6.5936995
20
5.5163828
40
0.2967456
50
292.9802137
51
325.2392345
0
ARC
8
DEFAULT_255_1_234
10
6.5662369
20
5.5697863
40
0.3566604
50
292.5402179
51
293.6924929
0
ARC
8
DEFAULT_255_1_234
10
6.6054965
20
4.9243091
40
0.3307468
50
57.6435486
51
72.8625112
0
ARC
8
DEFAULT_255_1_234
10
6.6409465
20
4.9817549
40
0.2632492
50
36.7248896
51
57.4697979
0
ARC
8
DEFAULT_255_1_234
10
6.6398098
20
4.983022
40
0.2634081
50
8.0545065
51
36.356114
0
ARC
8
DEFAULT_255_1_234
10
6.5535283
20
4.9675174
40
0.3510261
50
359.8320645
51
8.5869982
0
ARC
8
DEFAULT_255_1_234
10
6.5160059
20
4.9627101
40
0.3885653
50
343.9829931
51
0.5571613
0
ARC
8
DEFAULT_255_1_234
10
6.6046256
20
4.9384438
40
0.2966924
50
311.6359546
51
343.7651759
0
ARC
8
DEFAULT_255_1_234
10
6.5667825
20
4.9811102
40
0.3537231
50
279.7829875
51
311.6255694
0
ARC
8
DEFAULT_255_1_234
10
6.5366601
20
5.124828
40
0.5004971
50
269.7286406
51
280.3856417
0
ARC
8
DEFAULT_255_1_234
10
6.5304674
20
5.1206996
40
0.4963778
50
256.6828919
51
270.4412052
0
ARC
8
DEFAULT_255_1_234
10
6.496597
20
4.9822394
40
0.3538406
50
229.4223008
51
256.8556159
0
ARC
8
DEFAULT_255_1_234
10
6.4551363
20
4.9355736
40
0.2914296
50
181.818294
51
229.6455059
0
ARC
8
DEFAULT_255_1_234
10
6.5591319
20
4.9486496
40
0.3959084
50
179.9755256
51
183.2323064
0
ARC
8
DEFAULT_255_1_234
10
6.5419065
20
4.9466037
40
0.2293034
50
179.4465117
51
196.2869258
0
ARC
8
DEFAULT_255_1_234
10
6.4931473
20
4.9332651
40
0.1787621
50
196.5661473
51
227.705904
0
ARC
8
DEFAULT_255_1_234
10
6.5095568
20
4.9516155
40
0.2033784
50
227.7652068
51
257.8762805
0
ARC
8
DEFAULT_255_1_234
10
6.5320538
20
5.0459156
40
0.3003081
50
257.4584385
51
270.426602
0
ARC
8
DEFAULT_255_1_234
10
6.5366104
20
5.0748996
40
0.329292
50
269.5962073
51
280.8789248
0
ARC
8
DEFAULT_255_1_234
10
6.5595633
20
4.9602685
40
0.2123908
50
280.6346389
51
299.8595945
0
ARC
8
DEFAULT_255_1_234
10
6.578654
20
4.9240212
40
0.171457
50
300.3576302
51
314.5517981
0
ARC
8
DEFAULT_255_1_234
10
6.57036
20
4.9300919
40
0.1816095
50
315.0728369
51
345.0431014
0
ARC
8
DEFAULT_255_1_234
10
6.4780414
20
4.9569841
40
0.2777492
50
344.5986631
51
357.9269593
0
ARC
8
DEFAULT_255_1_234
10
6.388474
20
4.9631276
40
0.3674917
50
357.4748886
51
0.0231117
0
ARC
8
DEFAULT_255_1_234
10
6.490785
20
4.9655679
40
0.2651907
50
359.5047933
51
13.4239635
0
ARC
8
DEFAULT_255_1_234
10
6.5774493
20
4.9877478
40
0.1757509
50
12.9498199
51
48.7551375
0
ARC
8
DEFAULT_255_1_234
10
6.5592227
20
4.96284
40
0.2065134
50
49.5088623
51
72.1836453
0
ARC
8
DEFAULT_255_1_234
10
6.523438
20
4.8566291
40
0.3185836
50
71.9010081
51
84.3554254
0
ARC
8
DEFAULT_255_1_234
10
6.5073012
20
4.7205326
40
0.4556151
50
84.0193428
51
89.333121
0
LINE
8
DEFAULT_255_1_234
10
4.3681299
20
13.7473211
11
4.6500439
21
13.2991501
0
LINE
8
DEFAULT_255_1_234
10
4.6500439
20
13.2991501
11
4.9303516
21
13.7473211
0
LINE
8
DEFAULT_255_1_234
10
4.9303516
20
13.7473211
11
5.1118689
21
13.7473211
0
LINE
8
DEFAULT_255_1_234
10
5.1118689
20
13.7473211
11
4.7424089
21
13.1674296
0
LINE
8
DEFAULT_255_1_234
10
4.7424089
20
13.1674296
11
5.1207038
21
12.5779
0
LINE
8
DEFAULT_255_1_234
10
5.1207038
20
12.5779
11
4.9375802
21
12.5779
0
LINE
8
DEFAULT_255_1_234
10
4.9375802
20
12.5779
11
4.6500439
21
13.0341027
0
LINE
8
DEFAULT_255_1_234
10
4.6500439
20
13.0341027
11
4.3609014
21
12.5779
0
LINE
8
DEFAULT_255_1_234
10
4.3609014
20
12.5779
11
4.1785809
21
12.5779
0
LINE
8
DEFAULT_255_1_234
10
4.1785809
20
12.5779
11
4.557679
21
13.1674296
0
LINE
8
DEFAULT_255_1_234
10
4.557679
20
13.1674296
11
4.1874158
21
13.7473211
0
LINE
8
DEFAULT_255_1_234
10
4.1874158
20
13.7473211
11
4.3681299
21
13.7473211
0
LINE
8
DEFAULT_255_1_234
10
6.0274871
20
12.6991792
11
6.0274871
21
12.5779
0
LINE
8
DEFAULT_255_1_234
10
6.0274871
20
12.5779
11
5.2612592
21
12.5779
0
LINE
8
DEFAULT_255_1_234
10
5.2612592
20
12.5779
11
5.2612592
21
12.6847221
0
LINE
8
DEFAULT_255_1_234
10
5.2612592
20
12.6847221
11
5.6660588
21
13.1344995
0
LINE
8
DEFAULT_255_1_234
10
5.3873575
20
13.4027595
11
5.2387704
21
13.4027595
0
LINE
8
DEFAULT_255_1_234
10
5.7536048
20
13.0389218
11
5.440367
21
12.6991792
0
LINE
8
DEFAULT_255_1_234
10
5.440367
20
12.6991792
11
6.0274871
21
12.6991792
0
ARC
8
DEFAULT_255_1_234
10
4.3170422
20
14.3274527
40
1.8008286
50
318.5132453
51
320.7828378
0
ARC
8
DEFAULT_255_1_234
10
4.8457396
20
13.8971426
40
1.1191493
50
320.7372736
51
323.9737074
0
ARC
8
DEFAULT_255_1_234
10
5.2377252
20
13.6131361
40
0.6350923
50
323.8961724
51
328.6421089
0
ARC
8
DEFAULT_255_1_234
10
5.4423848
20
13.4869031
40
0.3946393
50
328.8299013
51
331.789948
0
ARC
8
DEFAULT_255_1_234
10
5.5421026
20
13.4354509
40
0.2824501
50
331.4255242
51
352.9364833
0
ARC
8
DEFAULT_255_1_234
10
5.5557527
20
13.4323976
40
0.2685315
50
353.2248685
51
0.0169286
0
ARC
8
DEFAULT_255_1_234
10
5.5767404
20
13.434695
40
0.2475536
50
359.4866256
51
15.9339782
0
ARC
8
DEFAULT_255_1_234
10
5.6274389
20
13.4483286
40
0.1950618
50
16.1714718
51
43.5284424
0
ARC
8
DEFAULT_255_1_234
10
5.6351698
20
13.4560573
40
0.184134
50
43.4415429
51
83.1661404
0
ARC
8
DEFAULT_255_1_234
10
5.6217616
20
13.3823771
40
0.258926
50
82.160215
51
90.1505798
0
ARC
8
DEFAULT_255_1_234
10
5.6186043
20
13.3286865
40
0.3126255
50
89.5460705
51
102.5418777
0
ARC
8
DEFAULT_255_1_234
10
5.5943129
20
13.4317665
40
0.2067346
50
102.1739365
51
129.2061916
0
ARC
8
DEFAULT_255_1_234
10
5.5864201
20
13.4442094
40
0.1921118
50
129.7279328
51
135.7542026
0
ARC
8
DEFAULT_255_1_234
10
5.5985729
20
13.4345045
40
0.2075944
50
136.175737
51
166.3674722
0
ARC
8
DEFAULT_255_1_234
10
5.6992648
20
13.4075182
40
0.3118201
50
165.9092917
51
178.8683903
0
ARC
8
DEFAULT_255_1_234
10
5.7857509
20
13.4028179
40
0.3983935
50
178.438168
51
180.0083905
0
ARC
8
DEFAULT_255_1_234
10
5.6456111
20
13.4067231
40
0.4068601
50
163.2878735
51
180.5581814
0
ARC
8
DEFAULT_255_1_234
10
5.5654373
20
13.428784
40
0.3237344
50
133.454115
51
162.9470031
0
ARC
8
DEFAULT_255_1_234
10
5.5832914
20
13.4098
40
0.349795
50
100.7869394
51
133.4384016
0
ARC
8
DEFAULT_255_1_234
10
5.6180686
20
13.2549319
40
0.5084616
50
89.6605301
51
101.3704185
0
ARC
8
DEFAULT_255_1_234
10
5.6247024
20
13.2610496
40
0.502348
50
78.2171172
51
90.4130393
0
ARC
8
DEFAULT_255_1_234
10
5.6602103
20
13.4234637
40
0.3361092
50
55.9268222
51
78.4888551
0
ARC
8
DEFAULT_255_1_234
10
5.6798543
20
13.4573324
40
0.2970617
50
47.9292255
51
55.4054003
0
ARC
8
DEFAULT_255_1_234
10
5.6900103
20
13.4676502
40
0.2825983
50
4.3347696
51
48.0560701
0
ARC
8
DEFAULT_255_1_234
10
5.5804497
20
13.4506601
40
0.393225
50
359.925209
51
5.5967654
0
ARC
8
DEFAULT_255_1_234
10
5.6233389
20
13.4562816
40
0.3503892
50
337.8914096
51
358.9967724
0
ARC
8
DEFAULT_255_1_234
10
5.3519801
20
13.5609706
40
0.6412172
50
326.9135351
51
338.3505194
0
ARC
8
DEFAULT_255_1_234
10
4.9534105
20
13.8164284
40
1.1146189
50
319.6472867
51
327.095818
0
ARC
8
DEFAULT_255_1_234
10
4.5701108
20
14.1326
40
1.6114559
50
317.2586784
51
319.9046139
0
LINE
8
DEFAULT_255_1_234
10
6.951137
20
12.6991792
11
6.951137
21
12.5779
0
LINE
8
DEFAULT_255_1_234
10
6.951137
20
12.5779
11
6.1849091
21
12.5779
0
LINE
8
DEFAULT_255_1_234
10
6.1849091
20
12.5779
11
6.1849091
21
12.6847221
0
LINE
8
DEFAULT_255_1_234
10
6.1849091
20
12.6847221
11
6.5897087
21
13.1344995
0
LINE
8
DEFAULT_255_1_234
10
6.3110074
20
13.4027595
11
6.1624203
21
13.4027595
0
LINE
8
DEFAULT_255_1_234
10
6.6772547
20
13.0389218
11
6.3640169
21
12.6991792
0
LINE
8
DEFAULT_255_1_234
10
6.3640169
20
12.6991792
11
6.951137
21
12.6991792
0
ARC
8
DEFAULT_255_1_234
10
5.2406921
20
14.3274527
40
1.8008286
50
318.5132453
51
320.7828378
0
ARC
8
DEFAULT_255_1_234
10
5.7693895
20
13.8971426
40
1.1191493
50
320.7372736
51
323.9737074
0
ARC
8
DEFAULT_255_1_234
10
6.1613751
20
13.6131361
40
0.6350923
50
323.8961724
51
328.6421089
0
ARC
8
DEFAULT_255_1_234
10
6.3660347
20
13.4869031
40
0.3946393
50
328.8299013
51
331.789948
0
ARC
8
DEFAULT_255_1_234
10
6.4657525
20
13.4354509
40
0.2824501
50
331.4255242
51
352.9364833
0
ARC
8
DEFAULT_255_1_234
10
6.4794026
20
13.4323976
40
0.2685315
50
353.2248685
51
0.0169286
0
ARC
8
DEFAULT_255_1_234
10
6.5003903
20
13.434695
40
0.2475536
50
359.4866256
51
15.9339782
0
ARC
8
DEFAULT_255_1_234
10
6.5510888
20
13.4483286
40
0.1950618
50
16.1714718
51
43.5284424
0
ARC
8
DEFAULT_255_1_234
10
6.5588197
20
13.4560573
40
0.184134
50
43.4415429
51
83.1661404
0
ARC
8
DEFAULT_255_1_234
10
6.5454115
20
13.3823771
40
0.258926
50
82.160215
51
90.1505798
0
ARC
8
DEFAULT_255_1_234
10
6.5422542
20
13.3286865
40
0.3126255
50
89.5460705
51
102.5418777
0
ARC
8
DEFAULT_255_1_234
10
6.5179628
20
13.4317665
40
0.2067346
50
102.1739365
51
129.2061916
0
ARC
8
DEFAULT_255_1_234
10
6.51007
20
13.4442094
40
0.1921118
50
129.7279328
51
135.7542026
0
ARC
8
DEFAULT_255_1_234
10
6.5222228
20
13.4345045
40
0.2075944
50
136.175737
51
166.3674722
0
ARC
8
DEFAULT_255_1_234
10
6.6229147
20
13.4075182
40
0.3118201
50
165.9092917
51
178.8683903
0
ARC
8
DEFAULT_255_1_234
10
6.7094008
20
13.4028179
40
0.3983935
50
178.438168
51
180.0083905
0
ARC
8
DEFAULT_255_1_234
10
6.569261
20
13.4067231
40
0.4068601
50
163.2878735
51
180.5581814
0
ARC
8
DEFAULT_255_1_234
10
6.4890872
20
13.428784
40
0.3237344
50
133.454115
51
162.9470031
0
ARC
8
DEFAULT_255_1_234
10
6.5069413
20
13.4098
40
0.349795
50
100.7869394
51
133.4384016
0
ARC
8
DEFAULT_255_1_234
10
6.5417185
20
13.2549319
40
0.5084616
50
89.6605301
51
101.3704185
0
ARC
8
DEFAULT_255_1_234
10
6.5483523
20
13.2610496
40
0.502348
50
78.2171172
51
90.4130393
0
ARC
8
DEFAULT_255_1_234
10
6.5838602
20
13.4234637
40
0.3361092
50
55.9268222
51
78.4888551
0
ARC
8
DEFAULT_255_1_234
10
6.6035042
20
13.4573324
40
0.2970617
50
47.9292255
51
55.4054003
0
ARC
8
DEFAULT_255_1_234
10
6.6136603
20
13.4676502
40
0.2825983
50
4.3347696
51
48.0560701
0
ARC
8
DEFAULT_255_1_234
10
6.5040996
20
13.4506601
40
0.393225
50
359.925209
51
5.5967654
0
ARC
8
DEFAULT_255_1_234
10
6.5469888
20
13.4562816
40
0.3503892
50
337.8914096
51
358.9967724
0
ARC
8
DEFAULT_255_1_234
10
6.27563
20
13.5609706
40
0.6412172
50
326.9135351
51
338.3505194
0
ARC
8
DEFAULT_255_1_234
10
5.8770604
20
13.8164284
40
1.1146189
50
319.6472867
51
327.095818
0
ARC
8
DEFAULT_255_1_234
10
5.4937607
20
14.1326
40
1.6114559
50
317.2586784
51
319.9046139
0
LINE
8
DEFAULT_255_1_234
10
4.3590299
20
21.6848211
11
4.6409439
21
21.2366501
0
LINE
8
DEFAULT_255_1_234
10
4.6409439
20
21.2366501
11
4.9212516
21
21.6848211
0
LINE
8
DEFAULT_255_1_234
10
4.9212516
20
21.6848211
11
5.1027689
21
21.6848211
0
LINE
8
DEFAULT_255_1_234
10
5.1027689
20
21.6848211
11
4.7333089
21
21.1049296
0
LINE
8
DEFAULT_255_1_234
10
4.7333089
20
21.1049296
11
5.1116038
21
20.5154
0
LINE
8
DEFAULT_255_1_234
10
5.1116038
20
20.5154
11
4.9284802
21
20.5154
0
LINE
8
DEFAULT_255_1_234
10
4.9284802
20
20.5154
11
4.6409439
21
20.9716027
0
LINE
8
DEFAULT_255_1_234
10
4.6409439
20
20.9716027
11
4.3518014
21
20.5154
0
LINE
8
DEFAULT_255_1_234
10
4.3518014
20
20.5154
11
4.1694809
21
20.5154
0
LINE
8
DEFAULT_255_1_234
10
4.1694809
20
20.5154
11
4.548579
21
21.1049296
0
LINE
8
DEFAULT_255_1_234
10
4.548579
20
21.1049296
11
4.1783158
21
21.6848211
0
LINE
8
DEFAULT_255_1_234
10
4.1783158
20
21.6848211
11
4.3590299
21
21.6848211
0
LINE
8
DEFAULT_255_1_234
10
6.0183871
20
20.6366792
11
6.0183871
21
20.5154
0
LINE
8
DEFAULT_255_1_234
10
6.0183871
20
20.5154
11
5.2521592
21
20.5154
0
LINE
8
DEFAULT_255_1_234
10
5.2521592
20
20.5154
11
5.2521592
21
20.6222221
0
LINE
8
DEFAULT_255_1_234
10
5.2521592
20
20.6222221
11
5.6569588
21
21.0719995
0
LINE
8
DEFAULT_255_1_234
10
5.3782575
20
21.3402595
11
5.2296704
21
21.3402595
0
LINE
8
DEFAULT_255_1_234
10
5.7445048
20
20.9764218
11
5.431267
21
20.6366792
0
LINE
8
DEFAULT_255_1_234
10
5.431267
20
20.6366792
11
6.0183871
21
20.6366792
0
ARC
8
DEFAULT_255_1_234
10
4.3079422
20
22.2649527
40
1.8008286
50
318.5132453
51
320.7828378
0
ARC
8
DEFAULT_255_1_234
10
4.8366396
20
21.8346426
40
1.1191493
50
320.7372736
51
323.9737074
0
ARC
8
DEFAULT_255_1_234
10
5.2286252
20
21.5506361
40
0.6350923
50
323.8961724
51
328.6421089
0
ARC
8
DEFAULT_255_1_234
10
5.4332848
20
21.4244031
40
0.3946393
50
328.8299013
51
331.789948
0
ARC
8
DEFAULT_255_1_234
10
5.5330026
20
21.3729509
40
0.2824501
50
331.4255242
51
352.9364833
0
ARC
8
DEFAULT_255_1_234
10
5.5466527
20
21.3698976
40
0.2685315
50
353.2248685
51
0.0169286
0
ARC
8
DEFAULT_255_1_234
10
5.5676404
20
21.372195
40
0.2475536
50
359.4866256
51
15.9339782
0
ARC
8
DEFAULT_255_1_234
10
5.6183389
20
21.3858286
40
0.1950618
50
16.1714718
51
43.5284424
0
ARC
8
DEFAULT_255_1_234
10
5.6260698
20
21.3935573
40
0.184134
50
43.4415429
51
83.1661404
0
ARC
8
DEFAULT_255_1_234
10
5.6126616
20
21.3198771
40
0.258926
50
82.160215
51
90.1505798
0
ARC
8
DEFAULT_255_1_234
10
5.6095043
20
21.2661865
40
0.3126255
50
89.5460705
51
102.5418777
0
ARC
8
DEFAULT_255_1_234
10
5.5852129
20
21.3692665
40
0.2067346
50
102.1739365
51
129.2061916
0
ARC
8
DEFAULT_255_1_234
10
5.5773201
20
21.3817094
40
0.1921118
50
129.7279328
51
135.7542026
0
ARC
8
DEFAULT_255_1_234
10
5.5894729
20
21.3720045
40
0.2075944
50
136.175737
51
166.3674722
0
ARC
8
DEFAULT_255_1_234
10
5.6901648
20
21.3450182
40
0.3118201
50
165.9092917
51
178.8683903
0
ARC
8
DEFAULT_255_1_234
10
5.7766509
20
21.3403179
40
0.3983935
50
178.438168
51
180.0083905
0
ARC
8
DEFAULT_255_1_234
10
5.6365111
20
21.3442231
40
0.4068601
50
163.2878735
51
180.5581814
0
ARC
8
DEFAULT_255_1_234
10
5.5563373
20
21.366284
40
0.3237344
50
133.454115
51
162.9470031
0
ARC
8
DEFAULT_255_1_234
10
5.5741914
20
21.3473
40
0.349795
50
100.7869394
51
133.4384016
0
ARC
8
DEFAULT_255_1_234
10
5.6089686
20
21.1924319
40
0.5084616
50
89.6605301
51
101.3704185
0
ARC
8
DEFAULT_255_1_234
10
5.6156024
20
21.1985496
40
0.502348
50
78.2171172
51
90.4130393
0
ARC
8
DEFAULT_255_1_234
10
5.6511103
20
21.3609637
40
0.3361092
50
55.9268222
51
78.4888551
0
ARC
8
DEFAULT_255_1_234
10
5.6707543
20
21.3948324
40
0.2970617
50
47.9292255
51
55.4054003
0
ARC
8
DEFAULT_255_1_234
10
5.6809103
20
21.4051502
40
0.2825983
50
4.3347696
51
48.0560701
0
ARC
8
DEFAULT_255_1_234
10
5.5713497
20
21.3881601
40
0.393225
50
359.925209
51
5.5967654
0
ARC
8
DEFAULT_255_1_234
10
5.6142389
20
21.3937816
40
0.3503892
50
337.8914096
51
358.9967724
0
ARC
8
DEFAULT_255_1_234
10
5.3428801
20
21.4984706
40
0.6412172
50
326.9135351
51
338.3505194
0
ARC
8
DEFAULT_255_1_234
10
4.9443105
20
21.7539284
40
1.1146189
50
319.6472867
51
327.095818
0
ARC
8
DEFAULT_255_1_234
10
4.5610108
20
22.0701
40
1.6114559
50
317.2586784
51
319.9046139
0
LINE
8
DEFAULT_255_1_234
10
6.6641388
20
21.6904433
11
6.6641388
21
20.5154
0
LINE
8
DEFAULT_255_1_234
10
6.6641388
20
20.5154
11
6.5147485
21
20.5154
0
LINE
8
DEFAULT_255_1_234
10
6.5147485
20
20.5154
11
6.5147485
21
21.5057133
0
LINE
8
DEFAULT_255_1_234
10
6.5147485
20
21.5057133
11
6.2151646
21
21.3956785
0
LINE
8
DEFAULT_255_1_234
10
6.2151646
20
21.3956785
11
6.2151646
21
21.5306117
0
LINE
8
DEFAULT_255_1_234
10
6.2151646
20
21.5306117
11
6.6408468
21
21.6904433
0
LINE
8
DEFAULT_255_1_234
10
6.6408468
20
21.6904433
11
6.6641388
21
21.6904433
0
LINE
8
DEFAULT_255_1_234
10
4.3681299
20
29.6223211
11
4.6500439
21
29.1741501
0
LINE
8
DEFAULT_255_1_234
10
4.6500439
20
29.1741501
11
4.9303516
21
29.6223211
0
LINE
8
DEFAULT_255_1_234
10
4.9303516
20
29.6223211
11
5.1118689
21
29.6223211
0
LINE
8
DEFAULT_255_1_234
10
5.1118689
20
29.6223211
11
4.7424089
21
29.0424296
0
LINE
8
DEFAULT_255_1_234
10
4.7424089
20
29.0424296
11
5.1207038
21
28.4529
0
LINE
8
DEFAULT_255_1_234
10
5.1207038
20
28.4529
11
4.9375802
21
28.4529
0
LINE
8
DEFAULT_255_1_234
10
4.9375802
20
28.4529
11
4.6500439
21
28.9091027
0
LINE
8
DEFAULT_255_1_234
10
4.6500439
20
28.9091027
11
4.3609014
21
28.4529
0
LINE
8
DEFAULT_255_1_234
10
4.3609014
20
28.4529
11
4.1785809
21
28.4529
0
LINE
8
DEFAULT_255_1_234
10
4.1785809
20
28.4529
11
4.557679
21
29.0424296
0
LINE
8
DEFAULT_255_1_234
10
4.557679
20
29.0424296
11
4.1874158
21
29.6223211
0
LINE
8
DEFAULT_255_1_234
10
4.1874158
20
29.6223211
11
4.3681299
21
29.6223211
0
LINE
8
DEFAULT_255_1_234
10
6.0274871
20
28.5741792
11
6.0274871
21
28.4529
0
LINE
8
DEFAULT_255_1_234
10
6.0274871
20
28.4529
11
5.2612592
21
28.4529
0
LINE
8
DEFAULT_255_1_234
10
5.2612592
20
28.4529
11
5.2612592
21
28.5597221
0
LINE
8
DEFAULT_255_1_234
10
5.2612592
20
28.5597221
11
5.6660588
21
29.0094995
0
LINE
8
DEFAULT_255_1_234
10
5.3873575
20
29.2777595
11
5.2387704
21
29.2777595
0
LINE
8
DEFAULT_255_1_234
10
5.7536048
20
28.9139218
11
5.440367
21
28.5741792
0
LINE
8
DEFAULT_255_1_234
10
5.440367
20
28.5741792
11
6.0274871
21
28.5741792
0
ARC
8
DEFAULT_255_1_234
10
4.3170422
20
30.2024527
40
1.8008286
50
318.5132453
51
320.7828378
0
ARC
8
DEFAULT_255_1_234
10
4.8457396
20
29.7721426
40
1.1191493
50
320.7372736
51
323.9737074
0
ARC
8
DEFAULT_255_1_234
10
5.2377252
20
29.4881361
40
0.6350923
50
323.8961724
51
328.6421089
0
ARC
8
DEFAULT_255_1_234
10
5.4423848
20
29.3619031
40
0.3946393
50
328.8299013
51
331.789948
0
ARC
8
DEFAULT_255_1_234
10
5.5421026
20
29.3104509
40
0.2824501
50
331.4255242
51
352.9364833
0
ARC
8
DEFAULT_255_1_234
10
5.5557527
20
29.3073976
40
0.2685315
50
353.2248685
51
0.0169286
0
ARC
8
DEFAULT_255_1_234
10
5.5767404
20
29.309695
40
0.2475536
50
359.4866256
51
15.9339782
0
ARC
8
DEFAULT_255_1_234
10
5.6274389
20
29.3233286
40
0.1950618
50
16.1714718
51
43.5284424
0
ARC
8
DEFAULT_255_1_234
10
5.6351698
20
29.3310573
40
0.184134
50
43.4415429
51
83.1661404
0
ARC
8
DEFAULT_255_1_234
10
5.6217616
20
29.2573771
40
0.258926
50
82.160215
51
90.1505798
0
ARC
8
DEFAULT_255_1_234
10
5.6186043
20
29.2036865
40
0.3126255
50
89.5460705
51
102.5418777
0
ARC
8
DEFAULT_255_1_234
10
5.5943129
20
29.3067665
40
0.2067346
50
102.1739365
51
129.2061916
0
ARC
8
DEFAULT_255_1_234
10
5.5864201
20
29.3192094
40
0.1921118
50
129.7279328
51
135.7542026
0
ARC
8
DEFAULT_255_1_234
10
5.5985729
20
29.3095045
40
0.2075944
50
136.175737
51
166.3674722
0
ARC
8
DEFAULT_255_1_234
10
5.6992648
20
29.2825182
40
0.3118201
50
165.9092917
51
178.8683903
0
ARC
8
DEFAULT_255_1_234
10
5.7857509
20
29.2778179
40
0.3983935
50
178.438168
51
180.0083905
0
ARC
8
DEFAULT_255_1_234
10
5.6456111
20
29.2817231
40
0.4068601
50
163.2878735
51
180.5581814
0
ARC
8
DEFAULT_255_1_234
10
5.5654373
20
29.303784
40
0.3237344
50
133.454115
51
162.9470031
0
ARC
8
DEFAULT_255_1_234
10
5.5832914
20
29.2848
40
0.349795
50
100.7869394
51
133.4384016
0
ARC
8
DEFAULT_255_1_234
10
5.6180686
20
29.1299319
40
0.5084616
50
89.6605301
51
101.3704185
0
ARC
8
DEFAULT_255_1_234
10
5.6247024
20
29.1360496
40
0.502348
50
78.2171172
51
90.4130393
0
ARC
8
DEFAULT_255_1_234
10
5.6602103
20
29.2984637
40
0.3361092
50
55.9268222
51
78.4888551
0
ARC
8
DEFAULT_255_1_234
10
5.6798543
20
29.3323324
40
0.2970617
50
47.9292255
51
55.4054003
0
ARC
8
DEFAULT_255_1_234
10
5.6900103
20
29.3426502
40
0.2825983
50
4.3347696
51
48.0560701
0
ARC
8
DEFAULT_255_1_234
10
5.5804497
20
29.3256601
40
0.393225
50
359.925209
51
5.5967654
0
ARC
8
DEFAULT_255_1_234
10
5.6233389
20
29.3312816
40
0.3503892
50
337.8914096
51
358.9967724
0
ARC
8
DEFAULT_255_1_234
10
5.3519801
20
29.4359706
40
0.6412172
50
326.9135351
51
338.3505194
0
ARC
8
DEFAULT_255_1_234
10
4.9534105
20
29.6914284
40
1.1146189
50
319.6472867
51
327.095818
0
ARC
8
DEFAULT_255_1_234
10
4.5701108
20
30.0076
40
1.6114559
50
317.2586784
51
319.9046139
0
LINE
8
DEFAULT_255_1_234
10
6.9182068
20
29.1444327
11
6.9182068
21
28.9516709
0
LINE
8
DEFAULT_255_1_234
10
6.1800901
20
28.9315916
11
6.1800901
21
29.1299755
0
LINE
8
DEFAULT_255_1_234
10
6.7696197
20
28.9115123
11
6.7696197
21
29.1548739
0
LINE
8
DEFAULT_255_1_234
10
6.3286772
20
29.1661184
11
6.3286772
21
28.9283789
0
ARC
8
DEFAULT_255_1_234
10
5.6934958
20
28.9467805
40
1.2247208
50
353.8441951
51
0.2287902
0
ARC
8
DEFAULT_255_1_234
10
6.1574462
20
28.8949806
40
0.7578929
50
344.4934747
51
353.9765454
0
ARC
8
DEFAULT_255_1_234
10
6.4567052
20
28.8098981
40
0.4467846
50
329.2803592
51
344.7472793
0
ARC
8
DEFAULT_255_1_234
10
6.5559877
20
28.7554018
40
0.3336173
50
324.9352394
51
328.6160465
0
ARC
8
DEFAULT_255_1_234
10
6.5936985
20
28.7290427
40
0.2876076
50
280.580143
51
324.9173126
0
ARC
8
DEFAULT_255_1_234
10
6.5535778
20
28.8961099
40
0.4592847
50
269.5977311
51
281.6734359
0
ARC
8
DEFAULT_255_1_234
10
6.5463684
20
28.8841173
40
0.4472986
50
256.6228859
51
270.51044
0
ARC
8
DEFAULT_255_1_234
10
6.5061661
20
28.7292877
40
0.2873874
50
215.8618325
51
257.2788573
0
ARC
8
DEFAULT_255_1_234
10
6.6082693
20
28.7977977
40
0.4102928
50
197.9693508
51
215.2623606
0
ARC
8
DEFAULT_255_1_234
10
6.8567809
20
28.8816709
40
0.6725652
50
187.8816417
51
198.2346507
0
ARC
8
DEFAULT_255_1_234
10
7.2526017
20
28.9388079
40
1.0724845
50
180.8976217
51
188.0055519
0
ARC
8
DEFAULT_255_1_234
10
7.5326205
20
28.9491777
40
1.3526448
50
180.7449369
51
181.1510016
0
ARC
8
DEFAULT_255_1_234
10
7.3748934
20
29.1348042
40
1.1948131
50
173.7675579
51
180.231553
0
ARC
8
DEFAULT_255_1_234
10
6.9231081
20
29.1858666
40
0.7401564
50
164.3058563
51
173.9002247
0
ARC
8
DEFAULT_255_1_234
10
6.631915
20
29.2697656
40
0.4371288
50
148.7922025
51
164.568378
0
ARC
8
DEFAULT_255_1_234
10
6.5367602
20
29.3228929
40
0.3282386
50
144.5883898
51
148.1176286
0
ARC
8
DEFAULT_255_1_234
10
6.50245
20
29.3468315
40
0.2864044
50
101.6440918
51
144.514236
0
ARC
8
DEFAULT_255_1_234
10
6.5449566
20
29.1779069
40
0.4604934
50
89.5284041
51
102.5819763
0
ARC
8
DEFAULT_255_1_234
10
6.5528654
20
29.1740018
40
0.464401
50
77.0437873
51
90.5081339
0
ARC
8
DEFAULT_255_1_234
10
6.5930656
20
29.3382615
40
0.2953195
50
48.2778575
51
77.4994676
0
ARC
8
DEFAULT_255_1_234
10
6.6003287
20
29.3511746
40
0.2808655
50
36.3142134
51
47.6305865
0
ARC
8
DEFAULT_255_1_234
10
6.5134594
20
29.2926515
40
0.3855453
50
18.2931786
51
35.6769206
0
ARC
8
DEFAULT_255_1_234
10
6.2591353
20
29.2053593
40
0.654423
50
8.024666
51
18.5605216
0
ARC
8
DEFAULT_255_1_234
10
5.8428273
20
29.1438792
40
1.0752407
50
1.1274072
51
8.1718305
0
ARC
8
DEFAULT_255_1_234
10
5.5192464
20
29.1311885
40
1.3990231
50
0.5424119
51
1.3863029
0
ARC
8
DEFAULT_255_1_234
10
5.7013841
20
29.1584342
40
1.0682415
50
359.8090433
51
4.9407866
0
ARC
8
DEFAULT_255_1_234
10
6.1223855
20
29.1960113
40
0.6455691
50
4.8362157
51
12.2904523
0
ARC
8
DEFAULT_255_1_234
10
6.397897
20
29.2573965
40
0.3633074
50
12.0805627
51
23.8173984
0
ARC
8
DEFAULT_255_1_234
10
6.5152676
20
29.3070919
40
0.2358723
50
24.2871213
51
31.3935614
0
ARC
8
DEFAULT_255_1_234
10
6.5677373
20
29.3414233
40
0.1732111
50
30.7407893
51
82.4657128
0
ARC
8
DEFAULT_255_1_234
10
6.5497507
20
29.2530691
40
0.263235
50
81.1060089
51
90.2184952
0
ARC
8
DEFAULT_255_1_234
10
6.5461806
20
29.2788924
40
0.2374236
50
89.3806855
51
105.6762551
0
ARC
8
DEFAULT_255_1_234
10
6.5278437
20
29.3455567
40
0.1682847
50
105.7981136
51
149.7388061
0
ARC
8
DEFAULT_255_1_234
10
6.6342515
20
29.281595
40
0.2924306
50
149.4208916
51
163.6286378
0
ARC
8
DEFAULT_255_1_234
10
6.8433403
20
29.217825
40
0.5110213
50
163.3763315
51
172.1410975
0
ARC
8
DEFAULT_255_1_234
10
7.1734122
20
29.1705518
40
0.8444586
50
172.0259487
51
178.0703232
0
ARC
8
DEFAULT_255_1_234
10
7.4764211
20
29.1561906
40
1.1477868
50
177.8631668
51
179.5044149
0
ARC
8
DEFAULT_255_1_234
10
7.3691616
20
28.9247389
40
1.0404907
50
179.7995573
51
185.2460446
0
ARC
8
DEFAULT_255_1_234
10
6.9648655
20
28.8864513
40
0.6343885
50
185.1411642
51
193.0079639
0
ARC
8
DEFAULT_255_1_234
10
6.7005128
20
28.8239641
40
0.3627568
50
192.7897626
51
205.2507664
0
ARC
8
DEFAULT_255_1_234
10
6.5958675
20
28.7772415
40
0.2481908
50
205.8005384
51
211.2537509
0
ARC
8
DEFAULT_255_1_234
10
6.5435115
20
28.742158
40
0.1852521
50
210.3789793
51
238.4008143
0
ARC
8
DEFAULT_255_1_234
10
6.5415637
20
28.7468376
40
0.1882621
50
239.6520629
51
265.9793761
0
ARC
8
DEFAULT_255_1_234
10
6.5500837
20
28.8140427
40
0.2559272
50
265.1315437
51
270.060332
0
ARC
8
DEFAULT_255_1_234
10
6.5529616
20
28.7816534
40
0.2235528
50
269.3314664
51
287.2178029
0
ARC
8
DEFAULT_255_1_234
10
6.5667468
20
28.7313279
40
0.1714108
50
287.7958004
51
329.080874
0
ARC
8
DEFAULT_255_1_234
10
6.4709925
20
28.791093
40
0.2842745
50
328.6634704
51
343.3325132
0
ARC
8
DEFAULT_255_1_234
10
6.2536945
20
28.8587863
40
0.5118644
50
343.0499468
51
351.9393422
0
ARC
8
DEFAULT_255_1_234
10
5.9070245
20
28.9098949
40
0.8622784
50
351.8069023
51
357.7959224
0
ARC
8
DEFAULT_255_1_234
10
5.5834801
20
28.9266721
40
1.1862365
50
357.5871873
51
359.2677531
0
LINE
8
DEFAULT_255_1_234
10
4.3681299
20
37.5598211
11
4.6500439
21
37.1116501
0
LINE
8
DEFAULT_255_1_234
10
4.6500439
20
37.1116501
11
4.9303516
21
37.5598211
0
LINE
8
DEFAULT_255_1_234
10
4.9303516
20
37.5598211
11
5.1118689
21
37.5598211
0
LINE
8
DEFAULT_255_1_234
10
5.1118689
20
37.5598211
11
4.7424089
21
36.9799296
0
LINE
8
DEFAULT_255_1_234
10
4.7424089
20
36.9799296
11
5.1207038
21
36.3904
0
LINE
8
DEFAULT_255_1_234
10
5.1207038
20
36.3904
11
4.9375802
21
36.3904
0
LINE
8
DEFAULT_255_1_234
10
4.9375802
20
36.3904
11
4.6500439
21
36.8466027
0
LINE
8
DEFAULT_255_1_234
10
4.6500439
20
36.8466027
11
4.3609014
21
36.3904
0
LINE
8
DEFAULT_255_1_234
10
4.3609014
20
36.3904
11
4.1785809
21
36.3904
0
LINE
8
DEFAULT_255_1_234
10
4.1785809
20
36.3904
11
4.557679
21
36.9799296
0
LINE
8
DEFAULT_255_1_234
10
4.557679
20
36.9799296
11
4.1874158
21
37.5598211
0
LINE
8
DEFAULT_255_1_234
10
4.1874158
20
37.5598211
11
4.3681299
21
37.5598211
0
LINE
8
DEFAULT_255_1_234
10
5.7495889
20
37.5654433
11
5.7495889
21
36.3904
0
LINE
8
DEFAULT_255_1_234
10
5.7495889
20
36.3904
11
5.6001986
21
36.3904
0
LINE
8
DEFAULT_255_1_234
10
5.6001986
20
36.3904
11
5.6001986
21
37.3807133
0
LINE
8
DEFAULT_255_1_234
10
5.6001986
20
37.3807133
11
5.3006147
21
37.2706785
0
LINE
8
DEFAULT_255_1_234
10
5.3006147
20
37.2706785
11
5.3006147
21
37.4056117
0
LINE
8
DEFAULT_255_1_234
10
5.3006147
20
37.4056117
11
5.7262969
21
37.5654433
0
LINE
8
DEFAULT_255_1_234
10
5.7262969
20
37.5654433
11
5.7495889
21
37.5654433
0
LINE
8
DEFAULT_255_1_234
10
6.9037497
20
37.0923739
11
6.9037497
21
37.0490025
0
LINE
8
DEFAULT_255_1_234
10
6.3616074
20
36.3895968
11
6.3326931
21
36.3895968
0
LINE
8
DEFAULT_255_1_234
10
6.3326931
20
36.3895968
11
6.3326931
21
36.5148919
0
LINE
8
DEFAULT_255_1_234
10
6.3326931
20
36.5148919
11
6.3640169
21
36.5148919
0
LINE
8
DEFAULT_255_1_234
10
6.7551625
20
37.0634597
11
6.7551625
21
37.1228945
0
ARC
8
DEFAULT_255_1_234
10
6.4757895
20
37.1380403
40
0.3635579
50
297.4037347
51
320.016758
0
ARC
8
DEFAULT_255_1_234
10
6.5047844
20
37.082324
40
0.3007486
50
270.2633101
51
297.3851877
0
ARC
8
DEFAULT_255_1_234
10
6.50138
20
37.1286904
40
0.3471448
50
269.9966443
51
270.7900392
0
ARC
8
DEFAULT_255_1_234
10
6.4988281
20
37.1285143
40
0.3469779
50
254.5999133
51
270.4180344
0
ARC
8
DEFAULT_255_1_234
10
6.484564
20
37.0720647
40
0.2887697
50
236.4717942
51
254.3541279
0
ARC
8
DEFAULT_255_1_234
10
6.5001858
20
37.0930711
40
0.3149125
50
208.4727207
51
236.2134933
0
ARC
8
DEFAULT_255_1_234
10
6.5640633
20
37.1321455
40
0.3897115
50
204.3447514
51
209.0453999
0
ARC
8
DEFAULT_255_1_234
10
6.6320209
20
37.1609656
40
0.4635101
50
183.9375985
51
204.1276318
0
ARC
8
DEFAULT_255_1_234
10
6.722846
20
37.1707482
40
0.5548037
50
179.9652252
51
184.3013875
0
ARC
8
DEFAULT_255_1_234
10
6.6988506
20
37.1740507
40
0.5308164
50
166.7585989
51
180.3201225
0
ARC
8
DEFAULT_255_1_234
10
6.614212
20
37.1924488
40
0.4442163
50
154.6955053
51
166.5679793
0
ARC
8
DEFAULT_255_1_234
10
6.528899
20
37.235421
40
0.3487299
50
136.3324195
51
155.0871442
0
ARC
8
DEFAULT_255_1_234
10
6.5008063
20
37.2594954
40
0.3117924
50
121.236733
51
135.9680508
0
ARC
8
DEFAULT_255_1_234
10
6.5148561
20
37.2334743
40
0.3413302
50
96.845628
51
120.9881519
0
ARC
8
DEFAULT_255_1_234
10
6.5294143
20
37.1399515
40
0.4359341
50
89.8870174
51
97.2802754
0
ARC
8
DEFAULT_255_1_234
10
6.5346581
20
37.2037095
40
0.3722009
50
70.6505584
51
90.6749113
0
ARC
8
DEFAULT_255_1_234
10
6.547786
20
37.2550361
40
0.3194571
50
36.7492984
51
69.8219918
0
ARC
8
DEFAULT_255_1_234
10
6.4479025
20
37.1771993
40
0.4460685
50
15.39587
51
37.0840084
0
ARC
8
DEFAULT_255_1_234
10
6.2349458
20
37.1151242
40
0.6678714
50
3.9488873
51
15.6798563
0
ARC
8
DEFAULT_255_1_234
10
5.9948086
20
37.0934964
40
0.9089418
50
359.929245
51
4.2665314
0
ARC
8
DEFAULT_255_1_234
10
5.5342523
20
37.0423513
40
1.3695135
50
352.8366322
51
0.2782669
0
ARC
8
DEFAULT_255_1_234
10
6.0630202
20
36.9736629
40
0.8363105
50
341.8359505
51
352.9884176
0
ARC
8
DEFAULT_255_1_234
10
6.3848921
20
36.86517
40
0.4966642
50
322.8578092
51
342.1527901
0
ARC
8
DEFAULT_255_1_234
10
6.4712877
20
36.8062384
40
0.3922466
50
319.334325
51
322.0998941
0
ARC
8
DEFAULT_255_1_234
10
6.4403214
20
36.8373209
40
0.4360033
50
285.9541367
51
318.8878087
0
ARC
8
DEFAULT_255_1_234
10
6.3676475
20
37.06836
40
0.678149
50
272.9281676
51
286.4922826
0
ARC
8
DEFAULT_255_1_234
10
6.3486593
20
37.2934587
40
0.9039547
50
270.8207226
51
273.4012994
0
ARC
8
DEFAULT_255_1_234
10
6.3575444
20
37.1115666
40
0.5967098
50
270.6214993
51
281.4062806
0
ARC
8
DEFAULT_255_1_234
10
6.4005425
20
36.9059833
40
0.3866861
50
281.1852553
51
299.0621114
0
ARC
8
DEFAULT_255_1_234
10
6.4378996
20
36.8338798
40
0.3055236
50
299.5067782
51
313.1200873
0
ARC
8
DEFAULT_255_1_234
10
6.4400963
20
36.8259554
40
0.2982623
50
313.8526205
51
338.5989322
0
ARC
8
DEFAULT_255_1_234
10
6.2777037
20
36.8926781
40
0.4738131
50
338.2523585
51
351.2430902
0
ARC
8
DEFAULT_255_1_234
10
6.0366333
20
36.9336447
40
0.7183203
50
350.9409515
51
357.6691871
0
ARC
8
DEFAULT_255_1_234
10
6.5256763
20
37.1338764
40
0.2294452
50
269.9447023
51
306.8248917
0
ARC
8
DEFAULT_255_1_234
10
6.5019678
20
37.1761898
40
0.2775994
50
305.5072438
51
327.0773448
0
ARC
8
DEFAULT_255_1_234
10
6.5138119
20
37.1667025
40
0.2625056
50
327.4104943
51
336.840169
0
ARC
8
DEFAULT_255_1_234
10
6.2044184
20
37.1261302
40
0.5507537
50
359.6633817
51
10.117533
0
ARC
8
DEFAULT_255_1_234
10
6.3797982
20
37.1585777
40
0.372403
50
9.9430141
51
26.7700076
0
ARC
8
DEFAULT_255_1_234
10
6.4395194
20
37.1861187
40
0.3066865
50
27.2015464
51
34.6829435
0
ARC
8
DEFAULT_255_1_234
10
6.4884674
20
37.2228977
40
0.245519
50
34.1250343
51
50.3070065
0
ARC
8
DEFAULT_255_1_234
10
6.5331354
20
37.2763385
40
0.1758693
50
50.3851167
51
90.6705993
0
ARC
8
DEFAULT_255_1_234
10
6.5284587
20
37.2458799
40
0.2063326
50
89.272901
51
111.9140407
0
ARC
8
DEFAULT_255_1_234
10
6.5265115
20
37.259944
40
0.1925887
50
112.9382311
51
142.5320782
0
ARC
8
DEFAULT_255_1_234
10
6.5811295
20
37.2155969
40
0.2629232
50
142.1021256
51
166.3835592
0
ARC
8
DEFAULT_255_1_234
10
6.69926
20
37.1850915
40
0.3849193
50
166.1100289
51
178.665427
0
ARC
8
DEFAULT_255_1_234
10
6.8040189
20
37.1792117
40
0.4897989
50
178.2632126
51
180.0111093
0
ARC
8
DEFAULT_255_1_234
10
6.723831
20
37.1763728
40
0.40962
50
179.6161962
51
191.8787166
0
ARC
8
DEFAULT_255_1_234
10
6.6018149
20
37.1493896
40
0.2846655
50
191.6191692
51
215.2972286
0
ARC
8
DEFAULT_255_1_234
10
6.582134
20
37.1378918
40
0.2619665
50
215.7320102
51
216.5355409
0
ARC
8
DEFAULT_255_1_234
10
6.5282426
20
37.0946647
40
0.1929497
50
215.7486685
51
239.9727502
0
ARC
8
DEFAULT_255_1_234
10
6.5212342
20
37.0895894
40
0.1850822
50
241.0650169
51
269.2810483
0
ARC
8
DEFAULT_255_1_234
10
6.5254257
20
37.1386371
40
0.2342059
50
268.4062526
51
270.0071348
0
LINE
8
DEFAULT_255_1_234
10
4.3681299
20
45.4973211
11
4.6500439
21
45.0491501
0
LINE
8
DEFAULT_255_1_234
10
4.6500439
20
45.0491501
11
4.9303516
21
45.4973211
0
LINE
8
DEFAULT_255_1_234
10
4.9303516
20
45.4973211
11
5.1118689
21
45.4973211
0
LINE
8
DEFAULT_255_1_234
10
5.1118689
20
45.4973211
11
4.7424089
21
44.9174296
0
LINE
8
DEFAULT_255_1_234
10
4.7424089
20
44.9174296
11
5.1207038
21
44.3279
0
LINE
8
DEFAULT_255_1_234
10
5.1207038
20
44.3279
11
4.9375802
21
44.3279
0
LINE
8
DEFAULT_255_1_234
10
4.9375802
20
44.3279
11
4.6500439
21
44.7841027
0
LINE
8
DEFAULT_255_1_234
10
4.6500439
20
44.7841027
11
4.3609014
21
44.3279
0
LINE
8
DEFAULT_255_1_234
10
4.3609014
20
44.3279
11
4.1785809
21
44.3279
0
LINE
8
DEFAULT_255_1_234
10
4.1785809
20
44.3279
11
4.557679
21
44.9174296
0
LINE
8
DEFAULT_255_1_234
10
4.557679
20
44.9174296
11
4.1874158
21
45.4973211
0
LINE
8
DEFAULT_255_1_234
10
4.1874158
20
45.4973211
11
4.3681299
21
45.4973211
0
LINE
8
DEFAULT_255_1_234
10
5.7495889
20
45.5029433
11
5.7495889
21
44.3279
0
LINE
8
DEFAULT_255_1_234
10
5.7495889
20
44.3279
11
5.6001986
21
44.3279
0
LINE
8
DEFAULT_255_1_234
10
5.6001986
20
44.3279
11
5.6001986
21
45.3182133
0
LINE
8
DEFAULT_255_1_234
10
5.6001986
20
45.3182133
11
5.3006147
21
45.2081785
0
LINE
8
DEFAULT_255_1_234
10
5.3006147
20
45.2081785
11
5.3006147
21
45.3431117
0
LINE
8
DEFAULT_255_1_234
10
5.3006147
20
45.3431117
11
5.7262969
21
45.5029433
0
LINE
8
DEFAULT_255_1_234
10
5.7262969
20
45.5029433
11
5.7495889
21
45.5029433
0
ARC
8
DEFAULT_255_1_234
10
6.6118875
20
45.1895703
40
0.2822356
50
338.8763615
51
0.5166041
0
ARC
8
DEFAULT_255_1_234
10
6.6287529
20
45.1850208
40
0.2648703
50
325.8412414
51
338.4795939
0
ARC
8
DEFAULT_255_1_234
10
6.5896897
20
45.2121042
40
0.3124019
50
296.7586019
51
325.753654
0
ARC
8
DEFAULT_255_1_234
10
6.5609005
20
45.2605789
40
0.368668
50
296.0902311
51
297.3618122
0
ARC
8
DEFAULT_255_1_234
10
6.5866463
20
44.6051041
40
0.3518806
50
47.9009248
51
67.1946869
0
ARC
8
DEFAULT_255_1_234
10
6.6062705
20
44.6297395
40
0.320451
50
35.236241
51
47.551371
0
ARC
8
DEFAULT_255_1_234
10
6.6324323
20
44.6471993
40
0.2890103
50
359.2759738
51
35.4014081
0
ARC
8
DEFAULT_255_1_234
10
6.5579354
20
44.6398826
40
0.3635026
50
343.1294516
51
0.5776525
0
ARC
8
DEFAULT_255_1_234
10
6.6303899
20
44.619933
40
0.2883832
50
310.8497458
51
342.744803
0
ARC
8
DEFAULT_255_1_234
10
6.5886012
20
44.6676294
40
0.3517954
50
281.5473923
51
310.9169905
0
ARC
8
DEFAULT_255_1_234
10
6.5529461
20
44.8229084
40
0.5110832
50
269.6192722
51
281.9789957
0
ARC
8
DEFAULT_255_1_234
10
6.5457251
20
44.8229828
40
0.5111606
50
257.4584469
51
270.4287458
0
ARC
8
DEFAULT_255_1_234
10
6.5076394
20
44.6626344
40
0.3463762
50
228.7553743
51
257.8484423
0
ARC
8
DEFAULT_255_1_234
10
6.4766592
20
44.6253442
40
0.297916
50
184.0104442
51
228.5071787
0
ARC
8
DEFAULT_255_1_234
10
6.5929536
20
44.6430512
40
0.4152734
50
179.9315461
51
185.3254504
0
ARC
8
DEFAULT_255_1_234
10
6.4753182
20
44.6467992
40
0.2976554
50
145.6795913
51
180.6259649
0
ARC
8
DEFAULT_255_1_234
10
6.4916531
20
44.6353929
40
0.3175776
50
115.5537925
51
145.6416199
0
ARC
8
DEFAULT_255_1_234
10
6.5257461
20
44.5743028
40
0.3874232
50
113.2437915
51
116.2054627
0
ARC
8
DEFAULT_255_1_234
10
6.5104674
20
45.214158
40
0.3154751
50
222.9548379
51
244.1372485
0
ARC
8
DEFAULT_255_1_234
10
6.4982749
20
45.2004834
40
0.2972382
50
213.3439227
51
222.6271327
0
ARC
8
DEFAULT_255_1_234
10
6.4790684
20
45.1874308
40
0.274019
50
180.4316517
51
213.2713999
0
ARC
8
DEFAULT_255_1_234
10
6.5365685
20
45.192111
40
0.33158
50
179.9992944
51
181.1655061
0
ARC
8
DEFAULT_255_1_234
10
6.5775102
20
45.1955561
40
0.3725376
50
164.6186108
51
180.5292368
0
ARC
8
DEFAULT_255_1_234
10
6.4876965
20
45.2197101
40
0.2795349
50
132.2454369
51
164.5092287
0
ARC
8
DEFAULT_255_1_234
10
6.5164069
20
45.1872028
40
0.3229019
50
100.7052766
51
132.1387266
0
ARC
8
DEFAULT_255_1_234
10
6.5469041
20
45.0494086
40
0.4639835
50
89.6732617
51
101.2449487
0
ARC
8
DEFAULT_255_1_234
10
6.5531239
20
45.066899
40
0.4464999
50
76.2876631
51
90.4586123
0
ARC
8
DEFAULT_255_1_234
10
6.5837471
20
45.189122
40
0.3205023
50
47.8240157
51
76.4266918
0
ARC
8
DEFAULT_255_1_234
10
6.6060021
20
45.215159
40
0.2862661
50
6.9168658
51
47.6261438
0
ARC
8
DEFAULT_255_1_234
10
6.4873424
20
45.193237
40
0.4067708
50
359.8419705
51
7.9694496
0
ARC
8
DEFAULT_255_1_234
10
6.5215321
20
44.6491925
40
0.2513121
50
359.4454068
51
16.9256425
0
ARC
8
DEFAULT_255_1_234
10
6.5684132
20
44.6621033
40
0.2027071
50
17.292259
51
45.462717
0
ARC
8
DEFAULT_255_1_234
10
6.5630068
20
44.6574434
40
0.2098212
50
45.3028762
51
83.1921472
0
ARC
8
DEFAULT_255_1_234
10
6.5486752
20
44.5772895
40
0.2911472
50
82.2614531
51
90.143954
0
ARC
8
DEFAULT_255_1_234
10
6.5455872
20
44.600595
40
0.2678513
50
89.4959189
51
104.8579811
0
ARC
8
DEFAULT_255_1_234
10
6.5279131
20
44.667589
40
0.1985654
50
104.8855873
51
135.2448349
0
ARC
8
DEFAULT_255_1_234
10
6.5328904
20
44.6631336
40
0.2052373
50
135.3398955
51
172.104394
0
ARC
8
DEFAULT_255_1_234
10
6.6135962
20
44.6476925
40
0.2873299
50
171.2651929
51
180.1859362
0
ARC
8
DEFAULT_255_1_234
10
6.5966663
20
44.6444733
40
0.2704083
50
179.515471
51
193.6466734
0
ARC
8
DEFAULT_255_1_234
10
6.5150432
20
44.6236777
40
0.1861855
50
193.3540587
51
225.8256931
0
ARC
8
DEFAULT_255_1_234
10
6.5191189
20
44.6307524
40
0.1941102
50
226.418029
51
255.8553723
0
ARC
8
DEFAULT_255_1_234
10
6.5447622
20
44.7243998
40
0.2911917
50
255.4655572
51
268.7985967
0
ARC
8
DEFAULT_255_1_234
10
6.5494814
20
44.8082491
40
0.3751331
50
268.3464808
51
270.0104874
0
ARC
8
DEFAULT_255_1_234
10
6.5518202
20
44.7398138
40
0.3067064
50
269.575914
51
282.0823146
0
ARC
8
DEFAULT_255_1_234
10
6.5743111
20
44.6403803
40
0.2047712
50
281.7522535
51
306.6056425
0
ARC
8
DEFAULT_255_1_234
10
6.5841537
20
44.6242487
40
0.1859604
50
307.1350025
51
314.0277951
0
ARC
8
DEFAULT_255_1_234
10
6.5805621
20
44.6268766
40
0.1903475
50
314.2553419
51
350.169324
0
ARC
8
DEFAULT_255_1_234
10
6.495409
20
44.6453409
40
0.2774269
50
349.4145679
51
0.2930737
0
ARC
8
DEFAULT_255_1_234
10
6.5474523
20
45.1612353
40
0.2300764
50
89.477591
51
105.729794
0
ARC
8
DEFAULT_255_1_234
10
6.5338436
20
45.2117637
40
0.1777519
50
105.922966
51
135.1662921
0
ARC
8
DEFAULT_255_1_234
10
6.5358939
20
45.2103419
40
0.1802087
50
135.3053131
51
168.9882338
0
ARC
8
DEFAULT_255_1_234
10
6.6186511
20
45.1913721
40
0.2650806
50
168.3802067
51
180.3602358
0
ARC
8
DEFAULT_255_1_234
10
6.5958091
20
45.1876041
40
0.2422425
50
179.5029707
51
194.9126783
0
ARC
8
DEFAULT_255_1_234
10
6.5372752
20
45.172211
40
0.1817188
50
194.9722181
51
224.1943972
0
ARC
8
DEFAULT_255_1_234
10
6.5344619
20
45.1699169
40
0.1781027
50
224.2961434
51
262.0157375
0
ARC
8
DEFAULT_255_1_234
10
6.5486862
20
45.2430661
40
0.2525492
50
261.1250369
51
270.1959853
0
ARC
8
DEFAULT_255_1_234
10
6.5516617
20
45.2243339
40
0.233825
50
269.4825617
51
285.0988277
0
ARC
8
DEFAULT_255_1_234
10
6.5670776
20
45.166499
40
0.1739712
50
285.1585659
51
315.9484648
0
ARC
8
DEFAULT_255_1_234
10
6.5581788
20
45.1746886
40
0.1860616
50
316.0412958
51
351.9162715
0
ARC
8
DEFAULT_255_1_234
10
6.4848743
20
45.1888245
40
0.2606517
50
351.1056823
51
0.1936567
0
ARC
8
DEFAULT_255_1_234
10
6.5111572
20
45.1918369
40
0.234377
50
359.4789506
51
16.0679113
0
ARC
8
DEFAULT_255_1_234
10
6.5587531
20
45.204681
40
0.1850875
50
16.3251951
51
44.791304
0
ARC
8
DEFAULT_255_1_234
10
6.5569812
20
45.2047339
40
0.186312
50
44.3958661
51
88.2498933
0
ARC
8
DEFAULT_255_1_234
10
6.5496366
20
45.1436154
40
0.2476868
50
86.9833827
51
90.0200148
0
LINE
8
DEFAULT_255_1_234
10
4.3681299
20
53.4348211
11
4.6500439
21
52.9866501
0
LINE
8
DEFAULT_255_1_234
10
4.6500439
20
52.9866501
11
4.9303516
21
53.4348211
0
LINE
8
DEFAULT_255_1_234
10
4.9303516
20
53.4348211
11
5.1118689
21
53.4348211
0
LINE
8
DEFAULT_255_1_234
10
5.1118689
20
53.4348211
11
4.7424089
21
52.8549296
0
LINE
8
DEFAULT_255_1_234
10
4.7424089
20
52.8549296
11
5.1207038
21
52.2654
0
LINE
8
DEFAULT_255_1_234
10
5.1207038
20
52.2654
11
4.9375802
21
52.2654
0
LINE
8
DEFAULT_255_1_234
10
4.9375802
20
52.2654
11
4.6500439
21
52.7216027
0
LINE
8
DEFAULT_255_1_234
10
4.6500439
20
52.7216027
11
4.3609014
21
52.2654
0
LINE
8
DEFAULT_255_1_234
10
4.3609014
20
52.2654
11
4.1785809
21
52.2654
0
LINE
8
DEFAULT_255_1_234
10
4.1785809
20
52.2654
11
4.557679
21
52.8549296
0
LINE
8
DEFAULT_255_1_234
10
4.557679
20
52.8549296
11
4.1874158
21
53.4348211
0
LINE
8
DEFAULT_255_1_234
10
4.1874158
20
53.4348211
11
4.3681299
21
53.4348211
0
LINE
8
DEFAULT_255_1_234
10
5.7495889
20
53.4404433
11
5.7495889
21
52.2654
0
LINE
8
DEFAULT_255_1_234
10
5.7495889
20
52.2654
11
5.6001986
21
52.2654
0
LINE
8
DEFAULT_255_1_234
10
5.6001986
20
52.2654
11
5.6001986
21
53.2557133
0
LINE
8
DEFAULT_255_1_234
10
5.6001986
20
53.2557133
11
5.3006147
21
53.1456785
0
LINE
8
DEFAULT_255_1_234
10
5.3006147
20
53.1456785
11
5.3006147
21
53.2806117
0
LINE
8
DEFAULT_255_1_234
10
5.3006147
20
53.2806117
11
5.7262969
21
53.4404433
0
LINE
8
DEFAULT_255_1_234
10
5.7262969
20
53.4404433
11
5.7495889
21
53.4404433
0
LINE
8
DEFAULT_255_1_234
10
6.9398925
20
53.4348211
11
6.9398925
21
53.351291
0
LINE
8
DEFAULT_255_1_234
10
6.9398925
20
53.351291
11
6.4555787
21
52.2654
0
LINE
8
DEFAULT_255_1_234
10
6.4555787
20
52.2654
11
6.299763
21
52.2654
0
LINE
8
DEFAULT_255_1_234
10
6.299763
20
52.2654
11
6.7824705
21
53.3127387
0
LINE
8
DEFAULT_255_1_234
10
6.7824705
20
53.3127387
11
6.1495695
21
53.3127387
0
LINE
8
DEFAULT_255_1_234
10
6.1495695
20
53.3127387
11
6.1495695
21
53.4348211
0
LINE
8
DEFAULT_255_1_234
10
6.1495695
20
53.4348211
11
6.9398925
21
53.4348211
0
LINE
8
DEFAULT_255_1_234
10
4.3681299
20
61.3723211
11
4.6500439
21
60.9241501
0
LINE
8
DEFAULT_255_1_234
10
4.6500439
20
60.9241501
11
4.9303516
21
61.3723211
0
LINE
8
DEFAULT_255_1_234
10
4.9303516
20
61.3723211
11
5.1118689
21
61.3723211
0
LINE
8
DEFAULT_255_1_234
10
5.1118689
20
61.3723211
11
4.7424089
21
60.7924296
0
LINE
8
DEFAULT_255_1_234
10
4.7424089
20
60.7924296
11
5.1207038
21
60.2029
0
LINE
8
DEFAULT_255_1_234
10
5.1207038
20
60.2029
11
4.9375802
21
60.2029
0
LINE
8
DEFAULT_255_1_234
10
4.9375802
20
60.2029
11
4.6500439
21
60.6591027
0
LINE
8
DEFAULT_255_1_234
10
4.6500439
20
60.6591027
11
4.3609014
21
60.2029
0
LINE
8
DEFAULT_255_1_234
10
4.3609014
20
60.2029
11
4.1785809
21
60.2029
0
LINE
8
DEFAULT_255_1_234
10
4.1785809
20
60.2029
11
4.557679
21
60.7924296
0
LINE
8
DEFAULT_255_1_234
10
4.557679
20
60.7924296
11
4.1874158
21
61.3723211
0
LINE
8
DEFAULT_255_1_234
10
4.1874158
20
61.3723211
11
4.3681299
21
61.3723211
0
LINE
8
DEFAULT_255_1_234
10
5.7495889
20
61.3779433
11
5.7495889
21
60.2029
0
LINE
8
DEFAULT_255_1_234
10
5.7495889
20
60.2029
11
5.6001986
21
60.2029
0
LINE
8
DEFAULT_255_1_234
10
5.6001986
20
60.2029
11
5.6001986
21
61.1932133
0
LINE
8
DEFAULT_255_1_234
10
5.6001986
20
61.1932133
11
5.3006147
21
61.0831785
0
LINE
8
DEFAULT_255_1_234
10
5.3006147
20
61.0831785
11
5.3006147
21
61.2181117
0
LINE
8
DEFAULT_255_1_234
10
5.3006147
20
61.2181117
11
5.7262969
21
61.3779433
0
LINE
8
DEFAULT_255_1_234
10
5.7262969
20
61.3779433
11
5.7495889
21
61.3779433
0
LINE
8
DEFAULT_255_1_234
10
6.7415086
20
61.3731243
11
6.7680133
21
61.3731243
0
LINE
8
DEFAULT_255_1_234
10
6.7680133
20
61.3731243
11
6.7680133
21
61.247026
0
LINE
8
DEFAULT_255_1_234
10
6.7680133
20
61.247026
11
6.7407054
21
61.247026
0
LINE
8
DEFAULT_255_1_234
10
6.193744
20
60.6478583
11
6.193744
21
60.7048836
0
LINE
8
DEFAULT_255_1_234
10
6.3431344
20
60.6856075
11
6.3431344
21
60.6309917
0
ARC
8
DEFAULT_255_1_234
10
6.7459402
20
60.7472455
40
0.4998079
50
90.6001036
51
104.514704
0
ARC
8
DEFAULT_255_1_234
10
6.7070918
20
60.8917131
40
0.3502176
50
104.2855254
51
133.862935
0
ARC
8
DEFAULT_255_1_234
10
6.7234675
20
60.880883
40
0.3693984
50
134.5302688
51
161.6210873
0
ARC
8
DEFAULT_255_1_234
10
6.8887864
20
60.8225895
40
0.5446739
50
161.2849839
51
174.2076652
0
ARC
8
DEFAULT_255_1_234
10
7.0294801
20
60.8031787
40
0.6866274
50
173.7810589
51
174.9254635
0
ARC
8
DEFAULT_255_1_234
10
6.5744633
20
60.6648839
40
0.3033419
50
95.8330959
51
138.9954921
0
ARC
8
DEFAULT_255_1_234
10
6.5967989
20
60.5370375
40
0.4328947
50
89.8753725
51
97.0544009
0
ARC
8
DEFAULT_255_1_234
10
6.6015455
20
60.6205748
40
0.3493769
50
71.6407809
51
90.6240094
0
ARC
8
DEFAULT_255_1_234
10
6.6166028
20
60.6760082
40
0.2920396
50
39.6367836
51
71.019018
0
ARC
8
DEFAULT_255_1_234
10
6.5529501
20
60.6209998
40
0.3761538
50
10.658731
51
39.9043955
0
ARC
8
DEFAULT_255_1_234
10
6.3981584
20
60.5873686
40
0.5345136
50
359.682601
51
11.132623
0
ARC
8
DEFAULT_255_1_234
10
6.3941715
20
60.580301
40
0.5385081
50
347.2486944
51
0.4369317
0
ARC
8
DEFAULT_255_1_234
10
6.5609192
20
60.5401807
40
0.3670249
50
318.1409698
51
347.6118597
0
ARC
8
DEFAULT_255_1_234
10
6.5934185
20
60.5134702
40
0.3250007
50
275.6342139
51
317.8248465
0
ARC
8
DEFAULT_255_1_234
10
6.5713296
20
60.6434219
40
0.4565864
50
269.8874292
51
276.7917694
0
ARC
8
DEFAULT_255_1_234
10
6.5658367
20
60.5408743
40
0.3540676
50
246.9140195
51
270.7437342
0
ARC
8
DEFAULT_255_1_234
10
6.5664757
20
60.5266384
40
0.3412781
50
218.1665114
51
245.878116
0
ARC
8
DEFAULT_255_1_234
10
6.6544218
20
60.6002279
40
0.455911
50
191.4115814
51
218.6077802
0
ARC
8
DEFAULT_255_1_234
10
6.8482307
20
60.6436833
40
0.6545001
50
179.6345085
51
191.7836486
0
ARC
8
DEFAULT_255_1_234
10
7.4064644
20
60.7115697
40
1.2127388
50
171.4525249
51
180.3158839
0
ARC
8
DEFAULT_255_1_234
10
6.966952
20
60.7799608
40
0.7679464
50
157.9802646
51
171.6246686
0
ARC
8
DEFAULT_255_1_234
10
6.7455541
20
60.8682421
40
0.5296008
50
141.4298019
51
157.854097
0
ARC
8
DEFAULT_255_1_234
10
6.6813861
20
60.9136381
40
0.4511509
50
102.8715806
51
140.8564722
0
ARC
8
DEFAULT_255_1_234
10
6.7461477
20
60.6696552
40
0.7034845
50
90.3778349
51
103.5869322
0
ARC
8
DEFAULT_255_1_234
10
6.5723253
20
60.609173
40
0.2370698
50
89.8751008
51
126.2071704
0
ARC
8
DEFAULT_255_1_234
10
6.5769043
20
60.5937303
40
0.2522934
50
124.9745049
51
144.895901
0
ARC
8
DEFAULT_255_1_234
10
6.5593233
20
60.608056
40
0.2296779
50
145.2974905
51
160.2660252
0
ARC
8
DEFAULT_255_1_234
10
6.8665772
20
60.6278071
40
0.5234525
50
179.6514266
51
190.2855912
0
ARC
8
DEFAULT_255_1_234
10
6.6971909
20
60.5958786
40
0.3510893
50
190.0945431
51
207.5098196
0
ARC
8
DEFAULT_255_1_234
10
6.6406179
20
60.5689623
40
0.288489
50
207.9583163
51
216.3251085
0
ARC
8
DEFAULT_255_1_234
10
6.6066287
20
60.5410105
40
0.2445587
50
215.7661442
51
232.5456785
0
ARC
8
DEFAULT_255_1_234
10
6.568327
20
60.4923482
40
0.1826382
50
232.8005391
51
270.6605633
0
ARC
8
DEFAULT_255_1_234
10
6.5728971
20
60.5287612
40
0.2190529
50
269.35537
51
288.4744281
0
ARC
8
DEFAULT_255_1_234
10
6.5821868
20
60.4938118
40
0.1829749
50
289.1833337
51
322.9683818
0
ARC
8
DEFAULT_255_1_234
10
6.521039
20
60.5420391
40
0.2608399
50
322.6007884
51
346.5182367
0
ARC
8
DEFAULT_255_1_234
10
6.4052986
20
60.5715616
40
0.3802777
50
346.2582162
51
358.7741648
0
ARC
8
DEFAULT_255_1_234
10
6.3034655
20
60.5770965
40
0.4822176
50
358.3755224
51
0.0098023
0
ARC
8
DEFAULT_255_1_234
10
6.3790842
20
60.5798657
40
0.4066078
50
359.6214041
51
11.2839074
0
ARC
8
DEFAULT_255_1_234
10
6.5067989
20
60.6065066
40
0.2761514
50
11.0482309
51
31.8146458
0
ARC
8
DEFAULT_255_1_234
10
6.5377032
20
60.6232584
40
0.2410679
50
32.3035391
51
38.082671
0
ARC
8
DEFAULT_255_1_234
10
6.5797692
20
60.6613662
40
0.1844966
50
36.825067
51
85.7415724
0
ARC
8
DEFAULT_255_1_234
10
6.5730525
20
60.6113301
40
0.2349122
50
85.0140713
51
90.0513278
0
LINE
8
DEFAULT_255_1_234
10
4.3681299
20
69.3098211
11
4.6500439
21
68.8616501
0
LINE
8
DEFAULT_255_1_234
10
4.6500439
20
68.8616501
11
4.9303516
21
69.3098211
0
LINE
8
DEFAULT_255_1_234
10
4.9303516
20
69.3098211
11
5.1118689
21
69.3098211
0
LINE
8
DEFAULT_255_1_234
10
5.1118689
20
69.3098211
11
4.7424089
21
68.7299296
0
LINE
8
DEFAULT_255_1_234
10
4.7424089
20
68.7299296
11
5.1207038
21
68.1404
0
LINE
8
DEFAULT_255_1_234
10
5.1207038
20
68.1404
11
4.9375802
21
68.1404
0
LINE
8
DEFAULT_255_1_234
10
4.9375802
20
68.1404
11
4.6500439
21
68.5966027
0
LINE
8
DEFAULT_255_1_234
10
4.6500439
20
68.5966027
11
4.3609014
21
68.1404
0
LINE
8
DEFAULT_255_1_234
10
4.3609014
20
68.1404
11
4.1785809
21
68.1404
0
LINE
8
DEFAULT_255_1_234
10
4.1785809
20
68.1404
11
4.557679
21
68.7299296
0
LINE
8
DEFAULT_255_1_234
10
4.557679
20
68.7299296
11
4.1874158
21
69.3098211
0
LINE
8
DEFAULT_255_1_234
10
4.1874158
20
69.3098211
11
4.3681299
21
69.3098211
0
LINE
8
DEFAULT_255_1_234
10
5.7495889
20
69.3154433
11
5.7495889
21
68.1404
0
LINE
8
DEFAULT_255_1_234
10
5.7495889
20
68.1404
11
5.6001986
21
68.1404
0
LINE
8
DEFAULT_255_1_234
10
5.6001986
20
68.1404
11
5.6001986
21
69.1307133
0
LINE
8
DEFAULT_255_1_234
10
5.6001986
20
69.1307133
11
5.3006147
21
69.0206785
0
LINE
8
DEFAULT_255_1_234
10
5.3006147
20
69.0206785
11
5.3006147
21
69.1556117
0
LINE
8
DEFAULT_255_1_234
10
5.3006147
20
69.1556117
11
5.7262969
21
69.3154433
0
LINE
8
DEFAULT_255_1_234
10
5.7262969
20
69.3154433
11
5.7495889
21
69.3154433
0
LINE
8
DEFAULT_255_1_234
10
6.3720486
20
68.6961963
11
6.2531789
21
68.7267169
0
LINE
8
DEFAULT_255_1_234
10
6.2531789
20
68.7267169
11
6.3126138
21
69.3098211
0
LINE
8
DEFAULT_255_1_234
10
6.3126138
20
69.3098211
11
6.9117814
21
69.3098211
0
LINE
8
DEFAULT_255_1_234
10
6.9117814
20
69.3098211
11
6.9117814
21
69.1724784
0
LINE
8
DEFAULT_255_1_234
10
6.9117814
20
69.1724784
11
6.4387121
21
69.1724784
0
LINE
8
DEFAULT_255_1_234
10
6.4387121
20
69.1724784
11
6.4033724
21
68.8536184
0
LINE
8
DEFAULT_255_1_234
10
6.2114139
20
68.4480156
11
6.3519693
21
68.4480156
0
LINE
8
DEFAULT_255_1_234
10
6.4114042
20
68.7283232
11
6.3720486
21
68.6961963
0
ARC
8
DEFAULT_255_1_234
10
6.5888508
20
68.535623
40
0.3681349
50
93.7182161
51
120.2538958
0
ARC
8
DEFAULT_255_1_234
10
6.5982771
20
68.4548394
40
0.449379
50
89.9660152
51
94.2496022
0
ARC
8
DEFAULT_255_1_234
10
6.6023505
20
68.5137549
40
0.390482
50
73.8043271
51
90.5585896
0
ARC
8
DEFAULT_255_1_234
10
6.6258402
20
68.5995602
40
0.3015334
50
41.3071453
51
73.5430202
0
ARC
8
DEFAULT_255_1_234
10
6.5842229
20
68.5637324
40
0.3564457
50
13.5075983
51
41.2174222
0
ARC
8
DEFAULT_255_1_234
10
6.4200433
20
68.5207486
40
0.5261351
50
1.1331335
51
13.8829381
0
ARC
8
DEFAULT_255_1_234
10
6.2788802
20
68.5131665
40
0.6674378
50
359.9919444
51
1.544251
0
ARC
8
DEFAULT_255_1_234
10
6.4065628
20
68.509028
40
0.5397702
50
347.8572367
51
0.4293338
0
ARC
8
DEFAULT_255_1_234
10
6.5815946
20
68.4693736
40
0.3603188
50
323.673004
51
348.1672506
0
ARC
8
DEFAULT_255_1_234
10
6.6110454
20
68.4514168
40
0.3259678
50
316.8171152
51
323.1492751
0
ARC
8
DEFAULT_255_1_234
10
6.6171643
20
68.447746
40
0.3189975
50
281.8396411
51
316.5457803
0
ARC
8
DEFAULT_255_1_234
10
6.5795907
20
68.6032762
40
0.4789527
50
269.5770101
51
282.4214771
0
ARC
8
DEFAULT_255_1_234
10
6.5724718
20
68.5819125
40
0.45759
50
256.2427136
51
270.4486331
0
ARC
8
DEFAULT_255_1_234
10
6.542562
20
68.4619229
40
0.3339303
50
228.9023911
51
256.3314342
0
ARC
8
DEFAULT_255_1_234
10
6.5351853
20
68.4502746
40
0.32031
50
193.753695
51
228.5271154
0
ARC
8
DEFAULT_255_1_234
10
6.6589807
20
68.48658
40
0.4492253
50
184.924711
51
194.497588
0
ARC
8
DEFAULT_255_1_234
10
6.6782374
20
68.4901591
40
0.3289787
50
187.3600538
51
198.6732863
0
ARC
8
DEFAULT_255_1_234
10
6.5732668
20
68.4537674
40
0.217884
50
198.4451669
51
217.794479
0
ARC
8
DEFAULT_255_1_234
10
6.5436843
20
68.4328085
40
0.1816698
50
218.2887171
51
228.5612368
0
ARC
8
DEFAULT_255_1_234
10
6.553463
20
68.4459963
40
0.1980329
50
228.9654866
51
258.1234728
0
ARC
8
DEFAULT_255_1_234
10
6.574034
20
68.5340833
40
0.2884748
50
257.7258293
51
270.401361
0
ARC
8
DEFAULT_255_1_234
10
6.5785226
20
68.4895821
40
0.2439788
50
269.4204404
51
286.4209037
0
ARC
8
DEFAULT_255_1_234
10
6.5933714
20
68.4356657
40
0.1880666
50
286.7251356
51
320.600362
0
ARC
8
DEFAULT_255_1_234
10
6.5550539
20
68.4667595
40
0.2374121
50
320.6712579
51
344.5441685
0
ARC
8
DEFAULT_255_1_234
10
6.4393865
20
68.5007045
40
0.3579479
50
344.2412205
51
356.7357071
0
ARC
8
DEFAULT_255_1_234
10
6.3145014
20
68.5110444
40
0.4832297
50
356.3548756
51
0.0500261
0
ARC
8
DEFAULT_255_1_234
10
6.4481523
20
68.514165
40
0.3495889
50
359.5576869
51
12.953486
0
ARC
8
DEFAULT_255_1_234
10
6.553642
20
68.5397434
40
0.2410532
50
12.6490276
51
41.6081334
0
ARC
8
DEFAULT_255_1_234
10
6.5766791
20
68.5593321
40
0.2108218
50
41.7850273
51
85.9892764
0
ARC
8
DEFAULT_255_1_234
10
6.5643528
20
68.4780462
40
0.2928454
50
84.6957577
51
90.0676183
0
ARC
8
DEFAULT_255_1_234
10
6.5620012
20
68.4111716
40
0.3597255
50
89.6804936
51
99.1614436
0
ARC
8
DEFAULT_255_1_234
10
6.5414643
20
68.5339131
40
0.235281
50
98.9830931
51
113.8908934
0
ARC
8
DEFAULT_255_1_234
10
6.5185053
20
68.5880587
40
0.176479
50
114.1950727
51
127.3641004
0
LINE
8
DEFAULT_255_1_234
10
4.4740299
20
77.2473211
11
4.7559439
21
76.7991501
0
LINE
8
DEFAULT_255_1_234
10
4.7559439
20
76.7991501
11
5.0362516
21
77.2473211
0
LINE
8
DEFAULT_255_1_234
10
5.0362516
20
77.2473211
11
5.2177689
21
77.2473211
0
LINE
8
DEFAULT_255_1_234
10
5.2177689
20
77.2473211
11
4.8483089
21
76.6674296
0
LINE
8
DEFAULT_255_1_234
10
4.8483089
20
76.6674296
11
5.2266038
21
76.0779
0
LINE
8
DEFAULT_255_1_234
10
5.2266038
20
76.0779
11
5.0434802
21
76.0779
0
LINE
8
DEFAULT_255_1_234
10
5.0434802
20
76.0779
11
4.7559439
21
76.5341027
0
LINE
8
DEFAULT_255_1_234
10
4.7559439
20
76.5341027
11
4.4668014
21
76.0779
0
LINE
8
DEFAULT_255_1_234
10
4.4668014
20
76.0779
11
4.2844809
21
76.0779
0
LINE
8
DEFAULT_255_1_234
10
4.2844809
20
76.0779
11
4.663579
21
76.6674296
0
LINE
8
DEFAULT_255_1_234
10
4.663579
20
76.6674296
11
4.2933158
21
77.2473211
0
LINE
8
DEFAULT_255_1_234
10
4.2933158
20
77.2473211
11
4.4740299
21
77.2473211
0
LINE
8
DEFAULT_255_1_234
10
5.8554889
20
77.2529433
11
5.8554889
21
76.0779
0
LINE
8
DEFAULT_255_1_234
10
5.8554889
20
76.0779
11
5.7060986
21
76.0779
0
LINE
8
DEFAULT_255_1_234
10
5.7060986
20
76.0779
11
5.7060986
21
77.0682133
0
LINE
8
DEFAULT_255_1_234
10
5.7060986
20
77.0682133
11
5.4065147
21
76.9581785
0
LINE
8
DEFAULT_255_1_234
10
5.4065147
20
76.9581785
11
5.4065147
21
77.0931117
0
LINE
8
DEFAULT_255_1_234
10
5.4065147
20
77.0931117
11
5.8321969
21
77.2529433
0
LINE
8
DEFAULT_255_1_234
10
5.8321969
20
77.2529433
11
5.8554889
21
77.2529433
0
LINE
8
DEFAULT_255_1_234
10
6.9180879
20
77.2473211
11
6.9180879
21
76.470652
0
LINE
8
DEFAULT_255_1_234
10
6.9180879
20
76.470652
11
7.080329
21
76.470652
0
LINE
8
DEFAULT_255_1_234
10
7.080329
20
76.470652
11
7.080329
21
76.3493728
0
LINE
8
DEFAULT_255_1_234
10
7.080329
20
76.3493728
11
6.9180879
21
76.3493728
0
LINE
8
DEFAULT_255_1_234
10
6.9180879
20
76.3493728
11
6.9180879
21
76.0779
0
LINE
8
DEFAULT_255_1_234
10
6.9180879
20
76.0779
11
6.7686976
21
76.0779
0
LINE
8
DEFAULT_255_1_234
10
6.7686976
20
76.0779
11
6.7686976
21
76.3493728
0
LINE
8
DEFAULT_255_1_234
10
6.7686976
20
76.3493728
11
6.2361933
21
76.3493728
0
LINE
8
DEFAULT_255_1_234
10
6.2361933
20
76.3493728
11
6.2361933
21
76.4369187
0
LINE
8
DEFAULT_255_1_234
10
6.2361933
20
76.4369187
11
6.7598626
21
77.2473211
0
LINE
8
DEFAULT_255_1_234
10
6.7598626
20
77.2473211
11
6.9180879
21
77.2473211
0
LINE
8
DEFAULT_255_1_234
10
6.7510277
20
77.0119912
11
6.4048598
21
76.470652
0
LINE
8
DEFAULT_255_1_234
10
6.4048598
20
76.470652
11
6.7686976
21
76.470652
0
LINE
8
DEFAULT_255_1_234
10
6.7686976
20
76.470652
11
6.7686976
21
77.0441181
0
LINE
8
DEFAULT_255_1_234
10
6.7686976
20
77.0441181
11
6.7510277
21
77.0119912
0
LINE
8
DEFAULT_255_1_234
10
4.3681299
20
85.1848211
11
4.6500439
21
84.7366501
0
LINE
8
DEFAULT_255_1_234
10
4.6500439
20
84.7366501
11
4.9303516
21
85.1848211
0
LINE
8
DEFAULT_255_1_234
10
4.9303516
20
85.1848211
11
5.1118689
21
85.1848211
0
LINE
8
DEFAULT_255_1_234
10
5.1118689
20
85.1848211
11
4.7424089
21
84.6049296
0
LINE
8
DEFAULT_255_1_234
10
4.7424089
20
84.6049296
11
5.1207038
21
84.0154
0
LINE
8
DEFAULT_255_1_234
10
5.1207038
20
84.0154
11
4.9375802
21
84.0154
0
LINE
8
DEFAULT_255_1_234
10
4.9375802
20
84.0154
11
4.6500439
21
84.4716027
0
LINE
8
DEFAULT_255_1_234
10
4.6500439
20
84.4716027
11
4.3609014
21
84.0154
0
LINE
8
DEFAULT_255_1_234
10
4.3609014
20
84.0154
11
4.1785809
21
84.0154
0
LINE
8
DEFAULT_255_1_234
10
4.1785809
20
84.0154
11
4.557679
21
84.6049296
0
LINE
8
DEFAULT_255_1_234
10
4.557679
20
84.6049296
11
4.1874158
21
85.1848211
0
LINE
8
DEFAULT_255_1_234
10
4.1874158
20
85.1848211
11
4.3681299
21
85.1848211
0
LINE
8
DEFAULT_255_1_234
10
5.7495889
20
85.1904433
11
5.7495889
21
84.0154
0
LINE
8
DEFAULT_255_1_234
10
5.7495889
20
84.0154
11
5.6001986
21
84.0154
0
LINE
8
DEFAULT_255_1_234
10
5.6001986
20
84.0154
11
5.6001986
21
85.0057133
0
LINE
8
DEFAULT_255_1_234
10
5.6001986
20
85.0057133
11
5.3006147
21
84.8956785
0
LINE
8
DEFAULT_255_1_234
10
5.3006147
20
84.8956785
11
5.3006147
21
85.0306117
0
LINE
8
DEFAULT_255_1_234
10
5.3006147
20
85.0306117
11
5.7262969
21
85.1904433
0
LINE
8
DEFAULT_255_1_234
10
5.7262969
20
85.1904433
11
5.7495889
21
85.1904433
0
LINE
8
DEFAULT_255_1_234
10
6.4009629
20
84.5511169
11
6.4009629
21
84.6723962
0
LINE
8
DEFAULT_255_1_234
10
6.4009629
20
84.6723962
11
6.5126041
21
84.6723962
0
LINE
8
DEFAULT_255_1_234
10
6.3222519
20
84.8780087
11
6.1736647
21
84.8780087
0
LINE
8
DEFAULT_255_1_234
10
6.1632234
20
84.3238188
11
6.3126138
21
84.3238188
0
LINE
8
DEFAULT_255_1_234
10
6.5126041
20
84.5511169
11
6.4009629
21
84.5511169
0
ARC
8
DEFAULT_255_1_234
10
6.5096907
20
85.0116713
40
0.3392876
50
270.4919872
51
281.8951556
0
ARC
8
DEFAULT_255_1_234
10
6.5338169
20
84.9014702
40
0.2264817
50
281.6691735
51
301.2943132
0
ARC
8
DEFAULT_255_1_234
10
6.5508379
20
84.8703304
40
0.1910381
50
301.7833094
51
311.7545298
0
ARC
8
DEFAULT_255_1_234
10
6.5599955
20
84.8601748
40
0.1773635
50
311.7323931
51
354.2802411
0
ARC
8
DEFAULT_255_1_234
10
6.487358
20
84.8726722
40
0.2509385
50
353.0937916
51
0.1181479
0
ARC
8
DEFAULT_255_1_234
10
6.4412365
20
84.8774386
40
0.2970898
50
359.1805295
51
15.0453146
0
ARC
8
DEFAULT_255_1_234
10
6.5758202
20
84.9166992
40
0.1569564
50
13.9577229
51
77.6713066
0
ARC
8
DEFAULT_255_1_234
10
6.5371731
20
84.7781949
40
0.3006298
50
76.1116566
51
90.7026153
0
ARC
8
DEFAULT_255_1_234
10
6.5312569
20
84.8055545
40
0.2732568
50
89.5324876
51
103.531937
0
ARC
8
DEFAULT_255_1_234
10
6.5112013
20
84.8854884
40
0.1908508
50
103.2931773
51
133.5619022
0
ARC
8
DEFAULT_255_1_234
10
6.5067502
20
84.8914375
40
0.1834746
50
133.8349307
51
173.5344437
0
ARC
8
DEFAULT_255_1_234
10
6.5790545
20
84.8786213
40
0.2568033
50
172.5096846
51
180.1366907
0
ARC
8
DEFAULT_255_1_234
10
6.4839439
20
84.8820622
40
0.3103056
50
155.3484492
51
180.7484736
0
ARC
8
DEFAULT_255_1_234
10
6.4790528
20
84.8791846
40
0.3070957
50
131.5744599
51
154.4798489
0
ARC
8
DEFAULT_255_1_234
10
6.5103675
20
84.847531
40
0.3515643
50
96.9875458
51
131.9690667
0
ARC
8
DEFAULT_255_1_234
10
6.5323155
20
84.7229636
40
0.4779224
50
89.8596053
51
97.7825159
0
ARC
8
DEFAULT_255_1_234
10
6.5371218
20
84.6967616
40
0.5041361
50
78.3655447
51
90.4131539
0
ARC
8
DEFAULT_255_1_234
10
6.5729136
20
84.8626887
40
0.3344039
50
56.6229102
51
78.638727
0
ARC
8
DEFAULT_255_1_234
10
6.594408
20
84.9002805
40
0.2912001
50
47.0253525
51
56.0854072
0
ARC
8
DEFAULT_255_1_234
10
6.596386
20
84.9042223
40
0.2869704
50
10.9208013
51
46.7778124
0
ARC
8
DEFAULT_255_1_234
10
6.4599926
20
84.8726857
40
0.426899
50
359.6364486
51
11.6087304
0
ARC
8
DEFAULT_255_1_234
10
6.643477
20
84.8711752
40
0.243409
50
332.3549906
51
359.7179418
0
ARC
8
DEFAULT_255_1_234
10
6.5784372
20
84.9020142
40
0.3153459
50
325.2333722
51
332.8745602
0
ARC
8
DEFAULT_255_1_234
10
6.5936995
20
84.8913828
40
0.2967456
50
292.9802137
51
325.2392345
0
ARC
8
DEFAULT_255_1_234
10
6.5662369
20
84.9447863
40
0.3566604
50
292.5402179
51
293.6924929
0
ARC
8
DEFAULT_255_1_234
10
6.6054965
20
84.2993091
40
0.3307468
50
57.6435486
51
72.8625112
0
ARC
8
DEFAULT_255_1_234
10
6.6409465
20
84.3567549
40
0.2632492
50
36.7248896
51
57.4697979
0
ARC
8
DEFAULT_255_1_234
10
6.6398098
20
84.358022
40
0.2634081
50
8.0545065
51
36.356114
0
ARC
8
DEFAULT_255_1_234
10
6.5535283
20
84.3425174
40
0.3510261
50
359.8320645
51
8.5869982
0
ARC
8
DEFAULT_255_1_234
10
6.5160059
20
84.3377101
40
0.3885653
50
343.9829931
51
0.5571613
0
ARC
8
DEFAULT_255_1_234
10
6.6046256
20
84.3134438
40
0.2966924
50
311.6359546
51
343.7651759
0
ARC
8
DEFAULT_255_1_234
10
6.5667825
20
84.3561102
40
0.3537231
50
279.7829875
51
311.6255694
0
ARC
8
DEFAULT_255_1_234
10
6.5366601
20
84.499828
40
0.5004971
50
269.7286406
51
280.3856417
0
ARC
8
DEFAULT_255_1_234
10
6.5304674
20
84.4956996
40
0.4963778
50
256.6828919
51
270.4412052
0
ARC
8
DEFAULT_255_1_234
10
6.496597
20
84.3572394
40
0.3538406
50
229.4223008
51
256.8556159
0
ARC
8
DEFAULT_255_1_234
10
6.4551363
20
84.3105736
40
0.2914296
50
181.818294
51
229.6455059
0
ARC
8
DEFAULT_255_1_234
10
6.5591319
20
84.3236496
40
0.3959084
50
179.9755256
51
183.2323064
0
ARC
8
DEFAULT_255_1_234
10
6.5419065
20
84.3216037
40
0.2293034
50
179.4465117
51
196.2869258
0
ARC
8
DEFAULT_255_1_234
10
6.4931473
20
84.3082651
40
0.1787621
50
196.5661473
51
227.705904
0
ARC
8
DEFAULT_255_1_234
10
6.5095568
20
84.3266155
40
0.2033784
50
227.7652068
51
257.8762805
0
ARC
8
DEFAULT_255_1_234
10
6.5320538
20
84.4209156
40
0.3003081
50
257.4584385
51
270.426602
0
ARC
8
DEFAULT_255_1_234
10
6.5366104
20
84.4498996
40
0.329292
50
269.5962073
51
280.8789248
0
ARC
8
DEFAULT_255_1_234
10
6.5595633
20
84.3352685
40
0.2123908
50
280.6346389
51
299.8595945
0
ARC
8
DEFAULT_255_1_234
10
6.578654
20
84.2990212
40
0.171457
50
300.3576302
51
314.5517981
0
ARC
8
DEFAULT_255_1_234
10
6.57036
20
84.3050919
40
0.1816095
50
315.0728369
51
345.0431014
0
ARC
8
DEFAULT_255_1_234
10
6.4780414
20
84.3319841
40
0.2777492
50
344.5986631
51
357.9269593
0
ARC
8
DEFAULT_255_1_234
10
6.388474
20
84.3381276
40
0.3674917
50
357.4748886
51
0.0231117
0
ARC
8
DEFAULT_255_1_234
10
6.490785
20
84.3405679
40
0.2651907
50
359.5047933
51
13.4239635
0
ARC
8
DEFAULT_255_1_234
10
6.5774493
20
84.3627478
40
0.1757509
50
12.9498199
51
48.7551375
0
ARC
8
DEFAULT_255_1_234
10
6.5592227
20
84.33784
40
0.2065134
50
49.5088623
51
72.1836453
0
ARC
8
DEFAULT_255_1_234
10
6.523438
20
84.2316291
40
0.3185836
50
71.9010081
51
84.3554254
0
ARC
8
DEFAULT_255_1_234
10
6.5073012
20
84.0955326
40
0.4556151
50
84.0193428
51
89.333121
0
LINE
8
DEFAULT_255_1_234
10
4.3681299
20
93.1223211
11
4.6500439
21
92.6741501
0
LINE
8
DEFAULT_255_1_234
10
4.6500439
20
92.6741501
11
4.9303516
21
93.1223211
0
LINE
8
DEFAULT_255_1_234
10
4.9303516
20
93.1223211
11
5.1118689
21
93.1223211
0
LINE
8
DEFAULT_255_1_234
10
5.1118689
20
93.1223211
11
4.7424089
21
92.5424296
0
LINE
8
DEFAULT_255_1_234
10
4.7424089
20
92.5424296
11
5.1207038
21
91.9529
0
LINE
8
DEFAULT_255_1_234
10
5.1207038
20
91.9529
11
4.9375802
21
91.9529
0
LINE
8
DEFAULT_255_1_234
10
4.9375802
20
91.9529
11
4.6500439
21
92.4091027
0
LINE
8
DEFAULT_255_1_234
10
4.6500439
20
92.4091027
11
4.3609014
21
91.9529
0
LINE
8
DEFAULT_255_1_234
10
4.3609014
20
91.9529
11
4.1785809
21
91.9529
0
LINE
8
DEFAULT_255_1_234
10
4.1785809
20
91.9529
11
4.557679
21
92.5424296
0
LINE
8
DEFAULT_255_1_234
10
4.557679
20
92.5424296
11
4.1874158
21
93.1223211
0
LINE
8
DEFAULT_255_1_234
10
4.1874158
20
93.1223211
11
4.3681299
21
93.1223211
0
LINE
8
DEFAULT_255_1_234
10
5.7495889
20
93.1279433
11
5.7495889
21
91.9529
0
LINE
8
DEFAULT_255_1_234
10
5.7495889
20
91.9529
11
5.6001986
21
91.9529
0
LINE
8
DEFAULT_255_1_234
10
5.6001986
20
91.9529
11
5.6001986
21
92.9432133
0
LINE
8
DEFAULT_255_1_234
10
5.6001986
20
92.9432133
11
5.3006147
21
92.8331785
0
LINE
8
DEFAULT_255_1_234
10
5.3006147
20
92.8331785
11
5.3006147
21
92.9681117
0
LINE
8
DEFAULT_255_1_234
10
5.3006147
20
92.9681117
11
5.7262969
21
93.1279433
0
LINE
8
DEFAULT_255_1_234
10
5.7262969
20
93.1279433
11
5.7495889
21
93.1279433
0
LINE
8
DEFAULT_255_1_234
10
6.951137
20
92.0741792
11
6.951137
21
91.9529
0
LINE
8
DEFAULT_255_1_234
10
6.951137
20
91.9529
11
6.1849091
21
91.9529
0
LINE
8
DEFAULT_255_1_234
10
6.1849091
20
91.9529
11
6.1849091
21
92.0597221
0
LINE
8
DEFAULT_255_1_234
10
6.1849091
20
92.0597221
11
6.5897087
21
92.5094995
0
LINE
8
DEFAULT_255_1_234
10
6.3110074
20
92.7777595
11
6.1624203
21
92.7777595
0
LINE
8
DEFAULT_255_1_234
10
6.6772547
20
92.4139218
11
6.3640169
21
92.0741792
0
LINE
8
DEFAULT_255_1_234
10
6.3640169
20
92.0741792
11
6.951137
21
92.0741792
0
ARC
8
DEFAULT_255_1_234
10
5.2406921
20
93.7024527
40
1.8008286
50
318.5132453
51
320.7828378
0
ARC
8
DEFAULT_255_1_234
10
5.7693895
20
93.2721426
40
1.1191493
50
320.7372736
51
323.9737074
0
ARC
8
DEFAULT_255_1_234
10
6.1613751
20
92.9881361
40
0.6350923
50
323.8961724
51
328.6421089
0
ARC
8
DEFAULT_255_1_234
10
6.3660347
20
92.8619031
40
0.3946393
50
328.8299013
51
331.789948
0
ARC
8
DEFAULT_255_1_234
10
6.4657525
20
92.8104509
40
0.2824501
50
331.4255242
51
352.9364833
0
ARC
8
DEFAULT_255_1_234
10
6.4794026
20
92.8073976
40
0.2685315
50
353.2248685
51
0.0169286
0
ARC
8
DEFAULT_255_1_234
10
6.5003903
20
92.809695
40
0.2475536
50
359.4866256
51
15.9339782
0
ARC
8
DEFAULT_255_1_234
10
6.5510888
20
92.8233286
40
0.1950618
50
16.1714718
51
43.5284424
0
ARC
8
DEFAULT_255_1_234
10
6.5588197
20
92.8310573
40
0.184134
50
43.4415429
51
83.1661404
0
ARC
8
DEFAULT_255_1_234
10
6.5454115
20
92.7573771
40
0.258926
50
82.160215
51
90.1505798
0
ARC
8
DEFAULT_255_1_234
10
6.5422542
20
92.7036865
40
0.3126255
50
89.5460705
51
102.5418777
0
ARC
8
DEFAULT_255_1_234
10
6.5179628
20
92.8067665
40
0.2067346
50
102.1739365
51
129.2061916
0
ARC
8
DEFAULT_255_1_234
10
6.51007
20
92.8192094
40
0.1921118
50
129.7279328
51
135.7542026
0
ARC
8
DEFAULT_255_1_234
10
6.5222228
20
92.8095045
40
0.2075944
50
136.175737
51
166.3674722
0
ARC
8
DEFAULT_255_1_234
10
6.6229147
20
92.7825182
40
0.3118201
50
165.9092917
51
178.8683903
0
ARC
8
DEFAULT_255_1_234
10
6.7094008
20
92.7778179
40
0.3983935
50
178.438168
51
180.0083905
0
ARC
8
DEFAULT_255_1_234
10
6.569261
20
92.7817231
40
0.4068601
50
163.2878735
51
180.5581814
0
ARC
8
DEFAULT_255_1_234
10
6.4890872
20
92.803784
40
0.3237344
50
133.454115
51
162.9470031
0
ARC
8
DEFAULT_255_1_234
10
6.5069413
20
92.7848
40
0.349795
50
100.7869394
51
133.4384016
0
ARC
8
DEFAULT_255_1_234
10
6.5417185
20
92.6299319
40
0.5084616
50
89.6605301
51
101.3704185
0
ARC
8
DEFAULT_255_1_234
10
6.5483523
20
92.6360496
40
0.502348
50
78.2171172
51
90.4130393
0
ARC
8
DEFAULT_255_1_234
10
6.5838602
20
92.7984637
40
0.3361092
50
55.9268222
51
78.4888551
0
ARC
8
DEFAULT_255_1_234
10
6.6035042
20
92.8323324
40
0.2970617
50
47.9292255
51
55.4054003
0
ARC
8
DEFAULT_255_1_234
10
6.6136603
20
92.8426502
40
0.2825983
50
4.3347696
51
48.0560701
0
ARC
8
DEFAULT_255_1_234
10
6.5040996
20
92.8256601
40
0.393225
50
359.925209
51
5.5967654
0
ARC
8
DEFAULT_255_1_234
10
6.5469888
20
92.8312816
40
0.3503892
50
337.8914096
51
358.9967724
0
ARC
8
DEFAULT_255_1_234
10
6.27563
20
92.9359706
40
0.6412172
50
326.9135351
51
338.3505194
0
ARC
8
DEFAULT_255_1_234
10
5.8770604
20
93.1914284
40
1.1146189
50
319.6472867
51
327.095818
0
ARC
8
DEFAULT_255_1_234
10
5.4937607
20
93.5076
40
1.6114559
50
317.2586784
51
319.9046139
0
LINE
8
DEFAULT_255_1_234
10
4.3590299
20
101.0598211
11
4.6409439
21
100.6116501
0
LINE
8
DEFAULT_255_1_234
10
4.6409439
20
100.6116501
11
4.9212516
21
101.0598211
0
LINE
8
DEFAULT_255_1_234
10
4.9212516
20
101.0598211
11
5.1027689
21
101.0598211
0
LINE
8
DEFAULT_255_1_234
10
5.1027689
20
101.0598211
11
4.7333089
21
100.4799296
0
LINE
8
DEFAULT_255_1_234
10
4.7333089
20
100.4799296
11
5.1116038
21
99.8904
0
LINE
8
DEFAULT_255_1_234
10
5.1116038
20
99.8904
11
4.9284802
21
99.8904
0
LINE
8
DEFAULT_255_1_234
10
4.9284802
20
99.8904
11
4.6409439
21
100.3466027
0
LINE
8
DEFAULT_255_1_234
10
4.6409439
20
100.3466027
11
4.3518014
21
99.8904
0
LINE
8
DEFAULT_255_1_234
10
4.3518014
20
99.8904
11
4.1694809
21
99.8904
0
LINE
8
DEFAULT_255_1_234
10
4.1694809
20
99.8904
11
4.548579
21
100.4799296
0
LINE
8
DEFAULT_255_1_234
10
4.548579
20
100.4799296
11
4.1783158
21
101.0598211
0
LINE
8
DEFAULT_255_1_234
10
4.1783158
20
101.0598211
11
4.3590299
21
101.0598211
0
LINE
8
DEFAULT_255_1_234
10
5.7404889
20
101.0654433
11
5.7404889
21
99.8904
0
LINE
8
DEFAULT_255_1_234
10
5.7404889
20
99.8904
11
5.5910986
21
99.8904
0
LINE
8
DEFAULT_255_1_234
10
5.5910986
20
99.8904
11
5.5910986
21
100.8807133
0
LINE
8
DEFAULT_255_1_234
10
5.5910986
20
100.8807133
11
5.2915147
21
100.7706785
0
LINE
8
DEFAULT_255_1_234
10
5.2915147
20
100.7706785
11
5.2915147
21
100.9056117
0
LINE
8
DEFAULT_255_1_234
10
5.2915147
20
100.9056117
11
5.7171969
21
101.0654433
0
LINE
8
DEFAULT_255_1_234
10
5.7171969
20
101.0654433
11
5.7404889
21
101.0654433
0
LINE
8
DEFAULT_255_1_234
10
6.6641388
20
101.0654433
11
6.6641388
21
99.8904
0
LINE
8
DEFAULT_255_1_234
10
6.6641388
20
99.8904
11
6.5147485
21
99.8904
0
LINE
8
DEFAULT_255_1_234
10
6.5147485
20
99.8904
11
6.5147485
21
100.8807133
0
LINE
8
DEFAULT_255_1_234
10
6.5147485
20
100.8807133
11
6.2151646
21
100.7706785
0
LINE
8
DEFAULT_255_1_234
10
6.2151646
20
100.7706785
11
6.2151646
21
100.9056117
0
LINE
8
DEFAULT_255_1_234
10
6.2151646
20
100.9056117
11
6.6408468
21
101.0654433
0
LINE
8
DEFAULT_255_1_234
10
6.6408468
20
101.0654433
11
6.6641388
21
101.0654433
0
LINE
8
DEFAULT_255_1_234
10
4.3681299
20
108.9973211
11
4.6500439
21
108.5491501
0
LINE
8
DEFAULT_255_1_234
10
4.6500439
20
108.5491501
11
4.9303516
21
108.9973211
0
LINE
8
DEFAULT_255_1_234
10
4.9303516
20
108.9973211
11
5.1118689
21
108.9973211
0
LINE
8
DEFAULT_255_1_234
10
5.1118689
20
108.9973211
11
4.7424089
21
108.4174296
0
LINE
8
DEFAULT_255_1_234
10
4.7424089
20
108.4174296
11
5.1207038
21
107.8279
0
LINE
8
DEFAULT_255_1_234
10
5.1207038
20
107.8279
11
4.9375802
21
107.8279
0
LINE
8
DEFAULT_255_1_234
10
4.9375802
20
107.8279
11
4.6500439
21
108.2841027
0
LINE
8
DEFAULT_255_1_234
10
4.6500439
20
108.2841027
11
4.3609014
21
107.8279
0
LINE
8
DEFAULT_255_1_234
10
4.3609014
20
107.8279
11
4.1785809
21
107.8279
0
LINE
8
DEFAULT_255_1_234
10
4.1785809
20
107.8279
11
4.557679
21
108.4174296
0
LINE
8
DEFAULT_255_1_234
10
4.557679
20
108.4174296
11
4.1874158
21
108.9973211
0
LINE
8
DEFAULT_255_1_234
10
4.1874158
20
108.9973211
11
4.3681299
21
108.9973211
0
LINE
8
DEFAULT_255_1_234
10
5.7495889
20
109.0029433
11
5.7495889
21
107.8279
0
LINE
8
DEFAULT_255_1_234
10
5.7495889
20
107.8279
11
5.6001986
21
107.8279
0
LINE
8
DEFAULT_255_1_234
10
5.6001986
20
107.8279
11
5.6001986
21
108.8182133
0
LINE
8
DEFAULT_255_1_234
10
5.6001986
20
108.8182133
11
5.3006147
21
108.7081785
0
LINE
8
DEFAULT_255_1_234
10
5.3006147
20
108.7081785
11
5.3006147
21
108.8431117
0
LINE
8
DEFAULT_255_1_234
10
5.3006147
20
108.8431117
11
5.7262969
21
109.0029433
0
LINE
8
DEFAULT_255_1_234
10
5.7262969
20
109.0029433
11
5.7495889
21
109.0029433
0
LINE
8
DEFAULT_255_1_234
10
6.9182068
20
108.5194327
11
6.9182068
21
108.3266709
0
LINE
8
DEFAULT_255_1_234
10
6.1800901
20
108.3065916
11
6.1800901
21
108.5049755
0
LINE
8
DEFAULT_255_1_234
10
6.7696197
20
108.2865123
11
6.7696197
21
108.5298739
0
LINE
8
DEFAULT_255_1_234
10
6.3286772
20
108.5411184
11
6.3286772
21
108.3033789
0
ARC
8
DEFAULT_255_1_234
10
5.6934958
20
108.3217805
40
1.2247208
50
353.8441951
51
0.2287902
0
ARC
8
DEFAULT_255_1_234
10
6.1574462
20
108.2699806
40
0.7578929
50
344.4934747
51
353.9765454
0
ARC
8
DEFAULT_255_1_234
10
6.4567052
20
108.1848981
40
0.4467846
50
329.2803592
51
344.7472793
0
ARC
8
DEFAULT_255_1_234
10
6.5559877
20
108.1304018
40
0.3336173
50
324.9352394
51
328.6160465
0
ARC
8
DEFAULT_255_1_234
10
6.5936985
20
108.1040427
40
0.2876076
50
280.580143
51
324.9173126
0
ARC
8
DEFAULT_255_1_234
10
6.5535778
20
108.2711099
40
0.4592847
50
269.5977311
51
281.6734359
0
ARC
8
DEFAULT_255_1_234
10
6.5463684
20
108.2591173
40
0.4472986
50
256.6228859
51
270.51044
0
ARC
8
DEFAULT_255_1_234
10
6.5061661
20
108.1042877
40
0.2873874
50
215.8618325
51
257.2788573
0
ARC
8
DEFAULT_255_1_234
10
6.6082693
20
108.1727977
40
0.4102928
50
197.9693508
51
215.2623606
0
ARC
8
DEFAULT_255_1_234
10
6.8567809
20
108.2566709
40
0.6725652
50
187.8816417
51
198.2346507
0
ARC
8
DEFAULT_255_1_234
10
7.2526017
20
108.3138079
40
1.0724845
50
180.8976217
51
188.0055519
0
ARC
8
DEFAULT_255_1_234
10
7.5326205
20
108.3241777
40
1.3526448
50
180.7449369
51
181.1510016
0
ARC
8
DEFAULT_255_1_234
10
7.3748934
20
108.5098042
40
1.1948131
50
173.7675579
51
180.231553
0
ARC
8
DEFAULT_255_1_234
10
6.9231081
20
108.5608666
40
0.7401564
50
164.3058563
51
173.9002247
0
ARC
8
DEFAULT_255_1_234
10
6.631915
20
108.6447656
40
0.4371288
50
148.7922025
51
164.568378
0
ARC
8
DEFAULT_255_1_234
10
6.5367602
20
108.6978929
40
0.3282386
50
144.5883898
51
148.1176286
0
ARC
8
DEFAULT_255_1_234
10
6.50245
20
108.7218315
40
0.2864044
50
101.6440918
51
144.514236
0
ARC
8
DEFAULT_255_1_234
10
6.5449566
20
108.5529069
40
0.4604934
50
89.5284041
51
102.5819763
0
ARC
8
DEFAULT_255_1_234
10
6.5528654
20
108.5490018
40
0.464401
50
77.0437873
51
90.5081339
0
ARC
8
DEFAULT_255_1_234
10
6.5930656
20
108.7132615
40
0.2953195
50
48.2778575
51
77.4994676
0
ARC
8
DEFAULT_255_1_234
10
6.6003287
20
108.7261746
40
0.2808655
50
36.3142134
51
47.6305865
0
ARC
8
DEFAULT_255_1_234
10
6.5134594
20
108.6676515
40
0.3855453
50
18.2931786
51
35.6769206
0
ARC
8
DEFAULT_255_1_234
10
6.2591353
20
108.5803593
40
0.654423
50
8.024666
51
18.5605216
0
ARC
8
DEFAULT_255_1_234
10
5.8428273
20
108.5188792
40
1.0752407
50
1.1274072
51
8.1718305
0
ARC
8
DEFAULT_255_1_234
10
5.5192464
20
108.5061885
40
1.3990231
50
0.5424119
51
1.3863029
0
ARC
8
DEFAULT_255_1_234
10
5.7013841
20
108.5334342
40
1.0682415
50
359.8090433
51
4.9407866
0
ARC
8
DEFAULT_255_1_234
10
6.1223855
20
108.5710113
40
0.6455691
50
4.8362157
51
12.2904523
0
ARC
8
DEFAULT_255_1_234
10
6.397897
20
108.6323965
40
0.3633074
50
12.0805627
51
23.8173984
0
ARC
8
DEFAULT_255_1_234
10
6.5152676
20
108.6820919
40
0.2358723
50
24.2871213
51
31.3935614
0
ARC
8
DEFAULT_255_1_234
10
6.5677373
20
108.7164233
40
0.1732111
50
30.7407893
51
82.4657128
0
ARC
8
DEFAULT_255_1_234
10
6.5497507
20
108.6280691
40
0.263235
50
81.1060089
51
90.2184952
0
ARC
8
DEFAULT_255_1_234
10
6.5461806
20
108.6538924
40
0.2374236
50
89.3806855
51
105.6762551
0
ARC
8
DEFAULT_255_1_234
10
6.5278437
20
108.7205567
40
0.1682847
50
105.7981136
51
149.7388061
0
ARC
8
DEFAULT_255_1_234
10
6.6342515
20
108.656595
40
0.2924306
50
149.4208916
51
163.6286378
0
ARC
8
DEFAULT_255_1_234
10
6.8433403
20
108.592825
40
0.5110213
50
163.3763315
51
172.1410975
0
ARC
8
DEFAULT_255_1_234
10
7.1734122
20
108.5455518
40
0.8444586
50
172.0259487
51
178.0703232
0
ARC
8
DEFAULT_255_1_234
10
7.4764211
20
108.5311906
40
1.1477868
50
177.8631668
51
179.5044149
0
ARC
8
DEFAULT_255_1_234
10
7.3691616
20
108.2997389
40
1.0404907
50
179.7995573
51
185.2460446
0
ARC
8
DEFAULT_255_1_234
10
6.9648655
20
108.2614513
40
0.6343885
50
185.1411642
51
193.0079639
0
ARC
8
DEFAULT_255_1_234
10
6.7005128
20
108.1989641
40
0.3627568
50
192.7897626
51
205.2507664
0
ARC
8
DEFAULT_255_1_234
10
6.5958675
20
108.1522415
40
0.2481908
50
205.8005384
51
211.2537509
0
ARC
8
DEFAULT_255_1_234
10
6.5435115
20
108.117158
40
0.1852521
50
210.3789793
51
238.4008143
0
ARC
8
DEFAULT_255_1_234
10
6.5415637
20
108.1218376
40
0.1882621
50
239.6520629
51
265.9793761
0
ARC
8
DEFAULT_255_1_234
10
6.5500837
20
108.1890427
40
0.2559272
50
265.1315437
51
270.060332
0
ARC
8
DEFAULT_255_1_234
10
6.5529616
20
108.1566534
40
0.2235528
50
269.3314664
51
287.2178029
0
ARC
8
DEFAULT_255_1_234
10
6.5667468
20
108.1063279
40
0.1714108
50
287.7958004
51
329.080874
0
ARC
8
DEFAULT_255_1_234
10
6.4709925
20
108.166093
40
0.2842745
50
328.6634704
51
343.3325132
0
ARC
8
DEFAULT_255_1_234
10
6.2536945
20
108.2337863
40
0.5118644
50
343.0499468
51
351.9393422
0
ARC
8
DEFAULT_255_1_234
10
5.9070245
20
108.2848949
40
0.8622784
50
351.8069023
51
357.7959224
0
ARC
8
DEFAULT_255_1_234
10
5.5834801
20
108.3016721
40
1.1862365
50
357.5871873
51
359.2677531
0
LINE
8
DEFAULT_255_1_234
10
4.3078299
20
116.9348211
11
4.5897439
21
116.4866501
0
LINE
8
DEFAULT_255_1_234
10
4.5897439
20
116.4866501
11
4.8700516
21
116.9348211
0
LINE
8
DEFAULT_255_1_234
10
4.8700516
20
116.9348211
11
5.0515689
21
116.9348211
0
LINE
8
DEFAULT_255_1_234
10
5.0515689
20
116.9348211
11
4.6821089
21
116.3549296
0
LINE
8
DEFAULT_255_1_234
10
4.6821089
20
116.3549296
11
5.0604038
21
115.7654
0
LINE
8
DEFAULT_255_1_234
10
5.0604038
20
115.7654
11
4.8772802
21
115.7654
0
LINE
8
DEFAULT_255_1_234
10
4.8772802
20
115.7654
11
4.5897439
21
116.2216027
0
LINE
8
DEFAULT_255_1_234
10
4.5897439
20
116.2216027
11
4.3006014
21
115.7654
0
LINE
8
DEFAULT_255_1_234
10
4.3006014
20
115.7654
11
4.1182809
21
115.7654
0
LINE
8
DEFAULT_255_1_234
10
4.1182809
20
115.7654
11
4.497379
21
116.3549296
0
LINE
8
DEFAULT_255_1_234
10
4.497379
20
116.3549296
11
4.1271158
21
116.9348211
0
LINE
8
DEFAULT_255_1_234
10
4.1271158
20
116.9348211
11
4.3078299
21
116.9348211
0
LINE
8
DEFAULT_255_1_234
10
5.9197998
20
116.4673739
11
5.9197998
21
116.4240025
0
LINE
8
DEFAULT_255_1_234
10
5.3776575
20
115.7645968
11
5.3487432
21
115.7645968
0
LINE
8
DEFAULT_255_1_234
10
5.3487432
20
115.7645968
11
5.3487432
21
115.8898919
0
LINE
8
DEFAULT_255_1_234
10
5.3487432
20
115.8898919
11
5.380067
21
115.8898919
0
LINE
8
DEFAULT_255_1_234
10
5.7712126
20
116.4384597
11
5.7712126
21
116.4978945
0
ARC
8
DEFAULT_255_1_234
10
5.4918396
20
116.5130403
40
0.3635579
50
297.4037347
51
320.016758
0
ARC
8
DEFAULT_255_1_234
10
5.5208345
20
116.457324
40
0.3007486
50
270.2633101
51
297.3851877
0
ARC
8
DEFAULT_255_1_234
10
5.51743
20
116.5036904
40
0.3471448
50
269.9966443
51
270.7900392
0
ARC
8
DEFAULT_255_1_234
10
5.5148782
20
116.5035143
40
0.3469779
50
254.5999133
51
270.4180344
0
ARC
8
DEFAULT_255_1_234
10
5.5006141
20
116.4470647
40
0.2887697
50
236.4717942
51
254.3541279
0
ARC
8
DEFAULT_255_1_234
10
5.5162359
20
116.4680711
40
0.3149125
50
208.4727207
51
236.2134933
0
ARC
8
DEFAULT_255_1_234
10
5.5801134
20
116.5071455
40
0.3897115
50
204.3447514
51
209.0453999
0
ARC
8
DEFAULT_255_1_234
10
5.648071
20
116.5359656
40
0.4635101
50
183.9375985
51
204.1276318
0
ARC
8
DEFAULT_255_1_234
10
5.7388961
20
116.5457482
40
0.5548037
50
179.9652252
51
184.3013875
0
ARC
8
DEFAULT_255_1_234
10
5.7149007
20
116.5490507
40
0.5308164
50
166.7585989
51
180.3201225
0
ARC
8
DEFAULT_255_1_234
10
5.6302621
20
116.5674488
40
0.4442163
50
154.6955053
51
166.5679793
0
ARC
8
DEFAULT_255_1_234
10
5.5449491
20
116.610421
40
0.3487299
50
136.3324195
51
155.0871442
0
ARC
8
DEFAULT_255_1_234
10
5.5168564
20
116.6344954
40
0.3117924
50
121.236733
51
135.9680508
0
ARC
8
DEFAULT_255_1_234
10
5.5309062
20
116.6084743
40
0.3413302
50
96.845628
51
120.9881519
0
ARC
8
DEFAULT_255_1_234
10
5.5454643
20
116.5149515
40
0.4359341
50
89.8870174
51
97.2802754
0
ARC
8
DEFAULT_255_1_234
10
5.5507082
20
116.5787095
40
0.3722009
50
70.6505584
51
90.6749113
0
ARC
8
DEFAULT_255_1_234
10
5.5638361
20
116.6300361
40
0.3194571
50
36.7492984
51
69.8219918
0
ARC
8
DEFAULT_255_1_234
10
5.4639525
20
116.5521993
40
0.4460685
50
15.39587
51
37.0840084
0
ARC
8
DEFAULT_255_1_234
10
5.2509959
20
116.4901242
40
0.6678714
50
3.9488873
51
15.6798563
0
ARC
8
DEFAULT_255_1_234
10
5.0108587
20
116.4684964
40
0.9089418
50
359.929245
51
4.2665314
0
ARC
8
DEFAULT_255_1_234
10
4.5503024
20
116.4173513
40
1.3695135
50
352.8366322
51
0.2782669
0
ARC
8
DEFAULT_255_1_234
10
5.0790703
20
116.3486629
40
0.8363105
50
341.8359505
51
352.9884176
0
ARC
8
DEFAULT_255_1_234
10
5.4009422
20
116.24017
40
0.4966642
50
322.8578092
51
342.1527901
0
ARC
8
DEFAULT_255_1_234
10
5.4873378
20
116.1812384
40
0.3922466
50
319.334325
51
322.0998941
0
ARC
8
DEFAULT_255_1_234
10
5.4563715
20
116.2123209
40
0.4360033
50
285.9541367
51
318.8878087
0
ARC
8
DEFAULT_255_1_234
10
5.3836976
20
116.44336
40
0.678149
50
272.9281676
51
286.4922826
0
ARC
8
DEFAULT_255_1_234
10
5.3647094
20
116.6684587
40
0.9039547
50
270.8207226
51
273.4012994
0
ARC
8
DEFAULT_255_1_234
10
5.3735945
20
116.4865666
40
0.5967098
50
270.6214993
51
281.4062806
0
ARC
8
DEFAULT_255_1_234
10
5.4165925
20
116.2809833
40
0.3866861
50
281.1852553
51
299.0621114
0
ARC
8
DEFAULT_255_1_234
10
5.4539497
20
116.2088798
40
0.3055236
50
299.5067782
51
313.1200873
0
ARC
8
DEFAULT_255_1_234
10
5.4561464
20
116.2009554
40
0.2982623
50
313.8526205
51
338.5989322
0
ARC
8
DEFAULT_255_1_234
10
5.2937538
20
116.2676781
40
0.4738131
50
338.2523585
51
351.2430902
0
ARC
8
DEFAULT_255_1_234
10
5.0526834
20
116.3086447
40
0.7183203
50
350.9409515
51
357.6691871
0
ARC
8
DEFAULT_255_1_234
10
5.5417264
20
116.5088764
40
0.2294452
50
269.9447023
51
306.8248917
0
ARC
8
DEFAULT_255_1_234
10
5.5180179
20
116.5511898
40
0.2775994
50
305.5072438
51
327.0773448
0
ARC
8
DEFAULT_255_1_234
10
5.529862
20
116.5417025
40
0.2625056
50
327.4104943
51
336.840169
0
ARC
8
DEFAULT_255_1_234
10
5.2204685
20
116.5011302
40
0.5507537
50
359.6633817
51
10.117533
0
ARC
8
DEFAULT_255_1_234
10
5.3958483
20
116.5335777
40
0.372403
50
9.9430141
51
26.7700076
0
ARC
8
DEFAULT_255_1_234
10
5.4555695
20
116.5611187
40
0.3066865
50
27.2015464
51
34.6829435
0
ARC
8
DEFAULT_255_1_234
10
5.5045175
20
116.5978977
40
0.245519
50
34.1250343
51
50.3070065
0
ARC
8
DEFAULT_255_1_234
10
5.5491855
20
116.6513385
40
0.1758693
50
50.3851167
51
90.6705993
0
ARC
8
DEFAULT_255_1_234
10
5.5445088
20
116.6208799
40
0.2063326
50
89.272901
51
111.9140407
0
ARC
8
DEFAULT_255_1_234
10
5.5425616
20
116.634944
40
0.1925887
50
112.9382311
51
142.5320782
0
ARC
8
DEFAULT_255_1_234
10
5.5971796
20
116.5905969
40
0.2629232
50
142.1021256
51
166.3835592
0
ARC
8
DEFAULT_255_1_234
10
5.7153101
20
116.5600915
40
0.3849193
50
166.1100289
51
178.665427
0
ARC
8
DEFAULT_255_1_234
10
5.820069
20
116.5542117
40
0.4897989
50
178.2632126
51
180.0111093
0
ARC
8
DEFAULT_255_1_234
10
5.7398811
20
116.5513728
40
0.40962
50
179.6161962
51
191.8787166
0
ARC
8
DEFAULT_255_1_234
10
5.617865
20
116.5243896
40
0.2846655
50
191.6191692
51
215.2972286
0
ARC
8
DEFAULT_255_1_234
10
5.5981841
20
116.5128918
40
0.2619665
50
215.7320102
51
216.5355409
0
ARC
8
DEFAULT_255_1_234
10
5.5442927
20
116.4696647
40
0.1929497
50
215.7486685
51
239.9727502
0
ARC
8
DEFAULT_255_1_234
10
5.5372843
20
116.4645894
40
0.1850822
50
241.0650169
51
269.2810483
0
ARC
8
DEFAULT_255_1_234
10
5.5414758
20
116.5136371
40
0.2342059
50
268.4062526
51
270.0071348
0
LINE
8
DEFAULT_255_1_234
10
4.3078299
20
124.8723211
11
4.5897439
21
124.4241501
0
LINE
8
DEFAULT_255_1_234
10
4.5897439
20
124.4241501
11
4.8700516
21
124.8723211
0
LINE
8
DEFAULT_255_1_234
10
4.8700516
20
124.8723211
11
5.0515689
21
124.8723211
0
LINE
8
DEFAULT_255_1_234
10
5.0515689
20
124.8723211
11
4.6821089
21
124.2924296
0
LINE
8
DEFAULT_255_1_234
10
4.6821089
20
124.2924296
11
5.0604038
21
123.7029
0
LINE
8
DEFAULT_255_1_234
10
5.0604038
20
123.7029
11
4.8772802
21
123.7029
0
LINE
8
DEFAULT_255_1_234
10
4.8772802
20
123.7029
11
4.5897439
21
124.1591027
0
LINE
8
DEFAULT_255_1_234
10
4.5897439
20
124.1591027
11
4.3006014
21
123.7029
0
LINE
8
DEFAULT_255_1_234
10
4.3006014
20
123.7029
11
4.1182809
21
123.7029
0
LINE
8
DEFAULT_255_1_234
10
4.1182809
20
123.7029
11
4.497379
21
124.2924296
0
LINE
8
DEFAULT_255_1_234
10
4.497379
20
124.2924296
11
4.1271158
21
124.8723211
0
LINE
8
DEFAULT_255_1_234
10
4.1271158
20
124.8723211
11
4.3078299
21
124.8723211
0
ARC
8
DEFAULT_255_1_234
10
5.6279376
20
124.5645703
40
0.2822356
50
338.8763615
51
0.5166041
0
ARC
8
DEFAULT_255_1_234
10
5.644803
20
124.5600208
40
0.2648703
50
325.8412414
51
338.4795939
0
ARC
8
DEFAULT_255_1_234
10
5.6057398
20
124.5871042
40
0.3124019
50
296.7586019
51
325.753654
0
ARC
8
DEFAULT_255_1_234
10
5.5769506
20
124.6355789
40
0.368668
50
296.0902311
51
297.3618122
0
ARC
8
DEFAULT_255_1_234
10
5.6026964
20
123.9801041
40
0.3518806
50
47.9009248
51
67.1946869
0
ARC
8
DEFAULT_255_1_234
10
5.6223206
20
124.0047395
40
0.320451
50
35.236241
51
47.551371
0
ARC
8
DEFAULT_255_1_234
10
5.6484824
20
124.0221993
40
0.2890103
50
359.2759738
51
35.4014081
0
ARC
8
DEFAULT_255_1_234
10
5.5739855
20
124.0148826
40
0.3635026
50
343.1294516
51
0.5776525
0
ARC
8
DEFAULT_255_1_234
10
5.64644
20
123.994933
40
0.2883832
50
310.8497458
51
342.744803
0
ARC
8
DEFAULT_255_1_234
10
5.6046513
20
124.0426294
40
0.3517954
50
281.5473923
51
310.9169905
0
ARC
8
DEFAULT_255_1_234
10
5.5689962
20
124.1979084
40
0.5110832
50
269.6192722
51
281.9789957
0
ARC
8
DEFAULT_255_1_234
10
5.5617752
20
124.1979828
40
0.5111606
50
257.4584469
51
270.4287458
0
ARC
8
DEFAULT_255_1_234
10
5.5236895
20
124.0376344
40
0.3463762
50
228.7553743
51
257.8484423
0
ARC
8
DEFAULT_255_1_234
10
5.4927093
20
124.0003442
40
0.297916
50
184.0104442
51
228.5071787
0
ARC
8
DEFAULT_255_1_234
10
5.6090037
20
124.0180512
40
0.4152734
50
179.9315461
51
185.3254504
0
ARC
8
DEFAULT_255_1_234
10
5.4913683
20
124.0217992
40
0.2976554
50
145.6795913
51
180.6259649
0
ARC
8
DEFAULT_255_1_234
10
5.5077032
20
124.0103929
40
0.3175776
50
115.5537925
51
145.6416199
0
ARC
8
DEFAULT_255_1_234
10
5.5417962
20
123.9493028
40
0.3874232
50
113.2437915
51
116.2054627
0
ARC
8
DEFAULT_255_1_234
10
5.5265175
20
124.589158
40
0.3154751
50
222.9548379
51
244.1372485
0
ARC
8
DEFAULT_255_1_234
10
5.514325
20
124.5754834
40
0.2972382
50
213.3439227
51
222.6271327
0
ARC
8
DEFAULT_255_1_234
10
5.4951184
20
124.5624308
40
0.274019
50
180.4316517
51
213.2713999
0
ARC
8
DEFAULT_255_1_234
10
5.5526186
20
124.567111
40
0.33158
50
179.9992944
51
181.1655061
0
ARC
8
DEFAULT_255_1_234
10
5.5935603
20
124.5705561
40
0.3725376
50
164.6186108
51
180.5292368
0
ARC
8
DEFAULT_255_1_234
10
5.5037466
20
124.5947101
40
0.2795349
50
132.2454369
51
164.5092287
0
ARC
8
DEFAULT_255_1_234
10
5.532457
20
124.5622028
40
0.3229019
50
100.7052766
51
132.1387266
0
ARC
8
DEFAULT_255_1_234
10
5.5629542
20
124.4244086
40
0.4639835
50
89.6732617
51
101.2449487
0
ARC
8
DEFAULT_255_1_234
10
5.569174
20
124.441899
40
0.4464999
50
76.2876631
51
90.4586123
0
ARC
8
DEFAULT_255_1_234
10
5.5997972
20
124.564122
40
0.3205023
50
47.8240157
51
76.4266918
0
ARC
8
DEFAULT_255_1_234
10
5.6220522
20
124.590159
40
0.2862661
50
6.9168658
51
47.6261438
0
ARC
8
DEFAULT_255_1_234
10
5.5033925
20
124.568237
40
0.4067708
50
359.8419705
51
7.9694496
0
ARC
8
DEFAULT_255_1_234
10
5.5375822
20
124.0241925
40
0.2513121
50
359.4454068
51
16.9256425
0
ARC
8
DEFAULT_255_1_234
10
5.5844633
20
124.0371033
40
0.2027071
50
17.292259
51
45.462717
0
ARC
8
DEFAULT_255_1_234
10
5.5790569
20
124.0324434
40
0.2098212
50
45.3028762
51
83.1921472
0
ARC
8
DEFAULT_255_1_234
10
5.5647253
20
123.9522895
40
0.2911472
50
82.2614531
51
90.143954
0
ARC
8
DEFAULT_255_1_234
10
5.5616373
20
123.975595
40
0.2678513
50
89.4959189
51
104.8579811
0
ARC
8
DEFAULT_255_1_234
10
5.5439632
20
124.042589
40
0.1985654
50
104.8855873
51
135.2448349
0
ARC
8
DEFAULT_255_1_234
10
5.5489405
20
124.0381336
40
0.2052373
50
135.3398955
51
172.104394
0
ARC
8
DEFAULT_255_1_234
10
5.6296463
20
124.0226925
40
0.2873299
50
171.2651929
51
180.1859362
0
ARC
8
DEFAULT_255_1_234
10
5.6127164
20
124.0194733
40
0.2704083
50
179.515471
51
193.6466734
0
ARC
8
DEFAULT_255_1_234
10
5.5310933
20
123.9986777
40
0.1861855
50
193.3540587
51
225.8256931
0
ARC
8
DEFAULT_255_1_234
10
5.535169
20
124.0057524
40
0.1941102
50
226.418029
51
255.8553723
0
ARC
8
DEFAULT_255_1_234
10
5.5608123
20
124.0993998
40
0.2911917
50
255.4655572
51
268.7985967
0
ARC
8
DEFAULT_255_1_234
10
5.5655315
20
124.1832491
40
0.3751331
50
268.3464808
51
270.0104874
0
ARC
8
DEFAULT_255_1_234
10
5.5678703
20
124.1148138
40
0.3067064
50
269.575914
51
282.0823146
0
ARC
8
DEFAULT_255_1_234
10
5.5903612
20
124.0153803
40
0.2047712
50
281.7522535
51
306.6056425
0
ARC
8
DEFAULT_255_1_234
10
5.6002038
20
123.9992487
40
0.1859604
50
307.1350025
51
314.0277951
0
ARC
8
DEFAULT_255_1_234
10
5.5966122
20
124.0018766
40
0.1903475
50
314.2553419
51
350.169324
0
ARC
8
DEFAULT_255_1_234
10
5.5114591
20
124.0203409
40
0.2774269
50
349.4145679
51
0.2930737
0
ARC
8
DEFAULT_255_1_234
10
5.5635024
20
124.5362353
40
0.2300764
50
89.477591
51
105.729794
0
ARC
8
DEFAULT_255_1_234
10
5.5498937
20
124.5867637
40
0.1777519
50
105.922966
51
135.1662921
0
ARC
8
DEFAULT_255_1_234
10
5.551944
20
124.5853419
40
0.1802087
50
135.3053131
51
168.9882338
0
ARC
8
DEFAULT_255_1_234
10
5.6347012
20
124.5663721
40
0.2650806
50
168.3802067
51
180.3602358
0
ARC
8
DEFAULT_255_1_234
10
5.6118592
20
124.5626041
40
0.2422425
50
179.5029707
51
194.9126783
0
ARC
8
DEFAULT_255_1_234
10
5.5533253
20
124.547211
40
0.1817188
50
194.9722181
51
224.1943972
0
ARC
8
DEFAULT_255_1_234
10
5.550512
20
124.5449169
40
0.1781027
50
224.2961434
51
262.0157375
0
ARC
8
DEFAULT_255_1_234
10
5.5647363
20
124.6180661
40
0.2525492
50
261.1250369
51
270.1959853
0
ARC
8
DEFAULT_255_1_234
10
5.5677118
20
124.5993339
40
0.233825
50
269.4825617
51
285.0988277
0
ARC
8
DEFAULT_255_1_234
10
5.5831277
20
124.541499
40
0.1739712
50
285.1585659
51
315.9484648
0
ARC
8
DEFAULT_255_1_234
10
5.5742289
20
124.5496886
40
0.1860616
50
316.0412958
51
351.9162715
0
ARC
8
DEFAULT_255_1_234
10
5.5009244
20
124.5638245
40
0.2606517
50
351.1056823
51
0.1936567
0
ARC
8
DEFAULT_255_1_234
10
5.5272073
20
124.5668369
40
0.234377
50
359.4789506
51
16.0679113
0
ARC
8
DEFAULT_255_1_234
10
5.5748032
20
124.579681
40
0.1850875
50
16.3251951
51
44.791304
0
ARC
8
DEFAULT_255_1_234
10
5.5730313
20
124.5797339
40
0.186312
50
44.3958661
51
88.2498933
0
ARC
8
DEFAULT_255_1_234
10
5.5656867
20
124.5186154
40
0.2476868
50
86.9833827
51
90.0200148
0
LINE
8
DEFAULT_255_1_234
10
4.3078299
20
132.8098211
11
4.5897439
21
132.3616501
0
LINE
8
DEFAULT_255_1_234
10
4.5897439
20
132.3616501
11
4.8700516
21
132.8098211
0
LINE
8
DEFAULT_255_1_234
10
4.8700516
20
132.8098211
11
5.0515689
21
132.8098211
0
LINE
8
DEFAULT_255_1_234
10
5.0515689
20
132.8098211
11
4.6821089
21
132.2299296
0
LINE
8
DEFAULT_255_1_234
10
4.6821089
20
132.2299296
11
5.0604038
21
131.6404
0
LINE
8
DEFAULT_255_1_234
10
5.0604038
20
131.6404
11
4.8772802
21
131.6404
0
LINE
8
DEFAULT_255_1_234
10
4.8772802
20
131.6404
11
4.5897439
21
132.0966027
0
LINE
8
DEFAULT_255_1_234
10
4.5897439
20
132.0966027
11
4.3006014
21
131.6404
0
LINE
8
DEFAULT_255_1_234
10
4.3006014
20
131.6404
11
4.1182809
21
131.6404
0
LINE
8
DEFAULT_255_1_234
10
4.1182809
20
131.6404
11
4.497379
21
132.2299296
0
LINE
8
DEFAULT_255_1_234
10
4.497379
20
132.2299296
11
4.1271158
21
132.8098211
0
LINE
8
DEFAULT_255_1_234
10
4.1271158
20
132.8098211
11
4.3078299
21
132.8098211
0
LINE
8
DEFAULT_255_1_234
10
5.9559426
20
132.8098211
11
5.9559426
21
132.726291
0
LINE
8
DEFAULT_255_1_234
10
5.9559426
20
132.726291
11
5.4716288
21
131.6404
0
LINE
8
DEFAULT_255_1_234
10
5.4716288
20
131.6404
11
5.3158131
21
131.6404
0
LINE
8
DEFAULT_255_1_234
10
5.3158131
20
131.6404
11
5.7985206
21
132.6877387
0
LINE
8
DEFAULT_255_1_234
10
5.7985206
20
132.6877387
11
5.1656196
21
132.6877387
0
LINE
8
DEFAULT_255_1_234
10
5.1656196
20
132.6877387
11
5.1656196
21
132.8098211
0
LINE
8
DEFAULT_255_1_234
10
5.1656196
20
132.8098211
11
5.9559426
21
132.8098211
0
LINE
8
DEFAULT_255_1_234
10
4.3078299
20
140.7473211
11
4.5897439
21
140.2991501
0
LINE
8
DEFAULT_255_1_234
10
4.5897439
20
140.2991501
11
4.8700516
21
140.7473211
0
LINE
8
DEFAULT_255_1_234
10
4.8700516
20
140.7473211
11
5.0515689
21
140.7473211
0
LINE
8
DEFAULT_255_1_234
10
5.0515689
20
140.7473211
11
4.6821089
21
140.1674296
0
LINE
8
DEFAULT_255_1_234
10
4.6821089
20
140.1674296
11
5.0604038
21
139.5779
0
LINE
8
DEFAULT_255_1_234
10
5.0604038
20
139.5779
11
4.8772802
21
139.5779
0
LINE
8
DEFAULT_255_1_234
10
4.8772802
20
139.5779
11
4.5897439
21
140.0341027
0
LINE
8
DEFAULT_255_1_234
10
4.5897439
20
140.0341027
11
4.3006014
21
139.5779
0
LINE
8
DEFAULT_255_1_234
10
4.3006014
20
139.5779
11
4.1182809
21
139.5779
0
LINE
8
DEFAULT_255_1_234
10
4.1182809
20
139.5779
11
4.497379
21
140.1674296
0
LINE
8
DEFAULT_255_1_234
10
4.497379
20
140.1674296
11
4.1271158
21
140.7473211
0
LINE
8
DEFAULT_255_1_234
10
4.1271158
20
140.7473211
11
4.3078299
21
140.7473211
0
LINE
8
DEFAULT_255_1_234
10
5.7575587
20
140.7481243
11
5.7840634
21
140.7481243
0
LINE
8
DEFAULT_255_1_234
10
5.7840634
20
140.7481243
11
5.7840634
21
140.622026
0
LINE
8
DEFAULT_255_1_234
10
5.7840634
20
140.622026
11
5.7567555
21
140.622026
0
LINE
8
DEFAULT_255_1_234
10
5.2097941
20
140.0228583
11
5.2097941
21
140.0798836
0
LINE
8
DEFAULT_255_1_234
10
5.3591845
20
140.0606075
11
5.3591845
21
140.0059917
0
ARC
8
DEFAULT_255_1_234
10
5.7619903
20
140.1222455
40
0.4998079
50
90.6001036
51
104.514704
0
ARC
8
DEFAULT_255_1_234
10
5.7231419
20
140.2667131
40
0.3502176
50
104.2855254
51
133.862935
0
ARC
8
DEFAULT_255_1_234
10
5.7395176
20
140.255883
40
0.3693984
50
134.5302688
51
161.6210873
0
ARC
8
DEFAULT_255_1_234
10
5.9048365
20
140.1975895
40
0.5446739
50
161.2849839
51
174.2076652
0
ARC
8
DEFAULT_255_1_234
10
6.0455302
20
140.1781787
40
0.6866274
50
173.7810589
51
174.9254635
0
ARC
8
DEFAULT_255_1_234
10
5.5905134
20
140.0398839
40
0.3033419
50
95.8330959
51
138.9954921
0
ARC
8
DEFAULT_255_1_234
10
5.612849
20
139.9120375
40
0.4328947
50
89.8753725
51
97.0544009
0
ARC
8
DEFAULT_255_1_234
10
5.6175956
20
139.9955748
40
0.3493769
50
71.6407809
51
90.6240094
0
ARC
8
DEFAULT_255_1_234
10
5.6326529
20
140.0510082
40
0.2920396
50
39.6367836
51
71.019018
0
ARC
8
DEFAULT_255_1_234
10
5.5690002
20
139.9959998
40
0.3761538
50
10.658731
51
39.9043955
0
ARC
8
DEFAULT_255_1_234
10
5.4142085
20
139.9623686
40
0.5345136
50
359.682601
51
11.132623
0
ARC
8
DEFAULT_255_1_234
10
5.4102216
20
139.955301
40
0.5385081
50
347.2486944
51
0.4369317
0
ARC
8
DEFAULT_255_1_234
10
5.5769693
20
139.9151807
40
0.3670249
50
318.1409698
51
347.6118597
0
ARC
8
DEFAULT_255_1_234
10
5.6094686
20
139.8884702
40
0.3250007
50
275.6342139
51
317.8248465
0
ARC
8
DEFAULT_255_1_234
10
5.5873797
20
140.0184219
40
0.4565864
50
269.8874292
51
276.7917694
0
ARC
8
DEFAULT_255_1_234
10
5.5818868
20
139.9158743
40
0.3540676
50
246.9140195
51
270.7437342
0
ARC
8
DEFAULT_255_1_234
10
5.5825258
20
139.9016384
40
0.3412781
50
218.1665114
51
245.878116
0
ARC
8
DEFAULT_255_1_234
10
5.6704719
20
139.9752279
40
0.455911
50
191.4115814
51
218.6077802
0
ARC
8
DEFAULT_255_1_234
10
5.8642808
20
140.0186833
40
0.6545001
50
179.6345085
51
191.7836486
0
ARC
8
DEFAULT_255_1_234
10
6.4225145
20
140.0865697
40
1.2127388
50
171.4525249
51
180.3158839
0
ARC
8
DEFAULT_255_1_234
10
5.9830021
20
140.1549608
40
0.7679464
50
157.9802646
51
171.6246686
0
ARC
8
DEFAULT_255_1_234
10
5.7616042
20
140.2432421
40
0.5296008
50
141.4298019
51
157.854097
0
ARC
8
DEFAULT_255_1_234
10
5.6974362
20
140.2886381
40
0.4511509
50
102.8715806
51
140.8564722
0
ARC
8
DEFAULT_255_1_234
10
5.7621978
20
140.0446552
40
0.7034845
50
90.3778349
51
103.5869322
0
ARC
8
DEFAULT_255_1_234
10
5.5883754
20
139.984173
40
0.2370698
50
89.8751008
51
126.2071704
0
ARC
8
DEFAULT_255_1_234
10
5.5929544
20
139.9687303
40
0.2522934
50
124.9745049
51
144.895901
0
ARC
8
DEFAULT_255_1_234
10
5.5753734
20
139.983056
40
0.2296779
50
145.2974905
51
160.2660252
0
ARC
8
DEFAULT_255_1_234
10
5.8826273
20
140.0028071
40
0.5234525
50
179.6514266
51
190.2855912
0
ARC
8
DEFAULT_255_1_234
10
5.713241
20
139.9708786
40
0.3510893
50
190.0945431
51
207.5098196
0
ARC
8
DEFAULT_255_1_234
10
5.656668
20
139.9439623
40
0.288489
50
207.9583163
51
216.3251085
0
ARC
8
DEFAULT_255_1_234
10
5.6226788
20
139.9160105
40
0.2445587
50
215.7661442
51
232.5456785
0
ARC
8
DEFAULT_255_1_234
10
5.5843771
20
139.8673482
40
0.1826382
50
232.8005391
51
270.6605633
0
ARC
8
DEFAULT_255_1_234
10
5.5889472
20
139.9037612
40
0.2190529
50
269.35537
51
288.4744281
0
ARC
8
DEFAULT_255_1_234
10
5.5982369
20
139.8688118
40
0.1829749
50
289.1833337
51
322.9683818
0
ARC
8
DEFAULT_255_1_234
10
5.5370891
20
139.9170391
40
0.2608399
50
322.6007884
51
346.5182367
0
ARC
8
DEFAULT_255_1_234
10
5.4213487
20
139.9465616
40
0.3802777
50
346.2582162
51
358.7741648
0
ARC
8
DEFAULT_255_1_234
10
5.3195156
20
139.9520965
40
0.4822176
50
358.3755224
51
0.0098023
0
ARC
8
DEFAULT_255_1_234
10
5.3951343
20
139.9548657
40
0.4066078
50
359.6214041
51
11.2839074
0
ARC
8
DEFAULT_255_1_234
10
5.522849
20
139.9815066
40
0.2761514
50
11.0482309
51
31.8146458
0
ARC
8
DEFAULT_255_1_234
10
5.5537533
20
139.9982584
40
0.2410679
50
32.3035391
51
38.082671
0
ARC
8
DEFAULT_255_1_234
10
5.5958193
20
140.0363662
40
0.1844966
50
36.825067
51
85.7415724
0
ARC
8
DEFAULT_255_1_234
10
5.5891026
20
139.9863301
40
0.2349122
50
85.0140713
51
90.0513278
0
LINE
8
DEFAULT_255_1_234
10
4.3078299
20
148.6848211
11
4.5897439
21
148.2366501
0
LINE
8
DEFAULT_255_1_234
10
4.5897439
20
148.2366501
11
4.8700516
21
148.6848211
0
LINE
8
DEFAULT_255_1_234
10
4.8700516
20
148.6848211
11
5.0515689
21
148.6848211
0
LINE
8
DEFAULT_255_1_234
10
5.0515689
20
148.6848211
11
4.6821089
21
148.1049296
0
LINE
8
DEFAULT_255_1_234
10
4.6821089
20
148.1049296
11
5.0604038
21
147.5154
0
LINE
8
DEFAULT_255_1_234
10
5.0604038
20
147.5154
11
4.8772802
21
147.5154
0
LINE
8
DEFAULT_255_1_234
10
4.8772802
20
147.5154
11
4.5897439
21
147.9716027
0
LINE
8
DEFAULT_255_1_234
10
4.5897439
20
147.9716027
11
4.3006014
21
147.5154
0
LINE
8
DEFAULT_255_1_234
10
4.3006014
20
147.5154
11
4.1182809
21
147.5154
0
LINE
8
DEFAULT_255_1_234
10
4.1182809
20
147.5154
11
4.497379
21
148.1049296
0
LINE
8
DEFAULT_255_1_234
10
4.497379
20
148.1049296
11
4.1271158
21
148.6848211
0
LINE
8
DEFAULT_255_1_234
10
4.1271158
20
148.6848211
11
4.3078299
21
148.6848211
0
LINE
8
DEFAULT_255_1_234
10
5.3880987
20
148.0711963
11
5.269229
21
148.1017169
0
LINE
8
DEFAULT_255_1_234
10
5.269229
20
148.1017169
11
5.3286639
21
148.6848211
0
LINE
8
DEFAULT_255_1_234
10
5.3286639
20
148.6848211
11
5.9278315
21
148.6848211
0
LINE
8
DEFAULT_255_1_234
10
5.9278315
20
148.6848211
11
5.9278315
21
148.5474784
0
LINE
8
DEFAULT_255_1_234
10
5.9278315
20
148.5474784
11
5.4547622
21
148.5474784
0
LINE
8
DEFAULT_255_1_234
10
5.4547622
20
148.5474784
11
5.4194225
21
148.2286184
0
LINE
8
DEFAULT_255_1_234
10
5.227464
20
147.8230156
11
5.3680194
21
147.8230156
0
LINE
8
DEFAULT_255_1_234
10
5.4274542
20
148.1033232
11
5.3880987
21
148.0711963
0
ARC
8
DEFAULT_255_1_234
10
5.6049009
20
147.910623
40
0.3681349
50
93.7182161
51
120.2538958
0
ARC
8
DEFAULT_255_1_234
10
5.6143272
20
147.8298394
40
0.449379
50
89.9660152
51
94.2496022
0
ARC
8
DEFAULT_255_1_234
10
5.6184006
20
147.8887549
40
0.390482
50
73.8043271
51
90.5585896
0
ARC
8
DEFAULT_255_1_234
10
5.6418903
20
147.9745602
40
0.3015334
50
41.3071453
51
73.5430202
0
ARC
8
DEFAULT_255_1_234
10
5.600273
20
147.9387324
40
0.3564457
50
13.5075983
51
41.2174222
0
ARC
8
DEFAULT_255_1_234
10
5.4360934
20
147.8957486
40
0.5261351
50
1.1331335
51
13.8829381
0
ARC
8
DEFAULT_255_1_234
10
5.2949303
20
147.8881665
40
0.6674378
50
359.9919444
51
1.544251
0
ARC
8
DEFAULT_255_1_234
10
5.4226129
20
147.884028
40
0.5397702
50
347.8572367
51
0.4293338
0
ARC
8
DEFAULT_255_1_234
10
5.5976447
20
147.8443736
40
0.3603188
50
323.673004
51
348.1672506
0
ARC
8
DEFAULT_255_1_234
10
5.6270955
20
147.8264168
40
0.3259678
50
316.8171152
51
323.1492751
0
ARC
8
DEFAULT_255_1_234
10
5.6332144
20
147.822746
40
0.3189975
50
281.8396411
51
316.5457803
0
ARC
8
DEFAULT_255_1_234
10
5.5956408
20
147.9782762
40
0.4789527
50
269.5770101
51
282.4214771
0
ARC
8
DEFAULT_255_1_234
10
5.5885219
20
147.9569125
40
0.45759
50
256.2427136
51
270.4486331
0
ARC
8
DEFAULT_255_1_234
10
5.5586121
20
147.8369229
40
0.3339303
50
228.9023911
51
256.3314342
0
ARC
8
DEFAULT_255_1_234
10
5.5512354
20
147.8252746
40
0.32031
50
193.753695
51
228.5271154
0
ARC
8
DEFAULT_255_1_234
10
5.6750308
20
147.86158
40
0.4492253
50
184.924711
51
194.497588
0
ARC
8
DEFAULT_255_1_234
10
5.6942875
20
147.8651591
40
0.3289787
50
187.3600538
51
198.6732863
0
ARC
8
DEFAULT_255_1_234
10
5.5893169
20
147.8287674
40
0.217884
50
198.4451669
51
217.794479
0
ARC
8
DEFAULT_255_1_234
10
5.5597344
20
147.8078085
40
0.1816698
50
218.2887171
51
228.5612368
0
ARC
8
DEFAULT_255_1_234
10
5.5695131
20
147.8209963
40
0.1980329
50
228.9654866
51
258.1234728
0
ARC
8
DEFAULT_255_1_234
10
5.5900841
20
147.9090833
40
0.2884748
50
257.7258293
51
270.401361
0
ARC
8
DEFAULT_255_1_234
10
5.5945727
20
147.8645821
40
0.2439788
50
269.4204404
51
286.4209037
0
ARC
8
DEFAULT_255_1_234
10
5.6094215
20
147.8106657
40
0.1880666
50
286.7251356
51
320.600362
0
ARC
8
DEFAULT_255_1_234
10
5.571104
20
147.8417595
40
0.2374121
50
320.6712579
51
344.5441685
0
ARC
8
DEFAULT_255_1_234
10
5.4554366
20
147.8757045
40
0.3579479
50
344.2412205
51
356.7357071
0
ARC
8
DEFAULT_255_1_234
10
5.3305515
20
147.8860444
40
0.4832297
50
356.3548756
51
0.0500261
0
ARC
8
DEFAULT_255_1_234
10
5.4642024
20
147.889165
40
0.3495889
50
359.5576869
51
12.953486
0
ARC
8
DEFAULT_255_1_234
10
5.5696921
20
147.9147434
40
0.2410532
50
12.6490276
51
41.6081334
0
ARC
8
DEFAULT_255_1_234
10
5.5927292
20
147.9343321
40
0.2108218
50
41.7850273
51
85.9892764
0
ARC
8
DEFAULT_255_1_234
10
5.5804029
20
147.8530462
40
0.2928454
50
84.6957577
51
90.0676183
0
ARC
8
DEFAULT_255_1_234
10
5.5780513
20
147.7861716
40
0.3597255
50
89.6804936
51
99.1614436
0
ARC
8
DEFAULT_255_1_234
10
5.5575144
20
147.9089131
40
0.235281
50
98.9830931
51
113.8908934
0
ARC
8
DEFAULT_255_1_234
10
5.5345554
20
147.9630587
40
0.176479
50
114.1950727
51
127.3641004
0
LINE
8
DEFAULT_255_1_234
10
4.4137299
20
156.6223211
11
4.6956439
21
156.1741501
0
LINE
8
DEFAULT_255_1_234
10
4.6956439
20
156.1741501
11
4.9759516
21
156.6223211
0
LINE
8
DEFAULT_255_1_234
10
4.9759516
20
156.6223211
11
5.1574689
21
156.6223211
0
LINE
8
DEFAULT_255_1_234
10
5.1574689
20
156.6223211
11
4.7880089
21
156.0424296
0
LINE
8
DEFAULT_255_1_234
10
4.7880089
20
156.0424296
11
5.1663038
21
155.4529
0
LINE
8
DEFAULT_255_1_234
10
5.1663038
20
155.4529
11
4.9831802
21
155.4529
0
LINE
8
DEFAULT_255_1_234
10
4.9831802
20
155.4529
11
4.6956439
21
155.9091027
0
LINE
8
DEFAULT_255_1_234
10
4.6956439
20
155.9091027
11
4.4065014
21
155.4529
0
LINE
8
DEFAULT_255_1_234
10
4.4065014
20
155.4529
11
4.2241809
21
155.4529
0
LINE
8
DEFAULT_255_1_234
10
4.2241809
20
155.4529
11
4.603279
21
156.0424296
0
LINE
8
DEFAULT_255_1_234
10
4.603279
20
156.0424296
11
4.2330158
21
156.6223211
0
LINE
8
DEFAULT_255_1_234
10
4.2330158
20
156.6223211
11
4.4137299
21
156.6223211
0
LINE
8
DEFAULT_255_1_234
10
5.934138
20
156.6223211
11
5.934138
21
155.845652
0
LINE
8
DEFAULT_255_1_234
10
5.934138
20
155.845652
11
6.0963791
21
155.845652
0
LINE
8
DEFAULT_255_1_234
10
6.0963791
20
155.845652
11
6.0963791
21
155.7243728
0
LINE
8
DEFAULT_255_1_234
10
6.0963791
20
155.7243728
11
5.934138
21
155.7243728
0
LINE
8
DEFAULT_255_1_234
10
5.934138
20
155.7243728
11
5.934138
21
155.4529
0
LINE
8
DEFAULT_255_1_234
10
5.934138
20
155.4529
11
5.7847477
21
155.4529
0
LINE
8
DEFAULT_255_1_234
10
5.7847477
20
155.4529
11
5.7847477
21
155.7243728
0
LINE
8
DEFAULT_255_1_234
10
5.7847477
20
155.7243728
11
5.2522434
21
155.7243728
0
LINE
8
DEFAULT_255_1_234
10
5.2522434
20
155.7243728
11
5.2522434
21
155.8119187
0
LINE
8
DEFAULT_255_1_234
10
5.2522434
20
155.8119187
11
5.7759127
21
156.6223211
0
LINE
8
DEFAULT_255_1_234
10
5.7759127
20
156.6223211
11
5.934138
21
156.6223211
0
LINE
8
DEFAULT_255_1_234
10
5.7670778
20
156.3869912
11
5.4209099
21
155.845652
0
LINE
8
DEFAULT_255_1_234
10
5.4209099
20
155.845652
11
5.7847477
21
155.845652
0
LINE
8
DEFAULT_255_1_234
10
5.7847477
20
155.845652
11
5.7847477
21
156.4191181
0
LINE
8
DEFAULT_255_1_234
10
5.7847477
20
156.4191181
11
5.7670778
21
156.3869912
0
LINE
8
DEFAULT_255_1_234
10
4.3078299
20
164.5598211
11
4.5897439
21
164.1116501
0
LINE
8
DEFAULT_255_1_234
10
4.5897439
20
164.1116501
11
4.8700516
21
164.5598211
0
LINE
8
DEFAULT_255_1_234
10
4.8700516
20
164.5598211
11
5.0515689
21
164.5598211
0
LINE
8
DEFAULT_255_1_234
10
5.0515689
20
164.5598211
11
4.6821089
21
163.9799296
0
LINE
8
DEFAULT_255_1_234
10
4.6821089
20
163.9799296
11
5.0604038
21
163.3904
0
LINE
8
DEFAULT_255_1_234
10
5.0604038
20
163.3904
11
4.8772802
21
163.3904
0
LINE
8
DEFAULT_255_1_234
10
4.8772802
20
163.3904
11
4.5897439
21
163.8466027
0
LINE
8
DEFAULT_255_1_234
10
4.5897439
20
163.8466027
11
4.3006014
21
163.3904
0
LINE
8
DEFAULT_255_1_234
10
4.3006014
20
163.3904
11
4.1182809
21
163.3904
0
LINE
8
DEFAULT_255_1_234
10
4.1182809
20
163.3904
11
4.497379
21
163.9799296
0
LINE
8
DEFAULT_255_1_234
10
4.497379
20
163.9799296
11
4.1271158
21
164.5598211
0
LINE
8
DEFAULT_255_1_234
10
4.1271158
20
164.5598211
11
4.3078299
21
164.5598211
0
LINE
8
DEFAULT_255_1_234
10
5.417013
20
163.9261169
11
5.417013
21
164.0473962
0
LINE
8
DEFAULT_255_1_234
10
5.417013
20
164.0473962
11
5.5286542
21
164.0473962
0
LINE
8
DEFAULT_255_1_234
10
5.338302
20
164.2530087
11
5.1897148
21
164.2530087
0
LINE
8
DEFAULT_255_1_234
10
5.1792735
20
163.6988188
11
5.3286639
21
163.6988188
0
LINE
8
DEFAULT_255_1_234
10
5.5286542
20
163.9261169
11
5.417013
21
163.9261169
0
ARC
8
DEFAULT_255_1_234
10
5.5257408
20
164.3866713
40
0.3392876
50
270.4919872
51
281.8951556
0
ARC
8
DEFAULT_255_1_234
10
5.549867
20
164.2764702
40
0.2264817
50
281.6691735
51
301.2943132
0
ARC
8
DEFAULT_255_1_234
10
5.566888
20
164.2453304
40
0.1910381
50
301.7833094
51
311.7545298
0
ARC
8
DEFAULT_255_1_234
10
5.5760456
20
164.2351748
40
0.1773635
50
311.7323931
51
354.2802411
0
ARC
8
DEFAULT_255_1_234
10
5.5034081
20
164.2476722
40
0.2509385
50
353.0937916
51
0.1181479
0
ARC
8
DEFAULT_255_1_234
10
5.4572866
20
164.2524386
40
0.2970898
50
359.1805295
51
15.0453146
0
ARC
8
DEFAULT_255_1_234
10
5.5918703
20
164.2916992
40
0.1569564
50
13.9577229
51
77.6713066
0
ARC
8
DEFAULT_255_1_234
10
5.5532232
20
164.1531949
40
0.3006298
50
76.1116566
51
90.7026153
0
ARC
8
DEFAULT_255_1_234
10
5.547307
20
164.1805545
40
0.2732568
50
89.5324876
51
103.531937
0
ARC
8
DEFAULT_255_1_234
10
5.5272514
20
164.2604884
40
0.1908508
50
103.2931773
51
133.5619022
0
ARC
8
DEFAULT_255_1_234
10
5.5228003
20
164.2664375
40
0.1834746
50
133.8349307
51
173.5344437
0
ARC
8
DEFAULT_255_1_234
10
5.5951046
20
164.2536213
40
0.2568033
50
172.5096846
51
180.1366907
0
ARC
8
DEFAULT_255_1_234
10
5.499994
20
164.2570622
40
0.3103056
50
155.3484492
51
180.7484736
0
ARC
8
DEFAULT_255_1_234
10
5.4951029
20
164.2541846
40
0.3070957
50
131.5744599
51
154.4798489
0
ARC
8
DEFAULT_255_1_234
10
5.5264176
20
164.222531
40
0.3515643
50
96.9875458
51
131.9690667
0
ARC
8
DEFAULT_255_1_234
10
5.5483656
20
164.0979636
40
0.4779224
50
89.8596053
51
97.7825159
0
ARC
8
DEFAULT_255_1_234
10
5.5531719
20
164.0717616
40
0.5041361
50
78.3655447
51
90.4131539
0
ARC
8
DEFAULT_255_1_234
10
5.5889637
20
164.2376887
40
0.3344039
50
56.6229102
51
78.638727
0
ARC
8
DEFAULT_255_1_234
10
5.6104581
20
164.2752805
40
0.2912001
50
47.0253525
51
56.0854072
0
ARC
8
DEFAULT_255_1_234
10
5.6124361
20
164.2792223
40
0.2869704
50
10.9208013
51
46.7778124
0
ARC
8
DEFAULT_255_1_234
10
5.4760427
20
164.2476857
40
0.426899
50
359.6364486
51
11.6087304
0
ARC
8
DEFAULT_255_1_234
10
5.6595271
20
164.2461752
40
0.243409
50
332.3549906
51
359.7179418
0
ARC
8
DEFAULT_255_1_234
10
5.5944873
20
164.2770142
40
0.3153459
50
325.2333722
51
332.8745602
0
ARC
8
DEFAULT_255_1_234
10
5.6097496
20
164.2663828
40
0.2967456
50
292.9802137
51
325.2392345
0
ARC
8
DEFAULT_255_1_234
10
5.582287
20
164.3197863
40
0.3566604
50
292.5402179
51
293.6924929
0
ARC
8
DEFAULT_255_1_234
10
5.6215466
20
163.6743091
40
0.3307468
50
57.6435486
51
72.8625112
0
ARC
8
DEFAULT_255_1_234
10
5.6569966
20
163.7317549
40
0.2632492
50
36.7248896
51
57.4697979
0
ARC
8
DEFAULT_255_1_234
10
5.6558598
20
163.733022
40
0.2634081
50
8.0545065
51
36.356114
0
ARC
8
DEFAULT_255_1_234
10
5.5695784
20
163.7175174
40
0.3510261
50
359.8320645
51
8.5869982
0
ARC
8
DEFAULT_255_1_234
10
5.532056
20
163.7127101
40
0.3885653
50
343.9829931
51
0.5571613
0
ARC
8
DEFAULT_255_1_234
10
5.6206757
20
163.6884438
40
0.2966924
50
311.6359546
51
343.7651759
0
ARC
8
DEFAULT_255_1_234
10
5.5828326
20
163.7311102
40
0.3537231
50
279.7829875
51
311.6255694
0
ARC
8
DEFAULT_255_1_234
10
5.5527102
20
163.874828
40
0.5004971
50
269.7286406
51
280.3856417
0
ARC
8
DEFAULT_255_1_234
10
5.5465175
20
163.8706996
40
0.4963778
50
256.6828919
51
270.4412052
0
ARC
8
DEFAULT_255_1_234
10
5.5126471
20
163.7322394
40
0.3538406
50
229.4223008
51
256.8556159
0
ARC
8
DEFAULT_255_1_234
10
5.4711864
20
163.6855736
40
0.2914296
50
181.818294
51
229.6455059
0
ARC
8
DEFAULT_255_1_234
10
5.575182
20
163.6986496
40
0.3959084
50
179.9755256
51
183.2323064
0
ARC
8
DEFAULT_255_1_234
10
5.5579566
20
163.6966037
40
0.2293034
50
179.4465117
51
196.2869258
0
ARC
8
DEFAULT_255_1_234
10
5.5091974
20
163.6832651
40
0.1787621
50
196.5661473
51
227.705904
0
ARC
8
DEFAULT_255_1_234
10
5.5256069
20
163.7016155
40
0.2033784
50
227.7652068
51
257.8762805
0
ARC
8
DEFAULT_255_1_234
10
5.5481039
20
163.7959156
40
0.3003081
50
257.4584385
51
270.426602
0
ARC
8
DEFAULT_255_1_234
10
5.5526605
20
163.8248996
40
0.329292
50
269.5962073
51
280.8789248
0
ARC
8
DEFAULT_255_1_234
10
5.5756134
20
163.7102685
40
0.2123908
50
280.6346389
51
299.8595945
0
ARC
8
DEFAULT_255_1_234
10
5.594704
20
163.6740212
40
0.171457
50
300.3576302
51
314.5517981
0
ARC
8
DEFAULT_255_1_234
10
5.5864101
20
163.6800919
40
0.1816095
50
315.0728369
51
345.0431014
0
ARC
8
DEFAULT_255_1_234
10
5.4940915
20
163.7069841
40
0.2777492
50
344.5986631
51
357.9269593
0
ARC
8
DEFAULT_255_1_234
10
5.4045241
20
163.7131276
40
0.3674917
50
357.4748886
51
0.0231117
0
ARC
8
DEFAULT_255_1_234
10
5.5068351
20
163.7155679
40
0.2651907
50
359.5047933
51
13.4239635
0
ARC
8
DEFAULT_255_1_234
10
5.5934994
20
163.7377478
40
0.1757509
50
12.9498199
51
48.7551375
0
ARC
8
DEFAULT_255_1_234
10
5.5752728
20
163.71284
40
0.2065134
50
49.5088623
51
72.1836453
0
ARC
8
DEFAULT_255_1_234
10
5.5394881
20
163.6066291
40
0.3185836
50
71.9010081
51
84.3554254
0
ARC
8
DEFAULT_255_1_234
10
5.5233513
20
163.4705326
40
0.4556151
50
84.0193428
51
89.333121
0
LINE
8
DEFAULT_255_1_234
10
4.3078299
20
172.4973211
11
4.5897439
21
172.0491501
0
LINE
8
DEFAULT_255_1_234
10
4.5897439
20
172.0491501
11
4.8700516
21
172.4973211
0
LINE
8
DEFAULT_255_1_234
10
4.8700516
20
172.4973211
11
5.0515689
21
172.4973211
0
LINE
8
DEFAULT_255_1_234
10
5.0515689
20
172.4973211
11
4.6821089
21
171.9174296
0
LINE
8
DEFAULT_255_1_234
10
4.6821089
20
171.9174296
11
5.0604038
21
171.3279
0
LINE
8
DEFAULT_255_1_234
10
5.0604038
20
171.3279
11
4.8772802
21
171.3279
0
LINE
8
DEFAULT_255_1_234
10
4.8772802
20
171.3279
11
4.5897439
21
171.7841027
0
LINE
8
DEFAULT_255_1_234
10
4.5897439
20
171.7841027
11
4.3006014
21
171.3279
0
LINE
8
DEFAULT_255_1_234
10
4.3006014
20
171.3279
11
4.1182809
21
171.3279
0
LINE
8
DEFAULT_255_1_234
10
4.1182809
20
171.3279
11
4.497379
21
171.9174296
0
LINE
8
DEFAULT_255_1_234
10
4.497379
20
171.9174296
11
4.1271158
21
172.4973211
0
LINE
8
DEFAULT_255_1_234
10
4.1271158
20
172.4973211
11
4.3078299
21
172.4973211
0
LINE
8
DEFAULT_255_1_234
10
5.9671871
20
171.4491792
11
5.9671871
21
171.3279
0
LINE
8
DEFAULT_255_1_234
10
5.9671871
20
171.3279
11
5.2009592
21
171.3279
0
LINE
8
DEFAULT_255_1_234
10
5.2009592
20
171.3279
11
5.2009592
21
171.4347221
0
LINE
8
DEFAULT_255_1_234
10
5.2009592
20
171.4347221
11
5.6057588
21
171.8844995
0
LINE
8
DEFAULT_255_1_234
10
5.3270575
20
172.1527595
11
5.1784704
21
172.1527595
0
LINE
8
DEFAULT_255_1_234
10
5.6933048
20
171.7889218
11
5.380067
21
171.4491792
0
LINE
8
DEFAULT_255_1_234
10
5.380067
20
171.4491792
11
5.9671871
21
171.4491792
0
ARC
8
DEFAULT_255_1_234
10
4.2567422
20
173.0774527
40
1.8008286
50
318.5132453
51
320.7828378
0
ARC
8
DEFAULT_255_1_234
10
4.7854396
20
172.6471426
40
1.1191493
50
320.7372736
51
323.9737074
0
ARC
8
DEFAULT_255_1_234
10
5.1774252
20
172.3631361
40
0.6350923
50
323.8961724
51
328.6421089
0
ARC
8
DEFAULT_255_1_234
10
5.3820848
20
172.2369031
40
0.3946393
50
328.8299013
51
331.789948
0
ARC
8
DEFAULT_255_1_234
10
5.4818026
20
172.1854509
40
0.2824501
50
331.4255242
51
352.9364833
0
ARC
8
DEFAULT_255_1_234
10
5.4954527
20
172.1823976
40
0.2685315
50
353.2248685
51
0.0169286
0
ARC
8
DEFAULT_255_1_234
10
5.5164404
20
172.184695
40
0.2475536
50
359.4866256
51
15.9339782
0
ARC
8
DEFAULT_255_1_234
10
5.5671389
20
172.1983286
40
0.1950618
50
16.1714718
51
43.5284424
0
ARC
8
DEFAULT_255_1_234
10
5.5748698
20
172.2060573
40
0.184134
50
43.4415429
51
83.1661404
0
ARC
8
DEFAULT_255_1_234
10
5.5614616
20
172.1323771
40
0.258926
50
82.160215
51
90.1505798
0
ARC
8
DEFAULT_255_1_234
10
5.5583043
20
172.0786865
40
0.3126255
50
89.5460705
51
102.5418777
0
ARC
8
DEFAULT_255_1_234
10
5.5340129
20
172.1817665
40
0.2067346
50
102.1739365
51
129.2061916
0
ARC
8
DEFAULT_255_1_234
10
5.5261201
20
172.1942094
40
0.1921118
50
129.7279328
51
135.7542026
0
ARC
8
DEFAULT_255_1_234
10
5.5382729
20
172.1845045
40
0.2075944
50
136.175737
51
166.3674722
0
ARC
8
DEFAULT_255_1_234
10
5.6389648
20
172.1575182
40
0.3118201
50
165.9092917
51
178.8683903
0
ARC
8
DEFAULT_255_1_234
10
5.7254509
20
172.1528179
40
0.3983935
50
178.438168
51
180.0083905
0
ARC
8
DEFAULT_255_1_234
10
5.5853111
20
172.1567231
40
0.4068601
50
163.2878735
51
180.5581814
0
ARC
8
DEFAULT_255_1_234
10
5.5051373
20
172.178784
40
0.3237344
50
133.454115
51
162.9470031
0
ARC
8
DEFAULT_255_1_234
10
5.5229914
20
172.1598
40
0.349795
50
100.7869394
51
133.4384016
0
ARC
8
DEFAULT_255_1_234
10
5.5577686
20
172.0049319
40
0.5084616
50
89.6605301
51
101.3704185
0
ARC
8
DEFAULT_255_1_234
10
5.5644024
20
172.0110496
40
0.502348
50
78.2171172
51
90.4130393
0
ARC
8
DEFAULT_255_1_234
10
5.5999103
20
172.1734637
40
0.3361092
50
55.9268222
51
78.4888551
0
ARC
8
DEFAULT_255_1_234
10
5.6195543
20
172.2073324
40
0.2970617
50
47.9292255
51
55.4054003
0
ARC
8
DEFAULT_255_1_234
10
5.6297103
20
172.2176502
40
0.2825983
50
4.3347696
51
48.0560701
0
ARC
8
DEFAULT_255_1_234
10
5.5201497
20
172.2006601
40
0.393225
50
359.925209
51
5.5967654
0
ARC
8
DEFAULT_255_1_234
10
5.5630389
20
172.2062816
40
0.3503892
50
337.8914096
51
358.9967724
0
ARC
8
DEFAULT_255_1_234
10
5.2916801
20
172.3109706
40
0.6412172
50
326.9135351
51
338.3505194
0
ARC
8
DEFAULT_255_1_234
10
4.8931105
20
172.5664284
40
1.1146189
50
319.6472867
51
327.095818
0
ARC
8
DEFAULT_255_1_234
10
4.5098108
20
172.8826
40
1.6114559
50
317.2586784
51
319.9046139
0
LINE
8
DEFAULT_255_1_234
10
4.2994299
20
180.4348211
11
4.5813439
21
179.9866501
0
LINE
8
DEFAULT_255_1_234
10
4.5813439
20
179.9866501
11
4.8616516
21
180.4348211
0
LINE
8
DEFAULT_255_1_234
10
4.8616516
20
180.4348211
11
5.0431689
21
180.4348211
0
LINE
8
DEFAULT_255_1_234
10
5.0431689
20
180.4348211
11
4.6737089
21
179.8549296
0
LINE
8
DEFAULT_255_1_234
10
4.6737089
20
179.8549296
11
5.0520038
21
179.2654
0
LINE
8
DEFAULT_255_1_234
10
5.0520038
20
179.2654
11
4.8688802
21
179.2654
0
LINE
8
DEFAULT_255_1_234
10
4.8688802
20
179.2654
11
4.5813439
21
179.7216027
0
LINE
8
DEFAULT_255_1_234
10
4.5813439
20
179.7216027
11
4.2922014
21
179.2654
0
LINE
8
DEFAULT_255_1_234
10
4.2922014
20
179.2654
11
4.1098809
21
179.2654
0
LINE
8
DEFAULT_255_1_234
10
4.1098809
20
179.2654
11
4.488979
21
179.8549296
0
LINE
8
DEFAULT_255_1_234
10
4.488979
20
179.8549296
11
4.1187158
21
180.4348211
0
LINE
8
DEFAULT_255_1_234
10
4.1187158
20
180.4348211
11
4.2994299
21
180.4348211
0
LINE
8
DEFAULT_255_1_234
10
5.6808889
20
180.4404433
11
5.6808889
21
179.2654
0
LINE
8
DEFAULT_255_1_234
10
5.6808889
20
179.2654
11
5.5314986
21
179.2654
0
LINE
8
DEFAULT_255_1_234
10
5.5314986
20
179.2654
11
5.5314986
21
180.2557133
0
LINE
8
DEFAULT_255_1_234
10
5.5314986
20
180.2557133
11
5.2319147
21
180.1456785
0
LINE
8
DEFAULT_255_1_234
10
5.2319147
20
180.1456785
11
5.2319147
21
180.2806117
0
LINE
8
DEFAULT_255_1_234
10
5.2319147
20
180.2806117
11
5.6575969
21
180.4404433
0
LINE
8
DEFAULT_255_1_234
10
5.6575969
20
180.4404433
11
5.6808889
21
180.4404433
0
LINE
8
DEFAULT_255_1_234
10
4.3078299
20
188.3723211
11
4.5897439
21
187.9241501
0
LINE
8
DEFAULT_255_1_234
10
4.5897439
20
187.9241501
11
4.8700516
21
188.3723211
0
LINE
8
DEFAULT_255_1_234
10
4.8700516
20
188.3723211
11
5.0515689
21
188.3723211
0
LINE
8
DEFAULT_255_1_234
10
5.0515689
20
188.3723211
11
4.6821089
21
187.7924296
0
LINE
8
DEFAULT_255_1_234
10
4.6821089
20
187.7924296
11
5.0604038
21
187.2029
0
LINE
8
DEFAULT_255_1_234
10
5.0604038
20
187.2029
11
4.8772802
21
187.2029
0
LINE
8
DEFAULT_255_1_234
10
4.8772802
20
187.2029
11
4.5897439
21
187.6591027
0
LINE
8
DEFAULT_255_1_234
10
4.5897439
20
187.6591027
11
4.3006014
21
187.2029
0
LINE
8
DEFAULT_255_1_234
10
4.3006014
20
187.2029
11
4.1182809
21
187.2029
0
LINE
8
DEFAULT_255_1_234
10
4.1182809
20
187.2029
11
4.497379
21
187.7924296
0
LINE
8
DEFAULT_255_1_234
10
4.497379
20
187.7924296
11
4.1271158
21
188.3723211
0
LINE
8
DEFAULT_255_1_234
10
4.1271158
20
188.3723211
11
4.3078299
21
188.3723211
0
LINE
8
DEFAULT_255_1_234
10
5.9342569
20
187.8944327
11
5.9342569
21
187.7016709
0
LINE
8
DEFAULT_255_1_234
10
5.1961402
20
187.6815916
11
5.1961402
21
187.8799755
0
LINE
8
DEFAULT_255_1_234
10
5.7856698
20
187.6615123
11
5.7856698
21
187.9048739
0
LINE
8
DEFAULT_255_1_234
10
5.3447273
20
187.9161184
11
5.3447273
21
187.6783789
0
ARC
8
DEFAULT_255_1_234
10
4.7095459
20
187.6967805
40
1.2247208
50
353.8441951
51
0.2287902
0
ARC
8
DEFAULT_255_1_234
10
5.1734963
20
187.6449806
40
0.7578929
50
344.4934747
51
353.9765454
0
ARC
8
DEFAULT_255_1_234
10
5.4727553
20
187.5598981
40
0.4467846
50
329.2803592
51
344.7472793
0
ARC
8
DEFAULT_255_1_234
10
5.5720378
20
187.5054018
40
0.3336173
50
324.9352394
51
328.6160465
0
ARC
8
DEFAULT_255_1_234
10
5.6097486
20
187.4790427
40
0.2876076
50
280.580143
51
324.9173126
0
ARC
8
DEFAULT_255_1_234
10
5.5696279
20
187.6461099
40
0.4592847
50
269.5977311
51
281.6734359
0
ARC
8
DEFAULT_255_1_234
10
5.5624185
20
187.6341173
40
0.4472986
50
256.6228859
51
270.51044
0
ARC
8
DEFAULT_255_1_234
10
5.5222162
20
187.4792877
40
0.2873874
50
215.8618325
51
257.2788573
0
ARC
8
DEFAULT_255_1_234
10
5.6243194
20
187.5477977
40
0.4102928
50
197.9693508
51
215.2623606
0
ARC
8
DEFAULT_255_1_234
10
5.872831
20
187.6316709
40
0.6725652
50
187.8816417
51
198.2346507
0
ARC
8
DEFAULT_255_1_234
10
6.2686518
20
187.6888079
40
1.0724845
50
180.8976217
51
188.0055519
0
ARC
8
DEFAULT_255_1_234
10
6.5486706
20
187.6991777
40
1.3526448
50
180.7449369
51
181.1510016
0
ARC
8
DEFAULT_255_1_234
10
6.3909435
20
187.8848042
40
1.1948131
50
173.7675579
51
180.231553
0
ARC
8
DEFAULT_255_1_234
10
5.9391582
20
187.9358666
40
0.7401564
50
164.3058563
51
173.9002247
0
ARC
8
DEFAULT_255_1_234
10
5.647965
20
188.0197656
40
0.4371288
50
148.7922025
51
164.568378
0
ARC
8
DEFAULT_255_1_234
10
5.5528103
20
188.0728929
40
0.3282386
50
144.5883898
51
148.1176286
0
ARC
8
DEFAULT_255_1_234
10
5.5185001
20
188.0968315
40
0.2864044
50
101.6440918
51
144.514236
0
ARC
8
DEFAULT_255_1_234
10
5.5610067
20
187.9279069
40
0.4604934
50
89.5284041
51
102.5819763
0
ARC
8
DEFAULT_255_1_234
10
5.5689155
20
187.9240018
40
0.464401
50
77.0437873
51
90.5081339
0
ARC
8
DEFAULT_255_1_234
10
5.6091157
20
188.0882615
40
0.2953195
50
48.2778575
51
77.4994676
0
ARC
8
DEFAULT_255_1_234
10
5.6163788
20
188.1011746
40
0.2808655
50
36.3142134
51
47.6305865
0
ARC
8
DEFAULT_255_1_234
10
5.5295095
20
188.0426515
40
0.3855453
50
18.2931786
51
35.6769206
0
ARC
8
DEFAULT_255_1_234
10
5.2751854
20
187.9553593
40
0.654423
50
8.024666
51
18.5605216
0
ARC
8
DEFAULT_255_1_234
10
4.8588774
20
187.8938792
40
1.0752407
50
1.1274072
51
8.1718305
0
ARC
8
DEFAULT_255_1_234
10
4.5352964
20
187.8811885
40
1.3990231
50
0.5424119
51
1.3863029
0
ARC
8
DEFAULT_255_1_234
10
4.7174342
20
187.9084342
40
1.0682415
50
359.8090433
51
4.9407866
0
ARC
8
DEFAULT_255_1_234
10
5.1384356
20
187.9460113
40
0.6455691
50
4.8362157
51
12.2904523
0
ARC
8
DEFAULT_255_1_234
10
5.4139471
20
188.0073965
40
0.3633074
50
12.0805627
51
23.8173984
0
ARC
8
DEFAULT_255_1_234
10
5.5313176
20
188.0570919
40
0.2358723
50
24.2871213
51
31.3935614
0
ARC
8
DEFAULT_255_1_234
10
5.5837874
20
188.0914233
40
0.1732111
50
30.7407893
51
82.4657128
0
ARC
8
DEFAULT_255_1_234
10
5.5658008
20
188.0030691
40
0.263235
50
81.1060089
51
90.2184952
0
ARC
8
DEFAULT_255_1_234
10
5.5622307
20
188.0288924
40
0.2374236
50
89.3806855
51
105.6762551
0
ARC
8
DEFAULT_255_1_234
10
5.5438938
20
188.0955567
40
0.1682847
50
105.7981136
51
149.7388061
0
ARC
8
DEFAULT_255_1_234
10
5.6503016
20
188.031595
40
0.2924306
50
149.4208916
51
163.6286378
0
ARC
8
DEFAULT_255_1_234
10
5.8593904
20
187.967825
40
0.5110213
50
163.3763315
51
172.1410975
0
ARC
8
DEFAULT_255_1_234
10
6.1894623
20
187.9205518
40
0.8444586
50
172.0259487
51
178.0703232
0
ARC
8
DEFAULT_255_1_234
10
6.4924712
20
187.9061906
40
1.1477868
50
177.8631668
51
179.5044149
0
ARC
8
DEFAULT_255_1_234
10
6.3852117
20
187.6747389
40
1.0404907
50
179.7995573
51
185.2460446
0
ARC
8
DEFAULT_255_1_234
10
5.9809156
20
187.6364513
40
0.6343885
50
185.1411642
51
193.0079639
0
ARC
8
DEFAULT_255_1_234
10
5.7165629
20
187.5739641
40
0.3627568
50
192.7897626
51
205.2507664
0
ARC
8
DEFAULT_255_1_234
10
5.6119176
20
187.5272415
40
0.2481908
50
205.8005384
51
211.2537509
0
ARC
8
DEFAULT_255_1_234
10
5.5595616
20
187.492158
40
0.1852521
50
210.3789793
51
238.4008143
0
ARC
8
DEFAULT_255_1_234
10
5.5576138
20
187.4968376
40
0.1882621
50
239.6520629
51
265.9793761
0
ARC
8
DEFAULT_255_1_234
10
5.5661338
20
187.5640427
40
0.2559272
50
265.1315437
51
270.060332
0
ARC
8
DEFAULT_255_1_234
10
5.5690117
20
187.5316534
40
0.2235528
50
269.3314664
51
287.2178029
0
ARC
8
DEFAULT_255_1_234
10
5.5827969
20
187.4813279
40
0.1714108
50
287.7958004
51
329.080874
0
ARC
8
DEFAULT_255_1_234
10
5.4870426
20
187.541093
40
0.2842745
50
328.6634704
51
343.3325132
0
ARC
8
DEFAULT_255_1_234
10
5.2697446
20
187.6087863
40
0.5118644
50
343.0499468
51
351.9393422
0
ARC
8
DEFAULT_255_1_234
10
4.9230746
20
187.6598949
40
0.8622784
50
351.8069023
51
357.7959224
0
ARC
8
DEFAULT_255_1_234
10
4.5995302
20
187.6766721
40
1.1862365
50
357.5871873
51
359.2677531
0
LINE
8
DEFAULT_255_1_234
10
23.1654817
20
195.8319327
11
23.1654817
21
195.6391709
0
LINE
8
DEFAULT_255_1_234
10
22.427365
20
195.6190916
11
22.427365
21
195.8174755
0
LINE
8
DEFAULT_255_1_234
10
23.0168946
20
195.5990123
11
23.0168946
21
195.8423739
0
LINE
8
DEFAULT_255_1_234
10
22.5759521
20
195.8536184
11
22.5759521
21
195.6158789
0
ARC
8
DEFAULT_255_1_234
10
21.9407707
20
195.6342805
40
1.2247208
50
353.8441951
51
0.2287902
0
ARC
8
DEFAULT_255_1_234
10
22.4047211
20
195.5824806
40
0.7578929
50
344.4934747
51
353.9765454
0
ARC
8
DEFAULT_255_1_234
10
22.7039801
20
195.4973981
40
0.4467846
50
329.2803592
51
344.7472793
0
ARC
8
DEFAULT_255_1_234
10
22.8032626
20
195.4429018
40
0.3336173
50
324.9352394
51
328.6160465
0
ARC
8
DEFAULT_255_1_234
10
22.8409734
20
195.4165427
40
0.2876076
50
280.580143
51
324.9173126
0
ARC
8
DEFAULT_255_1_234
10
22.8008527
20
195.5836099
40
0.4592847
50
269.5977311
51
281.6734359
0
ARC
8
DEFAULT_255_1_234
10
22.7936433
20
195.5716173
40
0.4472986
50
256.6228859
51
270.51044
0
ARC
8
DEFAULT_255_1_234
10
22.753441
20
195.4167877
40
0.2873874
50
215.8618325
51
257.2788573
0
ARC
8
DEFAULT_255_1_234
10
22.8555442
20
195.4852977
40
0.4102928
50
197.9693508
51
215.2623606
0
ARC
8
DEFAULT_255_1_234
10
23.1040558
20
195.5691709
40
0.6725652
50
187.8816417
51
198.2346507
0
ARC
8
DEFAULT_255_1_234
10
23.4998766
20
195.6263079
40
1.0724845
50
180.8976217
51
188.0055519
0
ARC
8
DEFAULT_255_1_234
10
23.7798954
20
195.6366777
40
1.3526448
50
180.7449369
51
181.1510016
0
ARC
8
DEFAULT_255_1_234
10
23.6221683
20
195.8223042
40
1.1948131
50
173.7675579
51
180.231553
0
ARC
8
DEFAULT_255_1_234
10
23.170383
20
195.8733666
40
0.7401564
50
164.3058563
51
173.9002247
0
ARC
8
DEFAULT_255_1_234
10
22.8791899
20
195.9572656
40
0.4371288
50
148.7922025
51
164.568378
0
ARC
8
DEFAULT_255_1_234
10
22.7840351
20
196.0103929
40
0.3282386
50
144.5883898
51
148.1176286
0
ARC
8
DEFAULT_255_1_234
10
22.7497249
20
196.0343315
40
0.2864044
50
101.6440918
51
144.514236
0
ARC
8
DEFAULT_255_1_234
10
22.7922315
20
195.8654069
40
0.4604934
50
89.5284041
51
102.5819763
0
ARC
8
DEFAULT_255_1_234
10
22.8001403
20
195.8615018
40
0.464401
50
77.0437873
51
90.5081339
0
ARC
8
DEFAULT_255_1_234
10
22.8403405
20
196.0257615
40
0.2953195
50
48.2778575
51
77.4994676
0
ARC
8
DEFAULT_255_1_234
10
22.8476036
20
196.0386746
40
0.2808655
50
36.3142134
51
47.6305865
0
ARC
8
DEFAULT_255_1_234
10
22.7607343
20
195.9801515
40
0.3855453
50
18.2931786
51
35.6769206
0
ARC
8
DEFAULT_255_1_234
10
22.5064102
20
195.8928593
40
0.654423
50
8.024666
51
18.5605216
0
ARC
8
DEFAULT_255_1_234
10
22.0901022
20
195.8313792
40
1.0752407
50
1.1274072
51
8.1718305
0
ARC
8
DEFAULT_255_1_234
10
21.7665213
20
195.8186885
40
1.3990231
50
0.5424119
51
1.3863029
0
ARC
8
DEFAULT_255_1_234
10
21.948659
20
195.8459342
40
1.0682415
50
359.8090433
51
4.9407866
0
ARC
8
DEFAULT_255_1_234
10
22.3696604
20
195.8835113
40
0.6455691
50
4.8362157
51
12.2904523
0
ARC
8
DEFAULT_255_1_234
10
22.6451719
20
195.9448965
40
0.3633074
50
12.0805627
51
23.8173984
0
ARC
8
DEFAULT_255_1_234
10
22.7625425
20
195.9945919
40
0.2358723
50
24.2871213
51
31.3935614
0
ARC
8
DEFAULT_255_1_234
10
22.8150122
20
196.0289233
40
0.1732111
50
30.7407893
51
82.4657128
0
ARC
8
DEFAULT_255_1_234
10
22.7970256
20
195.9405691
40
0.263235
50
81.1060089
51
90.2184952
0
ARC
8
DEFAULT_255_1_234
10
22.7934555
20
195.9663924
40
0.2374236
50
89.3806855
51
105.6762551
0
ARC
8
DEFAULT_255_1_234
10
22.7751186
20
196.0330567
40
0.1682847
50
105.7981136
51
149.7388061
0
ARC
8
DEFAULT_255_1_234
10
22.8815264
20
195.969095
40
0.2924306
50
149.4208916
51
163.6286378
0
ARC
8
DEFAULT_255_1_234
10
23.0906152
20
195.905325
40
0.5110213
50
163.3763315
51
172.1410975
0
ARC
8
DEFAULT_255_1_234
10
23.4206871
20
195.8580518
40
0.8444586
50
172.0259487
51
178.0703232
0
ARC
8
DEFAULT_255_1_234
10
23.723696
20
195.8436906
40
1.1477868
50
177.8631668
51
179.5044149
0
ARC
8
DEFAULT_255_1_234
10
23.6164365
20
195.6122389
40
1.0404907
50
179.7995573
51
185.2460446
0
ARC
8
DEFAULT_255_1_234
10
23.2121404
20
195.5739513
40
0.6343885
50
185.1411642
51
193.0079639
0
ARC
8
DEFAULT_255_1_234
10
22.9477877
20
195.5114641
40
0.3627568
50
192.7897626
51
205.2507664
0
ARC
8
DEFAULT_255_1_234
10
22.8431424
20
195.4647415
40
0.2481908
50
205.8005384
51
211.2537509
0
ARC
8
DEFAULT_255_1_234
10
22.7907864
20
195.429658
40
0.1852521
50
210.3789793
51
238.4008143
0
ARC
8
DEFAULT_255_1_234
10
22.7888386
20
195.4343376
40
0.1882621
50
239.6520629
51
265.9793761
0
ARC
8
DEFAULT_255_1_234
10
22.7973586
20
195.5015427
40
0.2559272
50
265.1315437
51
270.060332
0
ARC
8
DEFAULT_255_1_234
10
22.8002365
20
195.4691534
40
0.2235528
50
269.3314664
51
287.2178029
0
ARC
8
DEFAULT_255_1_234
10
22.8140217
20
195.4188279
40
0.1714108
50
287.7958004
51
329.080874
0
ARC
8
DEFAULT_255_1_234
10
22.7182674
20
195.478593
40
0.2842745
50
328.6634704
51
343.3325132
0
ARC
8
DEFAULT_255_1_234
10
22.5009694
20
195.5462863
40
0.5118644
50
343.0499468
51
351.9393422
0
ARC
8
DEFAULT_255_1_234
10
22.1542994
20
195.5973949
40
0.8622784
50
351.8069023
51
357.7959224
0
ARC
8
DEFAULT_255_1_234
10
21.830755
20
195.6141721
40
1.1862365
50
357.5871873
51
359.2677531
0
LINE
8
DEFAULT_255_1_234
10
23.4490021
20
196.3098211
11
23.7815161
21
195.3452093
0
LINE
8
DEFAULT_255_1_234
10
23.7815161
20
195.3452093
11
24.1156364
21
196.3098211
0
LINE
8
DEFAULT_255_1_234
10
24.1156364
20
196.3098211
11
24.2843029
21
196.3098211
0
LINE
8
DEFAULT_255_1_234
10
24.2843029
20
196.3098211
11
23.850589
21
195.1404
0
LINE
8
DEFAULT_255_1_234
10
23.850589
20
195.1404
11
23.7140495
21
195.1404
0
LINE
8
DEFAULT_255_1_234
10
23.7140495
20
195.1404
11
23.2811388
21
196.3098211
0
LINE
8
DEFAULT_255_1_234
10
23.2811388
20
196.3098211
11
23.4490021
21
196.3098211
0
LINE
8
DEFAULT_255_1_234
10
21.5343458
20
5.8098211
11
21.8379456
21
5.222701
0
LINE
8
DEFAULT_255_1_234
10
21.8379456
20
5.222701
11
22.1431516
21
5.8098211
0
LINE
8
DEFAULT_255_1_234
10
22.1431516
20
5.8098211
11
22.3182435
21
5.8098211
0
LINE
8
DEFAULT_255_1_234
10
22.3182435
20
5.8098211
11
21.9150502
21
5.0765234
0
LINE
8
DEFAULT_255_1_234
10
21.9150502
20
5.0765234
11
21.9150502
21
4.6404
0
LINE
8
DEFAULT_255_1_234
10
21.9150502
20
4.6404
11
21.7608409
21
4.6404
0
LINE
8
DEFAULT_255_1_234
10
21.7608409
20
4.6404
11
21.7608409
21
5.0765234
0
LINE
8
DEFAULT_255_1_234
10
21.7608409
20
5.0765234
11
21.3576476
21
5.8098211
0
LINE
8
DEFAULT_255_1_234
10
21.3576476
20
5.8098211
11
21.5343458
21
5.8098211
0
LINE
8
DEFAULT_255_1_234
10
23.1969157
20
4.7616792
11
23.1969157
21
4.6404
0
LINE
8
DEFAULT_255_1_234
10
23.1969157
20
4.6404
11
22.4306878
21
4.6404
0
LINE
8
DEFAULT_255_1_234
10
22.4306878
20
4.6404
11
22.4306878
21
4.7472221
0
LINE
8
DEFAULT_255_1_234
10
22.4306878
20
4.7472221
11
22.8354875
21
5.1969995
0
LINE
8
DEFAULT_255_1_234
10
22.5567861
20
5.4652595
11
22.408199
21
5.4652595
0
LINE
8
DEFAULT_255_1_234
10
22.9230334
20
5.1014218
11
22.6097956
21
4.7616792
0
LINE
8
DEFAULT_255_1_234
10
22.6097956
20
4.7616792
11
23.1969157
21
4.7616792
0
ARC
8
DEFAULT_255_1_234
10
21.4864708
20
6.3899527
40
1.8008286
50
318.5132453
51
320.7828378
0
ARC
8
DEFAULT_255_1_234
10
22.0151682
20
5.9596426
40
1.1191493
50
320.7372736
51
323.9737074
0
ARC
8
DEFAULT_255_1_234
10
22.4071539
20
5.6756361
40
0.6350923
50
323.8961724
51
328.6421089
0
ARC
8
DEFAULT_255_1_234
10
22.6118134
20
5.5494031
40
0.3946393
50
328.8299013
51
331.789948
0
ARC
8
DEFAULT_255_1_234
10
22.7115313
20
5.4979509
40
0.2824501
50
331.4255242
51
352.9364833
0
ARC
8
DEFAULT_255_1_234
10
22.7251813
20
5.4948976
40
0.2685315
50
353.2248685
51
0.0169286
0
ARC
8
DEFAULT_255_1_234
10
22.746169
20
5.497195
40
0.2475536
50
359.4866256
51
15.9339782
0
ARC
8
DEFAULT_255_1_234
10
22.7968675
20
5.5108286
40
0.1950618
50
16.1714718
51
43.5284424
0
ARC
8
DEFAULT_255_1_234
10
22.8045984
20
5.5185573
40
0.184134
50
43.4415429
51
83.1661404
0
ARC
8
DEFAULT_255_1_234
10
22.7911902
20
5.4448771
40
0.258926
50
82.160215
51
90.1505798
0
ARC
8
DEFAULT_255_1_234
10
22.7880329
20
5.3911865
40
0.3126255
50
89.5460705
51
102.5418777
0
ARC
8
DEFAULT_255_1_234
10
22.7637416
20
5.4942665
40
0.2067346
50
102.1739365
51
129.2061916
0
ARC
8
DEFAULT_255_1_234
10
22.7558487
20
5.5067094
40
0.1921118
50
129.7279328
51
135.7542026
0
ARC
8
DEFAULT_255_1_234
10
22.7680015
20
5.4970045
40
0.2075944
50
136.175737
51
166.3674722
0
ARC
8
DEFAULT_255_1_234
10
22.8686934
20
5.4700182
40
0.3118201
50
165.9092917
51
178.8683903
0
ARC
8
DEFAULT_255_1_234
10
22.9551795
20
5.4653179
40
0.3983935
50
178.438168
51
180.0083905
0
ARC
8
DEFAULT_255_1_234
10
22.8150398
20
5.4692231
40
0.4068601
50
163.2878735
51
180.5581814
0
ARC
8
DEFAULT_255_1_234
10
22.7348659
20
5.491284
40
0.3237344
50
133.454115
51
162.9470031
0
ARC
8
DEFAULT_255_1_234
10
22.75272
20
5.4723
40
0.349795
50
100.7869394
51
133.4384016
0
ARC
8
DEFAULT_255_1_234
10
22.7874972
20
5.3174319
40
0.5084616
50
89.6605301
51
101.3704185
0
ARC
8
DEFAULT_255_1_234
10
22.7941311
20
5.3235496
40
0.502348
50
78.2171172
51
90.4130393
0
ARC
8
DEFAULT_255_1_234
10
22.8296389
20
5.4859637
40
0.3361092
50
55.9268222
51
78.4888551
0
ARC
8
DEFAULT_255_1_234
10
22.8492829
20
5.5198324
40
0.2970617
50
47.9292255
51
55.4054003
0
ARC
8
DEFAULT_255_1_234
10
22.859439
20
5.5301502
40
0.2825983
50
4.3347696
51
48.0560701
0
ARC
8
DEFAULT_255_1_234
10
22.7498783
20
5.5131601
40
0.393225
50
359.925209
51
5.5967654
0
ARC
8
DEFAULT_255_1_234
10
22.7927675
20
5.5187816
40
0.3503892
50
337.8914096
51
358.9967724
0
ARC
8
DEFAULT_255_1_234
10
22.5214087
20
5.6234706
40
0.6412172
50
326.9135351
51
338.3505194
0
ARC
8
DEFAULT_255_1_234
10
22.1228391
20
5.8789284
40
1.1146189
50
319.6472867
51
327.095818
0
ARC
8
DEFAULT_255_1_234
10
21.7395394
20
6.1951
40
1.6114559
50
317.2586784
51
319.9046139
0
LINE
8
DEFAULT_255_1_234
10
23.5703915
20
5.1761169
11
23.5703915
21
5.2973962
0
LINE
8
DEFAULT_255_1_234
10
23.5703915
20
5.2973962
11
23.6820327
21
5.2973962
0
LINE
8
DEFAULT_255_1_234
10
23.4916805
20
5.5030087
11
23.3430933
21
5.5030087
0
LINE
8
DEFAULT_255_1_234
10
23.3326521
20
4.9488188
11
23.4820424
21
4.9488188
0
LINE
8
DEFAULT_255_1_234
10
23.6820327
20
5.1761169
11
23.5703915
21
5.1761169
0
ARC
8
DEFAULT_255_1_234
10
23.6791193
20
5.6366713
40
0.3392876
50
270.4919872
51
281.8951556
0
ARC
8
DEFAULT_255_1_234
10
23.7032455
20
5.5264702
40
0.2264817
50
281.6691735
51
301.2943132
0
ARC
8
DEFAULT_255_1_234
10
23.7202665
20
5.4953304
40
0.1910381
50
301.7833094
51
311.7545298
0
ARC
8
DEFAULT_255_1_234
10
23.7294241
20
5.4851748
40
0.1773635
50
311.7323931
51
354.2802411
0
ARC
8
DEFAULT_255_1_234
10
23.6567866
20
5.4976722
40
0.2509385
50
353.0937916
51
0.1181479
0
ARC
8
DEFAULT_255_1_234
10
23.6106651
20
5.5024386
40
0.2970898
50
359.1805295
51
15.0453146
0
ARC
8
DEFAULT_255_1_234
10
23.7452488
20
5.5416992
40
0.1569564
50
13.9577229
51
77.6713066
0
ARC
8
DEFAULT_255_1_234
10
23.7066017
20
5.4031949
40
0.3006298
50
76.1116566
51
90.7026153
0
ARC
8
DEFAULT_255_1_234
10
23.7006855
20
5.4305545
40
0.2732568
50
89.5324876
51
103.531937
0
ARC
8
DEFAULT_255_1_234
10
23.68063
20
5.5104884
40
0.1908508
50
103.2931773
51
133.5619022
0
ARC
8
DEFAULT_255_1_234
10
23.6761788
20
5.5164375
40
0.1834746
50
133.8349307
51
173.5344437
0
ARC
8
DEFAULT_255_1_234
10
23.7484831
20
5.5036213
40
0.2568033
50
172.5096846
51
180.1366907
0
ARC
8
DEFAULT_255_1_234
10
23.6533725
20
5.5070622
40
0.3103056
50
155.3484492
51
180.7484736
0
ARC
8
DEFAULT_255_1_234
10
23.6484814
20
5.5041846
40
0.3070957
50
131.5744599
51
154.4798489
0
ARC
8
DEFAULT_255_1_234
10
23.6797961
20
5.472531
40
0.3515643
50
96.9875458
51
131.9690667
0
ARC
8
DEFAULT_255_1_234
10
23.7017441
20
5.3479636
40
0.4779224
50
89.8596053
51
97.7825159
0
ARC
8
DEFAULT_255_1_234
10
23.7065504
20
5.3217616
40
0.5041361
50
78.3655447
51
90.4131539
0
ARC
8
DEFAULT_255_1_234
10
23.7423422
20
5.4876887
40
0.3344039
50
56.6229102
51
78.638727
0
ARC
8
DEFAULT_255_1_234
10
23.7638366
20
5.5252805
40
0.2912001
50
47.0253525
51
56.0854072
0
ARC
8
DEFAULT_255_1_234
10
23.7658146
20
5.5292223
40
0.2869704
50
10.9208013
51
46.7778124
0
ARC
8
DEFAULT_255_1_234
10
23.6294212
20
5.4976857
40
0.426899
50
359.6364486
51
11.6087304
0
ARC
8
DEFAULT_255_1_234
10
23.8129057
20
5.4961752
40
0.243409
50
332.3549906
51
359.7179418
0
ARC
8
DEFAULT_255_1_234
10
23.7478658
20
5.5270142
40
0.3153459
50
325.2333722
51
332.8745602
0
ARC
8
DEFAULT_255_1_234
10
23.7631282
20
5.5163828
40
0.2967456
50
292.9802137
51
325.2392345
0
ARC
8
DEFAULT_255_1_234
10
23.7356656
20
5.5697863
40
0.3566604
50
292.5402179
51
293.6924929
0
ARC
8
DEFAULT_255_1_234
10
23.7749251
20
4.9243091
40
0.3307468
50
57.6435486
51
72.8625112
0
ARC
8
DEFAULT_255_1_234
10
23.8103751
20
4.9817549
40
0.2632492
50
36.7248896
51
57.4697979
0
ARC
8
DEFAULT_255_1_234
10
23.8092384
20
4.983022
40
0.2634081
50
8.0545065
51
36.356114
0
ARC
8
DEFAULT_255_1_234
10
23.7229569
20
4.9675174
40
0.3510261
50
359.8320645
51
8.5869982
0
ARC
8
DEFAULT_255_1_234
10
23.6854345
20
4.9627101
40
0.3885653
50
343.9829931
51
0.5571613
0
ARC
8
DEFAULT_255_1_234
10
23.7740542
20
4.9384438
40
0.2966924
50
311.6359546
51
343.7651759
0
ARC
8
DEFAULT_255_1_234
10
23.7362112
20
4.9811102
40
0.3537231
50
279.7829875
51
311.6255694
0
ARC
8
DEFAULT_255_1_234
10
23.7060888
20
5.124828
40
0.5004971
50
269.7286406
51
280.3856417
0
ARC
8
DEFAULT_255_1_234
10
23.699896
20
5.1206996
40
0.4963778
50
256.6828919
51
270.4412052
0
ARC
8
DEFAULT_255_1_234
10
23.6660256
20
4.9822394
40
0.3538406
50
229.4223008
51
256.8556159
0
ARC
8
DEFAULT_255_1_234
10
23.6245649
20
4.9355736
40
0.2914296
50
181.818294
51
229.6455059
0
ARC
8
DEFAULT_255_1_234
10
23.7285605
20
4.9486496
40
0.3959084
50
179.9755256
51
183.2323064
0
ARC
8
DEFAULT_255_1_234
10
23.7113351
20
4.9466037
40
0.2293034
50
179.4465117
51
196.2869258
0
ARC
8
DEFAULT_255_1_234
10
23.6625759
20
4.9332651
40
0.1787621
50
196.5661473
51
227.705904
0
ARC
8
DEFAULT_255_1_234
10
23.6789854
20
4.9516155
40
0.2033784
50
227.7652068
51
257.8762805
0
ARC
8
DEFAULT_255_1_234
10
23.7014824
20
5.0459156
40
0.3003081
50
257.4584385
51
270.426602
0
ARC
8
DEFAULT_255_1_234
10
23.706039
20
5.0748996
40
0.329292
50
269.5962073
51
280.8789248
0
ARC
8
DEFAULT_255_1_234
10
23.7289919
20
4.9602685
40
0.2123908
50
280.6346389
51
299.8595945
0
ARC
8
DEFAULT_255_1_234
10
23.7480826
20
4.9240212
40
0.171457
50
300.3576302
51
314.5517981
0
ARC
8
DEFAULT_255_1_234
10
23.7397886
20
4.9300919
40
0.1816095
50
315.0728369
51
345.0431014
0
ARC
8
DEFAULT_255_1_234
10
23.64747
20
4.9569841
40
0.2777492
50
344.5986631
51
357.9269593
0
ARC
8
DEFAULT_255_1_234
10
23.5579027
20
4.9631276
40
0.3674917
50
357.4748886
51
0.0231117
0
ARC
8
DEFAULT_255_1_234
10
23.6602136
20
4.9655679
40
0.2651907
50
359.5047933
51
13.4239635
0
ARC
8
DEFAULT_255_1_234
10
23.746878
20
4.9877478
40
0.1757509
50
12.9498199
51
48.7551375
0
ARC
8
DEFAULT_255_1_234
10
23.7286513
20
4.96284
40
0.2065134
50
49.5088623
51
72.1836453
0
ARC
8
DEFAULT_255_1_234
10
23.6928666
20
4.8566291
40
0.3185836
50
71.9010081
51
84.3554254
0
ARC
8
DEFAULT_255_1_234
10
23.6767298
20
4.7205326
40
0.4556151
50
84.0193428
51
89.333121
0
LINE
8
DEFAULT_255_1_234
10
21.5343458
20
13.7473211
11
21.8379456
21
13.160201
0
LINE
8
DEFAULT_255_1_234
10
21.8379456
20
13.160201
11
22.1431516
21
13.7473211
0
LINE
8
DEFAULT_255_1_234
10
22.1431516
20
13.7473211
11
22.3182435
21
13.7473211
0
LINE
8
DEFAULT_255_1_234
10
22.3182435
20
13.7473211
11
21.9150502
21
13.0140234
0
LINE
8
DEFAULT_255_1_234
10
21.9150502
20
13.0140234
11
21.9150502
21
12.5779
0
LINE
8
DEFAULT_255_1_234
10
21.9150502
20
12.5779
11
21.7608409
21
12.5779
0
LINE
8
DEFAULT_255_1_234
10
21.7608409
20
12.5779
11
21.7608409
21
13.0140234
0
LINE
8
DEFAULT_255_1_234
10
21.7608409
20
13.0140234
11
21.3576476
21
13.7473211
0
LINE
8
DEFAULT_255_1_234
10
21.3576476
20
13.7473211
11
21.5343458
21
13.7473211
0
LINE
8
DEFAULT_255_1_234
10
23.1969157
20
12.6991792
11
23.1969157
21
12.5779
0
LINE
8
DEFAULT_255_1_234
10
23.1969157
20
12.5779
11
22.4306878
21
12.5779
0
LINE
8
DEFAULT_255_1_234
10
22.4306878
20
12.5779
11
22.4306878
21
12.6847221
0
LINE
8
DEFAULT_255_1_234
10
22.4306878
20
12.6847221
11
22.8354875
21
13.1344995
0
LINE
8
DEFAULT_255_1_234
10
22.5567861
20
13.4027595
11
22.408199
21
13.4027595
0
LINE
8
DEFAULT_255_1_234
10
22.9230334
20
13.0389218
11
22.6097956
21
12.6991792
0
LINE
8
DEFAULT_255_1_234
10
22.6097956
20
12.6991792
11
23.1969157
21
12.6991792
0
ARC
8
DEFAULT_255_1_234
10
21.4864708
20
14.3274527
40
1.8008286
50
318.5132453
51
320.7828378
0
ARC
8
DEFAULT_255_1_234
10
22.0151682
20
13.8971426
40
1.1191493
50
320.7372736
51
323.9737074
0
ARC
8
DEFAULT_255_1_234
10
22.4071539
20
13.6131361
40
0.6350923
50
323.8961724
51
328.6421089
0
ARC
8
DEFAULT_255_1_234
10
22.6118134
20
13.4869031
40
0.3946393
50
328.8299013
51
331.789948
0
ARC
8
DEFAULT_255_1_234
10
22.7115313
20
13.4354509
40
0.2824501
50
331.4255242
51
352.9364833
0
ARC
8
DEFAULT_255_1_234
10
22.7251813
20
13.4323976
40
0.2685315
50
353.2248685
51
0.0169286
0
ARC
8
DEFAULT_255_1_234
10
22.746169
20
13.434695
40
0.2475536
50
359.4866256
51
15.9339782
0
ARC
8
DEFAULT_255_1_234
10
22.7968675
20
13.4483286
40
0.1950618
50
16.1714718
51
43.5284424
0
ARC
8
DEFAULT_255_1_234
10
22.8045984
20
13.4560573
40
0.184134
50
43.4415429
51
83.1661404
0
ARC
8
DEFAULT_255_1_234
10
22.7911902
20
13.3823771
40
0.258926
50
82.160215
51
90.1505798
0
ARC
8
DEFAULT_255_1_234
10
22.7880329
20
13.3286865
40
0.3126255
50
89.5460705
51
102.5418777
0
ARC
8
DEFAULT_255_1_234
10
22.7637416
20
13.4317665
40
0.2067346
50
102.1739365
51
129.2061916
0
ARC
8
DEFAULT_255_1_234
10
22.7558487
20
13.4442094
40
0.1921118
50
129.7279328
51
135.7542026
0
ARC
8
DEFAULT_255_1_234
10
22.7680015
20
13.4345045
40
0.2075944
50
136.175737
51
166.3674722
0
ARC
8
DEFAULT_255_1_234
10
22.8686934
20
13.4075182
40
0.3118201
50
165.9092917
51
178.8683903
0
ARC
8
DEFAULT_255_1_234
10
22.9551795
20
13.4028179
40
0.3983935
50
178.438168
51
180.0083905
0
ARC
8
DEFAULT_255_1_234
10
22.8150398
20
13.4067231
40
0.4068601
50
163.2878735
51
180.5581814
0
ARC
8
DEFAULT_255_1_234
10
22.7348659
20
13.428784
40
0.3237344
50
133.454115
51
162.9470031
0
ARC
8
DEFAULT_255_1_234
10
22.75272
20
13.4098
40
0.349795
50
100.7869394
51
133.4384016
0
ARC
8
DEFAULT_255_1_234
10
22.7874972
20
13.2549319
40
0.5084616
50
89.6605301
51
101.3704185
0
ARC
8
DEFAULT_255_1_234
10
22.7941311
20
13.2610496
40
0.502348
50
78.2171172
51
90.4130393
0
ARC
8
DEFAULT_255_1_234
10
22.8296389
20
13.4234637
40
0.3361092
50
55.9268222
51
78.4888551
0
ARC
8
DEFAULT_255_1_234
10
22.8492829
20
13.4573324
40
0.2970617
50
47.9292255
51
55.4054003
0
ARC
8
DEFAULT_255_1_234
10
22.859439
20
13.4676502
40
0.2825983
50
4.3347696
51
48.0560701
0
ARC
8
DEFAULT_255_1_234
10
22.7498783
20
13.4506601
40
0.393225
50
359.925209
51
5.5967654
0
ARC
8
DEFAULT_255_1_234
10
22.7927675
20
13.4562816
40
0.3503892
50
337.8914096
51
358.9967724
0
ARC
8
DEFAULT_255_1_234
10
22.5214087
20
13.5609706
40
0.6412172
50
326.9135351
51
338.3505194
0
ARC
8
DEFAULT_255_1_234
10
22.1228391
20
13.8164284
40
1.1146189
50
319.6472867
51
327.095818
0
ARC
8
DEFAULT_255_1_234
10
21.7395394
20
14.1326
40
1.6114559
50
317.2586784
51
319.9046139
0
LINE
8
DEFAULT_255_1_234
10
24.1205656
20
12.6991792
11
24.1205656
21
12.5779
0
LINE
8
DEFAULT_255_1_234
10
24.1205656
20
12.5779
11
23.3543377
21
12.5779
0
LINE
8
DEFAULT_255_1_234
10
23.3543377
20
12.5779
11
23.3543377
21
12.6847221
0
LINE
8
DEFAULT_255_1_234
10
23.3543377
20
12.6847221
11
23.7591374
21
13.1344995
0
LINE
8
DEFAULT_255_1_234
10
23.480436
20
13.4027595
11
23.3318489
21
13.4027595
0
LINE
8
DEFAULT_255_1_234
10
23.8466833
20
13.0389218
11
23.5334455
21
12.6991792
0
LINE
8
DEFAULT_255_1_234
10
23.5334455
20
12.6991792
11
24.1205656
21
12.6991792
0
ARC
8
DEFAULT_255_1_234
10
22.4101207
20
14.3274527
40
1.8008286
50
318.5132453
51
320.7828378
0
ARC
8
DEFAULT_255_1_234
10
22.9388181
20
13.8971426
40
1.1191493
50
320.7372736
51
323.9737074
0
ARC
8
DEFAULT_255_1_234
10
23.3308038
20
13.6131361
40
0.6350923
50
323.8961724
51
328.6421089
0
ARC
8
DEFAULT_255_1_234
10
23.5354633
20
13.4869031
40
0.3946393
50
328.8299013
51
331.789948
0
ARC
8
DEFAULT_255_1_234
10
23.6351812
20
13.4354509
40
0.2824501
50
331.4255242
51
352.9364833
0
ARC
8
DEFAULT_255_1_234
10
23.6488312
20
13.4323976
40
0.2685315
50
353.2248685
51
0.0169286
0
ARC
8
DEFAULT_255_1_234
10
23.6698189
20
13.434695
40
0.2475536
50
359.4866256
51
15.9339782
0
ARC
8
DEFAULT_255_1_234
10
23.7205174
20
13.4483286
40
0.1950618
50
16.1714718
51
43.5284424
0
ARC
8
DEFAULT_255_1_234
10
23.7282483
20
13.4560573
40
0.184134
50
43.4415429
51
83.1661404
0
ARC
8
DEFAULT_255_1_234
10
23.7148401
20
13.3823771
40
0.258926
50
82.160215
51
90.1505798
0
ARC
8
DEFAULT_255_1_234
10
23.7116828
20
13.3286865
40
0.3126255
50
89.5460705
51
102.5418777
0
ARC
8
DEFAULT_255_1_234
10
23.6873915
20
13.4317665
40
0.2067346
50
102.1739365
51
129.2061916
0
ARC
8
DEFAULT_255_1_234
10
23.6794986
20
13.4442094
40
0.1921118
50
129.7279328
51
135.7542026
0
ARC
8
DEFAULT_255_1_234
10
23.6916514
20
13.4345045
40
0.2075944
50
136.175737
51
166.3674722
0
ARC
8
DEFAULT_255_1_234
10
23.7923433
20
13.4075182
40
0.3118201
50
165.9092917
51
178.8683903
0
ARC
8
DEFAULT_255_1_234
10
23.8788295
20
13.4028179
40
0.3983935
50
178.438168
51
180.0083905
0
ARC
8
DEFAULT_255_1_234
10
23.7386897
20
13.4067231
40
0.4068601
50
163.2878735
51
180.5581814
0
ARC
8
DEFAULT_255_1_234
10
23.6585158
20
13.428784
40
0.3237344
50
133.454115
51
162.9470031
0
ARC
8
DEFAULT_255_1_234
10
23.6763699
20
13.4098
40
0.349795
50
100.7869394
51
133.4384016
0
ARC
8
DEFAULT_255_1_234
10
23.7111471
20
13.2549319
40
0.5084616
50
89.6605301
51
101.3704185
0
ARC
8
DEFAULT_255_1_234
10
23.717781
20
13.2610496
40
0.502348
50
78.2171172
51
90.4130393
0
ARC
8
DEFAULT_255_1_234
10
23.7532888
20
13.4234637
40
0.3361092
50
55.9268222
51
78.4888551
0
ARC
8
DEFAULT_255_1_234
10
23.7729328
20
13.4573324
40
0.2970617
50
47.9292255
51
55.4054003
0
ARC
8
DEFAULT_255_1_234
10
23.7830889
20
13.4676502
40
0.2825983
50
4.3347696
51
48.0560701
0
ARC
8
DEFAULT_255_1_234
10
23.6735282
20
13.4506601
40
0.393225
50
359.925209
51
5.5967654
0
ARC
8
DEFAULT_255_1_234
10
23.7164174
20
13.4562816
40
0.3503892
50
337.8914096
51
358.9967724
0
ARC
8
DEFAULT_255_1_234
10
23.4450586
20
13.5609706
40
0.6412172
50
326.9135351
51
338.3505194
0
ARC
8
DEFAULT_255_1_234
10
23.046489
20
13.8164284
40
1.1146189
50
319.6472867
51
327.095818
0
ARC
8
DEFAULT_255_1_234
10
22.6631893
20
14.1326
40
1.6114559
50
317.2586784
51
319.9046139
0
LINE
8
DEFAULT_255_1_234
10
21.5422458
20
21.6848211
11
21.8458456
21
21.097701
0
LINE
8
DEFAULT_255_1_234
10
21.8458456
20
21.097701
11
22.1510516
21
21.6848211
0
LINE
8
DEFAULT_255_1_234
10
22.1510516
20
21.6848211
11
22.3261435
21
21.6848211
0
LINE
8
DEFAULT_255_1_234
10
22.3261435
20
21.6848211
11
21.9229502
21
20.9515234
0
LINE
8
DEFAULT_255_1_234
10
21.9229502
20
20.9515234
11
21.9229502
21
20.5154
0
LINE
8
DEFAULT_255_1_234
10
21.9229502
20
20.5154
11
21.7687409
21
20.5154
0
LINE
8
DEFAULT_255_1_234
10
21.7687409
20
20.5154
11
21.7687409
21
20.9515234
0
LINE
8
DEFAULT_255_1_234
10
21.7687409
20
20.9515234
11
21.3655476
21
21.6848211
0
LINE
8
DEFAULT_255_1_234
10
21.3655476
20
21.6848211
11
21.5422458
21
21.6848211
0
LINE
8
DEFAULT_255_1_234
10
23.2048157
20
20.6366792
11
23.2048157
21
20.5154
0
LINE
8
DEFAULT_255_1_234
10
23.2048157
20
20.5154
11
22.4385878
21
20.5154
0
LINE
8
DEFAULT_255_1_234
10
22.4385878
20
20.5154
11
22.4385878
21
20.6222221
0
LINE
8
DEFAULT_255_1_234
10
22.4385878
20
20.6222221
11
22.8433875
21
21.0719995
0
LINE
8
DEFAULT_255_1_234
10
22.5646861
20
21.3402595
11
22.416099
21
21.3402595
0
LINE
8
DEFAULT_255_1_234
10
22.9309334
20
20.9764218
11
22.6176956
21
20.6366792
0
LINE
8
DEFAULT_255_1_234
10
22.6176956
20
20.6366792
11
23.2048157
21
20.6366792
0
ARC
8
DEFAULT_255_1_234
10
21.4943708
20
22.2649527
40
1.8008286
50
318.5132453
51
320.7828378
0
ARC
8
DEFAULT_255_1_234
10
22.0230682
20
21.8346426
40
1.1191493
50
320.7372736
51
323.9737074
0
ARC
8
DEFAULT_255_1_234
10
22.4150539
20
21.5506361
40
0.6350923
50
323.8961724
51
328.6421089
0
ARC
8
DEFAULT_255_1_234
10
22.6197134
20
21.4244031
40
0.3946393
50
328.8299013
51
331.789948
0
ARC
8
DEFAULT_255_1_234
10
22.7194313
20
21.3729509
40
0.2824501
50
331.4255242
51
352.9364833
0
ARC
8
DEFAULT_255_1_234
10
22.7330813
20
21.3698976
40
0.2685315
50
353.2248685
51
0.0169286
0
ARC
8
DEFAULT_255_1_234
10
22.754069
20
21.372195
40
0.2475536
50
359.4866256
51
15.9339782
0
ARC
8
DEFAULT_255_1_234
10
22.8047675
20
21.3858286
40
0.1950618
50
16.1714718
51
43.5284424
0
ARC
8
DEFAULT_255_1_234
10
22.8124984
20
21.3935573
40
0.184134
50
43.4415429
51
83.1661404
0
ARC
8
DEFAULT_255_1_234
10
22.7990902
20
21.3198771
40
0.258926
50
82.160215
51
90.1505798
0
ARC
8
DEFAULT_255_1_234
10
22.7959329
20
21.2661865
40
0.3126255
50
89.5460705
51
102.5418777
0
ARC
8
DEFAULT_255_1_234
10
22.7716416
20
21.3692665
40
0.2067346
50
102.1739365
51
129.2061916
0
ARC
8
DEFAULT_255_1_234
10
22.7637487
20
21.3817094
40
0.1921118
50
129.7279328
51
135.7542026
0
ARC
8
DEFAULT_255_1_234
10
22.7759015
20
21.3720045
40
0.2075944
50
136.175737
51
166.3674722
0
ARC
8
DEFAULT_255_1_234
10
22.8765934
20
21.3450182
40
0.3118201
50
165.9092917
51
178.8683903
0
ARC
8
DEFAULT_255_1_234
10
22.9630795
20
21.3403179
40
0.3983935
50
178.438168
51
180.0083905
0
ARC
8
DEFAULT_255_1_234
10
22.8229398
20
21.3442231
40
0.4068601
50
163.2878735
51
180.5581814
0
ARC
8
DEFAULT_255_1_234
10
22.7427659
20
21.366284
40
0.3237344
50
133.454115
51
162.9470031
0
ARC
8
DEFAULT_255_1_234
10
22.76062
20
21.3473
40
0.349795
50
100.7869394
51
133.4384016
0
ARC
8
DEFAULT_255_1_234
10
22.7953972
20
21.1924319
40
0.5084616
50
89.6605301
51
101.3704185
0
ARC
8
DEFAULT_255_1_234
10
22.8020311
20
21.1985496
40
0.502348
50
78.2171172
51
90.4130393
0
ARC
8
DEFAULT_255_1_234
10
22.8375389
20
21.3609637
40
0.3361092
50
55.9268222
51
78.4888551
0
ARC
8
DEFAULT_255_1_234
10
22.8571829
20
21.3948324
40
0.2970617
50
47.9292255
51
55.4054003
0
ARC
8
DEFAULT_255_1_234
10
22.867339
20
21.4051502
40
0.2825983
50
4.3347696
51
48.0560701
0
ARC
8
DEFAULT_255_1_234
10
22.7577783
20
21.3881601
40
0.393225
50
359.925209
51
5.5967654
0
ARC
8
DEFAULT_255_1_234
10
22.8006675
20
21.3937816
40
0.3503892
50
337.8914096
51
358.9967724
0
ARC
8
DEFAULT_255_1_234
10
22.5293087
20
21.4984706
40
0.6412172
50
326.9135351
51
338.3505194
0
ARC
8
DEFAULT_255_1_234
10
22.1307391
20
21.7539284
40
1.1146189
50
319.6472867
51
327.095818
0
ARC
8
DEFAULT_255_1_234
10
21.7474394
20
22.0701
40
1.6114559
50
317.2586784
51
319.9046139
0
LINE
8
DEFAULT_255_1_234
10
23.8505674
20
21.6904433
11
23.8505674
21
20.5154
0
LINE
8
DEFAULT_255_1_234
10
23.8505674
20
20.5154
11
23.7011771
21
20.5154
0
LINE
8
DEFAULT_255_1_234
10
23.7011771
20
20.5154
11
23.7011771
21
21.5057133
0
LINE
8
DEFAULT_255_1_234
10
23.7011771
20
21.5057133
11
23.4015933
21
21.3956785
0
LINE
8
DEFAULT_255_1_234
10
23.4015933
20
21.3956785
11
23.4015933
21
21.5306117
0
LINE
8
DEFAULT_255_1_234
10
23.4015933
20
21.5306117
11
23.8272754
21
21.6904433
0
LINE
8
DEFAULT_255_1_234
10
23.8272754
20
21.6904433
11
23.8505674
21
21.6904433
0
LINE
8
DEFAULT_255_1_234
10
21.5343458
20
29.6223211
11
21.8379456
21
29.035201
0
LINE
8
DEFAULT_255_1_234
10
21.8379456
20
29.035201
11
22.1431516
21
29.6223211
0
LINE
8
DEFAULT_255_1_234
10
22.1431516
20
29.6223211
11
22.3182435
21
29.6223211
0
LINE
8
DEFAULT_255_1_234
10
22.3182435
20
29.6223211
11
21.9150502
21
28.8890234
0
LINE
8
DEFAULT_255_1_234
10
21.9150502
20
28.8890234
11
21.9150502
21
28.4529
0
LINE
8
DEFAULT_255_1_234
10
21.9150502
20
28.4529
11
21.7608409
21
28.4529
0
LINE
8
DEFAULT_255_1_234
10
21.7608409
20
28.4529
11
21.7608409
21
28.8890234
0
LINE
8
DEFAULT_255_1_234
10
21.7608409
20
28.8890234
11
21.3576476
21
29.6223211
0
LINE
8
DEFAULT_255_1_234
10
21.3576476
20
29.6223211
11
21.5343458
21
29.6223211
0
LINE
8
DEFAULT_255_1_234
10
23.1969157
20
28.5741792
11
23.1969157
21
28.4529
0
LINE
8
DEFAULT_255_1_234
10
23.1969157
20
28.4529
11
22.4306878
21
28.4529
0
LINE
8
DEFAULT_255_1_234
10
22.4306878
20
28.4529
11
22.4306878
21
28.5597221
0
LINE
8
DEFAULT_255_1_234
10
22.4306878
20
28.5597221
11
22.8354875
21
29.0094995
0
LINE
8
DEFAULT_255_1_234
10
22.5567861
20
29.2777595
11
22.408199
21
29.2777595
0
LINE
8
DEFAULT_255_1_234
10
22.9230334
20
28.9139218
11
22.6097956
21
28.5741792
0
LINE
8
DEFAULT_255_1_234
10
22.6097956
20
28.5741792
11
23.1969157
21
28.5741792
0
ARC
8
DEFAULT_255_1_234
10
21.4864708
20
30.2024527
40
1.8008286
50
318.5132453
51
320.7828378
0
ARC
8
DEFAULT_255_1_234
10
22.0151682
20
29.7721426
40
1.1191493
50
320.7372736
51
323.9737074
0
ARC
8
DEFAULT_255_1_234
10
22.4071539
20
29.4881361
40
0.6350923
50
323.8961724
51
328.6421089
0
ARC
8
DEFAULT_255_1_234
10
22.6118134
20
29.3619031
40
0.3946393
50
328.8299013
51
331.789948
0
ARC
8
DEFAULT_255_1_234
10
22.7115313
20
29.3104509
40
0.2824501
50
331.4255242
51
352.9364833
0
ARC
8
DEFAULT_255_1_234
10
22.7251813
20
29.3073976
40
0.2685315
50
353.2248685
51
0.0169286
0
ARC
8
DEFAULT_255_1_234
10
22.746169
20
29.309695
40
0.2475536
50
359.4866256
51
15.9339782
0
ARC
8
DEFAULT_255_1_234
10
22.7968675
20
29.3233286
40
0.1950618
50
16.1714718
51
43.5284424
0
ARC
8
DEFAULT_255_1_234
10
22.8045984
20
29.3310573
40
0.184134
50
43.4415429
51
83.1661404
0
ARC
8
DEFAULT_255_1_234
10
22.7911902
20
29.2573771
40
0.258926
50
82.160215
51
90.1505798
0
ARC
8
DEFAULT_255_1_234
10
22.7880329
20
29.2036865
40
0.3126255
50
89.5460705
51
102.5418777
0
ARC
8
DEFAULT_255_1_234
10
22.7637416
20
29.3067665
40
0.2067346
50
102.1739365
51
129.2061916
0
ARC
8
DEFAULT_255_1_234
10
22.7558487
20
29.3192094
40
0.1921118
50
129.7279328
51
135.7542026
0
ARC
8
DEFAULT_255_1_234
10
22.7680015
20
29.3095045
40
0.2075944
50
136.175737
51
166.3674722
0
ARC
8
DEFAULT_255_1_234
10
22.8686934
20
29.2825182
40
0.3118201
50
165.9092917
51
178.8683903
0
ARC
8
DEFAULT_255_1_234
10
22.9551795
20
29.2778179
40
0.3983935
50
178.438168
51
180.0083905
0
ARC
8
DEFAULT_255_1_234
10
22.8150398
20
29.2817231
40
0.4068601
50
163.2878735
51
180.5581814
0
ARC
8
DEFAULT_255_1_234
10
22.7348659
20
29.303784
40
0.3237344
50
133.454115
51
162.9470031
0
ARC
8
DEFAULT_255_1_234
10
22.75272
20
29.2848
40
0.349795
50
100.7869394
51
133.4384016
0
ARC
8
DEFAULT_255_1_234
10
22.7874972
20
29.1299319
40
0.5084616
50
89.6605301
51
101.3704185
0
ARC
8
DEFAULT_255_1_234
10
22.7941311
20
29.1360496
40
0.502348
50
78.2171172
51
90.4130393
0
ARC
8
DEFAULT_255_1_234
10
22.8296389
20
29.2984637
40
0.3361092
50
55.9268222
51
78.4888551
0
ARC
8
DEFAULT_255_1_234
10
22.8492829
20
29.3323324
40
0.2970617
50
47.9292255
51
55.4054003
0
ARC
8
DEFAULT_255_1_234
10
22.859439
20
29.3426502
40
0.2825983
50
4.3347696
51
48.0560701
0
ARC
8
DEFAULT_255_1_234
10
22.7498783
20
29.3256601
40
0.393225
50
359.925209
51
5.5967654
0
ARC
8
DEFAULT_255_1_234
10
22.7927675
20
29.3312816
40
0.3503892
50
337.8914096
51
358.9967724
0
ARC
8
DEFAULT_255_1_234
10
22.5214087
20
29.4359706
40
0.6412172
50
326.9135351
51
338.3505194
0
ARC
8
DEFAULT_255_1_234
10
22.1228391
20
29.6914284
40
1.1146189
50
319.6472867
51
327.095818
0
ARC
8
DEFAULT_255_1_234
10
21.7395394
20
30.0076
40
1.6114559
50
317.2586784
51
319.9046139
0
LINE
8
DEFAULT_255_1_234
10
24.0876354
20
29.1444327
11
24.0876354
21
28.9516709
0
LINE
8
DEFAULT_255_1_234
10
23.3495187
20
28.9315916
11
23.3495187
21
29.1299755
0
LINE
8
DEFAULT_255_1_234
10
23.9390483
20
28.9115123
11
23.9390483
21
29.1548739
0
LINE
8
DEFAULT_255_1_234
10
23.4981059
20
29.1661184
11
23.4981059
21
28.9283789
0
ARC
8
DEFAULT_255_1_234
10
22.8629244
20
28.9467805
40
1.2247208
50
353.8441951
51
0.2287902
0
ARC
8
DEFAULT_255_1_234
10
23.3268748
20
28.8949806
40
0.7578929
50
344.4934747
51
353.9765454
0
ARC
8
DEFAULT_255_1_234
10
23.6261338
20
28.8098981
40
0.4467846
50
329.2803592
51
344.7472793
0
ARC
8
DEFAULT_255_1_234
10
23.7254163
20
28.7554018
40
0.3336173
50
324.9352394
51
328.6160465
0
ARC
8
DEFAULT_255_1_234
10
23.7631272
20
28.7290427
40
0.2876076
50
280.580143
51
324.9173126
0
ARC
8
DEFAULT_255_1_234
10
23.7230064
20
28.8961099
40
0.4592847
50
269.5977311
51
281.6734359
0
ARC
8
DEFAULT_255_1_234
10
23.715797
20
28.8841173
40
0.4472986
50
256.6228859
51
270.51044
0
ARC
8
DEFAULT_255_1_234
10
23.6755948
20
28.7292877
40
0.2873874
50
215.8618325
51
257.2788573
0
ARC
8
DEFAULT_255_1_234
10
23.7776979
20
28.7977977
40
0.4102928
50
197.9693508
51
215.2623606
0
ARC
8
DEFAULT_255_1_234
10
24.0262095
20
28.8816709
40
0.6725652
50
187.8816417
51
198.2346507
0
ARC
8
DEFAULT_255_1_234
10
24.4220303
20
28.9388079
40
1.0724845
50
180.8976217
51
188.0055519
0
ARC
8
DEFAULT_255_1_234
10
24.7020491
20
28.9491777
40
1.3526448
50
180.7449369
51
181.1510016
0
ARC
8
DEFAULT_255_1_234
10
24.544322
20
29.1348042
40
1.1948131
50
173.7675579
51
180.231553
0
ARC
8
DEFAULT_255_1_234
10
24.0925367
20
29.1858666
40
0.7401564
50
164.3058563
51
173.9002247
0
ARC
8
DEFAULT_255_1_234
10
23.8013436
20
29.2697656
40
0.4371288
50
148.7922025
51
164.568378
0
ARC
8
DEFAULT_255_1_234
10
23.7061888
20
29.3228929
40
0.3282386
50
144.5883898
51
148.1176286
0
ARC
8
DEFAULT_255_1_234
10
23.6718786
20
29.3468315
40
0.2864044
50
101.6440918
51
144.514236
0
ARC
8
DEFAULT_255_1_234
10
23.7143853
20
29.1779069
40
0.4604934
50
89.5284041
51
102.5819763
0
ARC
8
DEFAULT_255_1_234
10
23.722294
20
29.1740018
40
0.464401
50
77.0437873
51
90.5081339
0
ARC
8
DEFAULT_255_1_234
10
23.7624942
20
29.3382615
40
0.2953195
50
48.2778575
51
77.4994676
0
ARC
8
DEFAULT_255_1_234
10
23.7697573
20
29.3511746
40
0.2808655
50
36.3142134
51
47.6305865
0
ARC
8
DEFAULT_255_1_234
10
23.682888
20
29.2926515
40
0.3855453
50
18.2931786
51
35.6769206
0
ARC
8
DEFAULT_255_1_234
10
23.4285639
20
29.2053593
40
0.654423
50
8.024666
51
18.5605216
0
ARC
8
DEFAULT_255_1_234
10
23.0122559
20
29.1438792
40
1.0752407
50
1.1274072
51
8.1718305
0
ARC
8
DEFAULT_255_1_234
10
22.688675
20
29.1311885
40
1.3990231
50
0.5424119
51
1.3863029
0
ARC
8
DEFAULT_255_1_234
10
22.8708128
20
29.1584342
40
1.0682415
50
359.8090433
51
4.9407866
0
ARC
8
DEFAULT_255_1_234
10
23.2918142
20
29.1960113
40
0.6455691
50
4.8362157
51
12.2904523
0
ARC
8
DEFAULT_255_1_234
10
23.5673256
20
29.2573965
40
0.3633074
50
12.0805627
51
23.8173984
0
ARC
8
DEFAULT_255_1_234
10
23.6846962
20
29.3070919
40
0.2358723
50
24.2871213
51
31.3935614
0
ARC
8
DEFAULT_255_1_234
10
23.7371659
20
29.3414233
40
0.1732111
50
30.7407893
51
82.4657128
0
ARC
8
DEFAULT_255_1_234
10
23.7191793
20
29.2530691
40
0.263235
50
81.1060089
51
90.2184952
0
ARC
8
DEFAULT_255_1_234
10
23.7156092
20
29.2788924
40
0.2374236
50
89.3806855
51
105.6762551
0
ARC
8
DEFAULT_255_1_234
10
23.6972723
20
29.3455567
40
0.1682847
50
105.7981136
51
149.7388061
0
ARC
8
DEFAULT_255_1_234
10
23.8036801
20
29.281595
40
0.2924306
50
149.4208916
51
163.6286378
0
ARC
8
DEFAULT_255_1_234
10
24.0127689
20
29.217825
40
0.5110213
50
163.3763315
51
172.1410975
0
ARC
8
DEFAULT_255_1_234
10
24.3428408
20
29.1705518
40
0.8444586
50
172.0259487
51
178.0703232
0
ARC
8
DEFAULT_255_1_234
10
24.6458498
20
29.1561906
40
1.1477868
50
177.8631668
51
179.5044149
0
ARC
8
DEFAULT_255_1_234
10
24.5385902
20
28.9247389
40
1.0404907
50
179.7995573
51
185.2460446
0
ARC
8
DEFAULT_255_1_234
10
24.1342941
20
28.8864513
40
0.6343885
50
185.1411642
51
193.0079639
0
ARC
8
DEFAULT_255_1_234
10
23.8699414
20
28.8239641
40
0.3627568
50
192.7897626
51
205.2507664
0
ARC
8
DEFAULT_255_1_234
10
23.7652961
20
28.7772415
40
0.2481908
50
205.8005384
51
211.2537509
0
ARC
8
DEFAULT_255_1_234
10
23.7129401
20
28.742158
40
0.1852521
50
210.3789793
51
238.4008143
0
ARC
8
DEFAULT_255_1_234
10
23.7109923
20
28.7468376
40
0.1882621
50
239.6520629
51
265.9793761
0
ARC
8
DEFAULT_255_1_234
10
23.7195123
20
28.8140427
40
0.2559272
50
265.1315437
51
270.060332
0
ARC
8
DEFAULT_255_1_234
10
23.7223902
20
28.7816534
40
0.2235528
50
269.3314664
51
287.2178029
0
ARC
8
DEFAULT_255_1_234
10
23.7361754
20
28.7313279
40
0.1714108
50
287.7958004
51
329.080874
0
ARC
8
DEFAULT_255_1_234
10
23.6404211
20
28.791093
40
0.2842745
50
328.6634704
51
343.3325132
0
ARC
8
DEFAULT_255_1_234
10
23.4231231
20
28.8587863
40
0.5118644
50
343.0499468
51
351.9393422
0
ARC
8
DEFAULT_255_1_234
10
23.0764531
20
28.9098949
40
0.8622784
50
351.8069023
51
357.7959224
0
ARC
8
DEFAULT_255_1_234
10
22.7529087
20
28.9266721
40
1.1862365
50
357.5871873
51
359.2677531
0
LINE
8
DEFAULT_255_1_234
10
21.5343458
20
37.5598211
11
21.8379456
21
36.972701
0
LINE
8
DEFAULT_255_1_234
10
21.8379456
20
36.972701
11
22.1431516
21
37.5598211
0
LINE
8
DEFAULT_255_1_234
10
22.1431516
20
37.5598211
11
22.3182435
21
37.5598211
0
LINE
8
DEFAULT_255_1_234
10
22.3182435
20
37.5598211
11
21.9150502
21
36.8265234
0
LINE
8
DEFAULT_255_1_234
10
21.9150502
20
36.8265234
11
21.9150502
21
36.3904
0
LINE
8
DEFAULT_255_1_234
10
21.9150502
20
36.3904
11
21.7608409
21
36.3904
0
LINE
8
DEFAULT_255_1_234
10
21.7608409
20
36.3904
11
21.7608409
21
36.8265234
0
LINE
8
DEFAULT_255_1_234
10
21.7608409
20
36.8265234
11
21.3576476
21
37.5598211
0
LINE
8
DEFAULT_255_1_234
10
21.3576476
20
37.5598211
11
21.5343458
21
37.5598211
0
LINE
8
DEFAULT_255_1_234
10
22.9190175
20
37.5654433
11
22.9190175
21
36.3904
0
LINE
8
DEFAULT_255_1_234
10
22.9190175
20
36.3904
11
22.7696272
21
36.3904
0
LINE
8
DEFAULT_255_1_234
10
22.7696272
20
36.3904
11
22.7696272
21
37.3807133
0
LINE
8
DEFAULT_255_1_234
10
22.7696272
20
37.3807133
11
22.4700434
21
37.2706785
0
LINE
8
DEFAULT_255_1_234
10
22.4700434
20
37.2706785
11
22.4700434
21
37.4056117
0
LINE
8
DEFAULT_255_1_234
10
22.4700434
20
37.4056117
11
22.8957255
21
37.5654433
0
LINE
8
DEFAULT_255_1_234
10
22.8957255
20
37.5654433
11
22.9190175
21
37.5654433
0
LINE
8
DEFAULT_255_1_234
10
24.0731783
20
37.0923739
11
24.0731783
21
37.0490025
0
LINE
8
DEFAULT_255_1_234
10
23.531036
20
36.3895968
11
23.5021217
21
36.3895968
0
LINE
8
DEFAULT_255_1_234
10
23.5021217
20
36.3895968
11
23.5021217
21
36.5148919
0
LINE
8
DEFAULT_255_1_234
10
23.5021217
20
36.5148919
11
23.5334455
21
36.5148919
0
LINE
8
DEFAULT_255_1_234
10
23.9245912
20
37.0634597
11
23.9245912
21
37.1228945
0
ARC
8
DEFAULT_255_1_234
10
23.6452181
20
37.1380403
40
0.3635579
50
297.4037347
51
320.016758
0
ARC
8
DEFAULT_255_1_234
10
23.674213
20
37.082324
40
0.3007486
50
270.2633101
51
297.3851877
0
ARC
8
DEFAULT_255_1_234
10
23.6708086
20
37.1286904
40
0.3471448
50
269.9966443
51
270.7900392
0
ARC
8
DEFAULT_255_1_234
10
23.6682567
20
37.1285143
40
0.3469779
50
254.5999133
51
270.4180344
0
ARC
8
DEFAULT_255_1_234
10
23.6539927
20
37.0720647
40
0.2887697
50
236.4717942
51
254.3541279
0
ARC
8
DEFAULT_255_1_234
10
23.6696144
20
37.0930711
40
0.3149125
50
208.4727207
51
236.2134933
0
ARC
8
DEFAULT_255_1_234
10
23.7334919
20
37.1321455
40
0.3897115
50
204.3447514
51
209.0453999
0
ARC
8
DEFAULT_255_1_234
10
23.8014495
20
37.1609656
40
0.4635101
50
183.9375985
51
204.1276318
0
ARC
8
DEFAULT_255_1_234
10
23.8922746
20
37.1707482
40
0.5548037
50
179.9652252
51
184.3013875
0
ARC
8
DEFAULT_255_1_234
10
23.8682793
20
37.1740507
40
0.5308164
50
166.7585989
51
180.3201225
0
ARC
8
DEFAULT_255_1_234
10
23.7836406
20
37.1924488
40
0.4442163
50
154.6955053
51
166.5679793
0
ARC
8
DEFAULT_255_1_234
10
23.6983276
20
37.235421
40
0.3487299
50
136.3324195
51
155.0871442
0
ARC
8
DEFAULT_255_1_234
10
23.6702349
20
37.2594954
40
0.3117924
50
121.236733
51
135.9680508
0
ARC
8
DEFAULT_255_1_234
10
23.6842847
20
37.2334743
40
0.3413302
50
96.845628
51
120.9881519
0
ARC
8
DEFAULT_255_1_234
10
23.6988429
20
37.1399515
40
0.4359341
50
89.8870174
51
97.2802754
0
ARC
8
DEFAULT_255_1_234
10
23.7040867
20
37.2037095
40
0.3722009
50
70.6505584
51
90.6749113
0
ARC
8
DEFAULT_255_1_234
10
23.7172146
20
37.2550361
40
0.3194571
50
36.7492984
51
69.8219918
0
ARC
8
DEFAULT_255_1_234
10
23.6173311
20
37.1771993
40
0.4460685
50
15.39587
51
37.0840084
0
ARC
8
DEFAULT_255_1_234
10
23.4043744
20
37.1151242
40
0.6678714
50
3.9488873
51
15.6798563
0
ARC
8
DEFAULT_255_1_234
10
23.1642372
20
37.0934964
40
0.9089418
50
359.929245
51
4.2665314
0
ARC
8
DEFAULT_255_1_234
10
22.7036809
20
37.0423513
40
1.3695135
50
352.8366322
51
0.2782669
0
ARC
8
DEFAULT_255_1_234
10
23.2324488
20
36.9736629
40
0.8363105
50
341.8359505
51
352.9884176
0
ARC
8
DEFAULT_255_1_234
10
23.5543207
20
36.86517
40
0.4966642
50
322.8578092
51
342.1527901
0
ARC
8
DEFAULT_255_1_234
10
23.6407163
20
36.8062384
40
0.3922466
50
319.334325
51
322.0998941
0
ARC
8
DEFAULT_255_1_234
10
23.60975
20
36.8373209
40
0.4360033
50
285.9541367
51
318.8878087
0
ARC
8
DEFAULT_255_1_234
10
23.5370761
20
37.06836
40
0.678149
50
272.9281676
51
286.4922826
0
ARC
8
DEFAULT_255_1_234
10
23.5180879
20
37.2934587
40
0.9039547
50
270.8207226
51
273.4012994
0
ARC
8
DEFAULT_255_1_234
10
23.526973
20
37.1115666
40
0.5967098
50
270.6214993
51
281.4062806
0
ARC
8
DEFAULT_255_1_234
10
23.5699711
20
36.9059833
40
0.3866861
50
281.1852553
51
299.0621114
0
ARC
8
DEFAULT_255_1_234
10
23.6073282
20
36.8338798
40
0.3055236
50
299.5067782
51
313.1200873
0
ARC
8
DEFAULT_255_1_234
10
23.6095249
20
36.8259554
40
0.2982623
50
313.8526205
51
338.5989322
0
ARC
8
DEFAULT_255_1_234
10
23.4471323
20
36.8926781
40
0.4738131
50
338.2523585
51
351.2430902
0
ARC
8
DEFAULT_255_1_234
10
23.2060619
20
36.9336447
40
0.7183203
50
350.9409515
51
357.6691871
0
ARC
8
DEFAULT_255_1_234
10
23.6951049
20
37.1338764
40
0.2294452
50
269.9447023
51
306.8248917
0
ARC
8
DEFAULT_255_1_234
10
23.6713964
20
37.1761898
40
0.2775994
50
305.5072438
51
327.0773448
0
ARC
8
DEFAULT_255_1_234
10
23.6832405
20
37.1667025
40
0.2625056
50
327.4104943
51
336.840169
0
ARC
8
DEFAULT_255_1_234
10
23.373847
20
37.1261302
40
0.5507537
50
359.6633817
51
10.117533
0
ARC
8
DEFAULT_255_1_234
10
23.5492268
20
37.1585777
40
0.372403
50
9.9430141
51
26.7700076
0
ARC
8
DEFAULT_255_1_234
10
23.608948
20
37.1861187
40
0.3066865
50
27.2015464
51
34.6829435
0
ARC
8
DEFAULT_255_1_234
10
23.6578961
20
37.2228977
40
0.245519
50
34.1250343
51
50.3070065
0
ARC
8
DEFAULT_255_1_234
10
23.702564
20
37.2763385
40
0.1758693
50
50.3851167
51
90.6705993
0
ARC
8
DEFAULT_255_1_234
10
23.6978873
20
37.2458799
40
0.2063326
50
89.272901
51
111.9140407
0
ARC
8
DEFAULT_255_1_234
10
23.6959401
20
37.259944
40
0.1925887
50
112.9382311
51
142.5320782
0
ARC
8
DEFAULT_255_1_234
10
23.7505581
20
37.2155969
40
0.2629232
50
142.1021256
51
166.3835592
0
ARC
8
DEFAULT_255_1_234
10
23.8686886
20
37.1850915
40
0.3849193
50
166.1100289
51
178.665427
0
ARC
8
DEFAULT_255_1_234
10
23.9734476
20
37.1792117
40
0.4897989
50
178.2632126
51
180.0111093
0
ARC
8
DEFAULT_255_1_234
10
23.8932596
20
37.1763728
40
0.40962
50
179.6161962
51
191.8787166
0
ARC
8
DEFAULT_255_1_234
10
23.7712435
20
37.1493896
40
0.2846655
50
191.6191692
51
215.2972286
0
ARC
8
DEFAULT_255_1_234
10
23.7515626
20
37.1378918
40
0.2619665
50
215.7320102
51
216.5355409
0
ARC
8
DEFAULT_255_1_234
10
23.6976712
20
37.0946647
40
0.1929497
50
215.7486685
51
239.9727502
0
ARC
8
DEFAULT_255_1_234
10
23.6906628
20
37.0895894
40
0.1850822
50
241.0650169
51
269.2810483
0
ARC
8
DEFAULT_255_1_234
10
23.6948543
20
37.1386371
40
0.2342059
50
268.4062526
51
270.0071348
0
LINE
8
DEFAULT_255_1_234
10
21.5343458
20
45.4973211
11
21.8379456
21
44.910201
0
LINE
8
DEFAULT_255_1_234
10
21.8379456
20
44.910201
11
22.1431516
21
45.4973211
0
LINE
8
DEFAULT_255_1_234
10
22.1431516
20
45.4973211
11
22.3182435
21
45.4973211
0
LINE
8
DEFAULT_255_1_234
10
22.3182435
20
45.4973211
11
21.9150502
21
44.7640234
0
LINE
8
DEFAULT_255_1_234
10
21.9150502
20
44.7640234
11
21.9150502
21
44.3279
0
LINE
8
DEFAULT_255_1_234
10
21.9150502
20
44.3279
11
21.7608409
21
44.3279
0
LINE
8
DEFAULT_255_1_234
10
21.7608409
20
44.3279
11
21.7608409
21
44.7640234
0
LINE
8
DEFAULT_255_1_234
10
21.7608409
20
44.7640234
11
21.3576476
21
45.4973211
0
LINE
8
DEFAULT_255_1_234
10
21.3576476
20
45.4973211
11
21.5343458
21
45.4973211
0
LINE
8
DEFAULT_255_1_234
10
22.9190175
20
45.5029433
11
22.9190175
21
44.3279
0
LINE
8
DEFAULT_255_1_234
10
22.9190175
20
44.3279
11
22.7696272
21
44.3279
0
LINE
8
DEFAULT_255_1_234
10
22.7696272
20
44.3279
11
22.7696272
21
45.3182133
0
LINE
8
DEFAULT_255_1_234
10
22.7696272
20
45.3182133
11
22.4700434
21
45.2081785
0
LINE
8
DEFAULT_255_1_234
10
22.4700434
20
45.2081785
11
22.4700434
21
45.3431117
0
LINE
8
DEFAULT_255_1_234
10
22.4700434
20
45.3431117
11
22.8957255
21
45.5029433
0
LINE
8
DEFAULT_255_1_234
10
22.8957255
20
45.5029433
11
22.9190175
21
45.5029433
0
ARC
8
DEFAULT_255_1_234
10
23.7813161
20
45.1895703
40
0.2822356
50
338.8763615
51
0.5166041
0
ARC
8
DEFAULT_255_1_234
10
23.7981815
20
45.1850208
40
0.2648703
50
325.8412414
51
338.4795939
0
ARC
8
DEFAULT_255_1_234
10
23.7591183
20
45.2121042
40
0.3124019
50
296.7586019
51
325.753654
0
ARC
8
DEFAULT_255_1_234
10
23.7303291
20
45.2605789
40
0.368668
50
296.0902311
51
297.3618122
0
ARC
8
DEFAULT_255_1_234
10
23.7560749
20
44.6051041
40
0.3518806
50
47.9009248
51
67.1946869
0
ARC
8
DEFAULT_255_1_234
10
23.7756991
20
44.6297395
40
0.320451
50
35.236241
51
47.551371
0
ARC
8
DEFAULT_255_1_234
10
23.8018609
20
44.6471993
40
0.2890103
50
359.2759738
51
35.4014081
0
ARC
8
DEFAULT_255_1_234
10
23.727364
20
44.6398826
40
0.3635026
50
343.1294516
51
0.5776525
0
ARC
8
DEFAULT_255_1_234
10
23.7998185
20
44.619933
40
0.2883832
50
310.8497458
51
342.744803
0
ARC
8
DEFAULT_255_1_234
10
23.7580298
20
44.6676294
40
0.3517954
50
281.5473923
51
310.9169905
0
ARC
8
DEFAULT_255_1_234
10
23.7223748
20
44.8229084
40
0.5110832
50
269.6192722
51
281.9789957
0
ARC
8
DEFAULT_255_1_234
10
23.7151537
20
44.8229828
40
0.5111606
50
257.4584469
51
270.4287458
0
ARC
8
DEFAULT_255_1_234
10
23.677068
20
44.6626344
40
0.3463762
50
228.7553743
51
257.8484423
0
ARC
8
DEFAULT_255_1_234
10
23.6460878
20
44.6253442
40
0.297916
50
184.0104442
51
228.5071787
0
ARC
8
DEFAULT_255_1_234
10
23.7623822
20
44.6430512
40
0.4152734
50
179.9315461
51
185.3254504
0
ARC
8
DEFAULT_255_1_234
10
23.6447468
20
44.6467992
40
0.2976554
50
145.6795913
51
180.6259649
0
ARC
8
DEFAULT_255_1_234
10
23.6610817
20
44.6353929
40
0.3175776
50
115.5537925
51
145.6416199
0
ARC
8
DEFAULT_255_1_234
10
23.6951748
20
44.5743028
40
0.3874232
50
113.2437915
51
116.2054627
0
ARC
8
DEFAULT_255_1_234
10
23.679896
20
45.214158
40
0.3154751
50
222.9548379
51
244.1372485
0
ARC
8
DEFAULT_255_1_234
10
23.6677035
20
45.2004834
40
0.2972382
50
213.3439227
51
222.6271327
0
ARC
8
DEFAULT_255_1_234
10
23.648497
20
45.1874308
40
0.274019
50
180.4316517
51
213.2713999
0
ARC
8
DEFAULT_255_1_234
10
23.7059971
20
45.192111
40
0.33158
50
179.9992944
51
181.1655061
0
ARC
8
DEFAULT_255_1_234
10
23.7469388
20
45.1955561
40
0.3725376
50
164.6186108
51
180.5292368
0
ARC
8
DEFAULT_255_1_234
10
23.6571251
20
45.2197101
40
0.2795349
50
132.2454369
51
164.5092287
0
ARC
8
DEFAULT_255_1_234
10
23.6858355
20
45.1872028
40
0.3229019
50
100.7052766
51
132.1387266
0
ARC
8
DEFAULT_255_1_234
10
23.7163327
20
45.0494086
40
0.4639835
50
89.6732617
51
101.2449487
0
ARC
8
DEFAULT_255_1_234
10
23.7225525
20
45.066899
40
0.4464999
50
76.2876631
51
90.4586123
0
ARC
8
DEFAULT_255_1_234
10
23.7531757
20
45.189122
40
0.3205023
50
47.8240157
51
76.4266918
0
ARC
8
DEFAULT_255_1_234
10
23.7754307
20
45.215159
40
0.2862661
50
6.9168658
51
47.6261438
0
ARC
8
DEFAULT_255_1_234
10
23.656771
20
45.193237
40
0.4067708
50
359.8419705
51
7.9694496
0
ARC
8
DEFAULT_255_1_234
10
23.6909607
20
44.6491925
40
0.2513121
50
359.4454068
51
16.9256425
0
ARC
8
DEFAULT_255_1_234
10
23.7378418
20
44.6621033
40
0.2027071
50
17.292259
51
45.462717
0
ARC
8
DEFAULT_255_1_234
10
23.7324354
20
44.6574434
40
0.2098212
50
45.3028762
51
83.1921472
0
ARC
8
DEFAULT_255_1_234
10
23.7181038
20
44.5772895
40
0.2911472
50
82.2614531
51
90.143954
0
ARC
8
DEFAULT_255_1_234
10
23.7150158
20
44.600595
40
0.2678513
50
89.4959189
51
104.8579811
0
ARC
8
DEFAULT_255_1_234
10
23.6973417
20
44.667589
40
0.1985654
50
104.8855873
51
135.2448349
0
ARC
8
DEFAULT_255_1_234
10
23.702319
20
44.6631336
40
0.2052373
50
135.3398955
51
172.104394
0
ARC
8
DEFAULT_255_1_234
10
23.7830248
20
44.6476925
40
0.2873299
50
171.2651929
51
180.1859362
0
ARC
8
DEFAULT_255_1_234
10
23.7660949
20
44.6444733
40
0.2704083
50
179.515471
51
193.6466734
0
ARC
8
DEFAULT_255_1_234
10
23.6844718
20
44.6236777
40
0.1861855
50
193.3540587
51
225.8256931
0
ARC
8
DEFAULT_255_1_234
10
23.6885475
20
44.6307524
40
0.1941102
50
226.418029
51
255.8553723
0
ARC
8
DEFAULT_255_1_234
10
23.7141908
20
44.7243998
40
0.2911917
50
255.4655572
51
268.7985967
0
ARC
8
DEFAULT_255_1_234
10
23.71891
20
44.8082491
40
0.3751331
50
268.3464808
51
270.0104874
0
ARC
8
DEFAULT_255_1_234
10
23.7212488
20
44.7398138
40
0.3067064
50
269.575914
51
282.0823146
0
ARC
8
DEFAULT_255_1_234
10
23.7437397
20
44.6403803
40
0.2047712
50
281.7522535
51
306.6056425
0
ARC
8
DEFAULT_255_1_234
10
23.7535823
20
44.6242487
40
0.1859604
50
307.1350025
51
314.0277951
0
ARC
8
DEFAULT_255_1_234
10
23.7499907
20
44.6268766
40
0.1903475
50
314.2553419
51
350.169324
0
ARC
8
DEFAULT_255_1_234
10
23.6648376
20
44.6453409
40
0.2774269
50
349.4145679
51
0.2930737
0
ARC
8
DEFAULT_255_1_234
10
23.7168809
20
45.1612353
40
0.2300764
50
89.477591
51
105.729794
0
ARC
8
DEFAULT_255_1_234
10
23.7032723
20
45.2117637
40
0.1777519
50
105.922966
51
135.1662921
0
ARC
8
DEFAULT_255_1_234
10
23.7053225
20
45.2103419
40
0.1802087
50
135.3053131
51
168.9882338
0
ARC
8
DEFAULT_255_1_234
10
23.7880798
20
45.1913721
40
0.2650806
50
168.3802067
51
180.3602358
0
ARC
8
DEFAULT_255_1_234
10
23.7652377
20
45.1876041
40
0.2422425
50
179.5029707
51
194.9126783
0
ARC
8
DEFAULT_255_1_234
10
23.7067038
20
45.172211
40
0.1817188
50
194.9722181
51
224.1943972
0
ARC
8
DEFAULT_255_1_234
10
23.7038905
20
45.1699169
40
0.1781027
50
224.2961434
51
262.0157375
0
ARC
8
DEFAULT_255_1_234
10
23.7181148
20
45.2430661
40
0.2525492
50
261.1250369
51
270.1959853
0
ARC
8
DEFAULT_255_1_234
10
23.7210903
20
45.2243339
40
0.233825
50
269.4825617
51
285.0988277
0
ARC
8
DEFAULT_255_1_234
10
23.7365062
20
45.166499
40
0.1739712
50
285.1585659
51
315.9484648
0
ARC
8
DEFAULT_255_1_234
10
23.7276074
20
45.1746886
40
0.1860616
50
316.0412958
51
351.9162715
0
ARC
8
DEFAULT_255_1_234
10
23.6543029
20
45.1888245
40
0.2606517
50
351.1056823
51
0.1936567
0
ARC
8
DEFAULT_255_1_234
10
23.6805858
20
45.1918369
40
0.234377
50
359.4789506
51
16.0679113
0
ARC
8
DEFAULT_255_1_234
10
23.7281817
20
45.204681
40
0.1850875
50
16.3251951
51
44.791304
0
ARC
8
DEFAULT_255_1_234
10
23.7264098
20
45.2047339
40
0.186312
50
44.3958661
51
88.2498933
0
ARC
8
DEFAULT_255_1_234
10
23.7190652
20
45.1436154
40
0.2476868
50
86.9833827
51
90.0200148
0
LINE
8
DEFAULT_255_1_234
10
21.5343458
20
53.4348211
11
21.8379456
21
52.847701
0
LINE
8
DEFAULT_255_1_234
10
21.8379456
20
52.847701
11
22.1431516
21
53.4348211
0
LINE
8
DEFAULT_255_1_234
10
22.1431516
20
53.4348211
11
22.3182435
21
53.4348211
0
LINE
8
DEFAULT_255_1_234
10
22.3182435
20
53.4348211
11
21.9150502
21
52.7015234
0
LINE
8
DEFAULT_255_1_234
10
21.9150502
20
52.7015234
11
21.9150502
21
52.2654
0
LINE
8
DEFAULT_255_1_234
10
21.9150502
20
52.2654
11
21.7608409
21
52.2654
0
LINE
8
DEFAULT_255_1_234
10
21.7608409
20
52.2654
11
21.7608409
21
52.7015234
0
LINE
8
DEFAULT_255_1_234
10
21.7608409
20
52.7015234
11
21.3576476
21
53.4348211
0
LINE
8
DEFAULT_255_1_234
10
21.3576476
20
53.4348211
11
21.5343458
21
53.4348211
0
LINE
8
DEFAULT_255_1_234
10
22.9190175
20
53.4404433
11
22.9190175
21
52.2654
0
LINE
8
DEFAULT_255_1_234
10
22.9190175
20
52.2654
11
22.7696272
21
52.2654
0
LINE
8
DEFAULT_255_1_234
10
22.7696272
20
52.2654
11
22.7696272
21
53.2557133
0
LINE
8
DEFAULT_255_1_234
10
22.7696272
20
53.2557133
11
22.4700434
21
53.1456785
0
LINE
8
DEFAULT_255_1_234
10
22.4700434
20
53.1456785
11
22.4700434
21
53.2806117
0
LINE
8
DEFAULT_255_1_234
10
22.4700434
20
53.2806117
11
22.8957255
21
53.4404433
0
LINE
8
DEFAULT_255_1_234
10
22.8957255
20
53.4404433
11
22.9190175
21
53.4404433
0
LINE
8
DEFAULT_255_1_234
10
24.1093211
20
53.4348211
11
24.1093211
21
53.351291
0
LINE
8
DEFAULT_255_1_234
10
24.1093211
20
53.351291
11
23.6250073
21
52.2654
0
LINE
8
DEFAULT_255_1_234
10
23.6250073
20
52.2654
11
23.4691916
21
52.2654
0
LINE
8
DEFAULT_255_1_234
10
23.4691916
20
52.2654
11
23.9518991
21
53.3127387
0
LINE
8
DEFAULT_255_1_234
10
23.9518991
20
53.3127387
11
23.3189981
21
53.3127387
0
LINE
8
DEFAULT_255_1_234
10
23.3189981
20
53.3127387
11
23.3189981
21
53.4348211
0
LINE
8
DEFAULT_255_1_234
10
23.3189981
20
53.4348211
11
24.1093211
21
53.4348211
0
LINE
8
DEFAULT_255_1_234
10
21.5343458
20
61.3723211
11
21.8379456
21
60.785201
0
LINE
8
DEFAULT_255_1_234
10
21.8379456
20
60.785201
11
22.1431516
21
61.3723211
0
LINE
8
DEFAULT_255_1_234
10
22.1431516
20
61.3723211
11
22.3182435
21
61.3723211
0
LINE
8
DEFAULT_255_1_234
10
22.3182435
20
61.3723211
11
21.9150502
21
60.6390234
0
LINE
8
DEFAULT_255_1_234
10
21.9150502
20
60.6390234
11
21.9150502
21
60.2029
0
LINE
8
DEFAULT_255_1_234
10
21.9150502
20
60.2029
11
21.7608409
21
60.2029
0
LINE
8
DEFAULT_255_1_234
10
21.7608409
20
60.2029
11
21.7608409
21
60.6390234
0
LINE
8
DEFAULT_255_1_234
10
21.7608409
20
60.6390234
11
21.3576476
21
61.3723211
0
LINE
8
DEFAULT_255_1_234
10
21.3576476
20
61.3723211
11
21.5343458
21
61.3723211
0
LINE
8
DEFAULT_255_1_234
10
22.9190175
20
61.3779433
11
22.9190175
21
60.2029
0
LINE
8
DEFAULT_255_1_234
10
22.9190175
20
60.2029
11
22.7696272
21
60.2029
0
LINE
8
DEFAULT_255_1_234
10
22.7696272
20
60.2029
11
22.7696272
21
61.1932133
0
LINE
8
DEFAULT_255_1_234
10
22.7696272
20
61.1932133
11
22.4700434
21
61.0831785
0
LINE
8
DEFAULT_255_1_234
10
22.4700434
20
61.0831785
11
22.4700434
21
61.2181117
0
LINE
8
DEFAULT_255_1_234
10
22.4700434
20
61.2181117
11
22.8957255
21
61.3779433
0
LINE
8
DEFAULT_255_1_234
10
22.8957255
20
61.3779433
11
22.9190175
21
61.3779433
0
LINE
8
DEFAULT_255_1_234
10
23.9109372
20
61.3731243
11
23.9374419
21
61.3731243
0
LINE
8
DEFAULT_255_1_234
10
23.9374419
20
61.3731243
11
23.9374419
21
61.247026
0
LINE
8
DEFAULT_255_1_234
10
23.9374419
20
61.247026
11
23.910134
21
61.247026
0
LINE
8
DEFAULT_255_1_234
10
23.3631727
20
60.6478583
11
23.3631727
21
60.7048836
0
LINE
8
DEFAULT_255_1_234
10
23.512563
20
60.6856075
11
23.512563
21
60.6309917
0
ARC
8
DEFAULT_255_1_234
10
23.9153688
20
60.7472455
40
0.4998079
50
90.6001036
51
104.514704
0
ARC
8
DEFAULT_255_1_234
10
23.8765204
20
60.8917131
40
0.3502176
50
104.2855254
51
133.862935
0
ARC
8
DEFAULT_255_1_234
10
23.8928961
20
60.880883
40
0.3693984
50
134.5302688
51
161.6210873
0
ARC
8
DEFAULT_255_1_234
10
24.058215
20
60.8225895
40
0.5446739
50
161.2849839
51
174.2076652
0
ARC
8
DEFAULT_255_1_234
10
24.1989087
20
60.8031787
40
0.6866274
50
173.7810589
51
174.9254635
0
ARC
8
DEFAULT_255_1_234
10
23.7438919
20
60.6648839
40
0.3033419
50
95.8330959
51
138.9954921
0
ARC
8
DEFAULT_255_1_234
10
23.7662275
20
60.5370375
40
0.4328947
50
89.8753725
51
97.0544009
0
ARC
8
DEFAULT_255_1_234
10
23.7709741
20
60.6205748
40
0.3493769
50
71.6407809
51
90.6240094
0
ARC
8
DEFAULT_255_1_234
10
23.7860314
20
60.6760082
40
0.2920396
50
39.6367836
51
71.019018
0
ARC
8
DEFAULT_255_1_234
10
23.7223787
20
60.6209998
40
0.3761538
50
10.658731
51
39.9043955
0
ARC
8
DEFAULT_255_1_234
10
23.567587
20
60.5873686
40
0.5345136
50
359.682601
51
11.132623
0
ARC
8
DEFAULT_255_1_234
10
23.5636001
20
60.580301
40
0.5385081
50
347.2486944
51
0.4369317
0
ARC
8
DEFAULT_255_1_234
10
23.7303478
20
60.5401807
40
0.3670249
50
318.1409698
51
347.6118597
0
ARC
8
DEFAULT_255_1_234
10
23.7628471
20
60.5134702
40
0.3250007
50
275.6342139
51
317.8248465
0
ARC
8
DEFAULT_255_1_234
10
23.7407583
20
60.6434219
40
0.4565864
50
269.8874292
51
276.7917694
0
ARC
8
DEFAULT_255_1_234
10
23.7352653
20
60.5408743
40
0.3540676
50
246.9140195
51
270.7437342
0
ARC
8
DEFAULT_255_1_234
10
23.7359043
20
60.5266384
40
0.3412781
50
218.1665114
51
245.878116
0
ARC
8
DEFAULT_255_1_234
10
23.8238504
20
60.6002279
40
0.455911
50
191.4115814
51
218.6077802
0
ARC
8
DEFAULT_255_1_234
10
24.0176593
20
60.6436833
40
0.6545001
50
179.6345085
51
191.7836486
0
ARC
8
DEFAULT_255_1_234
10
24.575893
20
60.7115697
40
1.2127388
50
171.4525249
51
180.3158839
0
ARC
8
DEFAULT_255_1_234
10
24.1363806
20
60.7799608
40
0.7679464
50
157.9802646
51
171.6246686
0
ARC
8
DEFAULT_255_1_234
10
23.9149827
20
60.8682421
40
0.5296008
50
141.4298019
51
157.854097
0
ARC
8
DEFAULT_255_1_234
10
23.8508148
20
60.9136381
40
0.4511509
50
102.8715806
51
140.8564722
0
ARC
8
DEFAULT_255_1_234
10
23.9155763
20
60.6696552
40
0.7034845
50
90.3778349
51
103.5869322
0
ARC
8
DEFAULT_255_1_234
10
23.7417539
20
60.609173
40
0.2370698
50
89.8751008
51
126.2071704
0
ARC
8
DEFAULT_255_1_234
10
23.7463329
20
60.5937303
40
0.2522934
50
124.9745049
51
144.895901
0
ARC
8
DEFAULT_255_1_234
10
23.728752
20
60.608056
40
0.2296779
50
145.2974905
51
160.2660252
0
ARC
8
DEFAULT_255_1_234
10
24.0360058
20
60.6278071
40
0.5234525
50
179.6514266
51
190.2855912
0
ARC
8
DEFAULT_255_1_234
10
23.8666196
20
60.5958786
40
0.3510893
50
190.0945431
51
207.5098196
0
ARC
8
DEFAULT_255_1_234
10
23.8100465
20
60.5689623
40
0.288489
50
207.9583163
51
216.3251085
0
ARC
8
DEFAULT_255_1_234
10
23.7760573
20
60.5410105
40
0.2445587
50
215.7661442
51
232.5456785
0
ARC
8
DEFAULT_255_1_234
10
23.7377556
20
60.4923482
40
0.1826382
50
232.8005391
51
270.6605633
0
ARC
8
DEFAULT_255_1_234
10
23.7423257
20
60.5287612
40
0.2190529
50
269.35537
51
288.4744281
0
ARC
8
DEFAULT_255_1_234
10
23.7516154
20
60.4938118
40
0.1829749
50
289.1833337
51
322.9683818
0
ARC
8
DEFAULT_255_1_234
10
23.6904676
20
60.5420391
40
0.2608399
50
322.6007884
51
346.5182367
0
ARC
8
DEFAULT_255_1_234
10
23.5747272
20
60.5715616
40
0.3802777
50
346.2582162
51
358.7741648
0
ARC
8
DEFAULT_255_1_234
10
23.4728941
20
60.5770965
40
0.4822176
50
358.3755224
51
0.0098023
0
ARC
8
DEFAULT_255_1_234
10
23.5485128
20
60.5798657
40
0.4066078
50
359.6214041
51
11.2839074
0
ARC
8
DEFAULT_255_1_234
10
23.6762275
20
60.6065066
40
0.2761514
50
11.0482309
51
31.8146458
0
ARC
8
DEFAULT_255_1_234
10
23.7071318
20
60.6232584
40
0.2410679
50
32.3035391
51
38.082671
0
ARC
8
DEFAULT_255_1_234
10
23.7491978
20
60.6613662
40
0.1844966
50
36.825067
51
85.7415724
0
ARC
8
DEFAULT_255_1_234
10
23.7424811
20
60.6113301
40
0.2349122
50
85.0140713
51
90.0513278
0
LINE
8
DEFAULT_255_1_234
10
21.5343458
20
69.3098211
11
21.8379456
21
68.722701
0
LINE
8
DEFAULT_255_1_234
10
21.8379456
20
68.722701
11
22.1431516
21
69.3098211
0
LINE
8
DEFAULT_255_1_234
10
22.1431516
20
69.3098211
11
22.3182435
21
69.3098211
0
LINE
8
DEFAULT_255_1_234
10
22.3182435
20
69.3098211
11
21.9150502
21
68.5765234
0
LINE
8
DEFAULT_255_1_234
10
21.9150502
20
68.5765234
11
21.9150502
21
68.1404
0
LINE
8
DEFAULT_255_1_234
10
21.9150502
20
68.1404
11
21.7608409
21
68.1404
0
LINE
8
DEFAULT_255_1_234
10
21.7608409
20
68.1404
11
21.7608409
21
68.5765234
0
LINE
8
DEFAULT_255_1_234
10
21.7608409
20
68.5765234
11
21.3576476
21
69.3098211
0
LINE
8
DEFAULT_255_1_234
10
21.3576476
20
69.3098211
11
21.5343458
21
69.3098211
0
LINE
8
DEFAULT_255_1_234
10
22.9190175
20
69.3154433
11
22.9190175
21
68.1404
0
LINE
8
DEFAULT_255_1_234
10
22.9190175
20
68.1404
11
22.7696272
21
68.1404
0
LINE
8
DEFAULT_255_1_234
10
22.7696272
20
68.1404
11
22.7696272
21
69.1307133
0
LINE
8
DEFAULT_255_1_234
10
22.7696272
20
69.1307133
11
22.4700434
21
69.0206785
0
LINE
8
DEFAULT_255_1_234
10
22.4700434
20
69.0206785
11
22.4700434
21
69.1556117
0
LINE
8
DEFAULT_255_1_234
10
22.4700434
20
69.1556117
11
22.8957255
21
69.3154433
0
LINE
8
DEFAULT_255_1_234
10
22.8957255
20
69.3154433
11
22.9190175
21
69.3154433
0
LINE
8
DEFAULT_255_1_234
10
23.5414772
20
68.6961963
11
23.4226075
21
68.7267169
0
LINE
8
DEFAULT_255_1_234
10
23.4226075
20
68.7267169
11
23.4820424
21
69.3098211
0
LINE
8
DEFAULT_255_1_234
10
23.4820424
20
69.3098211
11
24.0812101
21
69.3098211
0
LINE
8
DEFAULT_255_1_234
10
24.0812101
20
69.3098211
11
24.0812101
21
69.1724784
0
LINE
8
DEFAULT_255_1_234
10
24.0812101
20
69.1724784
11
23.6081407
21
69.1724784
0
LINE
8
DEFAULT_255_1_234
10
23.6081407
20
69.1724784
11
23.572801
21
68.8536184
0
LINE
8
DEFAULT_255_1_234
10
23.3808425
20
68.4480156
11
23.5213979
21
68.4480156
0
LINE
8
DEFAULT_255_1_234
10
23.5808328
20
68.7283232
11
23.5414772
21
68.6961963
0
ARC
8
DEFAULT_255_1_234
10
23.7582794
20
68.535623
40
0.3681349
50
93.7182161
51
120.2538958
0
ARC
8
DEFAULT_255_1_234
10
23.7677057
20
68.4548394
40
0.449379
50
89.9660152
51
94.2496022
0
ARC
8
DEFAULT_255_1_234
10
23.7717791
20
68.5137549
40
0.390482
50
73.8043271
51
90.5585896
0
ARC
8
DEFAULT_255_1_234
10
23.7952688
20
68.5995602
40
0.3015334
50
41.3071453
51
73.5430202
0
ARC
8
DEFAULT_255_1_234
10
23.7536515
20
68.5637324
40
0.3564457
50
13.5075983
51
41.2174222
0
ARC
8
DEFAULT_255_1_234
10
23.5894719
20
68.5207486
40
0.5261351
50
1.1331335
51
13.8829381
0
ARC
8
DEFAULT_255_1_234
10
23.4483088
20
68.5131665
40
0.6674378
50
359.9919444
51
1.544251
0
ARC
8
DEFAULT_255_1_234
10
23.5759914
20
68.509028
40
0.5397702
50
347.8572367
51
0.4293338
0
ARC
8
DEFAULT_255_1_234
10
23.7510232
20
68.4693736
40
0.3603188
50
323.673004
51
348.1672506
0
ARC
8
DEFAULT_255_1_234
10
23.780474
20
68.4514168
40
0.3259678
50
316.8171152
51
323.1492751
0
ARC
8
DEFAULT_255_1_234
10
23.7865929
20
68.447746
40
0.3189975
50
281.8396411
51
316.5457803
0
ARC
8
DEFAULT_255_1_234
10
23.7490193
20
68.6032762
40
0.4789527
50
269.5770101
51
282.4214771
0
ARC
8
DEFAULT_255_1_234
10
23.7419004
20
68.5819125
40
0.45759
50
256.2427136
51
270.4486331
0
ARC
8
DEFAULT_255_1_234
10
23.7119907
20
68.4619229
40
0.3339303
50
228.9023911
51
256.3314342
0
ARC
8
DEFAULT_255_1_234
10
23.7046139
20
68.4502746
40
0.32031
50
193.753695
51
228.5271154
0
ARC
8
DEFAULT_255_1_234
10
23.8284093
20
68.48658
40
0.4492253
50
184.924711
51
194.497588
0
ARC
8
DEFAULT_255_1_234
10
23.847666
20
68.4901591
40
0.3289787
50
187.3600538
51
198.6732863
0
ARC
8
DEFAULT_255_1_234
10
23.7426954
20
68.4537674
40
0.217884
50
198.4451669
51
217.794479
0
ARC
8
DEFAULT_255_1_234
10
23.7131129
20
68.4328085
40
0.1816698
50
218.2887171
51
228.5612368
0
ARC
8
DEFAULT_255_1_234
10
23.7228916
20
68.4459963
40
0.1980329
50
228.9654866
51
258.1234728
0
ARC
8
DEFAULT_255_1_234
10
23.7434626
20
68.5340833
40
0.2884748
50
257.7258293
51
270.401361
0
ARC
8
DEFAULT_255_1_234
10
23.7479513
20
68.4895821
40
0.2439788
50
269.4204404
51
286.4209037
0
ARC
8
DEFAULT_255_1_234
10
23.7628
20
68.4356657
40
0.1880666
50
286.7251356
51
320.600362
0
ARC
8
DEFAULT_255_1_234
10
23.7244825
20
68.4667595
40
0.2374121
50
320.6712579
51
344.5441685
0
ARC
8
DEFAULT_255_1_234
10
23.6088151
20
68.5007045
40
0.3579479
50
344.2412205
51
356.7357071
0
ARC
8
DEFAULT_255_1_234
10
23.48393
20
68.5110444
40
0.4832297
50
356.3548756
51
0.0500261
0
ARC
8
DEFAULT_255_1_234
10
23.6175809
20
68.514165
40
0.3495889
50
359.5576869
51
12.953486
0
ARC
8
DEFAULT_255_1_234
10
23.7230706
20
68.5397434
40
0.2410532
50
12.6490276
51
41.6081334
0
ARC
8
DEFAULT_255_1_234
10
23.7461077
20
68.5593321
40
0.2108218
50
41.7850273
51
85.9892764
0
ARC
8
DEFAULT_255_1_234
10
23.7337814
20
68.4780462
40
0.2928454
50
84.6957577
51
90.0676183
0
ARC
8
DEFAULT_255_1_234
10
23.7314298
20
68.4111716
40
0.3597255
50
89.6804936
51
99.1614436
0
ARC
8
DEFAULT_255_1_234
10
23.7108929
20
68.5339131
40
0.235281
50
98.9830931
51
113.8908934
0
ARC
8
DEFAULT_255_1_234
10
23.6879339
20
68.5880587
40
0.176479
50
114.1950727
51
127.3641004
0
LINE
8
DEFAULT_255_1_234
10
21.4284458
20
77.2473211
11
21.7320456
21
76.660201
0
LINE
8
DEFAULT_255_1_234
10
21.7320456
20
76.660201
11
22.0372516
21
77.2473211
0
LINE
8
DEFAULT_255_1_234
10
22.0372516
20
77.2473211
11
22.2123435
21
77.2473211
0
LINE
8
DEFAULT_255_1_234
10
22.2123435
20
77.2473211
11
21.8091502
21
76.5140234
0
LINE
8
DEFAULT_255_1_234
10
21.8091502
20
76.5140234
11
21.8091502
21
76.0779
0
LINE
8
DEFAULT_255_1_234
10
21.8091502
20
76.0779
11
21.6549409
21
76.0779
0
LINE
8
DEFAULT_255_1_234
10
21.6549409
20
76.0779
11
21.6549409
21
76.5140234
0
LINE
8
DEFAULT_255_1_234
10
21.6549409
20
76.5140234
11
21.2517476
21
77.2473211
0
LINE
8
DEFAULT_255_1_234
10
21.2517476
20
77.2473211
11
21.4284458
21
77.2473211
0
LINE
8
DEFAULT_255_1_234
10
22.8131175
20
77.2529433
11
22.8131175
21
76.0779
0
LINE
8
DEFAULT_255_1_234
10
22.8131175
20
76.0779
11
22.6637272
21
76.0779
0
LINE
8
DEFAULT_255_1_234
10
22.6637272
20
76.0779
11
22.6637272
21
77.0682133
0
LINE
8
DEFAULT_255_1_234
10
22.6637272
20
77.0682133
11
22.3641434
21
76.9581785
0
LINE
8
DEFAULT_255_1_234
10
22.3641434
20
76.9581785
11
22.3641434
21
77.0931117
0
LINE
8
DEFAULT_255_1_234
10
22.3641434
20
77.0931117
11
22.7898255
21
77.2529433
0
LINE
8
DEFAULT_255_1_234
10
22.7898255
20
77.2529433
11
22.8131175
21
77.2529433
0
LINE
8
DEFAULT_255_1_234
10
23.8757165
20
77.2473211
11
23.8757165
21
76.470652
0
LINE
8
DEFAULT_255_1_234
10
23.8757165
20
76.470652
11
24.0379576
21
76.470652
0
LINE
8
DEFAULT_255_1_234
10
24.0379576
20
76.470652
11
24.0379576
21
76.3493728
0
LINE
8
DEFAULT_255_1_234
10
24.0379576
20
76.3493728
11
23.8757165
21
76.3493728
0
LINE
8
DEFAULT_255_1_234
10
23.8757165
20
76.3493728
11
23.8757165
21
76.0779
0
LINE
8
DEFAULT_255_1_234
10
23.8757165
20
76.0779
11
23.7263262
21
76.0779
0
LINE
8
DEFAULT_255_1_234
10
23.7263262
20
76.0779
11
23.7263262
21
76.3493728
0
LINE
8
DEFAULT_255_1_234
10
23.7263262
20
76.3493728
11
23.1938219
21
76.3493728
0
LINE
8
DEFAULT_255_1_234
10
23.1938219
20
76.3493728
11
23.1938219
21
76.4369187
0
LINE
8
DEFAULT_255_1_234
10
23.1938219
20
76.4369187
11
23.7174913
21
77.2473211
0
LINE
8
DEFAULT_255_1_234
10
23.7174913
20
77.2473211
11
23.8757165
21
77.2473211
0
LINE
8
DEFAULT_255_1_234
10
23.7086563
20
77.0119912
11
23.3624884
21
76.470652
0
LINE
8
DEFAULT_255_1_234
10
23.3624884
20
76.470652
11
23.7263262
21
76.470652
0
LINE
8
DEFAULT_255_1_234
10
23.7263262
20
76.470652
11
23.7263262
21
77.0441181
0
LINE
8
DEFAULT_255_1_234
10
23.7263262
20
77.0441181
11
23.7086563
21
77.0119912
0
LINE
8
DEFAULT_255_1_234
10
21.5343458
20
85.1848211
11
21.8379456
21
84.597701
0
LINE
8
DEFAULT_255_1_234
10
21.8379456
20
84.597701
11
22.1431516
21
85.1848211
0
LINE
8
DEFAULT_255_1_234
10
22.1431516
20
85.1848211
11
22.3182435
21
85.1848211
0
LINE
8
DEFAULT_255_1_234
10
22.3182435
20
85.1848211
11
21.9150502
21
84.4515234
0
LINE
8
DEFAULT_255_1_234
10
21.9150502
20
84.4515234
11
21.9150502
21
84.0154
0
LINE
8
DEFAULT_255_1_234
10
21.9150502
20
84.0154
11
21.7608409
21
84.0154
0
LINE
8
DEFAULT_255_1_234
10
21.7608409
20
84.0154
11
21.7608409
21
84.4515234
0
LINE
8
DEFAULT_255_1_234
10
21.7608409
20
84.4515234
11
21.3576476
21
85.1848211
0
LINE
8
DEFAULT_255_1_234
10
21.3576476
20
85.1848211
11
21.5343458
21
85.1848211
0
LINE
8
DEFAULT_255_1_234
10
22.9190175
20
85.1904433
11
22.9190175
21
84.0154
0
LINE
8
DEFAULT_255_1_234
10
22.9190175
20
84.0154
11
22.7696272
21
84.0154
0
LINE
8
DEFAULT_255_1_234
10
22.7696272
20
84.0154
11
22.7696272
21
85.0057133
0
LINE
8
DEFAULT_255_1_234
10
22.7696272
20
85.0057133
11
22.4700434
21
84.8956785
0
LINE
8
DEFAULT_255_1_234
10
22.4700434
20
84.8956785
11
22.4700434
21
85.0306117
0
LINE
8
DEFAULT_255_1_234
10
22.4700434
20
85.0306117
11
22.8957255
21
85.1904433
0
LINE
8
DEFAULT_255_1_234
10
22.8957255
20
85.1904433
11
22.9190175
21
85.1904433
0
LINE
8
DEFAULT_255_1_234
10
23.5703915
20
84.5511169
11
23.5703915
21
84.6723962
0
LINE
8
DEFAULT_255_1_234
10
23.5703915
20
84.6723962
11
23.6820327
21
84.6723962
0
LINE
8
DEFAULT_255_1_234
10
23.4916805
20
84.8780087
11
23.3430933
21
84.8780087
0
LINE
8
DEFAULT_255_1_234
10
23.3326521
20
84.3238188
11
23.4820424
21
84.3238188
0
LINE
8
DEFAULT_255_1_234
10
23.6820327
20
84.5511169
11
23.5703915
21
84.5511169
0
ARC
8
DEFAULT_255_1_234
10
23.6791193
20
85.0116713
40
0.3392876
50
270.4919872
51
281.8951556
0
ARC
8
DEFAULT_255_1_234
10
23.7032455
20
84.9014702
40
0.2264817
50
281.6691735
51
301.2943132
0
ARC
8
DEFAULT_255_1_234
10
23.7202665
20
84.8703304
40
0.1910381
50
301.7833094
51
311.7545298
0
ARC
8
DEFAULT_255_1_234
10
23.7294241
20
84.8601748
40
0.1773635
50
311.7323931
51
354.2802411
0
ARC
8
DEFAULT_255_1_234
10
23.6567866
20
84.8726722
40
0.2509385
50
353.0937916
51
0.1181479
0
ARC
8
DEFAULT_255_1_234
10
23.6106651
20
84.8774386
40
0.2970898
50
359.1805295
51
15.0453146
0
ARC
8
DEFAULT_255_1_234
10
23.7452488
20
84.9166992
40
0.1569564
50
13.9577229
51
77.6713066
0
ARC
8
DEFAULT_255_1_234
10
23.7066017
20
84.7781949
40
0.3006298
50
76.1116566
51
90.7026153
0
ARC
8
DEFAULT_255_1_234
10
23.7006855
20
84.8055545
40
0.2732568
50
89.5324876
51
103.531937
0
ARC
8
DEFAULT_255_1_234
10
23.68063
20
84.8854884
40
0.1908508
50
103.2931773
51
133.5619022
0
ARC
8
DEFAULT_255_1_234
10
23.6761788
20
84.8914375
40
0.1834746
50
133.8349307
51
173.5344437
0
ARC
8
DEFAULT_255_1_234
10
23.7484831
20
84.8786213
40
0.2568033
50
172.5096846
51
180.1366907
0
ARC
8
DEFAULT_255_1_234
10
23.6533725
20
84.8820622
40
0.3103056
50
155.3484492
51
180.7484736
0
ARC
8
DEFAULT_255_1_234
10
23.6484814
20
84.8791846
40
0.3070957
50
131.5744599
51
154.4798489
0
ARC
8
DEFAULT_255_1_234
10
23.6797961
20
84.847531
40
0.3515643
50
96.9875458
51
131.9690667
0
ARC
8
DEFAULT_255_1_234
10
23.7017441
20
84.7229636
40
0.4779224
50
89.8596053
51
97.7825159
0
ARC
8
DEFAULT_255_1_234
10
23.7065504
20
84.6967616
40
0.5041361
50
78.3655447
51
90.4131539
0
ARC
8
DEFAULT_255_1_234
10
23.7423422
20
84.8626887
40
0.3344039
50
56.6229102
51
78.638727
0
ARC
8
DEFAULT_255_1_234
10
23.7638366
20
84.9002805
40
0.2912001
50
47.0253525
51
56.0854072
0
ARC
8
DEFAULT_255_1_234
10
23.7658146
20
84.9042223
40
0.2869704
50
10.9208013
51
46.7778124
0
ARC
8
DEFAULT_255_1_234
10
23.6294212
20
84.8726857
40
0.426899
50
359.6364486
51
11.6087304
0
ARC
8
DEFAULT_255_1_234
10
23.8129057
20
84.8711752
40
0.243409
50
332.3549906
51
359.7179418
0
ARC
8
DEFAULT_255_1_234
10
23.7478658
20
84.9020142
40
0.3153459
50
325.2333722
51
332.8745602
0
ARC
8
DEFAULT_255_1_234
10
23.7631282
20
84.8913828
40
0.2967456
50
292.9802137
51
325.2392345
0
ARC
8
DEFAULT_255_1_234
10
23.7356656
20
84.9447863
40
0.3566604
50
292.5402179
51
293.6924929
0
ARC
8
DEFAULT_255_1_234
10
23.7749251
20
84.2993091
40
0.3307468
50
57.6435486
51
72.8625112
0
ARC
8
DEFAULT_255_1_234
10
23.8103751
20
84.3567549
40
0.2632492
50
36.7248896
51
57.4697979
0
ARC
8
DEFAULT_255_1_234
10
23.8092384
20
84.358022
40
0.2634081
50
8.0545065
51
36.356114
0
ARC
8
DEFAULT_255_1_234
10
23.7229569
20
84.3425174
40
0.3510261
50
359.8320645
51
8.5869982
0
ARC
8
DEFAULT_255_1_234
10
23.6854345
20
84.3377101
40
0.3885653
50
343.9829931
51
0.5571613
0
ARC
8
DEFAULT_255_1_234
10
23.7740542
20
84.3134438
40
0.2966924
50
311.6359546
51
343.7651759
0
ARC
8
DEFAULT_255_1_234
10
23.7362112
20
84.3561102
40
0.3537231
50
279.7829875
51
311.6255694
0
ARC
8
DEFAULT_255_1_234
10
23.7060888
20
84.499828
40
0.5004971
50
269.7286406
51
280.3856417
0
ARC
8
DEFAULT_255_1_234
10
23.699896
20
84.4956996
40
0.4963778
50
256.6828919
51
270.4412052
0
ARC
8
DEFAULT_255_1_234
10
23.6660256
20
84.3572394
40
0.3538406
50
229.4223008
51
256.8556159
0
ARC
8
DEFAULT_255_1_234
10
23.6245649
20
84.3105736
40
0.2914296
50
181.818294
51
229.6455059
0
ARC
8
DEFAULT_255_1_234
10
23.7285605
20
84.3236496
40
0.3959084
50
179.9755256
51
183.2323064
0
ARC
8
DEFAULT_255_1_234
10
23.7113351
20
84.3216037
40
0.2293034
50
179.4465117
51
196.2869258
0
ARC
8
DEFAULT_255_1_234
10
23.6625759
20
84.3082651
40
0.1787621
50
196.5661473
51
227.705904
0
ARC
8
DEFAULT_255_1_234
10
23.6789854
20
84.3266155
40
0.2033784
50
227.7652068
51
257.8762805
0
ARC
8
DEFAULT_255_1_234
10
23.7014824
20
84.4209156
40
0.3003081
50
257.4584385
51
270.426602
0
ARC
8
DEFAULT_255_1_234
10
23.706039
20
84.4498996
40
0.329292
50
269.5962073
51
280.8789248
0
ARC
8
DEFAULT_255_1_234
10
23.7289919
20
84.3352685
40
0.2123908
50
280.6346389
51
299.8595945
0
ARC
8
DEFAULT_255_1_234
10
23.7480826
20
84.2990212
40
0.171457
50
300.3576302
51
314.5517981
0
ARC
8
DEFAULT_255_1_234
10
23.7397886
20
84.3050919
40
0.1816095
50
315.0728369
51
345.0431014
0
ARC
8
DEFAULT_255_1_234
10
23.64747
20
84.3319841
40
0.2777492
50
344.5986631
51
357.9269593
0
ARC
8
DEFAULT_255_1_234
10
23.5579027
20
84.3381276
40
0.3674917
50
357.4748886
51
0.0231117
0
ARC
8
DEFAULT_255_1_234
10
23.6602136
20
84.3405679
40
0.2651907
50
359.5047933
51
13.4239635
0
ARC
8
DEFAULT_255_1_234
10
23.746878
20
84.3627478
40
0.1757509
50
12.9498199
51
48.7551375
0
ARC
8
DEFAULT_255_1_234
10
23.7286513
20
84.33784
40
0.2065134
50
49.5088623
51
72.1836453
0
ARC
8
DEFAULT_255_1_234
10
23.6928666
20
84.2316291
40
0.3185836
50
71.9010081
51
84.3554254
0
ARC
8
DEFAULT_255_1_234
10
23.6767298
20
84.0955326
40
0.4556151
50
84.0193428
51
89.333121
0
LINE
8
DEFAULT_255_1_234
10
21.5343458
20
93.1223211
11
21.8379456
21
92.535201
0
LINE
8
DEFAULT_255_1_234
10
21.8379456
20
92.535201
11
22.1431516
21
93.1223211
0
LINE
8
DEFAULT_255_1_234
10
22.1431516
20
93.1223211
11
22.3182435
21
93.1223211
0
LINE
8
DEFAULT_255_1_234
10
22.3182435
20
93.1223211
11
21.9150502
21
92.3890234
0
LINE
8
DEFAULT_255_1_234
10
21.9150502
20
92.3890234
11
21.9150502
21
91.9529
0
LINE
8
DEFAULT_255_1_234
10
21.9150502
20
91.9529
11
21.7608409
21
91.9529
0
LINE
8
DEFAULT_255_1_234
10
21.7608409
20
91.9529
11
21.7608409
21
92.3890234
0
LINE
8
DEFAULT_255_1_234
10
21.7608409
20
92.3890234
11
21.3576476
21
93.1223211
0
LINE
8
DEFAULT_255_1_234
10
21.3576476
20
93.1223211
11
21.5343458
21
93.1223211
0
LINE
8
DEFAULT_255_1_234
10
22.9190175
20
93.1279433
11
22.9190175
21
91.9529
0
LINE
8
DEFAULT_255_1_234
10
22.9190175
20
91.9529
11
22.7696272
21
91.9529
0
LINE
8
DEFAULT_255_1_234
10
22.7696272
20
91.9529
11
22.7696272
21
92.9432133
0
LINE
8
DEFAULT_255_1_234
10
22.7696272
20
92.9432133
11
22.4700434
21
92.8331785
0
LINE
8
DEFAULT_255_1_234
10
22.4700434
20
92.8331785
11
22.4700434
21
92.9681117
0
LINE
8
DEFAULT_255_1_234
10
22.4700434
20
92.9681117
11
22.8957255
21
93.1279433
0
LINE
8
DEFAULT_255_1_234
10
22.8957255
20
93.1279433
11
22.9190175
21
93.1279433
0
LINE
8
DEFAULT_255_1_234
10
24.1205656
20
92.0741792
11
24.1205656
21
91.9529
0
LINE
8
DEFAULT_255_1_234
10
24.1205656
20
91.9529
11
23.3543377
21
91.9529
0
LINE
8
DEFAULT_255_1_234
10
23.3543377
20
91.9529
11
23.3543377
21
92.0597221
0
LINE
8
DEFAULT_255_1_234
10
23.3543377
20
92.0597221
11
23.7591374
21
92.5094995
0
LINE
8
DEFAULT_255_1_234
10
23.480436
20
92.7777595
11
23.3318489
21
92.7777595
0
LINE
8
DEFAULT_255_1_234
10
23.8466833
20
92.4139218
11
23.5334455
21
92.0741792
0
LINE
8
DEFAULT_255_1_234
10
23.5334455
20
92.0741792
11
24.1205656
21
92.0741792
0
ARC
8
DEFAULT_255_1_234
10
22.4101207
20
93.7024527
40
1.8008286
50
318.5132453
51
320.7828378
0
ARC
8
DEFAULT_255_1_234
10
22.9388181
20
93.2721426
40
1.1191493
50
320.7372736
51
323.9737074
0
ARC
8
DEFAULT_255_1_234
10
23.3308038
20
92.9881361
40
0.6350923
50
323.8961724
51
328.6421089
0
ARC
8
DEFAULT_255_1_234
10
23.5354633
20
92.8619031
40
0.3946393
50
328.8299013
51
331.789948
0
ARC
8
DEFAULT_255_1_234
10
23.6351812
20
92.8104509
40
0.2824501
50
331.4255242
51
352.9364833
0
ARC
8
DEFAULT_255_1_234
10
23.6488312
20
92.8073976
40
0.2685315
50
353.2248685
51
0.0169286
0
ARC
8
DEFAULT_255_1_234
10
23.6698189
20
92.809695
40
0.2475536
50
359.4866256
51
15.9339782
0
ARC
8
DEFAULT_255_1_234
10
23.7205174
20
92.8233286
40
0.1950618
50
16.1714718
51
43.5284424
0
ARC
8
DEFAULT_255_1_234
10
23.7282483
20
92.8310573
40
0.184134
50
43.4415429
51
83.1661404
0
ARC
8
DEFAULT_255_1_234
10
23.7148401
20
92.7573771
40
0.258926
50
82.160215
51
90.1505798
0
ARC
8
DEFAULT_255_1_234
10
23.7116828
20
92.7036865
40
0.3126255
50
89.5460705
51
102.5418777
0
ARC
8
DEFAULT_255_1_234
10
23.6873915
20
92.8067665
40
0.2067346
50
102.1739365
51
129.2061916
0
ARC
8
DEFAULT_255_1_234
10
23.6794986
20
92.8192094
40
0.1921118
50
129.7279328
51
135.7542026
0
ARC
8
DEFAULT_255_1_234
10
23.6916514
20
92.8095045
40
0.2075944
50
136.175737
51
166.3674722
0
ARC
8
DEFAULT_255_1_234
10
23.7923433
20
92.7825182
40
0.3118201
50
165.9092917
51
178.8683903
0
ARC
8
DEFAULT_255_1_234
10
23.8788295
20
92.7778179
40
0.3983935
50
178.438168
51
180.0083905
0
ARC
8
DEFAULT_255_1_234
10
23.7386897
20
92.7817231
40
0.4068601
50
163.2878735
51
180.5581814
0
ARC
8
DEFAULT_255_1_234
10
23.6585158
20
92.803784
40
0.3237344
50
133.454115
51
162.9470031
0
ARC
8
DEFAULT_255_1_234
10
23.6763699
20
92.7848
40
0.349795
50
100.7869394
51
133.4384016
0
ARC
8
DEFAULT_255_1_234
10
23.7111471
20
92.6299319
40
0.5084616
50
89.6605301
51
101.3704185
0
ARC
8
DEFAULT_255_1_234
10
23.717781
20
92.6360496
40
0.502348
50
78.2171172
51
90.4130393
0
ARC
8
DEFAULT_255_1_234
10
23.7532888
20
92.7984637
40
0.3361092
50
55.9268222
51
78.4888551
0
ARC
8
DEFAULT_255_1_234
10
23.7729328
20
92.8323324
40
0.2970617
50
47.9292255
51
55.4054003
0
ARC
8
DEFAULT_255_1_234
10
23.7830889
20
92.8426502
40
0.2825983
50
4.3347696
51
48.0560701
0
ARC
8
DEFAULT_255_1_234
10
23.6735282
20
92.8256601
40
0.393225
50
359.925209
51
5.5967654
0
ARC
8
DEFAULT_255_1_234
10
23.7164174
20
92.8312816
40
0.3503892
50
337.8914096
51
358.9967724
0
ARC
8
DEFAULT_255_1_234
10
23.4450586
20
92.9359706
40
0.6412172
50
326.9135351
51
338.3505194
0
ARC
8
DEFAULT_255_1_234
10
23.046489
20
93.1914284
40
1.1146189
50
319.6472867
51
327.095818
0
ARC
8
DEFAULT_255_1_234
10
22.6631893
20
93.5076
40
1.6114559
50
317.2586784
51
319.9046139
0
LINE
8
DEFAULT_255_1_234
10
21.5422458
20
101.0598211
11
21.8458456
21
100.472701
0
LINE
8
DEFAULT_255_1_234
10
21.8458456
20
100.472701
11
22.1510516
21
101.0598211
0
LINE
8
DEFAULT_255_1_234
10
22.1510516
20
101.0598211
11
22.3261435
21
101.0598211
0
LINE
8
DEFAULT_255_1_234
10
22.3261435
20
101.0598211
11
21.9229502
21
100.3265234
0
LINE
8
DEFAULT_255_1_234
10
21.9229502
20
100.3265234
11
21.9229502
21
99.8904
0
LINE
8
DEFAULT_255_1_234
10
21.9229502
20
99.8904
11
21.7687409
21
99.8904
0
LINE
8
DEFAULT_255_1_234
10
21.7687409
20
99.8904
11
21.7687409
21
100.3265234
0
LINE
8
DEFAULT_255_1_234
10
21.7687409
20
100.3265234
11
21.3655476
21
101.0598211
0
LINE
8
DEFAULT_255_1_234
10
21.3655476
20
101.0598211
11
21.5422458
21
101.0598211
0
LINE
8
DEFAULT_255_1_234
10
22.9269175
20
101.0654433
11
22.9269175
21
99.8904
0
LINE
8
DEFAULT_255_1_234
10
22.9269175
20
99.8904
11
22.7775272
21
99.8904
0
LINE
8
DEFAULT_255_1_234
10
22.7775272
20
99.8904
11
22.7775272
21
100.8807133
0
LINE
8
DEFAULT_255_1_234
10
22.7775272
20
100.8807133
11
22.4779434
21
100.7706785
0
LINE
8
DEFAULT_255_1_234
10
22.4779434
20
100.7706785
11
22.4779434
21
100.9056117
0
LINE
8
DEFAULT_255_1_234
10
22.4779434
20
100.9056117
11
22.9036255
21
101.0654433
0
LINE
8
DEFAULT_255_1_234
10
22.9036255
20
101.0654433
11
22.9269175
21
101.0654433
0
LINE
8
DEFAULT_255_1_234
10
23.8505674
20
101.0654433
11
23.8505674
21
99.8904
0
LINE
8
DEFAULT_255_1_234
10
23.8505674
20
99.8904
11
23.7011771
21
99.8904
0
LINE
8
DEFAULT_255_1_234
10
23.7011771
20
99.8904
11
23.7011771
21
100.8807133
0
LINE
8
DEFAULT_255_1_234
10
23.7011771
20
100.8807133
11
23.4015933
21
100.7706785
0
LINE
8
DEFAULT_255_1_234
10
23.4015933
20
100.7706785
11
23.4015933
21
100.9056117
0
LINE
8
DEFAULT_255_1_234
10
23.4015933
20
100.9056117
11
23.8272754
21
101.0654433
0
LINE
8
DEFAULT_255_1_234
10
23.8272754
20
101.0654433
11
23.8505674
21
101.0654433
0
LINE
8
DEFAULT_255_1_234
10
21.5343458
20
108.9973211
11
21.8379456
21
108.410201
0
LINE
8
DEFAULT_255_1_234
10
21.8379456
20
108.410201
11
22.1431516
21
108.9973211
0
LINE
8
DEFAULT_255_1_234
10
22.1431516
20
108.9973211
11
22.3182435
21
108.9973211
0
LINE
8
DEFAULT_255_1_234
10
22.3182435
20
108.9973211
11
21.9150502
21
108.2640234
0
LINE
8
DEFAULT_255_1_234
10
21.9150502
20
108.2640234
11
21.9150502
21
107.8279
0
LINE
8
DEFAULT_255_1_234
10
21.9150502
20
107.8279
11
21.7608409
21
107.8279
0
LINE
8
DEFAULT_255_1_234
10
21.7608409
20
107.8279
11
21.7608409
21
108.2640234
0
LINE
8
DEFAULT_255_1_234
10
21.7608409
20
108.2640234
11
21.3576476
21
108.9973211
0
LINE
8
DEFAULT_255_1_234
10
21.3576476
20
108.9973211
11
21.5343458
21
108.9973211
0
LINE
8
DEFAULT_255_1_234
10
22.9190175
20
109.0029433
11
22.9190175
21
107.8279
0
LINE
8
DEFAULT_255_1_234
10
22.9190175
20
107.8279
11
22.7696272
21
107.8279
0
LINE
8
DEFAULT_255_1_234
10
22.7696272
20
107.8279
11
22.7696272
21
108.8182133
0
LINE
8
DEFAULT_255_1_234
10
22.7696272
20
108.8182133
11
22.4700434
21
108.7081785
0
LINE
8
DEFAULT_255_1_234
10
22.4700434
20
108.7081785
11
22.4700434
21
108.8431117
0
LINE
8
DEFAULT_255_1_234
10
22.4700434
20
108.8431117
11
22.8957255
21
109.0029433
0
LINE
8
DEFAULT_255_1_234
10
22.8957255
20
109.0029433
11
22.9190175
21
109.0029433
0
LINE
8
DEFAULT_255_1_234
10
24.0876354
20
108.5194327
11
24.0876354
21
108.3266709
0
LINE
8
DEFAULT_255_1_234
10
23.3495187
20
108.3065916
11
23.3495187
21
108.5049755
0
LINE
8
DEFAULT_255_1_234
10
23.9390483
20
108.2865123
11
23.9390483
21
108.5298739
0
LINE
8
DEFAULT_255_1_234
10
23.4981059
20
108.5411184
11
23.4981059
21
108.3033789
0
ARC
8
DEFAULT_255_1_234
10
22.8629244
20
108.3217805
40
1.2247208
50
353.8441951
51
0.2287902
0
ARC
8
DEFAULT_255_1_234
10
23.3268748
20
108.2699806
40
0.7578929
50
344.4934747
51
353.9765454
0
ARC
8
DEFAULT_255_1_234
10
23.6261338
20
108.1848981
40
0.4467846
50
329.2803592
51
344.7472793
0
ARC
8
DEFAULT_255_1_234
10
23.7254163
20
108.1304018
40
0.3336173
50
324.9352394
51
328.6160465
0
ARC
8
DEFAULT_255_1_234
10
23.7631272
20
108.1040427
40
0.2876076
50
280.580143
51
324.9173126
0
ARC
8
DEFAULT_255_1_234
10
23.7230064
20
108.2711099
40
0.4592847
50
269.5977311
51
281.6734359
0
ARC
8
DEFAULT_255_1_234
10
23.715797
20
108.2591173
40
0.4472986
50
256.6228859
51
270.51044
0
ARC
8
DEFAULT_255_1_234
10
23.6755948
20
108.1042877
40
0.2873874
50
215.8618325
51
257.2788573
0
ARC
8
DEFAULT_255_1_234
10
23.7776979
20
108.1727977
40
0.4102928
50
197.9693508
51
215.2623606
0
ARC
8
DEFAULT_255_1_234
10
24.0262095
20
108.2566709
40
0.6725652
50
187.8816417
51
198.2346507
0
ARC
8
DEFAULT_255_1_234
10
24.4220303
20
108.3138079
40
1.0724845
50
180.8976217
51
188.0055519
0
ARC
8
DEFAULT_255_1_234
10
24.7020491
20
108.3241777
40
1.3526448
50
180.7449369
51
181.1510016
0
ARC
8
DEFAULT_255_1_234
10
24.544322
20
108.5098042
40
1.1948131
50
173.7675579
51
180.231553
0
ARC
8
DEFAULT_255_1_234
10
24.0925367
20
108.5608666
40
0.7401564
50
164.3058563
51
173.9002247
0
ARC
8
DEFAULT_255_1_234
10
23.8013436
20
108.6447656
40
0.4371288
50
148.7922025
51
164.568378
0
ARC
8
DEFAULT_255_1_234
10
23.7061888
20
108.6978929
40
0.3282386
50
144.5883898
51
148.1176286
0
ARC
8
DEFAULT_255_1_234
10
23.6718786
20
108.7218315
40
0.2864044
50
101.6440918
51
144.514236
0
ARC
8
DEFAULT_255_1_234
10
23.7143853
20
108.5529069
40
0.4604934
50
89.5284041
51
102.5819763
0
ARC
8
DEFAULT_255_1_234
10
23.722294
20
108.5490018
40
0.464401
50
77.0437873
51
90.5081339
0
ARC
8
DEFAULT_255_1_234
10
23.7624942
20
108.7132615
40
0.2953195
50
48.2778575
51
77.4994676
0
ARC
8
DEFAULT_255_1_234
10
23.7697573
20
108.7261746
40
0.2808655
50
36.3142134
51
47.6305865
0
ARC
8
DEFAULT_255_1_234
10
23.682888
20
108.6676515
40
0.3855453
50
18.2931786
51
35.6769206
0
ARC
8
DEFAULT_255_1_234
10
23.4285639
20
108.5803593
40
0.654423
50
8.024666
51
18.5605216
0
ARC
8
DEFAULT_255_1_234
10
23.0122559
20
108.5188792
40
1.0752407
50
1.1274072
51
8.1718305
0
ARC
8
DEFAULT_255_1_234
10
22.688675
20
108.5061885
40
1.3990231
50
0.5424119
51
1.3863029
0
ARC
8
DEFAULT_255_1_234
10
22.8708128
20
108.5334342
40
1.0682415
50
359.8090433
51
4.9407866
0
ARC
8
DEFAULT_255_1_234
10
23.2918142
20
108.5710113
40
0.6455691
50
4.8362157
51
12.2904523
0
ARC
8
DEFAULT_255_1_234
10
23.5673256
20
108.6323965
40
0.3633074
50
12.0805627
51
23.8173984
0
ARC
8
DEFAULT_255_1_234
10
23.6846962
20
108.6820919
40
0.2358723
50
24.2871213
51
31.3935614
0
ARC
8
DEFAULT_255_1_234
10
23.7371659
20
108.7164233
40
0.1732111
50
30.7407893
51
82.4657128
0
ARC
8
DEFAULT_255_1_234
10
23.7191793
20
108.6280691
40
0.263235
50
81.1060089
51
90.2184952
0
ARC
8
DEFAULT_255_1_234
10
23.7156092
20
108.6538924
40
0.2374236
50
89.3806855
51
105.6762551
0
ARC
8
DEFAULT_255_1_234
10
23.6972723
20
108.7205567
40
0.1682847
50
105.7981136
51
149.7388061
0
ARC
8
DEFAULT_255_1_234
10
23.8036801
20
108.656595
40
0.2924306
50
149.4208916
51
163.6286378
0
ARC
8
DEFAULT_255_1_234
10
24.0127689
20
108.592825
40
0.5110213
50
163.3763315
51
172.1410975
0
ARC
8
DEFAULT_255_1_234
10
24.3428408
20
108.5455518
40
0.8444586
50
172.0259487
51
178.0703232
0
ARC
8
DEFAULT_255_1_234
10
24.6458498
20
108.5311906
40
1.1477868
50
177.8631668
51
179.5044149
0
ARC
8
DEFAULT_255_1_234
10
24.5385902
20
108.2997389
40
1.0404907
50
179.7995573
51
185.2460446
0
ARC
8
DEFAULT_255_1_234
10
24.1342941
20
108.2614513
40
0.6343885
50
185.1411642
51
193.0079639
0
ARC
8
DEFAULT_255_1_234
10
23.8699414
20
108.1989641
40
0.3627568
50
192.7897626
51
205.2507664
0
ARC
8
DEFAULT_255_1_234
10
23.7652961
20
108.1522415
40
0.2481908
50
205.8005384
51
211.2537509
0
ARC
8
DEFAULT_255_1_234
10
23.7129401
20
108.117158
40
0.1852521
50
210.3789793
51
238.4008143
0
ARC
8
DEFAULT_255_1_234
10
23.7109923
20
108.1218376
40
0.1882621
50
239.6520629
51
265.9793761
0
ARC
8
DEFAULT_255_1_234
10
23.7195123
20
108.1890427
40
0.2559272
50
265.1315437
51
270.060332
0
ARC
8
DEFAULT_255_1_234
10
23.7223902
20
108.1566534
40
0.2235528
50
269.3314664
51
287.2178029
0
ARC
8
DEFAULT_255_1_234
10
23.7361754
20
108.1063279
40
0.1714108
50
287.7958004
51
329.080874
0
ARC
8
DEFAULT_255_1_234
10
23.6404211
20
108.166093
40
0.2842745
50
328.6634704
51
343.3325132
0
ARC
8
DEFAULT_255_1_234
10
23.4231231
20
108.2337863
40
0.5118644
50
343.0499468
51
351.9393422
0
ARC
8
DEFAULT_255_1_234
10
23.0764531
20
108.2848949
40
0.8622784
50
351.8069023
51
357.7959224
0
ARC
8
DEFAULT_255_1_234
10
22.7529087
20
108.3016721
40
1.1862365
50
357.5871873
51
359.2677531
0
LINE
8
DEFAULT_255_1_234
10
22.5173458
20
116.9348211
11
22.8209456
21
116.347701
0
LINE
8
DEFAULT_255_1_234
10
22.8209456
20
116.347701
11
23.1261516
21
116.9348211
0
LINE
8
DEFAULT_255_1_234
10
23.1261516
20
116.9348211
11
23.3012435
21
116.9348211
0
LINE
8
DEFAULT_255_1_234
10
23.3012435
20
116.9348211
11
22.8980502
21
116.2015234
0
LINE
8
DEFAULT_255_1_234
10
22.8980502
20
116.2015234
11
22.8980502
21
115.7654
0
LINE
8
DEFAULT_255_1_234
10
22.8980502
20
115.7654
11
22.7438409
21
115.7654
0
LINE
8
DEFAULT_255_1_234
10
22.7438409
20
115.7654
11
22.7438409
21
116.2015234
0
LINE
8
DEFAULT_255_1_234
10
22.7438409
20
116.2015234
11
22.3406476
21
116.9348211
0
LINE
8
DEFAULT_255_1_234
10
22.3406476
20
116.9348211
11
22.5173458
21
116.9348211
0
LINE
8
DEFAULT_255_1_234
10
24.1325284
20
116.4673739
11
24.1325284
21
116.4240025
0
LINE
8
DEFAULT_255_1_234
10
23.5903861
20
115.7645968
11
23.5614718
21
115.7645968
0
LINE
8
DEFAULT_255_1_234
10
23.5614718
20
115.7645968
11
23.5614718
21
115.8898919
0
LINE
8
DEFAULT_255_1_234
10
23.5614718
20
115.8898919
11
23.5927956
21
115.8898919
0
LINE
8
DEFAULT_255_1_234
10
23.9839413
20
116.4384597
11
23.9839413
21
116.4978945
0
ARC
8
DEFAULT_255_1_234
10
23.7045682
20
116.5130403
40
0.3635579
50
297.4037347
51
320.016758
0
ARC
8
DEFAULT_255_1_234
10
23.7335631
20
116.457324
40
0.3007486
50
270.2633101
51
297.3851877
0
ARC
8
DEFAULT_255_1_234
10
23.7301587
20
116.5036904
40
0.3471448
50
269.9966443
51
270.7900392
0
ARC
8
DEFAULT_255_1_234
10
23.7276068
20
116.5035143
40
0.3469779
50
254.5999133
51
270.4180344
0
ARC
8
DEFAULT_255_1_234
10
23.7133428
20
116.4470647
40
0.2887697
50
236.4717942
51
254.3541279
0
ARC
8
DEFAULT_255_1_234
10
23.7289645
20
116.4680711
40
0.3149125
50
208.4727207
51
236.2134933
0
ARC
8
DEFAULT_255_1_234
10
23.792842
20
116.5071455
40
0.3897115
50
204.3447514
51
209.0453999
0
ARC
8
DEFAULT_255_1_234
10
23.8607996
20
116.5359656
40
0.4635101
50
183.9375985
51
204.1276318
0
ARC
8
DEFAULT_255_1_234
10
23.9516247
20
116.5457482
40
0.5548037
50
179.9652252
51
184.3013875
0
ARC
8
DEFAULT_255_1_234
10
23.9276294
20
116.5490507
40
0.5308164
50
166.7585989
51
180.3201225
0
ARC
8
DEFAULT_255_1_234
10
23.8429907
20
116.5674488
40
0.4442163
50
154.6955053
51
166.5679793
0
ARC
8
DEFAULT_255_1_234
10
23.7576777
20
116.610421
40
0.3487299
50
136.3324195
51
155.0871442
0
ARC
8
DEFAULT_255_1_234
10
23.729585
20
116.6344954
40
0.3117924
50
121.236733
51
135.9680508
0
ARC
8
DEFAULT_255_1_234
10
23.7436348
20
116.6084743
40
0.3413302
50
96.845628
51
120.9881519
0
ARC
8
DEFAULT_255_1_234
10
23.758193
20
116.5149515
40
0.4359341
50
89.8870174
51
97.2802754
0
ARC
8
DEFAULT_255_1_234
10
23.7634368
20
116.5787095
40
0.3722009
50
70.6505584
51
90.6749113
0
ARC
8
DEFAULT_255_1_234
10
23.7765647
20
116.6300361
40
0.3194571
50
36.7492984
51
69.8219918
0
ARC
8
DEFAULT_255_1_234
10
23.6766812
20
116.5521993
40
0.4460685
50
15.39587
51
37.0840084
0
ARC
8
DEFAULT_255_1_234
10
23.4637245
20
116.4901242
40
0.6678714
50
3.9488873
51
15.6798563
0
ARC
8
DEFAULT_255_1_234
10
23.2235873
20
116.4684964
40
0.9089418
50
359.929245
51
4.2665314
0
ARC
8
DEFAULT_255_1_234
10
22.763031
20
116.4173513
40
1.3695135
50
352.8366322
51
0.2782669
0
ARC
8
DEFAULT_255_1_234
10
23.2917989
20
116.3486629
40
0.8363105
50
341.8359505
51
352.9884176
0
ARC
8
DEFAULT_255_1_234
10
23.6136708
20
116.24017
40
0.4966642
50
322.8578092
51
342.1527901
0
ARC
8
DEFAULT_255_1_234
10
23.7000664
20
116.1812384
40
0.3922466
50
319.334325
51
322.0998941
0
ARC
8
DEFAULT_255_1_234
10
23.6691001
20
116.2123209
40
0.4360033
50
285.9541367
51
318.8878087
0
ARC
8
DEFAULT_255_1_234
10
23.5964262
20
116.44336
40
0.678149
50
272.9281676
51
286.4922826
0
ARC
8
DEFAULT_255_1_234
10
23.577438
20
116.6684587
40
0.9039547
50
270.8207226
51
273.4012994
0
ARC
8
DEFAULT_255_1_234
10
23.5863231
20
116.4865666
40
0.5967098
50
270.6214993
51
281.4062806
0
ARC
8
DEFAULT_255_1_234
10
23.6293212
20
116.2809833
40
0.3866861
50
281.1852553
51
299.0621114
0
ARC
8
DEFAULT_255_1_234
10
23.6666783
20
116.2088798
40
0.3055236
50
299.5067782
51
313.1200873
0
ARC
8
DEFAULT_255_1_234
10
23.668875
20
116.2009554
40
0.2982623
50
313.8526205
51
338.5989322
0
ARC
8
DEFAULT_255_1_234
10
23.5064824
20
116.2676781
40
0.4738131
50
338.2523585
51
351.2430902
0
ARC
8
DEFAULT_255_1_234
10
23.265412
20
116.3086447
40
0.7183203
50
350.9409515
51
357.6691871
0
ARC
8
DEFAULT_255_1_234
10
23.754455
20
116.5088764
40
0.2294452
50
269.9447023
51
306.8248917
0
ARC
8
DEFAULT_255_1_234
10
23.7307465
20
116.5511898
40
0.2775994
50
305.5072438
51
327.0773448
0
ARC
8
DEFAULT_255_1_234
10
23.7425906
20
116.5417025
40
0.2625056
50
327.4104943
51
336.840169
0
ARC
8
DEFAULT_255_1_234
10
23.4331971
20
116.5011302
40
0.5507537
50
359.6633817
51
10.117533
0
ARC
8
DEFAULT_255_1_234
10
23.6085769
20
116.5335777
40
0.372403
50
9.9430141
51
26.7700076
0
ARC
8
DEFAULT_255_1_234
10
23.6682981
20
116.5611187
40
0.3066865
50
27.2015464
51
34.6829435
0
ARC
8
DEFAULT_255_1_234
10
23.7172462
20
116.5978977
40
0.245519
50
34.1250343
51
50.3070065
0
ARC
8
DEFAULT_255_1_234
10
23.7619141
20
116.6513385
40
0.1758693
50
50.3851167
51
90.6705993
0
ARC
8
DEFAULT_255_1_234
10
23.7572374
20
116.6208799
40
0.2063326
50
89.272901
51
111.9140407
0
ARC
8
DEFAULT_255_1_234
10
23.7552902
20
116.634944
40
0.1925887
50
112.9382311
51
142.5320782
0
ARC
8
DEFAULT_255_1_234
10
23.8099082
20
116.5905969
40
0.2629232
50
142.1021256
51
166.3835592
0
ARC
8
DEFAULT_255_1_234
10
23.9280387
20
116.5600915
40
0.3849193
50
166.1100289
51
178.665427
0
ARC
8
DEFAULT_255_1_234
10
24.0327977
20
116.5542117
40
0.4897989
50
178.2632126
51
180.0111093
0
ARC
8
DEFAULT_255_1_234
10
23.9526097
20
116.5513728
40
0.40962
50
179.6161962
51
191.8787166
0
ARC
8
DEFAULT_255_1_234
10
23.8305936
20
116.5243896
40
0.2846655
50
191.6191692
51
215.2972286
0
ARC
8
DEFAULT_255_1_234
10
23.8109127
20
116.5128918
40
0.2619665
50
215.7320102
51
216.5355409
0
ARC
8
DEFAULT_255_1_234
10
23.7570213
20
116.4696647
40
0.1929497
50
215.7486685
51
239.9727502
0
ARC
8
DEFAULT_255_1_234
10
23.7500129
20
116.4645894
40
0.1850822
50
241.0650169
51
269.2810483
0
ARC
8
DEFAULT_255_1_234
10
23.7542044
20
116.5136371
40
0.2342059
50
268.4062526
51
270.0071348
0
LINE
8
DEFAULT_255_1_234
10
22.5173458
20
124.8723211
11
22.8209456
21
124.285201
0
LINE
8
DEFAULT_255_1_234
10
22.8209456
20
124.285201
11
23.1261516
21
124.8723211
0
LINE
8
DEFAULT_255_1_234
10
23.1261516
20
124.8723211
11
23.3012435
21
124.8723211
0
LINE
8
DEFAULT_255_1_234
10
23.3012435
20
124.8723211
11
22.8980502
21
124.1390234
0
LINE
8
DEFAULT_255_1_234
10
22.8980502
20
124.1390234
11
22.8980502
21
123.7029
0
LINE
8
DEFAULT_255_1_234
10
22.8980502
20
123.7029
11
22.7438409
21
123.7029
0
LINE
8
DEFAULT_255_1_234
10
22.7438409
20
123.7029
11
22.7438409
21
124.1390234
0
LINE
8
DEFAULT_255_1_234
10
22.7438409
20
124.1390234
11
22.3406476
21
124.8723211
0
LINE
8
DEFAULT_255_1_234
10
22.3406476
20
124.8723211
11
22.5173458
21
124.8723211
0
ARC
8
DEFAULT_255_1_234
10
23.8406662
20
124.5645703
40
0.2822356
50
338.8763615
51
0.5166041
0
ARC
8
DEFAULT_255_1_234
10
23.8575316
20
124.5600208
40
0.2648703
50
325.8412414
51
338.4795939
0
ARC
8
DEFAULT_255_1_234
10
23.8184684
20
124.5871042
40
0.3124019
50
296.7586019
51
325.753654
0
ARC
8
DEFAULT_255_1_234
10
23.7896792
20
124.6355789
40
0.368668
50
296.0902311
51
297.3618122
0
ARC
8
DEFAULT_255_1_234
10
23.815425
20
123.9801041
40
0.3518806
50
47.9009248
51
67.1946869
0
ARC
8
DEFAULT_255_1_234
10
23.8350492
20
124.0047395
40
0.320451
50
35.236241
51
47.551371
0
ARC
8
DEFAULT_255_1_234
10
23.861211
20
124.0221993
40
0.2890103
50
359.2759738
51
35.4014081
0
ARC
8
DEFAULT_255_1_234
10
23.7867141
20
124.0148826
40
0.3635026
50
343.1294516
51
0.5776525
0
ARC
8
DEFAULT_255_1_234
10
23.8591686
20
123.994933
40
0.2883832
50
310.8497458
51
342.744803
0
ARC
8
DEFAULT_255_1_234
10
23.8173799
20
124.0426294
40
0.3517954
50
281.5473923
51
310.9169905
0
ARC
8
DEFAULT_255_1_234
10
23.7817249
20
124.1979084
40
0.5110832
50
269.6192722
51
281.9789957
0
ARC
8
DEFAULT_255_1_234
10
23.7745038
20
124.1979828
40
0.5111606
50
257.4584469
51
270.4287458
0
ARC
8
DEFAULT_255_1_234
10
23.7364181
20
124.0376344
40
0.3463762
50
228.7553743
51
257.8484423
0
ARC
8
DEFAULT_255_1_234
10
23.7054379
20
124.0003442
40
0.297916
50
184.0104442
51
228.5071787
0
ARC
8
DEFAULT_255_1_234
10
23.8217323
20
124.0180512
40
0.4152734
50
179.9315461
51
185.3254504
0
ARC
8
DEFAULT_255_1_234
10
23.7040969
20
124.0217992
40
0.2976554
50
145.6795913
51
180.6259649
0
ARC
8
DEFAULT_255_1_234
10
23.7204318
20
124.0103929
40
0.3175776
50
115.5537925
51
145.6416199
0
ARC
8
DEFAULT_255_1_234
10
23.7545249
20
123.9493028
40
0.3874232
50
113.2437915
51
116.2054627
0
ARC
8
DEFAULT_255_1_234
10
23.7392461
20
124.589158
40
0.3154751
50
222.9548379
51
244.1372485
0
ARC
8
DEFAULT_255_1_234
10
23.7270536
20
124.5754834
40
0.2972382
50
213.3439227
51
222.6271327
0
ARC
8
DEFAULT_255_1_234
10
23.7078471
20
124.5624308
40
0.274019
50
180.4316517
51
213.2713999
0
ARC
8
DEFAULT_255_1_234
10
23.7653472
20
124.567111
40
0.33158
50
179.9992944
51
181.1655061
0
ARC
8
DEFAULT_255_1_234
10
23.8062889
20
124.5705561
40
0.3725376
50
164.6186108
51
180.5292368
0
ARC
8
DEFAULT_255_1_234
10
23.7164752
20
124.5947101
40
0.2795349
50
132.2454369
51
164.5092287
0
ARC
8
DEFAULT_255_1_234
10
23.7451856
20
124.5622028
40
0.3229019
50
100.7052766
51
132.1387266
0
ARC
8
DEFAULT_255_1_234
10
23.7756828
20
124.4244086
40
0.4639835
50
89.6732617
51
101.2449487
0
ARC
8
DEFAULT_255_1_234
10
23.7819026
20
124.441899
40
0.4464999
50
76.2876631
51
90.4586123
0
ARC
8
DEFAULT_255_1_234
10
23.8125258
20
124.564122
40
0.3205023
50
47.8240157
51
76.4266918
0
ARC
8
DEFAULT_255_1_234
10
23.8347808
20
124.590159
40
0.2862661
50
6.9168658
51
47.6261438
0
ARC
8
DEFAULT_255_1_234
10
23.7161211
20
124.568237
40
0.4067708
50
359.8419705
51
7.9694496
0
ARC
8
DEFAULT_255_1_234
10
23.7503108
20
124.0241925
40
0.2513121
50
359.4454068
51
16.9256425
0
ARC
8
DEFAULT_255_1_234
10
23.7971919
20
124.0371033
40
0.2027071
50
17.292259
51
45.462717
0
ARC
8
DEFAULT_255_1_234
10
23.7917855
20
124.0324434
40
0.2098212
50
45.3028762
51
83.1921472
0
ARC
8
DEFAULT_255_1_234
10
23.7774539
20
123.9522895
40
0.2911472
50
82.2614531
51
90.143954
0
ARC
8
DEFAULT_255_1_234
10
23.7743659
20
123.975595
40
0.2678513
50
89.4959189
51
104.8579811
0
ARC
8
DEFAULT_255_1_234
10
23.7566918
20
124.042589
40
0.1985654
50
104.8855873
51
135.2448349
0
ARC
8
DEFAULT_255_1_234
10
23.7616691
20
124.0381336
40
0.2052373
50
135.3398955
51
172.104394
0
ARC
8
DEFAULT_255_1_234
10
23.8423749
20
124.0226925
40
0.2873299
50
171.2651929
51
180.1859362
0
ARC
8
DEFAULT_255_1_234
10
23.825445
20
124.0194733
40
0.2704083
50
179.515471
51
193.6466734
0
ARC
8
DEFAULT_255_1_234
10
23.7438219
20
123.9986777
40
0.1861855
50
193.3540587
51
225.8256931
0
ARC
8
DEFAULT_255_1_234
10
23.7478976
20
124.0057524
40
0.1941102
50
226.418029
51
255.8553723
0
ARC
8
DEFAULT_255_1_234
10
23.7735409
20
124.0993998
40
0.2911917
50
255.4655572
51
268.7985967
0
ARC
8
DEFAULT_255_1_234
10
23.7782601
20
124.1832491
40
0.3751331
50
268.3464808
51
270.0104874
0
ARC
8
DEFAULT_255_1_234
10
23.7805989
20
124.1148138
40
0.3067064
50
269.575914
51
282.0823146
0
ARC
8
DEFAULT_255_1_234
10
23.8030898
20
124.0153803
40
0.2047712
50
281.7522535
51
306.6056425
0
ARC
8
DEFAULT_255_1_234
10
23.8129324
20
123.9992487
40
0.1859604
50
307.1350025
51
314.0277951
0
ARC
8
DEFAULT_255_1_234
10
23.8093408
20
124.0018766
40
0.1903475
50
314.2553419
51
350.169324
0
ARC
8
DEFAULT_255_1_234
10
23.7241877
20
124.0203409
40
0.2774269
50
349.4145679
51
0.2930737
0
ARC
8
DEFAULT_255_1_234
10
23.776231
20
124.5362353
40
0.2300764
50
89.477591
51
105.729794
0
ARC
8
DEFAULT_255_1_234
10
23.7626224
20
124.5867637
40
0.1777519
50
105.922966
51
135.1662921
0
ARC
8
DEFAULT_255_1_234
10
23.7646726
20
124.5853419
40
0.1802087
50
135.3053131
51
168.9882338
0
ARC
8
DEFAULT_255_1_234
10
23.8474299
20
124.5663721
40
0.2650806
50
168.3802067
51
180.3602358
0
ARC
8
DEFAULT_255_1_234
10
23.8245878
20
124.5626041
40
0.2422425
50
179.5029707
51
194.9126783
0
ARC
8
DEFAULT_255_1_234
10
23.7660539
20
124.547211
40
0.1817188
50
194.9722181
51
224.1943972
0
ARC
8
DEFAULT_255_1_234
10
23.7632406
20
124.5449169
40
0.1781027
50
224.2961434
51
262.0157375
0
ARC
8
DEFAULT_255_1_234
10
23.7774649
20
124.6180661
40
0.2525492
50
261.1250369
51
270.1959853
0
ARC
8
DEFAULT_255_1_234
10
23.7804404
20
124.5993339
40
0.233825
50
269.4825617
51
285.0988277
0
ARC
8
DEFAULT_255_1_234
10
23.7958563
20
124.541499
40
0.1739712
50
285.1585659
51
315.9484648
0
ARC
8
DEFAULT_255_1_234
10
23.7869575
20
124.5496886
40
0.1860616
50
316.0412958
51
351.9162715
0
ARC
8
DEFAULT_255_1_234
10
23.713653
20
124.5638245
40
0.2606517
50
351.1056823
51
0.1936567
0
ARC
8
DEFAULT_255_1_234
10
23.7399359
20
124.5668369
40
0.234377
50
359.4789506
51
16.0679113
0
ARC
8
DEFAULT_255_1_234
10
23.7875318
20
124.579681
40
0.1850875
50
16.3251951
51
44.791304
0
ARC
8
DEFAULT_255_1_234
10
23.7857599
20
124.5797339
40
0.186312
50
44.3958661
51
88.2498933
0
ARC
8
DEFAULT_255_1_234
10
23.7784153
20
124.5186154
40
0.2476868
50
86.9833827
51
90.0200148
0
LINE
8
DEFAULT_255_1_234
10
22.5173458
20
132.8098211
11
22.8209456
21
132.222701
0
LINE
8
DEFAULT_255_1_234
10
22.8209456
20
132.222701
11
23.1261516
21
132.8098211
0
LINE
8
DEFAULT_255_1_234
10
23.1261516
20
132.8098211
11
23.3012435
21
132.8098211
0
LINE
8
DEFAULT_255_1_234
10
23.3012435
20
132.8098211
11
22.8980502
21
132.0765234
0
LINE
8
DEFAULT_255_1_234
10
22.8980502
20
132.0765234
11
22.8980502
21
131.6404
0
LINE
8
DEFAULT_255_1_234
10
22.8980502
20
131.6404
11
22.7438409
21
131.6404
0
LINE
8
DEFAULT_255_1_234
10
22.7438409
20
131.6404
11
22.7438409
21
132.0765234
0
LINE
8
DEFAULT_255_1_234
10
22.7438409
20
132.0765234
11
22.3406476
21
132.8098211
0
LINE
8
DEFAULT_255_1_234
10
22.3406476
20
132.8098211
11
22.5173458
21
132.8098211
0
LINE
8
DEFAULT_255_1_234
10
24.1686712
20
132.8098211
11
24.1686712
21
132.726291
0
LINE
8
DEFAULT_255_1_234
10
24.1686712
20
132.726291
11
23.6843574
21
131.6404
0
LINE
8
DEFAULT_255_1_234
10
23.6843574
20
131.6404
11
23.5285417
21
131.6404
0
LINE
8
DEFAULT_255_1_234
10
23.5285417
20
131.6404
11
24.0112492
21
132.6877387
0
LINE
8
DEFAULT_255_1_234
10
24.0112492
20
132.6877387
11
23.3783482
21
132.6877387
0
LINE
8
DEFAULT_255_1_234
10
23.3783482
20
132.6877387
11
23.3783482
21
132.8098211
0
LINE
8
DEFAULT_255_1_234
10
23.3783482
20
132.8098211
11
24.1686712
21
132.8098211
0
LINE
8
DEFAULT_255_1_234
10
22.5173458
20
140.7473211
11
22.8209456
21
140.160201
0
LINE
8
DEFAULT_255_1_234
10
22.8209456
20
140.160201
11
23.1261516
21
140.7473211
0
LINE
8
DEFAULT_255_1_234
10
23.1261516
20
140.7473211
11
23.3012435
21
140.7473211
0
LINE
8
DEFAULT_255_1_234
10
23.3012435
20
140.7473211
11
22.8980502
21
140.0140234
0
LINE
8
DEFAULT_255_1_234
10
22.8980502
20
140.0140234
11
22.8980502
21
139.5779
0
LINE
8
DEFAULT_255_1_234
10
22.8980502
20
139.5779
11
22.7438409
21
139.5779
0
LINE
8
DEFAULT_255_1_234
10
22.7438409
20
139.5779
11
22.7438409
21
140.0140234
0
LINE
8
DEFAULT_255_1_234
10
22.7438409
20
140.0140234
11
22.3406476
21
140.7473211
0
LINE
8
DEFAULT_255_1_234
10
22.3406476
20
140.7473211
11
22.5173458
21
140.7473211
0
LINE
8
DEFAULT_255_1_234
10
23.9702873
20
140.7481243
11
23.996792
21
140.7481243
0
LINE
8
DEFAULT_255_1_234
10
23.996792
20
140.7481243
11
23.996792
21
140.622026
0
LINE
8
DEFAULT_255_1_234
10
23.996792
20
140.622026
11
23.9694841
21
140.622026
0
LINE
8
DEFAULT_255_1_234
10
23.4225228
20
140.0228583
11
23.4225228
21
140.0798836
0
LINE
8
DEFAULT_255_1_234
10
23.5719131
20
140.0606075
11
23.5719131
21
140.0059917
0
ARC
8
DEFAULT_255_1_234
10
23.9747189
20
140.1222455
40
0.4998079
50
90.6001036
51
104.514704
0
ARC
8
DEFAULT_255_1_234
10
23.9358705
20
140.2667131
40
0.3502176
50
104.2855254
51
133.862935
0
ARC
8
DEFAULT_255_1_234
10
23.9522462
20
140.255883
40
0.3693984
50
134.5302688
51
161.6210873
0
ARC
8
DEFAULT_255_1_234
10
24.1175651
20
140.1975895
40
0.5446739
50
161.2849839
51
174.2076652
0
ARC
8
DEFAULT_255_1_234
10
24.2582588
20
140.1781787
40
0.6866274
50
173.7810589
51
174.9254635
0
ARC
8
DEFAULT_255_1_234
10
23.803242
20
140.0398839
40
0.3033419
50
95.8330959
51
138.9954921
0
ARC
8
DEFAULT_255_1_234
10
23.8255776
20
139.9120375
40
0.4328947
50
89.8753725
51
97.0544009
0
ARC
8
DEFAULT_255_1_234
10
23.8303242
20
139.9955748
40
0.3493769
50
71.6407809
51
90.6240094
0
ARC
8
DEFAULT_255_1_234
10
23.8453815
20
140.0510082
40
0.2920396
50
39.6367836
51
71.019018
0
ARC
8
DEFAULT_255_1_234
10
23.7817288
20
139.9959998
40
0.3761538
50
10.658731
51
39.9043955
0
ARC
8
DEFAULT_255_1_234
10
23.6269371
20
139.9623686
40
0.5345136
50
359.682601
51
11.132623
0
ARC
8
DEFAULT_255_1_234
10
23.6229502
20
139.955301
40
0.5385081
50
347.2486944
51
0.4369317
0
ARC
8
DEFAULT_255_1_234
10
23.7896979
20
139.9151807
40
0.3670249
50
318.1409698
51
347.6118597
0
ARC
8
DEFAULT_255_1_234
10
23.8221972
20
139.8884702
40
0.3250007
50
275.6342139
51
317.8248465
0
ARC
8
DEFAULT_255_1_234
10
23.8001083
20
140.0184219
40
0.4565864
50
269.8874292
51
276.7917694
0
ARC
8
DEFAULT_255_1_234
10
23.7946154
20
139.9158743
40
0.3540676
50
246.9140195
51
270.7437342
0
ARC
8
DEFAULT_255_1_234
10
23.7952544
20
139.9016384
40
0.3412781
50
218.1665114
51
245.878116
0
ARC
8
DEFAULT_255_1_234
10
23.8832005
20
139.9752279
40
0.455911
50
191.4115814
51
218.6077802
0
ARC
8
DEFAULT_255_1_234
10
24.0770094
20
140.0186833
40
0.6545001
50
179.6345085
51
191.7836486
0
ARC
8
DEFAULT_255_1_234
10
24.6352431
20
140.0865697
40
1.2127388
50
171.4525249
51
180.3158839
0
ARC
8
DEFAULT_255_1_234
10
24.1957307
20
140.1549608
40
0.7679464
50
157.9802646
51
171.6246686
0
ARC
8
DEFAULT_255_1_234
10
23.9743328
20
140.2432421
40
0.5296008
50
141.4298019
51
157.854097
0
ARC
8
DEFAULT_255_1_234
10
23.9101649
20
140.2886381
40
0.4511509
50
102.8715806
51
140.8564722
0
ARC
8
DEFAULT_255_1_234
10
23.9749264
20
140.0446552
40
0.7034845
50
90.3778349
51
103.5869322
0
ARC
8
DEFAULT_255_1_234
10
23.801104
20
139.984173
40
0.2370698
50
89.8751008
51
126.2071704
0
ARC
8
DEFAULT_255_1_234
10
23.805683
20
139.9687303
40
0.2522934
50
124.9745049
51
144.895901
0
ARC
8
DEFAULT_255_1_234
10
23.7881021
20
139.983056
40
0.2296779
50
145.2974905
51
160.2660252
0
ARC
8
DEFAULT_255_1_234
10
24.0953559
20
140.0028071
40
0.5234525
50
179.6514266
51
190.2855912
0
ARC
8
DEFAULT_255_1_234
10
23.9259697
20
139.9708786
40
0.3510893
50
190.0945431
51
207.5098196
0
ARC
8
DEFAULT_255_1_234
10
23.8693966
20
139.9439623
40
0.288489
50
207.9583163
51
216.3251085
0
ARC
8
DEFAULT_255_1_234
10
23.8354074
20
139.9160105
40
0.2445587
50
215.7661442
51
232.5456785
0
ARC
8
DEFAULT_255_1_234
10
23.7971057
20
139.8673482
40
0.1826382
50
232.8005391
51
270.6605633
0
ARC
8
DEFAULT_255_1_234
10
23.8016758
20
139.9037612
40
0.2190529
50
269.35537
51
288.4744281
0
ARC
8
DEFAULT_255_1_234
10
23.8109655
20
139.8688118
40
0.1829749
50
289.1833337
51
322.9683818
0
ARC
8
DEFAULT_255_1_234
10
23.7498177
20
139.9170391
40
0.2608399
50
322.6007884
51
346.5182367
0
ARC
8
DEFAULT_255_1_234
10
23.6340773
20
139.9465616
40
0.3802777
50
346.2582162
51
358.7741648
0
ARC
8
DEFAULT_255_1_234
10
23.5322442
20
139.9520965
40
0.4822176
50
358.3755224
51
0.0098023
0
ARC
8
DEFAULT_255_1_234
10
23.6078629
20
139.9548657
40
0.4066078
50
359.6214041
51
11.2839074
0
ARC
8
DEFAULT_255_1_234
10
23.7355776
20
139.9815066
40
0.2761514
50
11.0482309
51
31.8146458
0
ARC
8
DEFAULT_255_1_234
10
23.7664819
20
139.9982584
40
0.2410679
50
32.3035391
51
38.082671
0
ARC
8
DEFAULT_255_1_234
10
23.8085479
20
140.0363662
40
0.1844966
50
36.825067
51
85.7415724
0
ARC
8
DEFAULT_255_1_234
10
23.8018312
20
139.9863301
40
0.2349122
50
85.0140713
51
90.0513278
0
LINE
8
DEFAULT_255_1_234
10
22.5173458
20
148.6848211
11
22.8209456
21
148.097701
0
LINE
8
DEFAULT_255_1_234
10
22.8209456
20
148.097701
11
23.1261516
21
148.6848211
0
LINE
8
DEFAULT_255_1_234
10
23.1261516
20
148.6848211
11
23.3012435
21
148.6848211
0
LINE
8
DEFAULT_255_1_234
10
23.3012435
20
148.6848211
11
22.8980502
21
147.9515234
0
LINE
8
DEFAULT_255_1_234
10
22.8980502
20
147.9515234
11
22.8980502
21
147.5154
0
LINE
8
DEFAULT_255_1_234
10
22.8980502
20
147.5154
11
22.7438409
21
147.5154
0
LINE
8
DEFAULT_255_1_234
10
22.7438409
20
147.5154
11
22.7438409
21
147.9515234
0
LINE
8
DEFAULT_255_1_234
10
22.7438409
20
147.9515234
11
22.3406476
21
148.6848211
0
LINE
8
DEFAULT_255_1_234
10
22.3406476
20
148.6848211
11
22.5173458
21
148.6848211
0
LINE
8
DEFAULT_255_1_234
10
23.6008273
20
148.0711963
11
23.4819576
21
148.1017169
0
LINE
8
DEFAULT_255_1_234
10
23.4819576
20
148.1017169
11
23.5413925
21
148.6848211
0
LINE
8
DEFAULT_255_1_234
10
23.5413925
20
148.6848211
11
24.1405602
21
148.6848211
0
LINE
8
DEFAULT_255_1_234
10
24.1405602
20
148.6848211
11
24.1405602
21
148.5474784
0
LINE
8
DEFAULT_255_1_234
10
24.1405602
20
148.5474784
11
23.6674908
21
148.5474784
0
LINE
8
DEFAULT_255_1_234
10
23.6674908
20
148.5474784
11
23.6321511
21
148.2286184
0
LINE
8
DEFAULT_255_1_234
10
23.4401926
20
147.8230156
11
23.580748
21
147.8230156
0
LINE
8
DEFAULT_255_1_234
10
23.6401829
20
148.1033232
11
23.6008273
21
148.0711963
0
ARC
8
DEFAULT_255_1_234
10
23.8176295
20
147.910623
40
0.3681349
50
93.7182161
51
120.2538958
0
ARC
8
DEFAULT_255_1_234
10
23.8270558
20
147.8298394
40
0.449379
50
89.9660152
51
94.2496022
0
ARC
8
DEFAULT_255_1_234
10
23.8311292
20
147.8887549
40
0.390482
50
73.8043271
51
90.5585896
0
ARC
8
DEFAULT_255_1_234
10
23.8546189
20
147.9745602
40
0.3015334
50
41.3071453
51
73.5430202
0
ARC
8
DEFAULT_255_1_234
10
23.8130016
20
147.9387324
40
0.3564457
50
13.5075983
51
41.2174222
0
ARC
8
DEFAULT_255_1_234
10
23.648822
20
147.8957486
40
0.5261351
50
1.1331335
51
13.8829381
0
ARC
8
DEFAULT_255_1_234
10
23.5076589
20
147.8881665
40
0.6674378
50
359.9919444
51
1.544251
0
ARC
8
DEFAULT_255_1_234
10
23.6353415
20
147.884028
40
0.5397702
50
347.8572367
51
0.4293338
0
ARC
8
DEFAULT_255_1_234
10
23.8103733
20
147.8443736
40
0.3603188
50
323.673004
51
348.1672506
0
ARC
8
DEFAULT_255_1_234
10
23.8398241
20
147.8264168
40
0.3259678
50
316.8171152
51
323.1492751
0
ARC
8
DEFAULT_255_1_234
10
23.845943
20
147.822746
40
0.3189975
50
281.8396411
51
316.5457803
0
ARC
8
DEFAULT_255_1_234
10
23.8083694
20
147.9782762
40
0.4789527
50
269.5770101
51
282.4214771
0
ARC
8
DEFAULT_255_1_234
10
23.8012505
20
147.9569125
40
0.45759
50
256.2427136
51
270.4486331
0
ARC
8
DEFAULT_255_1_234
10
23.7713408
20
147.8369229
40
0.3339303
50
228.9023911
51
256.3314342
0
ARC
8
DEFAULT_255_1_234
10
23.763964
20
147.8252746
40
0.32031
50
193.753695
51
228.5271154
0
ARC
8
DEFAULT_255_1_234
10
23.8877594
20
147.86158
40
0.4492253
50
184.924711
51
194.497588
0
ARC
8
DEFAULT_255_1_234
10
23.9070161
20
147.8651591
40
0.3289787
50
187.3600538
51
198.6732863
0
ARC
8
DEFAULT_255_1_234
10
23.8020455
20
147.8287674
40
0.217884
50
198.4451669
51
217.794479
0
ARC
8
DEFAULT_255_1_234
10
23.772463
20
147.8078085
40
0.1816698
50
218.2887171
51
228.5612368
0
ARC
8
DEFAULT_255_1_234
10
23.7822417
20
147.8209963
40
0.1980329
50
228.9654866
51
258.1234728
0
ARC
8
DEFAULT_255_1_234
10
23.8028127
20
147.9090833
40
0.2884748
50
257.7258293
51
270.401361
0
ARC
8
DEFAULT_255_1_234
10
23.8073014
20
147.8645821
40
0.2439788
50
269.4204404
51
286.4209037
0
ARC
8
DEFAULT_255_1_234
10
23.8221501
20
147.8106657
40
0.1880666
50
286.7251356
51
320.600362
0
ARC
8
DEFAULT_255_1_234
10
23.7838326
20
147.8417595
40
0.2374121
50
320.6712579
51
344.5441685
0
ARC
8
DEFAULT_255_1_234
10
23.6681652
20
147.8757045
40
0.3579479
50
344.2412205
51
356.7357071
0
ARC
8
DEFAULT_255_1_234
10
23.5432801
20
147.8860444
40
0.4832297
50
356.3548756
51
0.0500261
0
ARC
8
DEFAULT_255_1_234
10
23.676931
20
147.889165
40
0.3495889
50
359.5576869
51
12.953486
0
ARC
8
DEFAULT_255_1_234
10
23.7824207
20
147.9147434
40
0.2410532
50
12.6490276
51
41.6081334
0
ARC
8
DEFAULT_255_1_234
10
23.8054578
20
147.9343321
40
0.2108218
50
41.7850273
51
85.9892764
0
ARC
8
DEFAULT_255_1_234
10
23.7931315
20
147.8530462
40
0.2928454
50
84.6957577
51
90.0676183
0
ARC
8
DEFAULT_255_1_234
10
23.7907799
20
147.7861716
40
0.3597255
50
89.6804936
51
99.1614436
0
ARC
8
DEFAULT_255_1_234
10
23.770243
20
147.9089131
40
0.235281
50
98.9830931
51
113.8908934
0
ARC
8
DEFAULT_255_1_234
10
23.747284
20
147.9630587
40
0.176479
50
114.1950727
51
127.3641004
0
LINE
8
DEFAULT_255_1_234
10
22.4115458
20
156.6223211
11
22.7151456
21
156.035201
0
LINE
8
DEFAULT_255_1_234
10
22.7151456
20
156.035201
11
23.0203516
21
156.6223211
0
LINE
8
DEFAULT_255_1_234
10
23.0203516
20
156.6223211
11
23.1954435
21
156.6223211
0
LINE
8
DEFAULT_255_1_234
10
23.1954435
20
156.6223211
11
22.7922502
21
155.8890234
0
LINE
8
DEFAULT_255_1_234
10
22.7922502
20
155.8890234
11
22.7922502
21
155.4529
0
LINE
8
DEFAULT_255_1_234
10
22.7922502
20
155.4529
11
22.6380409
21
155.4529
0
LINE
8
DEFAULT_255_1_234
10
22.6380409
20
155.4529
11
22.6380409
21
155.8890234
0
LINE
8
DEFAULT_255_1_234
10
22.6380409
20
155.8890234
11
22.2348476
21
156.6223211
0
LINE
8
DEFAULT_255_1_234
10
22.2348476
20
156.6223211
11
22.4115458
21
156.6223211
0
LINE
8
DEFAULT_255_1_234
10
23.9351666
20
156.6223211
11
23.9351666
21
155.845652
0
LINE
8
DEFAULT_255_1_234
10
23.9351666
20
155.845652
11
24.0974077
21
155.845652
0
LINE
8
DEFAULT_255_1_234
10
24.0974077
20
155.845652
11
24.0974077
21
155.7243728
0
LINE
8
DEFAULT_255_1_234
10
24.0974077
20
155.7243728
11
23.9351666
21
155.7243728
0
LINE
8
DEFAULT_255_1_234
10
23.9351666
20
155.7243728
11
23.9351666
21
155.4529
0
LINE
8
DEFAULT_255_1_234
10
23.9351666
20
155.4529
11
23.7857763
21
155.4529
0
LINE
8
DEFAULT_255_1_234
10
23.7857763
20
155.4529
11
23.7857763
21
155.7243728
0
LINE
8
DEFAULT_255_1_234
10
23.7857763
20
155.7243728
11
23.253272
21
155.7243728
0
LINE
8
DEFAULT_255_1_234
10
23.253272
20
155.7243728
11
23.253272
21
155.8119187
0
LINE
8
DEFAULT_255_1_234
10
23.253272
20
155.8119187
11
23.7769414
21
156.6223211
0
LINE
8
DEFAULT_255_1_234
10
23.7769414
20
156.6223211
11
23.9351666
21
156.6223211
0
LINE
8
DEFAULT_255_1_234
10
23.7681064
20
156.3869912
11
23.4219385
21
155.845652
0
LINE
8
DEFAULT_255_1_234
10
23.4219385
20
155.845652
11
23.7857763
21
155.845652
0
LINE
8
DEFAULT_255_1_234
10
23.7857763
20
155.845652
11
23.7857763
21
156.4191181
0
LINE
8
DEFAULT_255_1_234
10
23.7857763
20
156.4191181
11
23.7681064
21
156.3869912
0
LINE
8
DEFAULT_255_1_234
10
22.5173458
20
164.5598211
11
22.8209456
21
163.972701
0
LINE
8
DEFAULT_255_1_234
10
22.8209456
20
163.972701
11
23.1261516
21
164.5598211
0
LINE
8
DEFAULT_255_1_234
10
23.1261516
20
164.5598211
11
23.3012435
21
164.5598211
0
LINE
8
DEFAULT_255_1_234
10
23.3012435
20
164.5598211
11
22.8980502
21
163.8265234
0
LINE
8
DEFAULT_255_1_234
10
22.8980502
20
163.8265234
11
22.8980502
21
163.3904
0
LINE
8
DEFAULT_255_1_234
10
22.8980502
20
163.3904
11
22.7438409
21
163.3904
0
LINE
8
DEFAULT_255_1_234
10
22.7438409
20
163.3904
11
22.7438409
21
163.8265234
0
LINE
8
DEFAULT_255_1_234
10
22.7438409
20
163.8265234
11
22.3406476
21
164.5598211
0
LINE
8
DEFAULT_255_1_234
10
22.3406476
20
164.5598211
11
22.5173458
21
164.5598211
0
LINE
8
DEFAULT_255_1_234
10
23.6297416
20
163.9261169
11
23.6297416
21
164.0473962
0
LINE
8
DEFAULT_255_1_234
10
23.6297416
20
164.0473962
11
23.7413828
21
164.0473962
0
LINE
8
DEFAULT_255_1_234
10
23.5510306
20
164.2530087
11
23.4024434
21
164.2530087
0
LINE
8
DEFAULT_255_1_234
10
23.3920021
20
163.6988188
11
23.5413925
21
163.6988188
0
LINE
8
DEFAULT_255_1_234
10
23.7413828
20
163.9261169
11
23.6297416
21
163.9261169
0
ARC
8
DEFAULT_255_1_234
10
23.7384694
20
164.3866713
40
0.3392876
50
270.4919872
51
281.8951556
0
ARC
8
DEFAULT_255_1_234
10
23.7625956
20
164.2764702
40
0.2264817
50
281.6691735
51
301.2943132
0
ARC
8
DEFAULT_255_1_234
10
23.7796166
20
164.2453304
40
0.1910381
50
301.7833094
51
311.7545298
0
ARC
8
DEFAULT_255_1_234
10
23.7887742
20
164.2351748
40
0.1773635
50
311.7323931
51
354.2802411
0
ARC
8
DEFAULT_255_1_234
10
23.7161367
20
164.2476722
40
0.2509385
50
353.0937916
51
0.1181479
0
ARC
8
DEFAULT_255_1_234
10
23.6700152
20
164.2524386
40
0.2970898
50
359.1805295
51
15.0453146
0
ARC
8
DEFAULT_255_1_234
10
23.8045989
20
164.2916992
40
0.1569564
50
13.9577229
51
77.6713066
0
ARC
8
DEFAULT_255_1_234
10
23.7659518
20
164.1531949
40
0.3006298
50
76.1116566
51
90.7026153
0
ARC
8
DEFAULT_255_1_234
10
23.7600356
20
164.1805545
40
0.2732568
50
89.5324876
51
103.531937
0
ARC
8
DEFAULT_255_1_234
10
23.7399801
20
164.2604884
40
0.1908508
50
103.2931773
51
133.5619022
0
ARC
8
DEFAULT_255_1_234
10
23.7355289
20
164.2664375
40
0.1834746
50
133.8349307
51
173.5344437
0
ARC
8
DEFAULT_255_1_234
10
23.8078332
20
164.2536213
40
0.2568033
50
172.5096846
51
180.1366907
0
ARC
8
DEFAULT_255_1_234
10
23.7127226
20
164.2570622
40
0.3103056
50
155.3484492
51
180.7484736
0
ARC
8
DEFAULT_255_1_234
10
23.7078315
20
164.2541846
40
0.3070957
50
131.5744599
51
154.4798489
0
ARC
8
DEFAULT_255_1_234
10
23.7391462
20
164.222531
40
0.3515643
50
96.9875458
51
131.9690667
0
ARC
8
DEFAULT_255_1_234
10
23.7610942
20
164.0979636
40
0.4779224
50
89.8596053
51
97.7825159
0
ARC
8
DEFAULT_255_1_234
10
23.7659005
20
164.0717616
40
0.5041361
50
78.3655447
51
90.4131539
0
ARC
8
DEFAULT_255_1_234
10
23.8016923
20
164.2376887
40
0.3344039
50
56.6229102
51
78.638727
0
ARC
8
DEFAULT_255_1_234
10
23.8231867
20
164.2752805
40
0.2912001
50
47.0253525
51
56.0854072
0
ARC
8
DEFAULT_255_1_234
10
23.8251647
20
164.2792223
40
0.2869704
50
10.9208013
51
46.7778124
0
ARC
8
DEFAULT_255_1_234
10
23.6887713
20
164.2476857
40
0.426899
50
359.6364486
51
11.6087304
0
ARC
8
DEFAULT_255_1_234
10
23.8722557
20
164.2461752
40
0.243409
50
332.3549906
51
359.7179418
0
ARC
8
DEFAULT_255_1_234
10
23.8072159
20
164.2770142
40
0.3153459
50
325.2333722
51
332.8745602
0
ARC
8
DEFAULT_255_1_234
10
23.8224783
20
164.2663828
40
0.2967456
50
292.9802137
51
325.2392345
0
ARC
8
DEFAULT_255_1_234
10
23.7950157
20
164.3197863
40
0.3566604
50
292.5402179
51
293.6924929
0
ARC
8
DEFAULT_255_1_234
10
23.8342752
20
163.6743091
40
0.3307468
50
57.6435486
51
72.8625112
0
ARC
8
DEFAULT_255_1_234
10
23.8697252
20
163.7317549
40
0.2632492
50
36.7248896
51
57.4697979
0
ARC
8
DEFAULT_255_1_234
10
23.8685885
20
163.733022
40
0.2634081
50
8.0545065
51
36.356114
0
ARC
8
DEFAULT_255_1_234
10
23.782307
20
163.7175174
40
0.3510261
50
359.8320645
51
8.5869982
0
ARC
8
DEFAULT_255_1_234
10
23.7447846
20
163.7127101
40
0.3885653
50
343.9829931
51
0.5571613
0
ARC
8
DEFAULT_255_1_234
10
23.8334043
20
163.6884438
40
0.2966924
50
311.6359546
51
343.7651759
0
ARC
8
DEFAULT_255_1_234
10
23.7955613
20
163.7311102
40
0.3537231
50
279.7829875
51
311.6255694
0
ARC
8
DEFAULT_255_1_234
10
23.7654389
20
163.874828
40
0.5004971
50
269.7286406
51
280.3856417
0
ARC
8
DEFAULT_255_1_234
10
23.7592461
20
163.8706996
40
0.4963778
50
256.6828919
51
270.4412052
0
ARC
8
DEFAULT_255_1_234
10
23.7253757
20
163.7322394
40
0.3538406
50
229.4223008
51
256.8556159
0
ARC
8
DEFAULT_255_1_234
10
23.683915
20
163.6855736
40
0.2914296
50
181.818294
51
229.6455059
0
ARC
8
DEFAULT_255_1_234
10
23.7879106
20
163.6986496
40
0.3959084
50
179.9755256
51
183.2323064
0
ARC
8
DEFAULT_255_1_234
10
23.7706852
20
163.6966037
40
0.2293034
50
179.4465117
51
196.2869258
0
ARC
8
DEFAULT_255_1_234
10
23.721926
20
163.6832651
40
0.1787621
50
196.5661473
51
227.705904
0
ARC
8
DEFAULT_255_1_234
10
23.7383355
20
163.7016155
40
0.2033784
50
227.7652068
51
257.8762805
0
ARC
8
DEFAULT_255_1_234
10
23.7608325
20
163.7959156
40
0.3003081
50
257.4584385
51
270.426602
0
ARC
8
DEFAULT_255_1_234
10
23.7653891
20
163.8248996
40
0.329292
50
269.5962073
51
280.8789248
0
ARC
8
DEFAULT_255_1_234
10
23.788342
20
163.7102685
40
0.2123908
50
280.6346389
51
299.8595945
0
ARC
8
DEFAULT_255_1_234
10
23.8074327
20
163.6740212
40
0.171457
50
300.3576302
51
314.5517981
0
ARC
8
DEFAULT_255_1_234
10
23.7991387
20
163.6800919
40
0.1816095
50
315.0728369
51
345.0431014
0
ARC
8
DEFAULT_255_1_234
10
23.7068201
20
163.7069841
40
0.2777492
50
344.5986631
51
357.9269593
0
ARC
8
DEFAULT_255_1_234
10
23.6172528
20
163.7131276
40
0.3674917
50
357.4748886
51
0.0231117
0
ARC
8
DEFAULT_255_1_234
10
23.7195637
20
163.7155679
40
0.2651907
50
359.5047933
51
13.4239635
0
ARC
8
DEFAULT_255_1_234
10
23.8062281
20
163.7377478
40
0.1757509
50
12.9498199
51
48.7551375
0
ARC
8
DEFAULT_255_1_234
10
23.7880014
20
163.71284
40
0.2065134
50
49.5088623
51
72.1836453
0
ARC
8
DEFAULT_255_1_234
10
23.7522167
20
163.6066291
40
0.3185836
50
71.9010081
51
84.3554254
0
ARC
8
DEFAULT_255_1_234
10
23.7360799
20
163.4705326
40
0.4556151
50
84.0193428
51
89.333121
0
LINE
8
DEFAULT_255_1_234
10
22.5173458
20
172.4973211
11
22.8209456
21
171.910201
0
LINE
8
DEFAULT_255_1_234
10
22.8209456
20
171.910201
11
23.1261516
21
172.4973211
0
LINE
8
DEFAULT_255_1_234
10
23.1261516
20
172.4973211
11
23.3012435
21
172.4973211
0
LINE
8
DEFAULT_255_1_234
10
23.3012435
20
172.4973211
11
22.8980502
21
171.7640234
0
LINE
8
DEFAULT_255_1_234
10
22.8980502
20
171.7640234
11
22.8980502
21
171.3279
0
LINE
8
DEFAULT_255_1_234
10
22.8980502
20
171.3279
11
22.7438409
21
171.3279
0
LINE
8
DEFAULT_255_1_234
10
22.7438409
20
171.3279
11
22.7438409
21
171.7640234
0
LINE
8
DEFAULT_255_1_234
10
22.7438409
20
171.7640234
11
22.3406476
21
172.4973211
0
LINE
8
DEFAULT_255_1_234
10
22.3406476
20
172.4973211
11
22.5173458
21
172.4973211
0
LINE
8
DEFAULT_255_1_234
10
24.1799157
20
171.4491792
11
24.1799157
21
171.3279
0
LINE
8
DEFAULT_255_1_234
10
24.1799157
20
171.3279
11
23.4136878
21
171.3279
0
LINE
8
DEFAULT_255_1_234
10
23.4136878
20
171.3279
11
23.4136878
21
171.4347221
0
LINE
8
DEFAULT_255_1_234
10
23.4136878
20
171.4347221
11
23.8184875
21
171.8844995
0
LINE
8
DEFAULT_255_1_234
10
23.5397861
20
172.1527595
11
23.391199
21
172.1527595
0
LINE
8
DEFAULT_255_1_234
10
23.9060334
20
171.7889218
11
23.5927956
21
171.4491792
0
LINE
8
DEFAULT_255_1_234
10
23.5927956
20
171.4491792
11
24.1799157
21
171.4491792
0
ARC
8
DEFAULT_255_1_234
10
22.4694708
20
173.0774527
40
1.8008286
50
318.5132453
51
320.7828378
0
ARC
8
DEFAULT_255_1_234
10
22.9981682
20
172.6471426
40
1.1191493
50
320.7372736
51
323.9737074
0
ARC
8
DEFAULT_255_1_234
10
23.3901539
20
172.3631361
40
0.6350923
50
323.8961724
51
328.6421089
0
ARC
8
DEFAULT_255_1_234
10
23.5948134
20
172.2369031
40
0.3946393
50
328.8299013
51
331.789948
0
ARC
8
DEFAULT_255_1_234
10
23.6945313
20
172.1854509
40
0.2824501
50
331.4255242
51
352.9364833
0
ARC
8
DEFAULT_255_1_234
10
23.7081813
20
172.1823976
40
0.2685315
50
353.2248685
51
0.0169286
0
ARC
8
DEFAULT_255_1_234
10
23.729169
20
172.184695
40
0.2475536
50
359.4866256
51
15.9339782
0
ARC
8
DEFAULT_255_1_234
10
23.7798675
20
172.1983286
40
0.1950618
50
16.1714718
51
43.5284424
0
ARC
8
DEFAULT_255_1_234
10
23.7875984
20
172.2060573
40
0.184134
50
43.4415429
51
83.1661404
0
ARC
8
DEFAULT_255_1_234
10
23.7741902
20
172.1323771
40
0.258926
50
82.160215
51
90.1505798
0
ARC
8
DEFAULT_255_1_234
10
23.7710329
20
172.0786865
40
0.3126255
50
89.5460705
51
102.5418777
0
ARC
8
DEFAULT_255_1_234
10
23.7467416
20
172.1817665
40
0.2067346
50
102.1739365
51
129.2061916
0
ARC
8
DEFAULT_255_1_234
10
23.7388487
20
172.1942094
40
0.1921118
50
129.7279328
51
135.7542026
0
ARC
8
DEFAULT_255_1_234
10
23.7510015
20
172.1845045
40
0.2075944
50
136.175737
51
166.3674722
0
ARC
8
DEFAULT_255_1_234
10
23.8516934
20
172.1575182
40
0.3118201
50
165.9092917
51
178.8683903
0
ARC
8
DEFAULT_255_1_234
10
23.9381795
20
172.1528179
40
0.3983935
50
178.438168
51
180.0083905
0
ARC
8
DEFAULT_255_1_234
10
23.7980398
20
172.1567231
40
0.4068601
50
163.2878735
51
180.5581814
0
ARC
8
DEFAULT_255_1_234
10
23.7178659
20
172.178784
40
0.3237344
50
133.454115
51
162.9470031
0
ARC
8
DEFAULT_255_1_234
10
23.73572
20
172.1598
40
0.349795
50
100.7869394
51
133.4384016
0
ARC
8
DEFAULT_255_1_234
10
23.7704972
20
172.0049319
40
0.5084616
50
89.6605301
51
101.3704185
0
ARC
8
DEFAULT_255_1_234
10
23.7771311
20
172.0110496
40
0.502348
50
78.2171172
51
90.4130393
0
ARC
8
DEFAULT_255_1_234
10
23.8126389
20
172.1734637
40
0.3361092
50
55.9268222
51
78.4888551
0
ARC
8
DEFAULT_255_1_234
10
23.8322829
20
172.2073324
40
0.2970617
50
47.9292255
51
55.4054003
0
ARC
8
DEFAULT_255_1_234
10
23.842439
20
172.2176502
40
0.2825983
50
4.3347696
51
48.0560701
0
ARC
8
DEFAULT_255_1_234
10
23.7328783
20
172.2006601
40
0.393225
50
359.925209
51
5.5967654
0
ARC
8
DEFAULT_255_1_234
10
23.7757675
20
172.2062816
40
0.3503892
50
337.8914096
51
358.9967724
0
ARC
8
DEFAULT_255_1_234
10
23.5044087
20
172.3109706
40
0.6412172
50
326.9135351
51
338.3505194
0
ARC
8
DEFAULT_255_1_234
10
23.1058391
20
172.5664284
40
1.1146189
50
319.6472867
51
327.095818
0
ARC
8
DEFAULT_255_1_234
10
22.7225394
20
172.8826
40
1.6114559
50
317.2586784
51
319.9046139
0
LINE
8
DEFAULT_255_1_234
10
22.5261458
20
180.4348211
11
22.8297456
21
179.847701
0
LINE
8
DEFAULT_255_1_234
10
22.8297456
20
179.847701
11
23.1349516
21
180.4348211
0
LINE
8
DEFAULT_255_1_234
10
23.1349516
20
180.4348211
11
23.3100435
21
180.4348211
0
LINE
8
DEFAULT_255_1_234
10
23.3100435
20
180.4348211
11
22.9068502
21
179.7015234
0
LINE
8
DEFAULT_255_1_234
10
22.9068502
20
179.7015234
11
22.9068502
21
179.2654
0
LINE
8
DEFAULT_255_1_234
10
22.9068502
20
179.2654
11
22.7526409
21
179.2654
0
LINE
8
DEFAULT_255_1_234
10
22.7526409
20
179.2654
11
22.7526409
21
179.7015234
0
LINE
8
DEFAULT_255_1_234
10
22.7526409
20
179.7015234
11
22.3494476
21
180.4348211
0
LINE
8
DEFAULT_255_1_234
10
22.3494476
20
180.4348211
11
22.5261458
21
180.4348211
0
LINE
8
DEFAULT_255_1_234
10
23.9108175
20
180.4404433
11
23.9108175
21
179.2654
0
LINE
8
DEFAULT_255_1_234
10
23.9108175
20
179.2654
11
23.7614272
21
179.2654
0
LINE
8
DEFAULT_255_1_234
10
23.7614272
20
179.2654
11
23.7614272
21
180.2557133
0
LINE
8
DEFAULT_255_1_234
10
23.7614272
20
180.2557133
11
23.4618434
21
180.1456785
0
LINE
8
DEFAULT_255_1_234
10
23.4618434
20
180.1456785
11
23.4618434
21
180.2806117
0
LINE
8
DEFAULT_255_1_234
10
23.4618434
20
180.2806117
11
23.8875255
21
180.4404433
0
LINE
8
DEFAULT_255_1_234
10
23.8875255
20
180.4404433
11
23.9108175
21
180.4404433
0
LINE
8
DEFAULT_255_1_234
10
22.5173458
20
188.3723211
11
22.8209456
21
187.785201
0
LINE
8
DEFAULT_255_1_234
10
22.8209456
20
187.785201
11
23.1261516
21
188.3723211
0
LINE
8
DEFAULT_255_1_234
10
23.1261516
20
188.3723211
11
23.3012435
21
188.3723211
0
LINE
8
DEFAULT_255_1_234
10
23.3012435
20
188.3723211
11
22.8980502
21
187.6390234
0
LINE
8
DEFAULT_255_1_234
10
22.8980502
20
187.6390234
11
22.8980502
21
187.2029
0
LINE
8
DEFAULT_255_1_234
10
22.8980502
20
187.2029
11
22.7438409
21
187.2029
0
LINE
8
DEFAULT_255_1_234
10
22.7438409
20
187.2029
11
22.7438409
21
187.6390234
0
LINE
8
DEFAULT_255_1_234
10
22.7438409
20
187.6390234
11
22.3406476
21
188.3723211
0
LINE
8
DEFAULT_255_1_234
10
22.3406476
20
188.3723211
11
22.5173458
21
188.3723211
0
LINE
8
DEFAULT_255_1_234
10
24.1469855
20
187.8944327
11
24.1469855
21
187.7016709
0
LINE
8
DEFAULT_255_1_234
10
23.4088688
20
187.6815916
11
23.4088688
21
187.8799755
0
LINE
8
DEFAULT_255_1_234
10
23.9983984
20
187.6615123
11
23.9983984
21
187.9048739
0
LINE
8
DEFAULT_255_1_234
10
23.557456
20
187.9161184
11
23.557456
21
187.6783789
0
ARC
8
DEFAULT_255_1_234
10
22.9222745
20
187.6967805
40
1.2247208
50
353.8441951
51
0.2287902
0
ARC
8
DEFAULT_255_1_234
10
23.3862249
20
187.6449806
40
0.7578929
50
344.4934747
51
353.9765454
0
ARC
8
DEFAULT_255_1_234
10
23.6854839
20
187.5598981
40
0.4467846
50
329.2803592
51
344.7472793
0
ARC
8
DEFAULT_255_1_234
10
23.7847664
20
187.5054018
40
0.3336173
50
324.9352394
51
328.6160465
0
ARC
8
DEFAULT_255_1_234
10
23.8224773
20
187.4790427
40
0.2876076
50
280.580143
51
324.9173126
0
ARC
8
DEFAULT_255_1_234
10
23.7823565
20
187.6461099
40
0.4592847
50
269.5977311
51
281.6734359
0
ARC
8
DEFAULT_255_1_234
10
23.7751471
20
187.6341173
40
0.4472986
50
256.6228859
51
270.51044
0
ARC
8
DEFAULT_255_1_234
10
23.7349449
20
187.4792877
40
0.2873874
50
215.8618325
51
257.2788573
0
ARC
8
DEFAULT_255_1_234
10
23.837048
20
187.5477977
40
0.4102928
50
197.9693508
51
215.2623606
0
ARC
8
DEFAULT_255_1_234
10
24.0855596
20
187.6316709
40
0.6725652
50
187.8816417
51
198.2346507
0
ARC
8
DEFAULT_255_1_234
10
24.4813804
20
187.6888079
40
1.0724845
50
180.8976217
51
188.0055519
0
ARC
8
DEFAULT_255_1_234
10
24.7613992
20
187.6991777
40
1.3526448
50
180.7449369
51
181.1510016
0
ARC
8
DEFAULT_255_1_234
10
24.6036721
20
187.8848042
40
1.1948131
50
173.7675579
51
180.231553
0
ARC
8
DEFAULT_255_1_234
10
24.1518868
20
187.9358666
40
0.7401564
50
164.3058563
51
173.9002247
0
ARC
8
DEFAULT_255_1_234
10
23.8606937
20
188.0197656
40
0.4371288
50
148.7922025
51
164.568378
0
ARC
8
DEFAULT_255_1_234
10
23.7655389
20
188.0728929
40
0.3282386
50
144.5883898
51
148.1176286
0
ARC
8
DEFAULT_255_1_234
10
23.7312287
20
188.0968315
40
0.2864044
50
101.6440918
51
144.514236
0
ARC
8
DEFAULT_255_1_234
10
23.7737354
20
187.9279069
40
0.4604934
50
89.5284041
51
102.5819763
0
ARC
8
DEFAULT_255_1_234
10
23.7816441
20
187.9240018
40
0.464401
50
77.0437873
51
90.5081339
0
ARC
8
DEFAULT_255_1_234
10
23.8218443
20
188.0882615
40
0.2953195
50
48.2778575
51
77.4994676
0
ARC
8
DEFAULT_255_1_234
10
23.8291074
20
188.1011746
40
0.2808655
50
36.3142134
51
47.6305865
0
ARC
8
DEFAULT_255_1_234
10
23.7422381
20
188.0426515
40
0.3855453
50
18.2931786
51
35.6769206
0
ARC
8
DEFAULT_255_1_234
10
23.487914
20
187.9553593
40
0.654423
50
8.024666
51
18.5605216
0
ARC
8
DEFAULT_255_1_234
10
23.071606
20
187.8938792
40
1.0752407
50
1.1274072
51
8.1718305
0
ARC
8
DEFAULT_255_1_234
10
22.7480251
20
187.8811885
40
1.3990231
50
0.5424119
51
1.3863029
0
ARC
8
DEFAULT_255_1_234
10
22.9301629
20
187.9084342
40
1.0682415
50
359.8090433
51
4.9407866
0
ARC
8
DEFAULT_255_1_234
10
23.3511643
20
187.9460113
40
0.6455691
50
4.8362157
51
12.2904523
0
ARC
8
DEFAULT_255_1_234
10
23.6266757
20
188.0073965
40
0.3633074
50
12.0805627
51
23.8173984
0
ARC
8
DEFAULT_255_1_234
10
23.7440463
20
188.0570919
40
0.2358723
50
24.2871213
51
31.3935614
0
ARC
8
DEFAULT_255_1_234
10
23.796516
20
188.0914233
40
0.1732111
50
30.7407893
51
82.4657128
0
ARC
8
DEFAULT_255_1_234
10
23.7785294
20
188.0030691
40
0.263235
50
81.1060089
51
90.2184952
0
ARC
8
DEFAULT_255_1_234
10
23.7749593
20
188.0288924
40
0.2374236
50
89.3806855
51
105.6762551
0
ARC
8
DEFAULT_255_1_234
10
23.7566224
20
188.0955567
40
0.1682847
50
105.7981136
51
149.7388061
0
ARC
8
DEFAULT_255_1_234
10
23.8630302
20
188.031595
40
0.2924306
50
149.4208916
51
163.6286378
0
ARC
8
DEFAULT_255_1_234
10
24.072119
20
187.967825
40
0.5110213
50
163.3763315
51
172.1410975
0
ARC
8
DEFAULT_255_1_234
10
24.4021909
20
187.9205518
40
0.8444586
50
172.0259487
51
178.0703232
0
ARC
8
DEFAULT_255_1_234
10
24.7051999
20
187.9061906
40
1.1477868
50
177.8631668
51
179.5044149
0
ARC
8
DEFAULT_255_1_234
10
24.5979403
20
187.6747389
40
1.0404907
50
179.7995573
51
185.2460446
0
ARC
8
DEFAULT_255_1_234
10
24.1936442
20
187.6364513
40
0.6343885
50
185.1411642
51
193.0079639
0
ARC
8
DEFAULT_255_1_234
10
23.9292915
20
187.5739641
40
0.3627568
50
192.7897626
51
205.2507664
0
ARC
8
DEFAULT_255_1_234
10
23.8246462
20
187.5272415
40
0.2481908
50
205.8005384
51
211.2537509
0
ARC
8
DEFAULT_255_1_234
10
23.7722902
20
187.492158
40
0.1852521
50
210.3789793
51
238.4008143
0
ARC
8
DEFAULT_255_1_234
10
23.7703424
20
187.4968376
40
0.1882621
50
239.6520629
51
265.9793761
0
ARC
8
DEFAULT_255_1_234
10
23.7788624
20
187.5640427
40
0.2559272
50
265.1315437
51
270.060332
0
ARC
8
DEFAULT_255_1_234
10
23.7817403
20
187.5316534
40
0.2235528
50
269.3314664
51
287.2178029
0
ARC
8
DEFAULT_255_1_234
10
23.7955255
20
187.4813279
40
0.1714108
50
287.7958004
51
329.080874
0
ARC
8
DEFAULT_255_1_234
10
23.6997712
20
187.541093
40
0.2842745
50
328.6634704
51
343.3325132
0
ARC
8
DEFAULT_255_1_234
10
23.4824732
20
187.6087863
40
0.5118644
50
343.0499468
51
351.9393422
0
ARC
8
DEFAULT_255_1_234
10
23.1358032
20
187.6598949
40
0.8622784
50
351.8069023
51
357.7959224
0
ARC
8
DEFAULT_255_1_234
10
22.8122588
20
187.6766721
40
1.1862365
50
357.5871873
51
359.2677531
0
ENDSEC
0
EOF