0
SECTION
2
HEADER
9
$MEASUREMENT
70
1
0
ENDSEC
0
SECTION
2
TABLES
0
TABLE
2
LTYPE
0
LTYPE
72
65
70
64
2
CONTINUOUS
3
______
73
0
40
0
0
ENDTAB
0
TABLE
2
LAYER
0
LAYER
2
DEFAULT_255_2_778
70
0
62
255
6
CONTINUOUS
0
LAYER
2
DEFAULT_255_1_234
70
0
62
255
6
CONTINUOUS
0
ENDTAB
0
ENDSEC
0
SECTION
2
ENTITIES
0
ARC
8
DEFAULT_255_2_778
10
3.5700693
20
44.0552035
40
0.7914215
50
129.1312896
51
180.1450914
0
ARC
8
DEFAULT_255_2_778
10
3.5703345
20
44.0556906
40
0.7912112
50
89.854026
51
129.1684493
0
ARC
8
DEFAULT_255_2_778
10
25.7993937
20
44.0553771
40
0.7915249
50
39.4792447
51
90.147911
0
ARC
8
DEFAULT_255_2_778
10
25.7999935
20
44.0552238
40
0.7911595
50
359.8533901
51
39.5154338
0
ARC
8
DEFAULT_255_2_778
10
25.7996693
20
-1.9863488
40
0.7914836
50
309.4761667
51
0.1482649
0
ARC
8
DEFAULT_255_2_778
10
25.799398
20
-1.9867799
40
0.7913235
50
269.8517415
51
309.511178
0
ARC
8
DEFAULT_255_2_778
10
3.570342
20
-1.9867217
40
0.7913815
50
219.1282118
51
270.1454017
0
ARC
8
DEFAULT_255_2_778
10
3.5700247
20
-1.9863392
40
0.7913769
50
179.8524075
51
219.1641908
0
LINE
8
DEFAULT_255_2_778
10
3.5723503
20
44.8468993
11
25.7973503
21
44.8468993
0
LINE
8
DEFAULT_255_2_778
10
26.5911503
20
44.0531993
11
26.5911503
21
-1.9843007
0
LINE
8
DEFAULT_255_2_778
10
25.7973503
20
-2.7781007
11
3.5723503
21
-2.7781007
0
LINE
8
DEFAULT_255_2_778
10
2.7786503
20
-1.9843007
11
2.7786503
21
44.0531993
0
LINE
8
DEFAULT_255_1_234
10
8.759185
20
-0.0087609
11
8.759185
21
-0.1348592
0
LINE
8
DEFAULT_255_1_234
10
8.759185
20
-0.1348592
11
8.2684458
21
-0.1348592
0
LINE
8
DEFAULT_255_1_234
10
8.2684458
20
-0.1348592
11
8.2684458
21
-0.6513
0
LINE
8
DEFAULT_255_1_234
10
8.2684458
20
-0.6513
11
8.1142364
21
-0.6513
0
LINE
8
DEFAULT_255_1_234
10
8.1142364
20
-0.6513
11
8.1142364
21
0.5181211
0
LINE
8
DEFAULT_255_1_234
10
8.1142364
20
0.5181211
11
8.8386992
21
0.5181211
0
LINE
8
DEFAULT_255_1_234
10
8.8386992
20
0.5181211
11
8.8386992
21
0.3912196
0
LINE
8
DEFAULT_255_1_234
10
8.8386992
20
0.3912196
11
8.2684458
21
0.3912196
0
LINE
8
DEFAULT_255_1_234
10
8.2684458
20
0.3912196
11
8.2684458
21
-0.0087609
0
LINE
8
DEFAULT_255_1_234
10
8.2684458
20
-0.0087609
11
8.759185
21
-0.0087609
0
LINE
8
DEFAULT_255_1_234
10
9.1230227
20
0.5181211
11
9.4049367
21
0.0699501
0
LINE
8
DEFAULT_255_1_234
10
9.4049367
20
0.0699501
11
9.6852444
21
0.5181211
0
LINE
8
DEFAULT_255_1_234
10
9.6852444
20
0.5181211
11
9.8667617
21
0.5181211
0
LINE
8
DEFAULT_255_1_234
10
9.8667617
20
0.5181211
11
9.4973017
21
-0.0617704
0
LINE
8
DEFAULT_255_1_234
10
9.4973017
20
-0.0617704
11
9.8755966
21
-0.6513
0
LINE
8
DEFAULT_255_1_234
10
9.8755966
20
-0.6513
11
9.6924729
21
-0.6513
0
LINE
8
DEFAULT_255_1_234
10
9.6924729
20
-0.6513
11
9.4049367
21
-0.1950973
0
LINE
8
DEFAULT_255_1_234
10
9.4049367
20
-0.1950973
11
9.1157941
21
-0.6513
0
LINE
8
DEFAULT_255_1_234
10
9.1157941
20
-0.6513
11
8.9334737
21
-0.6513
0
LINE
8
DEFAULT_255_1_234
10
8.9334737
20
-0.6513
11
9.3125717
21
-0.0617704
0
LINE
8
DEFAULT_255_1_234
10
9.3125717
20
-0.0617704
11
8.9423086
21
0.5181211
0
LINE
8
DEFAULT_255_1_234
10
8.9423086
20
0.5181211
11
9.1230227
21
0.5181211
0
LINE
8
DEFAULT_255_1_234
10
10.7823798
20
-0.5300208
11
10.7823798
21
-0.6513
0
LINE
8
DEFAULT_255_1_234
10
10.7823798
20
-0.6513
11
10.016152
21
-0.6513
0
LINE
8
DEFAULT_255_1_234
10
10.016152
20
-0.6513
11
10.016152
21
-0.5444779
0
LINE
8
DEFAULT_255_1_234
10
10.016152
20
-0.5444779
11
10.4209516
21
-0.0947005
0
LINE
8
DEFAULT_255_1_234
10
10.1422503
20
0.1735595
11
9.9936631
21
0.1735595
0
LINE
8
DEFAULT_255_1_234
10
10.5084976
20
-0.1902782
11
10.1952598
21
-0.5300208
0
LINE
8
DEFAULT_255_1_234
10
10.1952598
20
-0.5300208
11
10.7823798
21
-0.5300208
0
ARC
8
DEFAULT_255_1_234
10
9.0719349
20
1.0982527
40
1.8008286
50
318.5132453
51
320.7828378
0
ARC
8
DEFAULT_255_1_234
10
9.6006324
20
0.6679426
40
1.1191493
50
320.7372736
51
323.9737074
0
ARC
8
DEFAULT_255_1_234
10
9.992618
20
0.3839361
40
0.6350923
50
323.8961724
51
328.6421089
0
ARC
8
DEFAULT_255_1_234
10
10.1972776
20
0.2577031
40
0.3946393
50
328.8299013
51
331.789948
0
ARC
8
DEFAULT_255_1_234
10
10.2969954
20
0.2062509
40
0.2824501
50
331.4255242
51
352.9364833
0
ARC
8
DEFAULT_255_1_234
10
10.3106455
20
0.2031976
40
0.2685315
50
353.2248685
51
0.0169286
0
ARC
8
DEFAULT_255_1_234
10
10.3316332
20
0.205495
40
0.2475536
50
359.4866256
51
15.9339782
0
ARC
8
DEFAULT_255_1_234
10
10.3823317
20
0.2191286
40
0.1950618
50
16.1714718
51
43.5284424
0
ARC
8
DEFAULT_255_1_234
10
10.3900625
20
0.2268573
40
0.184134
50
43.4415429
51
83.1661404
0
ARC
8
DEFAULT_255_1_234
10
10.3766544
20
0.1531771
40
0.258926
50
82.160215
51
90.1505798
0
ARC
8
DEFAULT_255_1_234
10
10.3734971
20
0.0994865
40
0.3126255
50
89.5460705
51
102.5418777
0
ARC
8
DEFAULT_255_1_234
10
10.3492057
20
0.2025665
40
0.2067346
50
102.1739365
51
129.2061916
0
ARC
8
DEFAULT_255_1_234
10
10.3413129
20
0.2150094
40
0.1921118
50
129.7279328
51
135.7542026
0
ARC
8
DEFAULT_255_1_234
10
10.3534656
20
0.2053045
40
0.2075944
50
136.175737
51
166.3674722
0
ARC
8
DEFAULT_255_1_234
10
10.4541576
20
0.1783182
40
0.3118201
50
165.9092917
51
178.8683903
0
ARC
8
DEFAULT_255_1_234
10
10.5406437
20
0.1736179
40
0.3983935
50
178.438168
51
180.0083905
0
ARC
8
DEFAULT_255_1_234
10
10.4005039
20
0.1775231
40
0.4068601
50
163.2878735
51
180.5581814
0
ARC
8
DEFAULT_255_1_234
10
10.32033
20
0.199584
40
0.3237344
50
133.454115
51
162.9470031
0
ARC
8
DEFAULT_255_1_234
10
10.3381842
20
0.1806
40
0.349795
50
100.7869394
51
133.4384016
0
ARC
8
DEFAULT_255_1_234
10
10.3729613
20
0.0257319
40
0.5084616
50
89.6605301
51
101.3704185
0
ARC
8
DEFAULT_255_1_234
10
10.3795952
20
0.0318496
40
0.502348
50
78.2171172
51
90.4130393
0
ARC
8
DEFAULT_255_1_234
10
10.415103
20
0.1942637
40
0.3361092
50
55.9268222
51
78.4888551
0
ARC
8
DEFAULT_255_1_234
10
10.4347471
20
0.2281324
40
0.2970617
50
47.9292255
51
55.4054003
0
ARC
8
DEFAULT_255_1_234
10
10.4449031
20
0.2384502
40
0.2825983
50
4.3347696
51
48.0560701
0
ARC
8
DEFAULT_255_1_234
10
10.3353425
20
0.2214601
40
0.393225
50
359.925209
51
5.5967654
0
ARC
8
DEFAULT_255_1_234
10
10.3782317
20
0.2270816
40
0.3503892
50
337.8914096
51
358.9967724
0
ARC
8
DEFAULT_255_1_234
10
10.1068729
20
0.3317706
40
0.6412172
50
326.9135351
51
338.3505194
0
ARC
8
DEFAULT_255_1_234
10
9.7083032
20
0.5872284
40
1.1146189
50
319.6472867
51
327.095818
0
ARC
8
DEFAULT_255_1_234
10
9.3250036
20
0.9034
40
1.6114559
50
317.2586784
51
319.9046139
0
LINE
8
DEFAULT_255_1_234
10
11.8771058
20
0.5181211
11
11.8771058
21
-0.6513
0
LINE
8
DEFAULT_255_1_234
10
11.8771058
20
-0.6513
11
11.7220932
21
-0.6513
0
LINE
8
DEFAULT_255_1_234
10
11.7220932
20
-0.6513
11
11.1333668
21
0.249861
0
LINE
8
DEFAULT_255_1_234
10
11.1333668
20
0.249861
11
11.1333668
21
-0.6513
0
LINE
8
DEFAULT_255_1_234
10
11.1333668
20
-0.6513
11
10.9783542
21
-0.6513
0
LINE
8
DEFAULT_255_1_234
10
10.9783542
20
-0.6513
11
10.9783542
21
0.5181211
0
LINE
8
DEFAULT_255_1_234
10
10.9783542
20
0.5181211
11
11.1333668
21
0.5181211
0
LINE
8
DEFAULT_255_1_234
10
11.1333668
20
0.5181211
11
11.7236996
21
-0.3870558
0
LINE
8
DEFAULT_255_1_234
10
11.7236996
20
-0.3870558
11
11.7236996
21
0.5181211
0
LINE
8
DEFAULT_255_1_234
10
11.7236996
20
0.5181211
11
11.8771058
21
0.5181211
0
LINE
8
DEFAULT_255_1_234
10
12.4369179
20
-0.0938974
11
12.4369179
21
-0.2151766
0
LINE
8
DEFAULT_255_1_234
10
12.4369179
20
-0.2151766
11
12.0449691
21
-0.2151766
0
LINE
8
DEFAULT_255_1_234
10
12.0449691
20
-0.2151766
11
12.0449691
21
-0.0938974
0
LINE
8
DEFAULT_255_1_234
10
12.0449691
20
-0.0938974
11
12.4369179
21
-0.0938974
0
ARC
8
DEFAULT_255_1_234
10
12.9932072
20
0.2103703
40
0.2822356
50
338.8763615
51
0.5166041
0
ARC
8
DEFAULT_255_1_234
10
13.0100727
20
0.2058208
40
0.2648703
50
325.8412414
51
338.4795939
0
ARC
8
DEFAULT_255_1_234
10
12.9710095
20
0.2329042
40
0.3124019
50
296.7586019
51
325.753654
0
ARC
8
DEFAULT_255_1_234
10
12.9422203
20
0.2813789
40
0.368668
50
296.0902311
51
297.3618122
0
ARC
8
DEFAULT_255_1_234
10
12.9679661
20
-0.3740959
40
0.3518806
50
47.9009248
51
67.1946869
0
ARC
8
DEFAULT_255_1_234
10
12.9875903
20
-0.3494605
40
0.320451
50
35.236241
51
47.551371
0
ARC
8
DEFAULT_255_1_234
10
13.013752
20
-0.3320007
40
0.2890103
50
359.2759738
51
35.4014081
0
ARC
8
DEFAULT_255_1_234
10
12.9392552
20
-0.3393174
40
0.3635026
50
343.1294516
51
0.5776525
0
ARC
8
DEFAULT_255_1_234
10
13.0117096
20
-0.359267
40
0.2883832
50
310.8497458
51
342.744803
0
ARC
8
DEFAULT_255_1_234
10
12.969921
20
-0.3115706
40
0.3517954
50
281.5473923
51
310.9169905
0
ARC
8
DEFAULT_255_1_234
10
12.9342659
20
-0.1562916
40
0.5110832
50
269.6192722
51
281.9789957
0
ARC
8
DEFAULT_255_1_234
10
12.9270448
20
-0.1562172
40
0.5111606
50
257.4584469
51
270.4287458
0
ARC
8
DEFAULT_255_1_234
10
12.8889591
20
-0.3165656
40
0.3463762
50
228.7553743
51
257.8484423
0
ARC
8
DEFAULT_255_1_234
10
12.857979
20
-0.3538558
40
0.297916
50
184.0104442
51
228.5071787
0
ARC
8
DEFAULT_255_1_234
10
12.9742734
20
-0.3361488
40
0.4152734
50
179.9315461
51
185.3254504
0
ARC
8
DEFAULT_255_1_234
10
12.8566379
20
-0.3324008
40
0.2976554
50
145.6795913
51
180.6259649
0
ARC
8
DEFAULT_255_1_234
10
12.8729729
20
-0.3438071
40
0.3175776
50
115.5537925
51
145.6416199
0
ARC
8
DEFAULT_255_1_234
10
12.9070659
20
-0.4048972
40
0.3874232
50
113.2437915
51
116.2054627
0
ARC
8
DEFAULT_255_1_234
10
12.8917871
20
0.234958
40
0.3154751
50
222.9548379
51
244.1372485
0
ARC
8
DEFAULT_255_1_234
10
12.8795947
20
0.2212834
40
0.2972382
50
213.3439227
51
222.6271327
0
ARC
8
DEFAULT_255_1_234
10
12.8603881
20
0.2082308
40
0.274019
50
180.4316517
51
213.2713999
0
ARC
8
DEFAULT_255_1_234
10
12.9178883
20
0.212911
40
0.33158
50
179.9992944
51
181.1655061
0
ARC
8
DEFAULT_255_1_234
10
12.95883
20
0.2163561
40
0.3725376
50
164.6186108
51
180.5292368
0
ARC
8
DEFAULT_255_1_234
10
12.8690163
20
0.2405101
40
0.2795349
50
132.2454369
51
164.5092287
0
ARC
8
DEFAULT_255_1_234
10
12.8977266
20
0.2080028
40
0.3229019
50
100.7052766
51
132.1387266
0
ARC
8
DEFAULT_255_1_234
10
12.9282239
20
0.0702086
40
0.4639835
50
89.6732617
51
101.2449487
0
ARC
8
DEFAULT_255_1_234
10
12.9344437
20
0.087699
40
0.4464999
50
76.2876631
51
90.4586123
0
ARC
8
DEFAULT_255_1_234
10
12.9650669
20
0.209922
40
0.3205023
50
47.8240157
51
76.4266918
0
ARC
8
DEFAULT_255_1_234
10
12.9873218
20
0.235959
40
0.2862661
50
6.9168658
51
47.6261438
0
ARC
8
DEFAULT_255_1_234
10
12.8686621
20
0.214037
40
0.4067708
50
359.8419705
51
7.9694496
0
ARC
8
DEFAULT_255_1_234
10
12.9028518
20
-0.3300075
40
0.2513121
50
359.4454068
51
16.9256425
0
ARC
8
DEFAULT_255_1_234
10
12.9497329
20
-0.3170967
40
0.2027071
50
17.292259
51
45.462717
0
ARC
8
DEFAULT_255_1_234
10
12.9443266
20
-0.3217566
40
0.2098212
50
45.3028762
51
83.1921472
0
ARC
8
DEFAULT_255_1_234
10
12.929995
20
-0.4019105
40
0.2911472
50
82.2614531
51
90.143954
0
ARC
8
DEFAULT_255_1_234
10
12.926907
20
-0.378605
40
0.2678513
50
89.4959189
51
104.8579811
0
ARC
8
DEFAULT_255_1_234
10
12.9092329
20
-0.311611
40
0.1985654
50
104.8855873
51
135.2448349
0
ARC
8
DEFAULT_255_1_234
10
12.9142101
20
-0.3160664
40
0.2052373
50
135.3398955
51
172.104394
0
ARC
8
DEFAULT_255_1_234
10
12.9949159
20
-0.3315075
40
0.2873299
50
171.2651929
51
180.1859362
0
ARC
8
DEFAULT_255_1_234
10
12.9779861
20
-0.3347267
40
0.2704083
50
179.515471
51
193.6466734
0
ARC
8
DEFAULT_255_1_234
10
12.896363
20
-0.3555223
40
0.1861855
50
193.3540587
51
225.8256931
0
ARC
8
DEFAULT_255_1_234
10
12.9004387
20
-0.3484476
40
0.1941102
50
226.418029
51
255.8553723
0
ARC
8
DEFAULT_255_1_234
10
12.926082
20
-0.2548002
40
0.2911917
50
255.4655572
51
268.7985967
0
ARC
8
DEFAULT_255_1_234
10
12.9308012
20
-0.1709509
40
0.3751331
50
268.3464808
51
270.0104874
0
ARC
8
DEFAULT_255_1_234
10
12.93314
20
-0.2393862
40
0.3067064
50
269.575914
51
282.0823146
0
ARC
8
DEFAULT_255_1_234
10
12.9556309
20
-0.3388197
40
0.2047712
50
281.7522535
51
306.6056425
0
ARC
8
DEFAULT_255_1_234
10
12.9654735
20
-0.3549513
40
0.1859604
50
307.1350025
51
314.0277951
0
ARC
8
DEFAULT_255_1_234
10
12.9618819
20
-0.3523234
40
0.1903475
50
314.2553419
51
350.169324
0
ARC
8
DEFAULT_255_1_234
10
12.8767287
20
-0.3338591
40
0.2774269
50
349.4145679
51
0.2930737
0
ARC
8
DEFAULT_255_1_234
10
12.9287721
20
0.1820353
40
0.2300764
50
89.477591
51
105.729794
0
ARC
8
DEFAULT_255_1_234
10
12.9151634
20
0.2325637
40
0.1777519
50
105.922966
51
135.1662921
0
ARC
8
DEFAULT_255_1_234
10
12.9172137
20
0.2311419
40
0.1802087
50
135.3053131
51
168.9882338
0
ARC
8
DEFAULT_255_1_234
10
12.9999709
20
0.2121721
40
0.2650806
50
168.3802067
51
180.3602358
0
ARC
8
DEFAULT_255_1_234
10
12.9771288
20
0.2084041
40
0.2422425
50
179.5029707
51
194.9126783
0
ARC
8
DEFAULT_255_1_234
10
12.9185949
20
0.193011
40
0.1817188
50
194.9722181
51
224.1943972
0
ARC
8
DEFAULT_255_1_234
10
12.9157817
20
0.1907169
40
0.1781027
50
224.2961434
51
262.0157375
0
ARC
8
DEFAULT_255_1_234
10
12.930006
20
0.2638661
40
0.2525492
50
261.1250369
51
270.1959853
0
ARC
8
DEFAULT_255_1_234
10
12.9329815
20
0.2451339
40
0.233825
50
269.4825617
51
285.0988277
0
ARC
8
DEFAULT_255_1_234
10
12.9483974
20
0.187299
40
0.1739712
50
285.1585659
51
315.9484648
0
ARC
8
DEFAULT_255_1_234
10
12.9394986
20
0.1954886
40
0.1860616
50
316.0412958
51
351.9162715
0
ARC
8
DEFAULT_255_1_234
10
12.866194
20
0.2096245
40
0.2606517
50
351.1056823
51
0.1936567
0
ARC
8
DEFAULT_255_1_234
10
12.8924769
20
0.2126369
40
0.234377
50
359.4789506
51
16.0679113
0
ARC
8
DEFAULT_255_1_234
10
12.9400728
20
0.225481
40
0.1850875
50
16.3251951
51
44.791304
0
ARC
8
DEFAULT_255_1_234
10
12.938301
20
0.2255339
40
0.186312
50
44.3958661
51
88.2498933
0
ARC
8
DEFAULT_255_1_234
10
12.9309563
20
0.1644154
40
0.2476868
50
86.9833827
51
90.0200148
0
LINE
8
DEFAULT_255_1_234
10
14.1894432
20
0.0153343
11
14.1894432
21
-0.110764
0
LINE
8
DEFAULT_255_1_234
10
14.1894432
20
-0.110764
11
13.6826405
21
-0.110764
0
LINE
8
DEFAULT_255_1_234
10
13.6826405
20
-0.110764
11
13.6826405
21
-0.5252017
0
LINE
8
DEFAULT_255_1_234
10
13.6826405
20
-0.5252017
11
14.2713669
21
-0.5252017
0
LINE
8
DEFAULT_255_1_234
10
14.2713669
20
-0.5252017
11
14.2713669
21
-0.6513
0
LINE
8
DEFAULT_255_1_234
10
14.2713669
20
-0.6513
11
13.5284312
21
-0.6513
0
LINE
8
DEFAULT_255_1_234
10
13.5284312
20
-0.6513
11
13.5284312
21
0.5181211
0
LINE
8
DEFAULT_255_1_234
10
13.5284312
20
0.5181211
11
14.2633352
21
0.5181211
0
LINE
8
DEFAULT_255_1_234
10
14.2633352
20
0.5181211
11
14.2633352
21
0.3912196
0
LINE
8
DEFAULT_255_1_234
10
14.2633352
20
0.3912196
11
13.6826405
21
0.3912196
0
LINE
8
DEFAULT_255_1_234
10
13.6826405
20
0.3912196
11
13.6826405
21
0.0153343
0
LINE
8
DEFAULT_255_1_234
10
13.6826405
20
0.0153343
11
14.1894432
21
0.0153343
0
LINE
8
DEFAULT_255_1_234
10
15.1460232
20
-0.6513
11
14.8922203
21
-0.1782306
0
LINE
8
DEFAULT_255_1_234
10
14.8922203
20
-0.1782306
11
14.6175349
21
-0.1782306
0
LINE
8
DEFAULT_255_1_234
10
14.6175349
20
-0.1782306
11
14.6175349
21
-0.6513
0
LINE
8
DEFAULT_255_1_234
10
14.6175349
20
-0.6513
11
14.4625223
21
-0.6513
0
LINE
8
DEFAULT_255_1_234
10
14.4625223
20
-0.6513
11
14.4625223
21
0.5181211
0
LINE
8
DEFAULT_255_1_234
10
14.4625223
20
0.5181211
11
14.8496521
21
0.5181211
0
LINE
8
DEFAULT_255_1_234
10
15.0367916
20
-0.1453005
11
15.3114771
21
-0.6416619
0
LINE
8
DEFAULT_255_1_234
10
15.3114771
20
-0.6416619
11
15.3114771
21
-0.6513
0
LINE
8
DEFAULT_255_1_234
10
15.3114771
20
-0.6513
11
15.1460232
21
-0.6513
0
LINE
8
DEFAULT_255_1_234
10
14.6175349
20
0.3912196
11
14.6175349
21
-0.0521323
0
LINE
8
DEFAULT_255_1_234
10
14.6175349
20
-0.0521323
11
14.8544711
21
-0.0521323
0
LINE
8
DEFAULT_255_1_234
10
14.853668
20
0.3912196
11
14.6175349
21
0.3912196
0
ARC
8
DEFAULT_255_1_234
10
14.853816
20
-0.1780239
40
0.6961575
50
80.653586
51
90.3427061
0
ARC
8
DEFAULT_255_1_234
10
14.8957635
20
0.0682348
40
0.4463577
50
65.6987447
51
80.8329603
0
ARC
8
DEFAULT_255_1_234
10
14.9435276
20
0.1777322
40
0.3269094
50
50.0017161
51
65.4305835
0
ARC
8
DEFAULT_255_1_234
10
14.965374
20
0.2072482
40
0.2902647
50
11.628416
51
49.5603263
0
ARC
8
DEFAULT_255_1_234
10
14.8118076
20
0.1697299
40
0.4482792
50
359.5655735
51
12.3691
0
ARC
8
DEFAULT_255_1_234
10
14.9194936
20
0.1634644
40
0.3405924
50
341.9983148
51
0.4822259
0
ARC
8
DEFAULT_255_1_234
10
14.9589776
20
0.1527471
40
0.2997359
50
323.8609373
51
341.61416
0
ARC
8
DEFAULT_255_1_234
10
14.928802
20
0.1760484
40
0.3378487
50
296.7018614
51
323.6876402
0
ARC
8
DEFAULT_255_1_234
10
14.8846916
20
0.2549235
40
0.4281516
50
290.8086567
51
297.2323311
0
ARC
8
DEFAULT_255_1_234
10
14.8570445
20
0.3072351
40
0.3593766
50
269.589728
51
281.8058135
0
ARC
8
DEFAULT_255_1_234
10
14.8821344
20
0.1924743
40
0.2419125
50
281.5501019
51
303.9357432
0
ARC
8
DEFAULT_255_1_234
10
14.8958532
20
0.1686936
40
0.2145323
50
304.4415616
51
311.2106213
0
ARC
8
DEFAULT_255_1_234
10
14.9090637
20
0.1547632
40
0.1953505
50
310.9875673
51
356.2715578
0
ARC
8
DEFAULT_255_1_234
10
14.8334286
20
0.1660422
40
0.2716331
50
354.9348262
51
0.0609027
0
ARC
8
DEFAULT_255_1_234
10
14.814716
20
0.1687435
40
0.2903554
50
359.5239371
51
12.8808918
0
ARC
8
DEFAULT_255_1_234
10
14.9124716
20
0.1926728
40
0.1897315
50
12.4173452
51
43.1022135
0
ARC
8
DEFAULT_255_1_234
10
14.918632
20
0.1963724
40
0.1827118
50
43.5751728
51
48.203944
0
ARC
8
DEFAULT_255_1_234
10
14.9016812
20
0.1742302
40
0.2105272
50
48.7809703
51
72.6969569
0
ARC
8
DEFAULT_255_1_234
10
14.8662437
20
0.066682
40
0.3237537
50
72.3702241
51
84.8791103
0
ARC
8
DEFAULT_255_1_234
10
14.8514913
20
-0.0675231
40
0.4587478
50
84.5400526
51
89.7281406
0
LINE
8
DEFAULT_255_1_234
10
15.7620576
20
-0.0938974
11
15.7620576
21
-0.2151766
0
LINE
8
DEFAULT_255_1_234
10
15.7620576
20
-0.2151766
11
15.3701087
21
-0.2151766
0
LINE
8
DEFAULT_255_1_234
10
15.3701087
20
-0.2151766
11
15.3701087
21
-0.0938974
0
LINE
8
DEFAULT_255_1_234
10
15.3701087
20
-0.0938974
11
15.7620576
21
-0.0938974
0
LINE
8
DEFAULT_255_1_234
10
16.590933
20
0.0153343
11
16.590933
21
-0.110764
0
LINE
8
DEFAULT_255_1_234
10
16.590933
20
-0.110764
11
16.0841303
21
-0.110764
0
LINE
8
DEFAULT_255_1_234
10
16.0841303
20
-0.110764
11
16.0841303
21
-0.5252017
0
LINE
8
DEFAULT_255_1_234
10
16.0841303
20
-0.5252017
11
16.6728567
21
-0.5252017
0
LINE
8
DEFAULT_255_1_234
10
16.6728567
20
-0.5252017
11
16.6728567
21
-0.6513
0
LINE
8
DEFAULT_255_1_234
10
16.6728567
20
-0.6513
11
15.9299209
21
-0.6513
0
LINE
8
DEFAULT_255_1_234
10
15.9299209
20
-0.6513
11
15.9299209
21
0.5181211
0
LINE
8
DEFAULT_255_1_234
10
15.9299209
20
0.5181211
11
16.664825
21
0.5181211
0
LINE
8
DEFAULT_255_1_234
10
16.664825
20
0.5181211
11
16.664825
21
0.3912196
0
LINE
8
DEFAULT_255_1_234
10
16.664825
20
0.3912196
11
16.0841303
21
0.3912196
0
LINE
8
DEFAULT_255_1_234
10
16.0841303
20
0.3912196
11
16.0841303
21
0.0153343
0
LINE
8
DEFAULT_255_1_234
10
16.0841303
20
0.0153343
11
16.590933
21
0.0153343
0
LINE
8
DEFAULT_255_1_234
10
17.6406812
20
0.1799849
11
17.4856686
21
0.1799849
0
LINE
8
DEFAULT_255_1_234
10
16.7933328
20
-0.3123606
11
16.9483453
21
-0.3123606
0
ARC
8
DEFAULT_255_1_234
10
17.5515499
20
1.0746768
40
1.252368
50
248.9199003
51
254.1439814
0
ARC
8
DEFAULT_255_1_234
10
17.3834994
20
0.6420234
40
0.788226
50
241.633709
51
249.0064503
0
ARC
8
DEFAULT_255_1_234
10
17.2306388
20
0.3619317
40
0.4691427
50
230.498225
51
241.8087113
0
ARC
8
DEFAULT_255_1_234
10
17.1521962
20
0.2619906
40
0.3421437
50
227.4064532
51
229.9881192
0
ARC
8
DEFAULT_255_1_234
10
17.1034483
20
0.2144088
40
0.2741476
50
200.6781896
51
228.1763934
0
ARC
8
DEFAULT_255_1_234
10
17.1106794
20
0.2129077
40
0.2804109
50
179.5061581
51
199.8694617
0
ARC
8
DEFAULT_255_1_234
10
17.1097545
20
0.220321
40
0.2795204
50
132.4834203
51
181.0242172
0
ARC
8
DEFAULT_255_1_234
10
17.1693128
20
0.1640704
40
0.3612768
50
129.2532479
51
133.4242687
0
ARC
8
DEFAULT_255_1_234
10
17.1839577
20
0.1420965
40
0.3875675
50
101.98776
51
128.8742646
0
ARC
8
DEFAULT_255_1_234
10
17.2238188
20
-0.0300259
40
0.5642249
50
89.5906553
51
102.3169264
0
ARC
8
DEFAULT_255_1_234
10
17.230868
20
0.0018148
40
0.5323783
50
77.2360837
51
90.3248275
0
ARC
8
DEFAULT_255_1_234
10
17.2515759
20
0.09854
40
0.4334697
50
63.837784
51
77.0809408
0
ARC
8
DEFAULT_255_1_234
10
17.2793521
20
0.1502911
40
0.3747796
50
45.9864267
51
64.1607727
0
ARC
8
DEFAULT_255_1_234
10
17.3054402
20
0.1800866
40
0.3352302
50
32.2747395
51
45.6547121
0
ARC
8
DEFAULT_255_1_234
10
17.3120843
20
0.181988
40
0.328603
50
359.6507365
51
32.6130309
0
ARC
8
DEFAULT_255_1_234
10
17.2177938
20
0.182466
40
0.2678863
50
359.469343
51
14.9832209
0
ARC
8
DEFAULT_255_1_234
10
17.2883001
20
0.2013539
40
0.1948938
50
14.9781179
51
48.2004265
0
ARC
8
DEFAULT_255_1_234
10
17.2718645
20
0.1806983
40
0.2212521
50
48.5927837
51
74.1241538
0
ARC
8
DEFAULT_255_1_234
10
17.2385134
20
0.0706248
40
0.3362561
50
73.7888341
51
86.6652678
0
ARC
8
DEFAULT_255_1_234
10
17.22827
20
-0.0501119
40
0.4573953
50
86.2640471
51
90.0526343
0
ARC
8
DEFAULT_255_1_234
10
17.2254412
20
-0.0105808
40
0.4178709
50
89.6697524
51
99.2309573
0
ARC
8
DEFAULT_255_1_234
10
17.2011863
20
0.1338964
40
0.2713749
50
99.069534
51
113.7658566
0
ARC
8
DEFAULT_255_1_234
10
17.1738055
20
0.1984677
40
0.2012469
50
114.0401004
51
127.9850673
0
ARC
8
DEFAULT_255_1_234
10
17.1497618
20
0.228073
40
0.1631167
50
127.7287463
51
176.7105154
0
ARC
8
DEFAULT_255_1_234
10
17.2176336
20
0.2179693
40
0.2315392
50
175.1779447
51
180.0581938
0
ARC
8
DEFAULT_255_1_234
10
17.1333183
20
0.2167428
40
0.1472271
50
179.6142195
51
228.1246017
0
ARC
8
DEFAULT_255_1_234
10
17.1774851
20
0.2576308
40
0.2072299
50
226.5779593
51
230.8800004
0
ARC
8
DEFAULT_255_1_234
10
17.224593
20
0.3201636
40
0.2854818
50
231.4635071
51
241.9260842
0
ARC
8
DEFAULT_255_1_234
10
17.3443108
20
0.54048
40
0.53622
50
241.7178533
51
248.3259551
0
ARC
8
DEFAULT_255_1_234
10
17.482848
20
0.8837064
40
0.9063478
50
248.2007737
51
252.4528373
0
ARC
8
DEFAULT_255_1_234
10
17.6032205
20
1.2558441
40
1.2974635
50
252.3391078
51
254.3469452
0
ARC
8
DEFAULT_255_1_234
10
16.8489907
20
-1.4418852
40
1.5037162
50
71.0197183
51
74.4087047
0
ARC
8
DEFAULT_255_1_234
10
17.0184593
20
-0.9526889
40
0.9859993
50
66.1847285
51
71.086374
0
ARC
8
DEFAULT_255_1_234
10
17.1740905
20
-0.60228
40
0.6025855
50
59.3536294
51
66.2691831
0
ARC
8
DEFAULT_255_1_234
10
17.2629557
20
-0.4519391
40
0.4279449
50
49.1020879
51
59.3293958
0
ARC
8
DEFAULT_255_1_234
10
17.3448297
20
-0.3586166
40
0.3038015
50
32.7919921
51
49.2505539
0
ARC
8
DEFAULT_255_1_234
10
17.3769387
20
-0.3357809
40
0.264448
50
31.1181161
51
32.4005348
0
ARC
8
DEFAULT_255_1_234
10
17.3680925
20
-0.3393221
40
0.2738556
50
8.1116974
51
30.7958831
0
ARC
8
DEFAULT_255_1_234
10
17.2870593
20
-0.3531247
40
0.3560327
50
359.8389159
51
8.4706516
0
ARC
8
DEFAULT_255_1_234
10
17.3496384
20
-0.3579863
40
0.2934776
50
337.4731098
51
0.7537279
0
ARC
8
DEFAULT_255_1_234
10
17.3675079
20
-0.3599613
40
0.2762607
50
307.5917067
51
336.4315538
0
ARC
8
DEFAULT_255_1_234
10
17.3214907
20
-0.3086898
40
0.3449979
50
307.6551545
51
308.4529766
0
ARC
8
DEFAULT_255_1_234
10
17.2984626
20
-0.273175
40
0.3871988
50
284.3734338
51
307.1424381
0
ARC
8
DEFAULT_255_1_234
10
17.2489456
20
-0.0910068
40
0.5759636
50
272.4382747
51
284.646547
0
ARC
8
DEFAULT_255_1_234
10
17.2362665
20
0.0889893
40
0.7563528
50
269.9708387
51
272.8178037
0
ARC
8
DEFAULT_255_1_234
10
17.2319705
20
-0.1148284
40
0.5525489
50
248.2707594
51
270.4055579
0
ARC
8
DEFAULT_255_1_234
10
17.2265446
20
-0.1338808
40
0.5328452
50
246.1383403
51
248.0542782
0
ARC
8
DEFAULT_255_1_234
10
17.1846825
20
-0.2218157
40
0.4355005
50
233.1670131
51
246.4950969
0
ARC
8
DEFAULT_255_1_234
10
17.129273
20
-0.2966188
40
0.3424126
50
215.3403242
51
233.0843104
0
ARC
8
DEFAULT_255_1_234
10
17.1020161
20
-0.3164451
40
0.3087104
50
179.2419209
51
215.2648451
0
ARC
8
DEFAULT_255_1_234
10
17.1787755
20
-0.3150334
40
0.2304457
50
179.335461
51
199.1045811
0
ARC
8
DEFAULT_255_1_234
10
17.1455431
20
-0.3237234
40
0.1962176
50
199.8828939
51
232.7063202
0
ARC
8
DEFAULT_255_1_234
10
17.19277
20
-0.2643212
40
0.2720938
50
232.3738199
51
255.5136649
0
ARC
8
DEFAULT_255_1_234
10
17.2268566
20
-0.1399165
40
0.4010747
50
255.2446292
51
267.5320849
0
ARC
8
DEFAULT_255_1_234
10
17.235619
20
-0.0166298
40
0.5246356
50
267.1557994
51
270.0286766
0
ARC
8
DEFAULT_255_1_234
10
17.2383962
20
-0.061005
40
0.4802668
50
269.7000017
51
278.1660162
0
ARC
8
DEFAULT_255_1_234
10
17.2639967
20
-0.2340485
40
0.3053425
50
278.0231263
51
290.625471
0
ARC
8
DEFAULT_255_1_234
10
17.2987654
20
-0.3267975
40
0.206291
50
290.6619762
51
307.0370976
0
ARC
8
DEFAULT_255_1_234
10
17.3288043
20
-0.3636496
40
0.1587906
50
306.3943566
51
355.3030547
0
ARC
8
DEFAULT_255_1_234
10
17.2775975
20
-0.3559887
40
0.2104809
50
354.3660432
51
0.0698737
0
ARC
8
DEFAULT_255_1_234
10
17.291832
20
-0.3537383
40
0.1962563
50
359.417946
51
16.1971788
0
ARC
8
DEFAULT_255_1_234
10
17.337363
20
-0.3412582
40
0.149053
50
16.4723299
51
52.6262157
0
ARC
8
DEFAULT_255_1_234
10
17.2552684
20
-0.4496567
40
0.2850296
50
52.7386432
51
62.4979148
0
ARC
8
DEFAULT_255_1_234
10
17.1167761
20
-0.7102717
40
0.5801521
50
62.2515216
51
68.1220564
0
ARC
8
DEFAULT_255_1_234
10
16.9447672
20
-1.1330128
40
1.0365451
50
68.0062803
51
71.8053402
0
ARC
8
DEFAULT_255_1_234
10
16.7652043
20
-1.6715242
40
1.6042013
50
71.7183119
51
73.9258742
0
LINE
8
DEFAULT_255_1_234
10
18.3346233
20
0.5181211
11
17.8470968
21
-0.7516967
0
LINE
8
DEFAULT_255_1_234
10
17.8470968
20
-0.7516967
11
17.7193922
21
-0.7516967
0
LINE
8
DEFAULT_255_1_234
10
17.7193922
20
-0.7516967
11
18.2077219
21
0.5181211
0
LINE
8
DEFAULT_255_1_234
10
18.2077219
20
0.5181211
11
18.3346233
21
0.5181211
0
LINE
8
DEFAULT_255_1_234
10
19.1867908
20
0.5181211
11
19.3418033
21
0.5181211
0
LINE
8
DEFAULT_255_1_234
10
19.3418033
20
0.5181211
11
19.3418033
21
-0.277021
0
LINE
8
DEFAULT_255_1_234
10
18.9578862
20
-0.6657571
11
18.9169244
21
-0.6673635
0
LINE
8
DEFAULT_255_1_234
10
18.4952581
20
-0.2786273
11
18.4952581
21
0.5181211
0
LINE
8
DEFAULT_255_1_234
10
18.4952581
20
0.5181211
11
18.6478611
21
0.5181211
0
LINE
8
DEFAULT_255_1_234
10
18.6478611
20
0.5181211
11
18.6478611
21
-0.2738083
0
LINE
8
DEFAULT_255_1_234
10
19.1867908
20
-0.2746115
11
19.1867908
21
0.5181211
0
ARC
8
DEFAULT_255_1_234
10
18.9064932
20
-0.2790072
40
0.4353147
50
343.0898354
51
0.2614217
0
ARC
8
DEFAULT_255_1_234
10
18.9893333
20
-0.3021163
40
0.3493402
50
315.3345598
51
342.7641223
0
ARC
8
DEFAULT_255_1_234
10
18.9669782
20
-0.2789318
40
0.3815385
50
284.6606969
51
315.2182466
0
ARC
8
DEFAULT_255_1_234
10
18.9214495
20
-0.1243245
40
0.5426573
50
273.8500273
51
285.1797701
0
ARC
8
DEFAULT_255_1_234
10
18.9126545
20
-0.0901525
40
0.5772268
50
257.6317484
51
270.4238298
0
ARC
8
DEFAULT_255_1_234
10
18.8701743
20
-0.2722802
40
0.3902347
50
230.6087562
51
257.9964012
0
ARC
8
DEFAULT_255_1_234
10
18.8569745
20
-0.2929198
40
0.3659186
50
227.7440991
51
230.1551448
0
ARC
8
DEFAULT_255_1_234
10
18.8435577
20
-0.3090529
40
0.3449568
50
189.2524587
51
227.5916061
0
ARC
8
DEFAULT_255_1_234
10
18.9957263
20
-0.2762987
40
0.5004737
50
180.2665968
51
190.1525252
0
ARC
8
DEFAULT_255_1_234
10
19.0179283
20
-0.2766082
40
0.3700778
50
179.5665184
51
191.9952995
0
ARC
8
DEFAULT_255_1_234
10
18.895139
20
-0.3039957
40
0.2442808
50
191.6974072
51
215.1404042
0
ARC
8
DEFAULT_255_1_234
10
18.8713304
20
-0.3181892
40
0.2166522
50
215.6950207
51
224.8513522
0
ARC
8
DEFAULT_255_1_234
10
18.8769048
20
-0.3102303
40
0.2262237
50
225.2846858
51
255.0111758
0
ARC
8
DEFAULT_255_1_234
10
18.9093008
20
-0.1988545
40
0.3421979
50
254.5944985
51
267.9129803
0
ARC
8
DEFAULT_255_1_234
10
18.9167489
20
-0.0904097
40
0.4508556
50
267.4689655
51
270.0223026
0
ARC
8
DEFAULT_255_1_234
10
18.9197634
20
-0.1493151
40
0.3919604
50
269.5849941
51
281.1843768
0
ARC
8
DEFAULT_255_1_234
10
18.9476399
20
-0.2845941
40
0.2538457
50
280.9344262
51
300.9743589
0
ARC
8
DEFAULT_255_1_234
10
18.9689004
20
-0.3237312
40
0.2093566
50
301.4980046
51
315.1466847
0
ARC
8
DEFAULT_255_1_234
10
18.9544543
20
-0.3118764
40
0.2279656
50
315.5952539
51
345.6678731
0
ARC
8
DEFAULT_255_1_234
10
18.8425059
20
-0.2806991
40
0.3441564
50
345.2524969
51
358.6304371
0
ARC
8
DEFAULT_255_1_234
10
18.7407413
20
-0.2747084
40
0.4460494
50
358.1735671
51
0.0124524
0
LINE
8
DEFAULT_255_1_234
10
19.7401775
20
0.5181211
11
19.7401775
21
-0.5252017
0
LINE
8
DEFAULT_255_1_234
10
19.7401775
20
-0.5252017
11
20.2943675
21
-0.5252017
0
LINE
8
DEFAULT_255_1_234
10
20.2943675
20
-0.5252017
11
20.2943675
21
-0.6513
0
LINE
8
DEFAULT_255_1_234
10
20.2943675
20
-0.6513
11
19.585165
21
-0.6513
0
LINE
8
DEFAULT_255_1_234
10
19.585165
20
-0.6513
11
19.585165
21
0.5181211
0
LINE
8
DEFAULT_255_1_234
10
19.585165
20
0.5181211
11
19.7401775
21
0.5181211
0
LINE
8
DEFAULT_255_2_778
10
9.3932417
20
28.9718497
11
10.7161417
21
28.9718497
0
LINE
8
DEFAULT_255_2_778
10
10.7161417
20
28.9718497
11
10.7161417
21
19.7114497
0
LINE
8
DEFAULT_255_2_778
10
10.7161417
20
14.4197497
11
10.7161417
21
5.1593497
0
LINE
8
DEFAULT_255_2_778
10
10.7161417
20
5.1593497
11
9.3932417
21
5.1593497
0
LINE
8
DEFAULT_255_2_778
10
9.3932834
20
19.7114333
11
12.0390834
21
19.7114333
0
LINE
8
DEFAULT_255_2_778
10
12.0390834
20
19.7114333
11
12.0390834
21
14.4197333
0
LINE
8
DEFAULT_255_2_778
10
12.0390834
20
14.4197333
11
9.3932834
21
14.4197333
0
LINE
8
DEFAULT_255_2_778
10
9.3932834
20
14.4197333
11
9.3932834
21
19.7114333
0
LINE
8
DEFAULT_255_2_778
10
10.187
20
14.9489666
11
10.187
21
19.1822666
0
LINE
8
DEFAULT_255_2_778
10
9.9224167
20
18.388575
11
10.1870167
21
19.182275
0
LINE
8
DEFAULT_255_2_778
10
10.1870167
20
19.182275
11
10.4516167
21
18.388575
0
LINE
8
DEFAULT_255_2_778
10
10.4516167
20
18.388575
11
9.9224167
21
18.388575
0
LINE
8
DEFAULT_255_2_778
10
11.2453
20
19.1822666
11
11.2453
21
14.9489666
0
LINE
8
DEFAULT_255_2_778
10
10.9807167
20
15.742675
11
11.2453167
21
14.948975
0
LINE
8
DEFAULT_255_2_778
10
11.2453167
20
14.948975
11
11.5099167
21
15.742675
0
LINE
8
DEFAULT_255_2_778
10
11.5099167
20
15.742675
11
10.9807167
21
15.742675
0
LINE
8
DEFAULT_255_2_778
10
19.9765417
20
28.9719082
11
18.6536417
21
28.9719082
0
LINE
8
DEFAULT_255_2_778
10
18.6536417
20
28.9719082
11
18.6536417
21
19.7115082
0
LINE
8
DEFAULT_255_2_778
10
17.3307834
20
19.7114333
11
19.9765834
21
19.7114333
0
LINE
8
DEFAULT_255_2_778
10
19.9765834
20
19.7114333
11
19.9765834
21
14.4197333
0
LINE
8
DEFAULT_255_2_778
10
19.9765834
20
14.4197333
11
17.3307834
21
14.4197333
0
LINE
8
DEFAULT_255_2_778
10
17.3307834
20
14.4197333
11
17.3307834
21
19.7114333
0
LINE
8
DEFAULT_255_2_778
10
18.1245
20
14.9489666
11
18.1245
21
19.1822666
0
LINE
8
DEFAULT_255_2_778
10
17.8599167
20
18.388575
11
18.1245167
21
19.182275
0
LINE
8
DEFAULT_255_2_778
10
18.1245167
20
19.182275
11
18.3891167
21
18.388575
0
LINE
8
DEFAULT_255_2_778
10
18.3891167
20
18.388575
11
17.8599167
21
18.388575
0
LINE
8
DEFAULT_255_2_778
10
19.1828
20
19.1822666
11
19.1828
21
14.9489666
0
LINE
8
DEFAULT_255_2_778
10
18.9182167
20
15.742675
11
19.1828167
21
14.948975
0
LINE
8
DEFAULT_255_2_778
10
19.1828167
20
14.948975
11
19.4474167
21
15.742675
0
LINE
8
DEFAULT_255_2_778
10
19.4474167
20
15.742675
11
18.9182167
21
15.742675
0
LINE
8
DEFAULT_255_2_778
10
18.6536417
20
14.4198082
11
18.6536417
21
5.1594082
0
LINE
8
DEFAULT_255_2_778
10
18.6536417
20
5.1594082
11
19.9765417
21
5.1594082
0
LINE
8
DEFAULT_255_2_778
10
10.5738396
20
40.8993073
11
9.3932396
21
40.8993073
0
LINE
8
DEFAULT_255_2_778
10
9.3932396
20
40.8993073
11
9.9837396
21
41.9219073
0
LINE
8
DEFAULT_255_2_778
10
9.9837396
20
41.9219073
11
11.1643396
21
41.9219073
0
LINE
8
DEFAULT_255_2_778
10
11.1643396
20
41.9219073
11
10.5738396
21
40.8993073
0
LINE
8
DEFAULT_255_2_778
10
10.5738396
20
40.8993073
11
10.5738396
21
40.8993073
0
LINE
8
DEFAULT_255_2_778
10
11.7546396
20
40.8993073
11
12.9354396
21
40.8993073
0
LINE
8
DEFAULT_255_2_778
10
12.9354396
20
40.8993073
11
12.3451396
21
41.9219073
0
LINE
8
DEFAULT_255_2_778
10
12.3451396
20
41.9219073
11
11.1643396
21
41.9219073
0
LINE
8
DEFAULT_255_2_778
10
11.1643396
20
41.9219073
11
11.7546396
21
40.8993073
0
LINE
8
DEFAULT_255_2_778
10
11.7546396
20
40.8993073
11
11.7546396
21
40.8993073
0
LINE
8
DEFAULT_255_2_778
10
11.7545823
20
42.9445146
11
11.1642823
21
43.9671146
0
LINE
8
DEFAULT_255_2_778
10
11.1642823
20
43.9671146
11
10.5737823
21
42.9445146
0
LINE
8
DEFAULT_255_2_778
10
10.5737823
20
42.9445146
11
11.1642823
21
41.9219146
0
LINE
8
DEFAULT_255_2_778
10
11.1642823
20
41.9219146
11
11.7545823
21
42.9445146
0
LINE
8
DEFAULT_255_2_778
10
11.7545823
20
42.9445146
11
11.7545823
21
42.9445146
0
ARC
8
DEFAULT_255_2_778
10
16.5183731
20
42.5907426
40
0.5650491
50
268.7543645
51
289.1417717
0
ARC
8
DEFAULT_255_2_778
10
16.606208
20
42.3355531
40
0.2951681
50
289.2776255
51
3.7648372
0
ARC
8
DEFAULT_255_2_778
10
16.3901618
20
42.3621085
40
0.5106278
50
359.1949826
51
0.0020862
0
ARC
8
DEFAULT_255_2_778
10
16.547449
20
42.3480832
40
0.1541914
50
280.2616216
51
358.5297855
0
ARC
8
DEFAULT_255_2_778
10
16.5080075
20
42.460655
40
0.2726346
50
269.5969454
51
284.2065679
0
ARC
8
DEFAULT_255_2_778
10
16.4981883
20
42.4448788
40
0.2569732
50
246.5218562
51
271.7619895
0
ARC
8
DEFAULT_255_2_778
10
16.4527498
20
42.3369164
40
0.1398527
50
188.0764216
51
245.9747848
0
ARC
8
DEFAULT_255_2_778
10
16.4833113
20
42.3439608
40
0.1711218
50
179.9443312
51
188.9740498
0
ARC
8
DEFAULT_255_2_778
10
16.4924507
20
42.3507849
40
0.3763411
50
178.2272621
51
205.8283807
0
ARC
8
DEFAULT_255_2_778
10
16.4132476
20
42.3330833
40
0.2979176
50
209.4028057
51
263.0375728
0
ARC
8
DEFAULT_255_2_778
10
16.5005111
20
42.7077629
40
0.6816586
50
259.5722942
51
270.4689037
0
ARC
8
DEFAULT_255_2_778
10
17.411252
20
42.7639767
40
0.1217154
50
2.0482843
51
87.015299
0
ARC
8
DEFAULT_255_2_778
10
17.4057913
20
42.7683868
40
0.1270984
50
353.0742102
51
359.9730821
0
ARC
8
DEFAULT_255_2_778
10
17.4111345
20
42.7651717
40
0.1214332
50
270.7420557
51
354.2761882
0
ARC
8
DEFAULT_255_2_778
10
17.4065072
20
42.8017509
40
0.1581238
50
269.9936646
51
272.2471507
0
ARC
8
DEFAULT_255_2_778
10
17.414084
20
42.3505295
40
0.1400686
50
358.2807293
51
95.6106825
0
ARC
8
DEFAULT_255_2_778
10
17.4103233
20
42.3466963
40
0.1437669
50
266.9962473
51
359.8528392
0
ARC
8
DEFAULT_255_2_778
10
17.4725249
20
42.3869988
40
0.3335288
50
268.2414507
51
302.0223478
0
ARC
8
DEFAULT_255_2_778
10
17.5091261
20
42.311683
40
0.2504234
50
304.0600275
51
2.0468005
0
ARC
8
DEFAULT_255_2_778
10
17.4832788
20
42.3183521
40
0.2761203
50
0.4720601
51
65.8403529
0
ARC
8
DEFAULT_255_2_778
10
17.5191655
20
42.3831061
40
0.2024466
50
67.606893
51
75.8693222
0
ARC
8
DEFAULT_255_2_778
10
17.5042026
20
42.790722
40
0.2208874
50
286.9473417
51
358.0074963
0
ARC
8
DEFAULT_255_2_778
10
17.4710866
20
42.7995045
40
0.2544031
50
356.2897886
51
0.0050857
0
ARC
8
DEFAULT_255_2_778
10
17.497262
20
42.8045946
40
0.2282839
50
358.7280137
51
81.8073164
0
ARC
8
DEFAULT_255_2_778
10
17.4216369
20
42.5531283
40
0.4895182
50
77.2355086
51
90.5088275
0
ARC
8
DEFAULT_255_2_778
10
17.5842747
20
41.5885989
40
0.1302704
50
89.9972707
51
92.6773048
0
ARC
8
DEFAULT_255_2_778
10
17.5844071
20
41.58937
40
0.1294993
50
45.0546048
51
90.0558451
0
ARC
8
DEFAULT_255_2_778
10
17.5844118
20
41.589219
40
0.1296029
50
0.001866
51
45.1031959
0
ARC
8
DEFAULT_255_2_778
10
17.5845123
20
41.5892202
40
0.1295026
50
357.4803735
51
0.0013544
0
ARC
8
DEFAULT_255_2_778
10
17.5901979
20
41.5853512
40
0.1237052
50
339.8672523
51
359.1550732
0
ARC
8
DEFAULT_255_2_778
10
17.5794513
20
41.5825079
40
0.1329691
50
272.0853006
51
342.6124646
0
ARC
8
DEFAULT_255_2_778
10
17.6596145
20
41.6207661
40
0.2575135
50
286.787355
51
290.6121696
0
ARC
8
DEFAULT_255_2_778
10
17.6689461
20
41.6064533
40
0.24086
50
289.7330405
51
342.3216972
0
ARC
8
DEFAULT_255_2_778
10
17.641261
20
41.6112954
40
0.268735
50
343.130572
51
0.3905272
0
ARC
8
DEFAULT_255_2_778
10
17.6578783
20
41.6286767
40
0.2525904
50
356.4706028
51
80.1788963
0
ARC
8
DEFAULT_255_2_778
10
17.5921649
20
41.4017163
40
0.4881286
50
77.1212301
51
90.4900821
0
ARC
8
DEFAULT_255_2_778
10
17.5166337
20
41.104036
40
0.1865405
50
50.1507009
51
92.9634648
0
ARC
8
DEFAULT_255_2_778
10
17.5301354
20
41.1323678
40
0.1563319
50
12.621233
51
47.2950617
0
ARC
8
DEFAULT_255_2_778
10
16.8485884
20
40.9994726
40
0.8506657
50
2.8173892
51
11.3253986
0
ARC
8
DEFAULT_255_2_778
10
-29.2295733
20
37.5031175
40
47.060992
50
4.3048394
51
4.3117143
0
ARC
8
DEFAULT_255_2_778
10
18.5500859
20
41.075584
40
0.8523717
50
182.6850102
51
191.2954256
0
ARC
8
DEFAULT_255_2_778
10
17.9656837
20
40.9692399
40
0.2586603
50
193.5512904
51
195.3825538
0
ARC
8
DEFAULT_255_2_778
10
19.3507425
20
41.2281408
40
1.4700994
50
182.6283124
51
192.8725697
0
ARC
8
DEFAULT_255_2_778
10
17.6207606
20
41.1552215
40
0.261487
50
1.2064311
51
30.4123358
0
ARC
8
DEFAULT_255_2_778
10
17.6663626
20
41.170276
40
0.2147766
50
33.1081154
51
71.7312197
0
LINE
8
DEFAULT_255_2_778
10
13.4657897
20
41.3348271
11
13.9385897
21
41.3348271
0
LINE
8
DEFAULT_255_2_778
10
13.9385897
20
41.3348271
11
13.9385897
21
41.5062271
0
LINE
8
DEFAULT_255_2_778
10
13.9385897
20
41.5062271
11
13.4657897
21
41.5062271
0
LINE
8
DEFAULT_255_2_778
10
13.4657897
20
41.5062271
11
13.4657897
21
41.7171271
0
LINE
8
DEFAULT_255_2_778
10
13.4657897
20
41.7171271
11
13.9977897
21
41.7171271
0
LINE
8
DEFAULT_255_2_778
10
13.9977897
20
41.7171271
11
13.9977897
21
41.8885271
0
LINE
8
DEFAULT_255_2_778
10
13.9977897
20
41.8885271
11
13.4657897
21
41.8885271
0
LINE
8
DEFAULT_255_2_778
10
13.4657897
20
41.8885271
11
13.2651897
21
41.8885271
0
LINE
8
DEFAULT_255_2_778
10
13.2651897
20
41.8885271
11
13.2651897
21
41.7171271
0
LINE
8
DEFAULT_255_2_778
10
13.2651897
20
41.7171271
11
13.2651897
21
41.0707271
0
LINE
8
DEFAULT_255_2_778
10
13.2651897
20
41.0707271
11
13.2651897
21
40.8992271
0
LINE
8
DEFAULT_255_2_778
10
13.2651897
20
40.8992271
11
13.4657897
21
40.8992271
0
LINE
8
DEFAULT_255_2_778
10
13.4657897
20
40.8992271
11
14.0118897
21
40.8992271
0
LINE
8
DEFAULT_255_2_778
10
14.0118897
20
40.8992271
11
14.0118897
21
41.0707271
0
LINE
8
DEFAULT_255_2_778
10
14.0118897
20
41.0707271
11
13.4657897
21
41.0707271
0
LINE
8
DEFAULT_255_2_778
10
13.4657897
20
41.0707271
11
13.4657897
21
41.3345271
0
LINE
8
DEFAULT_255_2_778
10
13.4657897
20
41.3345271
11
13.4657897
21
41.3348271
0
LINE
8
DEFAULT_255_2_778
10
13.4519897
20
42.7889271
11
13.6620897
21
42.0536271
0
LINE
8
DEFAULT_255_2_778
10
13.6620897
20
42.0536271
11
13.6704897
21
42.0536271
0
LINE
8
DEFAULT_255_2_778
10
13.6704897
20
42.0536271
11
13.8464897
21
42.0536271
0
LINE
8
DEFAULT_255_2_778
10
13.8464897
20
42.0536271
11
13.8546897
21
42.0536271
0
LINE
8
DEFAULT_255_2_778
10
13.8546897
20
42.0536271
11
14.0647897
21
42.7889271
0
LINE
8
DEFAULT_255_2_778
10
14.0647897
20
42.7889271
11
14.0647897
21
42.0536271
0
LINE
8
DEFAULT_255_2_778
10
14.0647897
20
42.0536271
11
14.2515897
21
42.0536271
0
LINE
8
DEFAULT_255_2_778
10
14.2515897
20
42.0536271
11
14.2515897
21
43.0429271
0
LINE
8
DEFAULT_255_2_778
10
14.2515897
20
43.0429271
11
14.1496897
21
43.0429271
0
LINE
8
DEFAULT_255_2_778
10
14.1496897
20
43.0429271
11
14.0615897
21
43.0429271
0
LINE
8
DEFAULT_255_2_778
10
14.0615897
20
43.0429271
11
13.9655897
21
43.0429271
0
LINE
8
DEFAULT_255_2_778
10
13.9655897
20
43.0429271
11
13.7583897
21
42.3486271
0
LINE
8
DEFAULT_255_2_778
10
13.7583897
20
42.3486271
11
13.5511897
21
43.0429271
0
LINE
8
DEFAULT_255_2_778
10
13.5511897
20
43.0429271
11
13.4551897
21
43.0429271
0
LINE
8
DEFAULT_255_2_778
10
13.4551897
20
43.0429271
11
13.3670897
21
43.0429271
0
LINE
8
DEFAULT_255_2_778
10
13.3670897
20
43.0429271
11
13.2651897
21
43.0429271
0
LINE
8
DEFAULT_255_2_778
10
13.2651897
20
43.0429271
11
13.2651897
21
42.0536271
0
LINE
8
DEFAULT_255_2_778
10
13.2651897
20
42.0536271
11
13.4519897
21
42.0536271
0
LINE
8
DEFAULT_255_2_778
10
13.4519897
20
42.0536271
11
13.4519897
21
42.7889271
0
LINE
8
DEFAULT_255_2_778
10
13.4519897
20
42.7889271
11
13.4519897
21
42.7889271
0
LINE
8
DEFAULT_255_2_778
10
18.0056897
20
43.0429271
11
17.8064897
21
43.0429271
0
LINE
8
DEFAULT_255_2_778
10
17.8064897
20
43.0429271
11
17.8064897
21
42.0536271
0
LINE
8
DEFAULT_255_2_778
10
17.8064897
20
42.0536271
11
18.0056897
21
42.0536271
0
LINE
8
DEFAULT_255_2_778
10
18.0056897
20
42.0536271
11
18.0056897
21
43.0429271
0
LINE
8
DEFAULT_255_2_778
10
18.0056897
20
43.0429271
11
18.0056897
21
43.0429271
0
LINE
8
DEFAULT_255_2_778
10
18.1681897
20
41.8888271
11
17.9689897
21
41.8888271
0
LINE
8
DEFAULT_255_2_778
10
17.9689897
20
41.8888271
11
17.9689897
21
40.8995271
0
LINE
8
DEFAULT_255_2_778
10
17.9689897
20
40.8995271
11
18.1681897
21
40.8995271
0
LINE
8
DEFAULT_255_2_778
10
18.1681897
20
40.8995271
11
18.1681897
21
41.8888271
0
LINE
8
DEFAULT_255_2_778
10
18.1681897
20
41.8888271
11
18.1681897
21
41.8888271
0
LINE
8
DEFAULT_255_2_778
10
19.9765897
20
43.0429271
11
19.7773897
21
43.0429271
0
LINE
8
DEFAULT_255_2_778
10
19.7773897
20
43.0429271
11
19.7773897
21
42.0536271
0
LINE
8
DEFAULT_255_2_778
10
19.7773897
20
42.0536271
11
19.9765897
21
42.0536271
0
LINE
8
DEFAULT_255_2_778
10
19.9765897
20
42.0536271
11
19.9765897
21
43.0429271
0
LINE
8
DEFAULT_255_2_778
10
19.9765897
20
43.0429271
11
19.9765897
21
43.0429271
0
LINE
8
DEFAULT_255_2_778
10
14.5298897
20
43.0429271
11
14.3306897
21
43.0429271
0
LINE
8
DEFAULT_255_2_778
10
14.3306897
20
43.0429271
11
14.3306897
21
42.0536271
0
LINE
8
DEFAULT_255_2_778
10
14.3306897
20
42.0536271
11
14.5298897
21
42.0536271
0
LINE
8
DEFAULT_255_2_778
10
14.5298897
20
42.0536271
11
14.5298897
21
43.0429271
0
LINE
8
DEFAULT_255_2_778
10
14.5298897
20
43.0429271
11
14.5298897
21
43.0429271
0
LINE
8
DEFAULT_255_2_778
10
19.4989897
20
42.6569271
11
19.1029897
21
42.6569271
0
LINE
8
DEFAULT_255_2_778
10
19.1029897
20
42.6569271
11
19.1029897
21
43.0426271
0
LINE
8
DEFAULT_255_2_778
10
19.1029897
20
43.0426271
11
18.9068897
21
43.0426271
0
LINE
8
DEFAULT_255_2_778
10
18.9068897
20
43.0426271
11
18.9068897
21
42.0536271
0
LINE
8
DEFAULT_255_2_778
10
18.9068897
20
42.0536271
11
19.1029897
21
42.0536271
0
LINE
8
DEFAULT_255_2_778
10
19.1029897
20
42.0536271
11
19.1029897
21
42.4854271
0
LINE
8
DEFAULT_255_2_778
10
19.1029897
20
42.4854271
11
19.4989897
21
42.4854271
0
LINE
8
DEFAULT_255_2_778
10
19.4989897
20
42.4854271
11
19.4989897
21
42.0536271
0
LINE
8
DEFAULT_255_2_778
10
19.4989897
20
42.0536271
11
19.6950897
21
42.0536271
0
LINE
8
DEFAULT_255_2_778
10
19.6950897
20
42.0536271
11
19.6950897
21
43.0426271
0
LINE
8
DEFAULT_255_2_778
10
19.6950897
20
43.0426271
11
19.4989897
21
43.0426271
0
LINE
8
DEFAULT_255_2_778
10
19.4989897
20
43.0426271
11
19.4989897
21
42.6569271
0
LINE
8
DEFAULT_255_2_778
10
19.4989897
20
42.6569271
11
19.4989897
21
42.6569271
0
LINE
8
DEFAULT_255_2_778
10
14.8246897
20
42.0536271
11
15.0280897
21
42.0536271
0
LINE
8
DEFAULT_255_2_778
10
15.0280897
20
42.0536271
11
15.0280897
21
42.8715271
0
LINE
8
DEFAULT_255_2_778
10
15.0280897
20
42.8715271
11
15.2696897
21
42.8715271
0
LINE
8
DEFAULT_255_2_778
10
15.2696897
20
42.8715271
11
15.2696897
21
43.0429271
0
LINE
8
DEFAULT_255_2_778
10
15.2696897
20
43.0429271
11
15.0280897
21
43.0429271
0
LINE
8
DEFAULT_255_2_778
10
15.0280897
20
43.0429271
11
14.8246897
21
43.0429271
0
LINE
8
DEFAULT_255_2_778
10
14.8246897
20
43.0429271
11
14.5830897
21
43.0429271
0
LINE
8
DEFAULT_255_2_778
10
14.5830897
20
43.0429271
11
14.5830897
21
42.8715271
0
LINE
8
DEFAULT_255_2_778
10
14.5830897
20
42.8715271
11
14.8246897
21
42.8715271
0
LINE
8
DEFAULT_255_2_778
10
14.8246897
20
42.8715271
11
14.8246897
21
42.0536271
0
LINE
8
DEFAULT_255_2_778
10
14.8246897
20
42.0536271
11
14.8246897
21
42.0536271
0
LINE
8
DEFAULT_255_2_778
10
16.6422897
20
40.8995271
11
16.8454897
21
40.8995271
0
LINE
8
DEFAULT_255_2_778
10
16.8454897
20
40.8995271
11
16.8454897
21
41.7173271
0
LINE
8
DEFAULT_255_2_778
10
16.8454897
20
41.7173271
11
17.0873897
21
41.7173271
0
LINE
8
DEFAULT_255_2_778
10
17.0873897
20
41.7173271
11
17.0873897
21
41.8891271
0
LINE
8
DEFAULT_255_2_778
10
17.0873897
20
41.8891271
11
16.8454897
21
41.8891271
0
LINE
8
DEFAULT_255_2_778
10
16.8454897
20
41.8891271
11
16.6422897
21
41.8891271
0
LINE
8
DEFAULT_255_2_778
10
16.6422897
20
41.8891271
11
16.4004897
21
41.8891271
0
LINE
8
DEFAULT_255_2_778
10
16.4004897
20
41.8891271
11
16.4004897
21
41.7173271
0
LINE
8
DEFAULT_255_2_778
10
16.4004897
20
41.7173271
11
16.6422897
21
41.7173271
0
LINE
8
DEFAULT_255_2_778
10
16.6422897
20
41.7173271
11
16.6422897
21
40.8995271
0
LINE
8
DEFAULT_255_2_778
10
16.6422897
20
40.8995271
11
16.6422897
21
40.8995271
0
LINE
8
DEFAULT_255_2_778
10
16.9007897
20
42.3621271
11
16.9007897
21
43.0426271
0
LINE
8
DEFAULT_255_2_778
10
16.9007897
20
43.0426271
11
16.7015897
21
43.0426271
0
LINE
8
DEFAULT_255_2_778
10
16.7015897
20
43.0426271
11
16.7015897
21
42.3441271
0
LINE
8
DEFAULT_255_2_778
10
16.3121897
20
42.3441271
11
16.3121897
21
43.0426271
0
LINE
8
DEFAULT_255_2_778
10
16.3121897
20
43.0426271
11
16.1162897
21
43.0426271
0
LINE
8
DEFAULT_255_2_778
10
16.1162897
20
43.0426271
11
16.1162897
21
42.3624271
0
LINE
8
DEFAULT_255_2_778
10
15.0000897
20
41.3348271
11
15.4730897
21
41.3348271
0
LINE
8
DEFAULT_255_2_778
10
15.4730897
20
41.3348271
11
15.4730897
21
41.5062271
0
LINE
8
DEFAULT_255_2_778
10
15.4730897
20
41.5062271
11
15.0000897
21
41.5062271
0
LINE
8
DEFAULT_255_2_778
10
15.0000897
20
41.5062271
11
15.0000897
21
41.7171271
0
LINE
8
DEFAULT_255_2_778
10
15.0000897
20
41.7171271
11
15.5321897
21
41.7171271
0
LINE
8
DEFAULT_255_2_778
10
15.5321897
20
41.7171271
11
15.5321897
21
41.8885271
0
LINE
8
DEFAULT_255_2_778
10
15.5321897
20
41.8885271
11
15.0000897
21
41.8885271
0
LINE
8
DEFAULT_255_2_778
10
15.0000897
20
41.8885271
11
14.7997897
21
41.8885271
0
LINE
8
DEFAULT_255_2_778
10
14.7997897
20
41.8885271
11
14.7997897
21
41.7171271
0
LINE
8
DEFAULT_255_2_778
10
14.7997897
20
41.7171271
11
14.7997897
21
41.0707271
0
LINE
8
DEFAULT_255_2_778
10
14.7997897
20
41.0707271
11
14.7997897
21
40.8992271
0
LINE
8
DEFAULT_255_2_778
10
14.7997897
20
40.8992271
11
15.0000897
21
40.8992271
0
LINE
8
DEFAULT_255_2_778
10
15.0000897
20
40.8992271
11
15.5461897
21
40.8992271
0
LINE
8
DEFAULT_255_2_778
10
15.5461897
20
40.8992271
11
15.5461897
21
41.0707271
0
LINE
8
DEFAULT_255_2_778
10
15.5461897
20
41.0707271
11
15.0000897
21
41.0707271
0
LINE
8
DEFAULT_255_2_778
10
15.0000897
20
41.0707271
11
15.0000897
21
41.3345271
0
LINE
8
DEFAULT_255_2_778
10
15.0000897
20
41.3345271
11
15.0000897
21
41.3348271
0
LINE
8
DEFAULT_255_2_778
10
17.4064897
20
42.6436271
11
17.1690897
21
42.6436271
0
LINE
8
DEFAULT_255_2_778
10
17.1690897
20
42.6436271
11
17.1690897
21
42.8852271
0
LINE
8
DEFAULT_255_2_778
10
17.1690897
20
42.8852271
11
17.4175897
21
42.8852271
0
LINE
8
DEFAULT_255_2_778
10
17.4175897
20
42.8852271
11
17.4175897
21
42.8855271
0
LINE
8
DEFAULT_255_2_778
10
17.4027897
20
42.2028271
11
17.1690897
21
42.2028271
0
LINE
8
DEFAULT_255_2_778
10
17.1690897
20
42.2028271
11
17.1690897
21
42.4899271
0
LINE
8
DEFAULT_255_2_778
10
17.1690897
20
42.4899271
11
17.4003897
21
42.4899271
0
LINE
8
DEFAULT_255_2_778
10
17.1767897
20
42.0536271
11
17.4622897
21
42.0536271
0
LINE
8
DEFAULT_255_2_778
10
17.4172897
20
43.0426271
11
17.1770897
21
43.0426271
0
LINE
8
DEFAULT_255_2_778
10
17.1770897
20
43.0426271
11
16.9722897
21
43.0426271
0
LINE
8
DEFAULT_255_2_778
10
16.9722897
20
43.0426271
11
16.9711897
21
43.0426271
0
LINE
8
DEFAULT_255_2_778
10
16.9711897
20
43.0426271
11
16.9711897
21
42.0536271
0
LINE
8
DEFAULT_255_2_778
10
16.9711897
20
42.0536271
11
16.9722897
21
42.0536271
0
LINE
8
DEFAULT_255_2_778
10
16.9722897
20
42.0536271
11
17.1770897
21
42.0536271
0
LINE
8
DEFAULT_255_2_778
10
17.1770897
20
42.0536271
11
17.1767897
21
42.0536271
0
LINE
8
DEFAULT_255_2_778
10
17.3368897
20
41.4493271
11
17.3368897
21
41.7187271
0
LINE
8
DEFAULT_255_2_778
10
17.3368897
20
41.7187271
11
17.5781897
21
41.7187271
0
LINE
8
DEFAULT_255_2_778
10
17.5842897
20
41.4496271
11
17.3370897
21
41.4496271
0
LINE
8
DEFAULT_255_2_778
10
17.3370897
20
41.4496271
11
17.3368897
21
41.4493271
0
LINE
8
DEFAULT_255_2_778
10
17.5879897
20
41.8898271
11
17.3368897
21
41.8898271
0
LINE
8
DEFAULT_255_2_778
10
17.3368897
20
41.8898271
11
17.1383897
21
41.8898271
0
LINE
8
DEFAULT_255_2_778
10
17.1383897
20
41.8898271
11
17.1362897
21
41.8898271
0
LINE
8
DEFAULT_255_2_778
10
17.1362897
20
41.8898271
11
17.1362897
21
40.9006271
0
LINE
8
DEFAULT_255_2_778
10
17.1362897
20
40.9006271
11
17.3368897
21
40.9006271
0
LINE
8
DEFAULT_255_2_778
10
17.3368897
20
40.9006271
11
17.3368897
21
41.2903271
0
LINE
8
DEFAULT_255_2_778
10
17.3368897
20
41.2903271
11
17.5069897
21
41.2903271
0
LINE
8
DEFAULT_255_2_778
10
17.7162897
20
40.9006271
11
17.9175897
21
40.9006271
0
LINE
8
DEFAULT_255_2_778
10
14.2763897
20
41.8888271
11
14.0760897
21
41.8888271
0
LINE
8
DEFAULT_255_2_778
10
14.0760897
20
41.8888271
11
14.0760897
21
41.0710271
0
LINE
8
DEFAULT_255_2_778
10
14.0760897
20
41.0710271
11
14.0760897
21
40.8995271
0
LINE
8
DEFAULT_255_2_778
10
14.0760897
20
40.8995271
11
14.2763897
21
40.8995271
0
LINE
8
DEFAULT_255_2_778
10
14.2763897
20
40.8995271
11
14.7428897
21
40.8995271
0
LINE
8
DEFAULT_255_2_778
10
14.7428897
20
40.8995271
11
14.7428897
21
41.0710271
0
LINE
8
DEFAULT_255_2_778
10
14.7428897
20
41.0710271
11
14.2763897
21
41.0710271
0
LINE
8
DEFAULT_255_2_778
10
14.2763897
20
41.0710271
11
14.2763897
21
41.8888271
0
LINE
8
DEFAULT_255_2_778
10
14.2763897
20
41.8888271
11
14.2763897
21
41.8888271
0
ARC
8
DEFAULT_255_2_778
10
15.4584271
20
41.5146969
40
0.9681224
50
72.4822103
51
81.3184214
0
ARC
8
DEFAULT_255_2_778
10
15.7160297
20
42.2913918
40
0.1503783
50
28.8883513
51
77.0092434
0
ARC
8
DEFAULT_255_2_778
10
15.7432379
20
42.3203196
40
0.113238
50
358.9917455
51
22.7117017
0
ARC
8
DEFAULT_255_2_778
10
15.7394861
20
42.3244918
40
0.1171346
50
289.2958104
51
356.9831562
0
ARC
8
DEFAULT_255_2_778
10
15.6668261
20
42.4819882
40
0.2902651
50
268.4665462
51
292.5613311
0
ARC
8
DEFAULT_255_2_778
10
15.6496856
20
42.4229179
40
0.2312808
50
236.4956947
51
272.3225735
0
ARC
8
DEFAULT_255_2_778
10
15.6106646
20
42.3546839
40
0.1529307
50
178.9722202
51
234.5742435
0
ARC
8
DEFAULT_255_2_778
10
15.5656113
20
42.3451079
40
0.3002058
50
177.6481608
51
245.5596397
0
ARC
8
DEFAULT_255_2_778
10
15.6409971
20
42.5173561
40
0.488217
50
245.8690375
51
267.169035
0
ARC
8
DEFAULT_255_2_778
10
15.6671503
20
42.7683916
40
0.7403648
50
266.1069867
51
270.0547972
0
ARC
8
DEFAULT_255_2_778
10
15.6772894
20
42.5996135
40
0.5716642
50
269.0547216
51
287.7147747
0
ARC
8
DEFAULT_255_2_778
10
15.7598889
20
42.3539091
40
0.3125017
50
286.995984
51
325.1221533
0
ARC
8
DEFAULT_255_2_778
10
15.7678294
20
42.337361
40
0.2966627
50
326.8673922
51
0.8625726
0
ARC
8
DEFAULT_255_2_778
10
15.7898286
20
42.3459409
40
0.2746606
50
359.1417932
51
76.9739731
0
ARC
8
DEFAULT_255_2_778
10
15.6705461
20
42.0650719
40
0.577616
50
71.7185727
51
79.1315439
0
ARC
8
DEFAULT_255_2_778
10
14.2492968
20
34.711467
40
8.0673056
50
79.0662148
51
79.6216572
0
ARC
8
DEFAULT_255_2_778
10
16.4356585
20
46.5891581
40
4.0099443
50
259.1227669
51
259.4665204
0
ARC
8
DEFAULT_255_2_778
10
15.7836732
20
43.2941142
40
0.6513291
50
249.9945768
51
260.7485895
0
ARC
8
DEFAULT_255_2_778
10
15.5880401
20
42.7830999
40
0.1046098
50
178.6705173
51
254.9333545
0
ARC
8
DEFAULT_255_2_778
10
15.6049957
20
42.7796688
40
0.1216785
50
93.288632
51
177.2403935
0
ARC
8
DEFAULT_255_2_778
10
15.6585677
20
42.5926752
40
0.3143588
50
89.6189463
51
101.1057977
0
ARC
8
DEFAULT_255_2_778
10
15.6722733
20
42.704516
40
0.2028439
50
53.5634072
51
93.2825843
0
ARC
8
DEFAULT_255_2_778
10
15.7018505
20
42.7627144
40
0.1388739
50
357.1985816
51
49.1152298
0
ARC
8
DEFAULT_255_2_778
10
15.7254907
20
42.7559274
40
0.3087677
50
359.9999335
51
2.3703878
0
ARC
8
DEFAULT_255_2_778
10
15.7353555
20
42.7574337
40
0.298851
50
2.1600756
51
60.1092229
0
ARC
8
DEFAULT_255_2_778
10
15.6766212
20
42.6508133
40
0.4205645
50
60.4106856
51
86.1444419
0
ARC
8
DEFAULT_255_2_778
10
15.6536151
20
42.4741228
40
0.5985046
50
85.0843314
51
90.0628677
0
ARC
8
DEFAULT_255_2_778
10
15.6529718
20
42.5975466
40
0.4750804
50
90.001616
51
92.2300394
0
ARC
8
DEFAULT_255_2_778
10
15.6281193
20
42.702687
40
0.3696351
50
89.0131319
51
149.6364996
0
ARC
8
DEFAULT_255_2_778
10
15.5505461
20
42.7749055
40
0.2671974
50
154.5962367
51
180.4885883
0
ARC
8
DEFAULT_255_2_778
10
15.5651524
20
42.773384
40
0.281795
50
180.1539064
51
255.1120325
0
ARC
8
DEFAULT_255_2_778
10
15.7094242
20
43.096232
40
0.6333958
50
249.9962237
51
260.4976723
0
ARC
8
DEFAULT_255_2_778
10
18.2470963
20
41.5158351
40
0.967002
50
72.4685023
51
81.3064395
0
ARC
8
DEFAULT_255_2_778
10
18.5045397
20
42.291427
40
0.1503535
50
28.8782248
51
76.9904304
0
ARC
8
DEFAULT_255_2_778
10
18.5317197
20
42.3203189
40
0.1132561
50
358.9922779
51
22.7082666
0
ARC
8
DEFAULT_255_2_778
10
18.5280402
20
42.3244088
40
0.1170763
50
289.2761556
51
357.0223042
0
ARC
8
DEFAULT_255_2_778
10
18.4553612
20
42.4822836
40
0.2905613
50
268.4611814
51
292.5289055
0
ARC
8
DEFAULT_255_2_778
10
18.4381801
20
42.4238175
40
0.2321799
50
236.6698634
51
272.3149402
0
ARC
8
DEFAULT_255_2_778
10
18.39878
20
42.3546762
40
0.1528464
50
178.9687581
51
234.7686008
0
ARC
8
DEFAULT_255_2_778
10
18.3540113
20
42.3451079
40
0.3002058
50
177.6481608
51
245.5596397
0
ARC
8
DEFAULT_255_2_778
10
18.4293971
20
42.5173561
40
0.488217
50
245.8690375
51
267.169035
0
ARC
8
DEFAULT_255_2_778
10
18.4555503
20
42.7683916
40
0.7403648
50
266.1069867
51
270.0547972
0
ARC
8
DEFAULT_255_2_778
10
18.4656836
20
42.6002451
40
0.5722957
50
269.0563423
51
287.7048702
0
ARC
8
DEFAULT_255_2_778
10
18.548344
20
42.3542682
40
0.312856
50
286.9832601
51
325.0871916
0
ARC
8
DEFAULT_255_2_778
10
18.5567708
20
42.3373856
40
0.2964208
50
326.8311942
51
0.8585267
0
ARC
8
DEFAULT_255_2_778
10
18.5785756
20
42.3460282
40
0.2746149
50
359.1234265
51
76.9343785
0
ARC
8
DEFAULT_255_2_778
10
18.4596421
20
42.0661965
40
0.5764934
50
71.6999697
51
79.1198353
0
ARC
8
DEFAULT_255_2_778
10
17.0173657
20
34.5894392
40
8.1910887
50
79.0843627
51
79.6321368
0
ARC
8
DEFAULT_255_2_778
10
19.2200266
20
46.5689177
40
3.9892176
50
259.1314419
51
259.4772924
0
ARC
8
DEFAULT_255_2_778
10
18.5723251
20
43.2935131
40
0.6507003
50
249.9919323
51
260.7592458
0
ARC
8
DEFAULT_255_2_778
10
18.376901
20
42.7830546
40
0.1045718
50
178.6452075
51
254.9151907
0
ARC
8
DEFAULT_255_2_778
10
18.3939581
20
42.7796016
40
0.121744
50
93.2745253
51
177.21023
0
ARC
8
DEFAULT_255_2_778
10
18.4475726
20
42.5925052
40
0.3145287
50
89.6200387
51
101.1027534
0
ARC
8
DEFAULT_255_2_778
10
18.4613489
20
42.7058453
40
0.2015212
50
53.1490002
51
93.3256649
0
ARC
8
DEFAULT_255_2_778
10
18.4902753
20
42.7626519
40
0.1391457
50
357.2298288
51
48.6469881
0
ARC
8
DEFAULT_255_2_778
10
18.5137232
20
42.7559226
40
0.3092351
50
0.0008291
51
2.3676985
0
ARC
8
DEFAULT_255_2_778
10
18.5240744
20
42.7574868
40
0.2988304
50
2.1500394
51
60.0956838
0
ARC
8
DEFAULT_255_2_778
10
18.4654399
20
42.6509909
40
0.4203859
50
60.40452
51
86.1455285
0
ARC
8
DEFAULT_255_2_778
10
18.4424157
20
42.4741686
40
0.5984588
50
85.0841409
51
90.0629301
0
ARC
8
DEFAULT_255_2_778
10
18.4417778
20
42.5971392
40
0.4754878
50
90.0023409
51
92.3231329
0
ARC
8
DEFAULT_255_2_778
10
18.4167555
20
42.7024604
40
0.3698206
50
89.1093915
51
149.6400816
0
ARC
8
DEFAULT_255_2_778
10
18.338761
20
42.7748917
40
0.2669122
50
154.6001925
51
180.486137
0
ARC
8
DEFAULT_255_2_778
10
18.3537607
20
42.7735152
40
0.2819037
50
180.1805176
51
255.132702
0
ARC
8
DEFAULT_255_2_778
10
18.4982264
20
43.0967784
40
0.6339516
50
250.0026216
51
260.4967164
0
ARC
8
DEFAULT_255_2_778
10
16.008917
20
41.3039283
40
0.2519711
50
190.2626864
51
267.3480013
0
ARC
8
DEFAULT_255_2_778
10
16.2443543
20
41.3952548
40
0.5022041
50
179.6723028
51
195.7380858
0
ARC
8
DEFAULT_255_2_778
10
16.1790511
20
41.4107671
40
0.4370755
50
148.7005643
51
181.6572045
0
ARC
8
DEFAULT_255_2_778
10
15.9957576
20
41.5208723
40
0.2232598
50
89.6148479
51
148.4074796
0
ARC
8
DEFAULT_255_2_778
10
16.0060936
20
41.542949
40
0.201372
50
41.9769772
51
92.5146611
0
ARC
8
DEFAULT_255_2_778
10
15.9522078
20
41.5052523
40
0.2667646
50
15.1848537
51
40.2549591
0
ARC
8
DEFAULT_255_2_778
10
16.028123
20
41.5155326
40
0.3935735
50
8.7091682
51
82.0550801
0
ARC
8
DEFAULT_255_2_778
10
15.9931241
20
41.3690871
40
0.543642
50
80.5350289
51
90.1544743
0
ARC
8
DEFAULT_255_2_778
10
15.9818804
20
41.4577192
40
0.4551129
50
88.7689246
51
119.6437418
0
ARC
8
DEFAULT_255_2_778
10
16.0077717
20
41.4614647
40
0.4653013
50
122.644121
51
173.3997839
0
ARC
8
DEFAULT_255_2_778
10
16.2711934
20
41.3971568
40
0.7351371
50
170.7798304
51
180.1348114
0
ARC
8
DEFAULT_255_2_778
10
16.1377257
20
41.3817615
40
0.6018225
50
178.6988735
51
210.5289552
0
ARC
8
DEFAULT_255_2_778
10
15.970325
20
41.2909953
40
0.4115783
50
211.4828222
51
265.8686737
0
ARC
8
DEFAULT_255_2_778
10
15.9909864
20
41.4157011
40
0.5375742
50
264.6297133
51
270.0503073
0
ARC
8
DEFAULT_255_2_778
10
16.0020995
20
41.3475749
40
0.4695684
50
268.7014824
51
300.1403067
0
ARC
8
DEFAULT_255_2_778
10
16.0350333
20
41.2691852
40
0.385394
50
301.7580058
51
353.77968
0
ARC
8
DEFAULT_255_2_778
10
16.0012256
20
41.2635219
40
0.2113379
50
268.8430278
51
350.1661143
0
ARC
8
DEFAULT_255_2_778
10
18.6896799
20
41.3038824
40
0.2519281
50
190.2538303
51
267.3332171
0
ARC
8
DEFAULT_255_2_778
10
18.9252249
20
41.3952581
40
0.5022746
50
179.672724
51
195.7362088
0
ARC
8
DEFAULT_255_2_778
10
18.8600432
20
41.4107917
40
0.4372682
50
148.7196987
51
181.6596982
0
ARC
8
DEFAULT_255_2_778
10
18.676443
20
41.5209906
40
0.2231415
50
89.6108896
51
148.4244661
0
ARC
8
DEFAULT_255_2_778
10
18.686876
20
41.542967
40
0.2013576
50
42.5913083
51
92.5383066
0
ARC
8
DEFAULT_255_2_778
10
18.6345542
20
41.5065973
40
0.2646316
50
15.0085433
51
40.7215892
0
ARC
8
DEFAULT_255_2_778
10
18.708623
20
41.5155326
40
0.3935735
50
8.7091682
51
82.0550801
0
ARC
8
DEFAULT_255_2_778
10
18.6736241
20
41.3690871
40
0.543642
50
80.5350289
51
90.1544743
0
ARC
8
DEFAULT_255_2_778
10
18.6623804
20
41.4577192
40
0.4551129
50
88.7689246
51
119.6437418
0
ARC
8
DEFAULT_255_2_778
10
18.6882717
20
41.4614647
40
0.4653013
50
122.644121
51
173.3997839
0
ARC
8
DEFAULT_255_2_778
10
18.9516934
20
41.3971568
40
0.7351371
50
170.7798304
51
180.1348114
0
ARC
8
DEFAULT_255_2_778
10
18.8177822
20
41.38182
40
0.6013778
50
178.7034849
51
210.5604279
0
ARC
8
DEFAULT_255_2_778
10
18.6511312
20
41.2913377
40
0.4119265
50
211.5090145
51
265.8592607
0
ARC
8
DEFAULT_255_2_778
10
18.6716883
20
41.4154521
40
0.5373252
50
264.628472
51
270.0501277
0
ARC
8
DEFAULT_255_2_778
10
18.682837
20
41.3473685
40
0.4693629
50
268.6963312
51
300.2191972
0
ARC
8
DEFAULT_255_2_778
10
18.7155684
20
41.2694124
40
0.3856821
50
301.8465101
51
353.7503927
0
ARC
8
DEFAULT_255_2_778
10
18.6820648
20
41.2633604
40
0.2111733
50
268.8857714
51
350.2028431
0
LINE
8
DEFAULT_255_2_778
10
15.4577584
20
42.3574271
11
15.2656584
21
42.3574271
0
LINE
8
DEFAULT_255_2_778
10
15.8405584
20
42.7559271
11
16.0342584
21
42.7559271
0
LINE
8
DEFAULT_255_2_778
10
18.2459584
20
42.3574271
11
18.0540584
21
42.3574271
0
LINE
8
DEFAULT_255_2_778
10
18.6292584
20
42.7559271
11
18.8229584
21
42.7559271
0
LINE
8
DEFAULT_255_2_778
10
16.2096584
20
41.5751271
11
16.4171584
21
41.5751271
0
LINE
8
DEFAULT_255_2_778
10
16.4181584
20
41.2274271
11
16.2094584
21
41.2274271
0
LINE
8
DEFAULT_255_2_778
10
18.8901584
20
41.5751271
11
19.0976584
21
41.5751271
0
LINE
8
DEFAULT_255_2_778
10
19.0989584
20
41.2274271
11
18.8901584
21
41.2274271
0
LINE
8
DEFAULT_255_1_234
10
11.7235657
20
38.9963565
11
11.7235657
21
38.9216614
0
LINE
8
DEFAULT_255_1_234
10
11.5187563
20
38.4381507
11
11.7275815
21
38.2743033
0
LINE
8
DEFAULT_255_1_234
10
11.7275815
20
38.2743033
11
11.6223658
21
38.1771192
0
LINE
8
DEFAULT_255_1_234
10
11.6223658
20
38.1771192
11
11.3757914
21
38.3730937
0
LINE
8
DEFAULT_255_1_234
10
10.7822459
20
38.9112201
11
10.7822459
21
38.9955534
0
LINE
8
DEFAULT_255_1_234
10
11.5693563
20
38.9104169
11
11.5693563
21
38.9971597
0
LINE
8
DEFAULT_255_1_234
10
10.9364553
20
39.007601
11
10.9364553
21
38.9216614
0
ARC
8
DEFAULT_255_1_234
10
10.8281909
20
38.9177707
40
0.8953833
50
351.453011
51
0.2489685
0
ARC
8
DEFAULT_255_1_234
10
11.0866709
20
38.8777933
40
0.6338333
50
338.6861641
51
351.5540711
0
ARC
8
DEFAULT_255_1_234
10
11.1800593
20
38.8447828
40
0.5348431
50
336.2887631
51
338.3442418
0
ARC
8
DEFAULT_255_1_234
10
11.2140215
20
38.8261698
40
0.4962747
50
321.1170344
51
336.6795229
0
ARC
8
DEFAULT_255_1_234
10
11.2772044
20
38.7775206
40
0.4165565
50
305.4419708
51
320.8705636
0
ARC
8
DEFAULT_255_1_234
10
11.2575514
20
38.8522707
40
0.4935497
50
271.6373023
51
283.8611969
0
ARC
8
DEFAULT_255_1_234
10
11.2537767
20
38.9178572
40
0.5592206
50
269.9930596
51
271.8318864
0
ARC
8
DEFAULT_255_1_234
10
11.250021
20
38.8370681
40
0.4784458
50
252.5219675
51
270.4416499
0
ARC
8
DEFAULT_255_1_234
10
11.2356469
20
38.7831592
40
0.422716
50
237.5352116
51
252.1857531
0
ARC
8
DEFAULT_255_1_234
10
11.2445665
20
38.7945363
40
0.4371052
50
209.063312
51
237.3492538
0
ARC
8
DEFAULT_255_1_234
10
11.3315513
20
38.8491685
40
0.5397041
50
205.1183774
51
209.6470015
0
ARC
8
DEFAULT_255_1_234
10
11.411255
20
38.882983
40
0.6262326
50
188.7215458
51
204.8240747
0
ARC
8
DEFAULT_255_1_234
10
11.6110078
20
38.9166067
40
0.8287794
50
180.3723947
51
188.9252049
0
ARC
8
DEFAULT_255_1_234
10
11.608283
20
38.9995402
40
0.8260467
50
169.5253763
51
180.2765336
0
ARC
8
DEFAULT_255_1_234
10
11.4180279
20
39.0345309
40
0.6326007
50
155.8315255
51
169.5089989
0
ARC
8
DEFAULT_255_1_234
10
11.289978
20
39.0939348
40
0.4914567
50
139.6258461
51
156.0379525
0
ARC
8
DEFAULT_255_1_234
10
11.2310113
20
39.1413799
40
0.4158054
50
122.6416387
51
139.3430715
0
ARC
8
DEFAULT_255_1_234
10
11.2410733
20
39.1230451
40
0.4366739
50
93.0223692
51
122.455762
0
ARC
8
DEFAULT_255_1_234
10
11.251873
20
39.0265709
40
0.5336137
50
89.975342
51
93.6341897
0
ARC
8
DEFAULT_255_1_234
10
11.2557616
20
39.0645375
40
0.4956606
50
73.9665422
51
90.4229648
0
ARC
8
DEFAULT_255_1_234
10
11.2741263
20
39.1360451
40
0.4218674
50
57.5178019
51
73.6813337
0
ARC
8
DEFAULT_255_1_234
10
11.2697046
20
39.1324462
40
0.4272816
50
28.7261108
51
57.2767933
0
ARC
8
DEFAULT_255_1_234
10
11.1786378
20
39.0761688
40
0.534218
50
24.2448911
51
29.3248482
0
ARC
8
DEFAULT_255_1_234
10
11.0860479
20
39.0378819
40
0.6343711
50
9.064382
51
23.9639114
0
ARC
8
DEFAULT_255_1_234
10
10.8604807
20
38.9999925
40
0.8630926
50
359.7586264
51
9.1891435
0
ARC
8
DEFAULT_255_1_234
10
10.7350287
20
39.0013343
40
0.834338
50
359.7133237
51
7.96545
0
ARC
8
DEFAULT_255_1_234
10
11.0312504
20
39.0440681
40
0.5350538
50
7.8291991
51
20.0421623
0
ARC
8
DEFAULT_255_1_234
10
11.1937067
20
39.1031606
40
0.3621841
50
20.0677553
51
35.9161685
0
ARC
8
DEFAULT_255_1_234
10
11.2712105
20
39.160767
40
0.2656263
50
35.6594382
51
85.1578074
0
ARC
8
DEFAULT_255_1_234
10
11.2527361
20
39.0492378
40
0.3784238
50
83.7959068
51
90.095906
0
ARC
8
DEFAULT_255_1_234
10
11.2484295
20
39.1225601
40
0.3051229
50
89.3102392
51
109.9889877
0
ARC
8
DEFAULT_255_1_234
10
11.2401778
20
39.1581433
40
0.2688988
50
110.9285147
51
143.9411762
0
ARC
8
DEFAULT_255_1_234
10
11.3332724
20
39.0869236
40
0.3860887
50
143.5289163
51
163.2980757
0
ARC
8
DEFAULT_255_1_234
10
11.5240545
20
39.0269433
40
0.5860659
50
163.0418846
51
174.3140048
0
ARC
8
DEFAULT_255_1_234
10
11.7644657
20
38.9991854
40
0.8280531
50
174.0509143
51
179.4176892
0
ARC
8
DEFAULT_255_1_234
10
11.7130992
20
38.9173634
40
0.7766558
50
179.6829237
51
188.9631324
0
ARC
8
DEFAULT_255_1_234
10
11.4460553
20
38.8738752
40
0.5060992
50
188.8100743
51
202.9300012
0
ARC
8
DEFAULT_255_1_234
10
11.3244182
20
38.8243855
40
0.3747967
50
203.2069261
51
215.7876482
0
ARC
8
DEFAULT_255_1_234
10
11.2395579
20
38.7572671
40
0.2667526
50
214.7521006
51
264.2834488
0
ARC
8
DEFAULT_255_1_234
10
11.2531234
20
38.842778
40
0.3532247
50
263.4755397
51
270.0949833
0
ARC
8
DEFAULT_255_1_234
10
11.2573345
20
38.8166374
40
0.3271036
50
269.3649385
51
287.5152008
0
ARC
8
DEFAULT_255_1_234
10
11.2751503
20
38.7519238
40
0.2600406
50
288.0630309
51
323.8113348
0
ARC
8
DEFAULT_255_1_234
10
11.1880345
20
38.8169049
40
0.3687189
50
323.6547608
51
342.6590488
0
ARC
8
DEFAULT_255_1_234
10
10.984896
20
38.8829952
40
0.5823286
50
342.4091907
51
353.6451149
0
ARC
8
DEFAULT_255_1_234
10
10.7017471
20
38.918219
40
0.8676442
50
353.4029884
51
359.4847795
0
LINE
8
DEFAULT_255_1_234
10
12.6544441
20
38.9321026
11
12.6544441
21
38.8108234
0
LINE
8
DEFAULT_255_1_234
10
12.6544441
20
38.8108234
11
12.2624953
21
38.8108234
0
LINE
8
DEFAULT_255_1_234
10
12.2624953
20
38.8108234
11
12.2624953
21
38.9321026
0
LINE
8
DEFAULT_255_1_234
10
12.2624953
20
38.9321026
11
12.6544441
21
38.9321026
0
LINE
8
DEFAULT_255_1_234
10
14.0053825
20
39.2059849
11
13.85037
21
39.2059849
0
LINE
8
DEFAULT_255_1_234
10
13.1580341
20
38.7136394
11
13.3130467
21
38.7136394
0
ARC
8
DEFAULT_255_1_234
10
13.9162513
20
40.1006768
40
1.252368
50
248.9199003
51
254.1439814
0
ARC
8
DEFAULT_255_1_234
10
13.7482007
20
39.6680234
40
0.788226
50
241.633709
51
249.0064503
0
ARC
8
DEFAULT_255_1_234
10
13.5953402
20
39.3879317
40
0.4691427
50
230.498225
51
241.8087113
0
ARC
8
DEFAULT_255_1_234
10
13.5168976
20
39.2879906
40
0.3421437
50
227.4064532
51
229.9881192
0
ARC
8
DEFAULT_255_1_234
10
13.4681497
20
39.2404088
40
0.2741476
50
200.6781896
51
228.1763934
0
ARC
8
DEFAULT_255_1_234
10
13.4753807
20
39.2389077
40
0.2804109
50
179.5061581
51
199.8694617
0
ARC
8
DEFAULT_255_1_234
10
13.4744559
20
39.246321
40
0.2795204
50
132.4834203
51
181.0242172
0
ARC
8
DEFAULT_255_1_234
10
13.5340141
20
39.1900704
40
0.3612768
50
129.2532479
51
133.4242687
0
ARC
8
DEFAULT_255_1_234
10
13.5486591
20
39.1680965
40
0.3875675
50
101.98776
51
128.8742646
0
ARC
8
DEFAULT_255_1_234
10
13.5885202
20
38.9959741
40
0.5642249
50
89.5906553
51
102.3169264
0
ARC
8
DEFAULT_255_1_234
10
13.5955694
20
39.0278148
40
0.5323783
50
77.2360837
51
90.3248275
0
ARC
8
DEFAULT_255_1_234
10
13.6162773
20
39.12454
40
0.4334697
50
63.837784
51
77.0809408
0
ARC
8
DEFAULT_255_1_234
10
13.6440535
20
39.1762911
40
0.3747796
50
45.9864267
51
64.1607727
0
ARC
8
DEFAULT_255_1_234
10
13.6701416
20
39.2060866
40
0.3352302
50
32.2747395
51
45.6547121
0
ARC
8
DEFAULT_255_1_234
10
13.6767857
20
39.207988
40
0.328603
50
359.6507365
51
32.6130309
0
ARC
8
DEFAULT_255_1_234
10
13.5824952
20
39.208466
40
0.2678863
50
359.469343
51
14.9832209
0
ARC
8
DEFAULT_255_1_234
10
13.6530014
20
39.2273539
40
0.1948938
50
14.9781179
51
48.2004265
0
ARC
8
DEFAULT_255_1_234
10
13.6365658
20
39.2066983
40
0.2212521
50
48.5927837
51
74.1241538
0
ARC
8
DEFAULT_255_1_234
10
13.6032148
20
39.0966248
40
0.3362561
50
73.7888341
51
86.6652678
0
ARC
8
DEFAULT_255_1_234
10
13.5929714
20
38.9758881
40
0.4573953
50
86.2640471
51
90.0526343
0
ARC
8
DEFAULT_255_1_234
10
13.5901426
20
39.0154192
40
0.4178709
50
89.6697524
51
99.2309573
0
ARC
8
DEFAULT_255_1_234
10
13.5658877
20
39.1598964
40
0.2713749
50
99.069534
51
113.7658566
0
ARC
8
DEFAULT_255_1_234
10
13.5385068
20
39.2244677
40
0.2012469
50
114.0401004
51
127.9850673
0
ARC
8
DEFAULT_255_1_234
10
13.5144632
20
39.254073
40
0.1631167
50
127.7287463
51
176.7105154
0
ARC
8
DEFAULT_255_1_234
10
13.5823349
20
39.2439693
40
0.2315392
50
175.1779447
51
180.0581938
0
ARC
8
DEFAULT_255_1_234
10
13.4980196
20
39.2427428
40
0.1472271
50
179.6142195
51
228.1246017
0
ARC
8
DEFAULT_255_1_234
10
13.5421865
20
39.2836308
40
0.2072299
50
226.5779593
51
230.8800004
0
ARC
8
DEFAULT_255_1_234
10
13.5892944
20
39.3461636
40
0.2854818
50
231.4635071
51
241.9260842
0
ARC
8
DEFAULT_255_1_234
10
13.7090122
20
39.56648
40
0.53622
50
241.7178533
51
248.3259551
0
ARC
8
DEFAULT_255_1_234
10
13.8475493
20
39.9097064
40
0.9063478
50
248.2007737
51
252.4528373
0
ARC
8
DEFAULT_255_1_234
10
13.9679218
20
40.2818441
40
1.2974635
50
252.3391078
51
254.3469452
0
ARC
8
DEFAULT_255_1_234
10
13.2136921
20
37.5841148
40
1.5037162
50
71.0197183
51
74.4087047
0
ARC
8
DEFAULT_255_1_234
10
13.3831606
20
38.0733111
40
0.9859993
50
66.1847285
51
71.086374
0
ARC
8
DEFAULT_255_1_234
10
13.5387918
20
38.42372
40
0.6025855
50
59.3536294
51
66.2691831
0
ARC
8
DEFAULT_255_1_234
10
13.6276571
20
38.5740609
40
0.4279449
50
49.1020879
51
59.3293958
0
ARC
8
DEFAULT_255_1_234
10
13.7095311
20
38.6673834
40
0.3038015
50
32.7919921
51
49.2505539
0
ARC
8
DEFAULT_255_1_234
10
13.7416401
20
38.6902191
40
0.264448
50
31.1181161
51
32.4005348
0
ARC
8
DEFAULT_255_1_234
10
13.7327938
20
38.6866779
40
0.2738556
50
8.1116974
51
30.7958831
0
ARC
8
DEFAULT_255_1_234
10
13.6517607
20
38.6728753
40
0.3560327
50
359.8389159
51
8.4706516
0
ARC
8
DEFAULT_255_1_234
10
13.7143398
20
38.6680137
40
0.2934776
50
337.4731098
51
0.7537279
0
ARC
8
DEFAULT_255_1_234
10
13.7322093
20
38.6660387
40
0.2762607
50
307.5917067
51
336.4315538
0
ARC
8
DEFAULT_255_1_234
10
13.6861921
20
38.7173102
40
0.3449979
50
307.6551545
51
308.4529766
0
ARC
8
DEFAULT_255_1_234
10
13.663164
20
38.752825
40
0.3871988
50
284.3734338
51
307.1424381
0
ARC
8
DEFAULT_255_1_234
10
13.613647
20
38.9349932
40
0.5759636
50
272.4382747
51
284.646547
0
ARC
8
DEFAULT_255_1_234
10
13.6009679
20
39.1149893
40
0.7563528
50
269.9708387
51
272.8178037
0
ARC
8
DEFAULT_255_1_234
10
13.5966718
20
38.9111716
40
0.5525489
50
248.2707594
51
270.4055579
0
ARC
8
DEFAULT_255_1_234
10
13.5912459
20
38.8921192
40
0.5328452
50
246.1383403
51
248.0542782
0
ARC
8
DEFAULT_255_1_234
10
13.5493838
20
38.8041843
40
0.4355005
50
233.1670131
51
246.4950969
0
ARC
8
DEFAULT_255_1_234
10
13.4939743
20
38.7293812
40
0.3424126
50
215.3403242
51
233.0843104
0
ARC
8
DEFAULT_255_1_234
10
13.4667175
20
38.7095549
40
0.3087104
50
179.2419209
51
215.2648451
0
ARC
8
DEFAULT_255_1_234
10
13.5434768
20
38.7109666
40
0.2304457
50
179.335461
51
199.1045811
0
ARC
8
DEFAULT_255_1_234
10
13.5102445
20
38.7022766
40
0.1962176
50
199.8828939
51
232.7063202
0
ARC
8
DEFAULT_255_1_234
10
13.5574713
20
38.7616788
40
0.2720938
50
232.3738199
51
255.5136649
0
ARC
8
DEFAULT_255_1_234
10
13.591558
20
38.8860835
40
0.4010747
50
255.2446292
51
267.5320849
0
ARC
8
DEFAULT_255_1_234
10
13.6003203
20
39.0093702
40
0.5246356
50
267.1557994
51
270.0286766
0
ARC
8
DEFAULT_255_1_234
10
13.6030976
20
38.964995
40
0.4802668
50
269.7000017
51
278.1660162
0
ARC
8
DEFAULT_255_1_234
10
13.628698
20
38.7919515
40
0.3053425
50
278.0231263
51
290.625471
0
ARC
8
DEFAULT_255_1_234
10
13.6634667
20
38.6992025
40
0.206291
50
290.6619762
51
307.0370976
0
ARC
8
DEFAULT_255_1_234
10
13.6935057
20
38.6623504
40
0.1587906
50
306.3943566
51
355.3030547
0
ARC
8
DEFAULT_255_1_234
10
13.6422988
20
38.6700113
40
0.2104809
50
354.3660432
51
0.0698737
0
ARC
8
DEFAULT_255_1_234
10
13.6565333
20
38.6722617
40
0.1962563
50
359.417946
51
16.1971788
0
ARC
8
DEFAULT_255_1_234
10
13.7020644
20
38.6847418
40
0.149053
50
16.4723299
51
52.6262157
0
ARC
8
DEFAULT_255_1_234
10
13.6199698
20
38.5763433
40
0.2850296
50
52.7386432
51
62.4979148
0
ARC
8
DEFAULT_255_1_234
10
13.4814774
20
38.3157283
40
0.5801521
50
62.2515216
51
68.1220564
0
ARC
8
DEFAULT_255_1_234
10
13.3094685
20
37.8929872
40
1.0365451
50
68.0062803
51
71.8053402
0
ARC
8
DEFAULT_255_1_234
10
13.1299057
20
37.3544758
40
1.6042013
50
71.7183119
51
73.9258742
0
LINE
8
DEFAULT_255_1_234
10
14.1443316
20
38.7851218
11
14.1443316
21
38.8124297
0
LINE
8
DEFAULT_255_1_234
10
14.8816452
20
38.8284932
11
14.8816452
21
38.7666488
0
LINE
8
DEFAULT_255_1_234
10
14.8816452
20
38.7666488
11
14.2929188
21
38.7666488
0
LINE
8
DEFAULT_255_1_234
10
14.7796421
20
38.5971792
11
14.8704007
21
38.5264999
0
LINE
8
DEFAULT_255_1_234
10
14.2977378
20
38.8887313
11
14.733058
21
38.8887313
0
LINE
8
DEFAULT_255_1_234
10
14.733058
20
38.8887313
11
14.733058
21
38.8999757
0
ARC
8
DEFAULT_255_1_234
10
14.5382681
20
38.7962332
40
0.4376191
50
252.3266134
51
270.5810217
0
ARC
8
DEFAULT_255_1_234
10
14.517777
20
38.7221644
40
0.3608374
50
223.3000567
51
251.8561855
0
ARC
8
DEFAULT_255_1_234
10
14.5389131
20
38.7426937
40
0.3902993
50
190.9374509
51
223.3654032
0
ARC
8
DEFAULT_255_1_234
10
14.7114103
20
38.7816885
40
0.5670891
50
179.6531105
51
191.4989439
0
ARC
8
DEFAULT_255_1_234
10
14.7236115
20
38.8156417
40
0.5792888
50
167.4007466
51
180.3176909
0
ARC
8
DEFAULT_255_1_234
10
14.6184177
20
38.8378885
40
0.471777
50
154.1835823
51
167.250763
0
ARC
8
DEFAULT_255_1_234
10
14.5552644
20
38.8711417
40
0.4004528
50
134.3149965
51
154.5315275
0
ARC
8
DEFAULT_255_1_234
10
14.5335139
20
38.8902228
40
0.371612
50
122.8616532
51
133.9707695
0
ARC
8
DEFAULT_255_1_234
10
14.5231714
20
38.9124703
40
0.3473289
50
89.8249009
51
123.4199222
0
ARC
8
DEFAULT_255_1_234
10
14.5281755
20
38.8477967
40
0.4120197
50
74.7876118
51
90.5482747
0
ARC
8
DEFAULT_255_1_234
10
14.5575498
20
38.956303
40
0.2996077
50
39.8178249
51
74.7633718
0
ARC
8
DEFAULT_255_1_234
10
14.5062818
20
38.9163351
40
0.3645855
50
16.8990863
51
39.4829761
0
ARC
8
DEFAULT_255_1_234
10
14.3168114
20
38.8556526
40
0.5635218
50
4.9636328
51
17.2026414
0
ARC
8
DEFAULT_255_1_234
10
14.0750185
20
38.830134
40
0.8066286
50
359.8834553
51
5.2834307
0
ARC
8
DEFAULT_255_1_234
10
14.6787709
20
38.7732803
40
0.3859091
50
180.9846213
51
194.9401313
0
ARC
8
DEFAULT_255_1_234
10
14.5737987
20
38.7445849
40
0.2770883
50
194.80314
51
222.0412631
0
ARC
8
DEFAULT_255_1_234
10
14.5433869
20
38.7144116
40
0.2343055
50
221.5417084
51
268.8614402
0
ARC
8
DEFAULT_255_1_234
10
14.5506863
20
38.7820686
40
0.3021528
50
267.732405
51
270.0097136
0
ARC
8
DEFAULT_255_1_234
10
14.5524673
20
38.8022105
40
0.3222994
50
269.6924892
51
280.4117579
0
ARC
8
DEFAULT_255_1_234
10
14.570108
20
38.7103193
40
0.2287344
50
280.2255091
51
298.6338936
0
ARC
8
DEFAULT_255_1_234
10
14.5817872
20
38.6859223
40
0.2017294
50
299.0430333
51
300.4643464
0
ARC
8
DEFAULT_255_1_234
10
14.5137878
20
38.7993038
40
0.3339357
50
300.6577328
51
322.0378878
0
ARC
8
DEFAULT_255_1_234
10
14.4787417
20
38.8297021
40
0.3802736
50
321.6750233
51
322.3046845
0
ARC
8
DEFAULT_255_1_234
10
14.5718378
20
38.713037
40
0.3520454
50
276.9728461
51
328.0035423
0
ARC
8
DEFAULT_255_1_234
10
14.5441431
20
38.8610841
40
0.5024498
50
269.8361028
51
278.0581756
0
ARC
8
DEFAULT_255_1_234
10
14.5214168
20
38.9355757
40
0.202159
50
89.2018686
51
117.2851756
0
ARC
8
DEFAULT_255_1_234
10
14.5267337
20
38.9313752
40
0.2083484
50
118.0551165
51
137.4540413
0
ARC
8
DEFAULT_255_1_234
10
14.5642077
20
38.8973304
40
0.2589774
50
137.5109581
51
158.8516286
0
ARC
8
DEFAULT_255_1_234
10
14.6779913
20
38.8514074
40
0.38167
50
158.5845963
51
170.1721436
0
ARC
8
DEFAULT_255_1_234
10
14.7949302
20
38.8281823
40
0.5008657
50
169.8376422
51
173.0566086
0
ARC
8
DEFAULT_255_1_234
10
14.3252376
20
38.8792509
40
0.4083467
50
2.9091802
51
12.8847116
0
ARC
8
DEFAULT_255_1_234
10
14.4623053
20
38.9115101
40
0.2675383
50
12.6957781
51
28.6404489
0
ARC
8
DEFAULT_255_1_234
10
14.5164723
20
38.9395458
40
0.2065654
50
29.0169854
51
41.1487595
0
ARC
8
DEFAULT_255_1_234
10
14.5367509
20
38.9572003
40
0.1796786
50
41.1646065
51
85.0013516
0
ARC
8
DEFAULT_255_1_234
10
14.5246605
20
38.8837431
40
0.2539726
50
83.7280015
51
90.0964893
0
LINE
8
DEFAULT_255_1_234
10
15.4735843
20
39.2485531
11
15.4735843
21
39.1104072
0
LINE
8
DEFAULT_255_1_234
10
15.2021115
20
38.9915375
11
15.2021115
21
38.3747
0
LINE
8
DEFAULT_255_1_234
10
15.2021115
20
38.3747
11
15.0535244
21
38.3747
0
LINE
8
DEFAULT_255_1_234
10
15.0535244
20
38.3747
11
15.0535244
21
39.2437341
0
LINE
8
DEFAULT_255_1_234
10
15.0535244
20
39.2437341
11
15.1980957
21
39.2437341
0
LINE
8
DEFAULT_255_1_234
10
15.1980957
20
39.2437341
11
15.2005052
21
39.1433374
0
ARC
8
DEFAULT_255_1_234
10
15.4069248
20
38.7044342
40
0.4114092
50
80.6754243
51
86.8932892
0
ARC
8
DEFAULT_255_1_234
10
15.4008783
20
38.60767
40
0.5083596
50
86.8038578
51
90.0431435
0
ARC
8
DEFAULT_255_1_234
10
15.3971763
20
38.8533866
40
0.2626638
50
89.2759698
51
106.6213787
0
ARC
8
DEFAULT_255_1_234
10
15.3767327
20
38.927683
40
0.1856317
50
107.1346045
51
157.6458115
0
ARC
8
DEFAULT_255_1_234
10
15.4458929
20
38.8893311
40
0.2643398
50
155.6586782
51
157.2539184
0
ARC
8
DEFAULT_255_1_234
10
15.4254131
20
39.0062157
40
0.2634121
50
127.8165941
51
148.6302098
0
ARC
8
DEFAULT_255_1_234
10
15.40006
20
39.0322218
40
0.2273596
50
91.3329982
51
126.7875809
0
ARC
8
DEFAULT_255_1_234
10
15.407654
20
38.9607195
40
0.299078
50
89.986594
51
92.4688449
0
ARC
8
DEFAULT_255_1_234
10
15.4084935
20
38.9882078
40
0.2715908
50
85.3589899
51
90.1623399
0
ARC
8
DEFAULT_255_1_234
10
15.4169451
20
39.0886164
40
0.1708278
50
78.401942
51
85.4594656
0
ARC
8
DEFAULT_255_1_234
10
15.4314335
20
39.1577236
40
0.1002194
50
67.7858312
51
78.5728455
0
ARC
8
DEFAULT_255_1_234
10
15.4422188
20
39.1856887
40
0.0702548
50
63.4835954
51
67.3062642
0
LINE
8
DEFAULT_255_1_234
10
15.7715618
20
39.2437341
11
15.7715618
21
38.3747
0
LINE
8
DEFAULT_255_1_234
10
15.7715618
20
38.3747
11
15.6229746
21
38.3747
0
LINE
8
DEFAULT_255_1_234
10
15.6229746
20
38.3747
11
15.6229746
21
39.2437341
0
LINE
8
DEFAULT_255_1_234
10
15.6229746
20
39.2437341
11
15.7715618
21
39.2437341
0
ARC
8
DEFAULT_255_1_234
10
15.7087895
20
39.4751889
40
0.097867
50
161.415052
51
180.5526306
0
ARC
8
DEFAULT_255_1_234
10
15.6963673
20
39.4786077
40
0.0850062
50
138.1827368
51
160.9307106
0
ARC
8
DEFAULT_255_1_234
10
15.6853619
20
39.4881588
40
0.0704362
50
104.6368899
51
138.0039868
0
ARC
8
DEFAULT_255_1_234
10
15.6960773
20
39.4514963
40
0.1086221
50
92.0600725
51
105.2189128
0
ARC
8
DEFAULT_255_1_234
10
15.6984122
20
39.4172117
40
0.1429728
50
89.9756393
51
92.5012496
0
ARC
8
DEFAULT_255_1_234
10
15.6994141
20
39.4397731
40
0.1204151
50
78.0235316
51
90.4478182
0
ARC
8
DEFAULT_255_1_234
10
15.7086233
20
39.4811295
40
0.0780493
50
55.051506
51
78.3369085
0
ARC
8
DEFAULT_255_1_234
10
15.7136507
20
39.4895711
40
0.0682538
50
42.0501187
51
54.4513741
0
ARC
8
DEFAULT_255_1_234
10
15.7001374
20
39.4771798
40
0.0865878
50
1.7497075
51
42.1496013
0
ARC
8
DEFAULT_255_1_234
10
15.6746707
20
39.4742738
40
0.1121515
50
359.9852656
51
2.8364544
0
ARC
8
DEFAULT_255_1_234
10
15.6912699
20
39.4733229
40
0.0955566
50
342.1070653
51
0.552888
0
ARC
8
DEFAULT_255_1_234
10
15.7055397
20
39.4693904
40
0.0807713
50
316.7107116
51
341.6516965
0
ARC
8
DEFAULT_255_1_234
10
15.7122434
20
39.4633823
40
0.0717724
50
285.4397031
51
316.5324284
0
ARC
8
DEFAULT_255_1_234
10
15.7012351
20
39.4999554
40
0.1099597
50
272.3547054
51
285.8953117
0
ARC
8
DEFAULT_255_1_234
10
15.6985509
20
39.5365048
40
0.1465932
50
269.9695369
51
272.8160237
0
ARC
8
DEFAULT_255_1_234
10
15.697569
20
39.5145863
40
0.1246779
50
258.8431134
51
270.4153935
0
ARC
8
DEFAULT_255_1_234
10
15.6885733
20
39.4710414
40
0.0802162
50
238.5431189
51
259.1288175
0
ARC
8
DEFAULT_255_1_234
10
15.6817618
20
39.4586856
40
0.0661247
50
222.5062634
51
237.9906969
0
ARC
8
DEFAULT_255_1_234
10
15.6945205
20
39.4702889
40
0.0833707
50
184.1069131
51
222.460413
0
ARC
8
DEFAULT_255_1_234
10
15.7214446
20
39.4741349
40
0.1105176
50
179.9429482
51
185.0960898
0
LINE
8
DEFAULT_255_1_234
10
15.9715521
20
38.7851218
11
15.9715521
21
38.8124297
0
LINE
8
DEFAULT_255_1_234
10
16.7088656
20
38.8284932
11
16.7088656
21
38.7666488
0
LINE
8
DEFAULT_255_1_234
10
16.7088656
20
38.7666488
11
16.1201392
21
38.7666488
0
LINE
8
DEFAULT_255_1_234
10
16.6068625
20
38.5971792
11
16.6976212
21
38.5264999
0
LINE
8
DEFAULT_255_1_234
10
16.1249583
20
38.8887313
11
16.5602785
21
38.8887313
0
LINE
8
DEFAULT_255_1_234
10
16.5602785
20
38.8887313
11
16.5602785
21
38.8999757
0
ARC
8
DEFAULT_255_1_234
10
16.3654886
20
38.7962332
40
0.4376191
50
252.3266134
51
270.5810217
0
ARC
8
DEFAULT_255_1_234
10
16.3449975
20
38.7221644
40
0.3608374
50
223.3000567
51
251.8561855
0
ARC
8
DEFAULT_255_1_234
10
16.3661335
20
38.7426937
40
0.3902993
50
190.9374509
51
223.3654032
0
ARC
8
DEFAULT_255_1_234
10
16.5386308
20
38.7816885
40
0.5670891
50
179.6531105
51
191.4989439
0
ARC
8
DEFAULT_255_1_234
10
16.550832
20
38.8156417
40
0.5792888
50
167.4007466
51
180.3176909
0
ARC
8
DEFAULT_255_1_234
10
16.4456381
20
38.8378885
40
0.471777
50
154.1835823
51
167.250763
0
ARC
8
DEFAULT_255_1_234
10
16.3824849
20
38.8711417
40
0.4004528
50
134.3149965
51
154.5315275
0
ARC
8
DEFAULT_255_1_234
10
16.3607344
20
38.8902228
40
0.371612
50
122.8616532
51
133.9707695
0
ARC
8
DEFAULT_255_1_234
10
16.3503918
20
38.9124703
40
0.3473289
50
89.8249009
51
123.4199222
0
ARC
8
DEFAULT_255_1_234
10
16.3553959
20
38.8477967
40
0.4120197
50
74.7876118
51
90.5482747
0
ARC
8
DEFAULT_255_1_234
10
16.3847702
20
38.956303
40
0.2996077
50
39.8178249
51
74.7633718
0
ARC
8
DEFAULT_255_1_234
10
16.3335023
20
38.9163351
40
0.3645855
50
16.8990863
51
39.4829761
0
ARC
8
DEFAULT_255_1_234
10
16.1440319
20
38.8556526
40
0.5635218
50
4.9636328
51
17.2026414
0
ARC
8
DEFAULT_255_1_234
10
15.9022389
20
38.830134
40
0.8066286
50
359.8834553
51
5.2834307
0
ARC
8
DEFAULT_255_1_234
10
16.5059914
20
38.7732803
40
0.3859091
50
180.9846213
51
194.9401313
0
ARC
8
DEFAULT_255_1_234
10
16.4010191
20
38.7445849
40
0.2770883
50
194.80314
51
222.0412631
0
ARC
8
DEFAULT_255_1_234
10
16.3706073
20
38.7144116
40
0.2343055
50
221.5417084
51
268.8614402
0
ARC
8
DEFAULT_255_1_234
10
16.3779068
20
38.7820686
40
0.3021528
50
267.732405
51
270.0097136
0
ARC
8
DEFAULT_255_1_234
10
16.3796878
20
38.8022105
40
0.3222994
50
269.6924892
51
280.4117579
0
ARC
8
DEFAULT_255_1_234
10
16.3973285
20
38.7103193
40
0.2287344
50
280.2255091
51
298.6338936
0
ARC
8
DEFAULT_255_1_234
10
16.4090077
20
38.6859223
40
0.2017294
50
299.0430333
51
300.4643464
0
ARC
8
DEFAULT_255_1_234
10
16.3410082
20
38.7993038
40
0.3339357
50
300.6577328
51
322.0378878
0
ARC
8
DEFAULT_255_1_234
10
16.3059621
20
38.8297021
40
0.3802736
50
321.6750233
51
322.3046845
0
ARC
8
DEFAULT_255_1_234
10
16.3990583
20
38.713037
40
0.3520454
50
276.9728461
51
328.0035423
0
ARC
8
DEFAULT_255_1_234
10
16.3713635
20
38.8610841
40
0.5024498
50
269.8361028
51
278.0581756
0
ARC
8
DEFAULT_255_1_234
10
16.3486373
20
38.9355757
40
0.202159
50
89.2018686
51
117.2851756
0
ARC
8
DEFAULT_255_1_234
10
16.3539542
20
38.9313752
40
0.2083484
50
118.0551165
51
137.4540413
0
ARC
8
DEFAULT_255_1_234
10
16.3914282
20
38.8973304
40
0.2589774
50
137.5109581
51
158.8516286
0
ARC
8
DEFAULT_255_1_234
10
16.5052117
20
38.8514074
40
0.38167
50
158.5845963
51
170.1721436
0
ARC
8
DEFAULT_255_1_234
10
16.6221507
20
38.8281823
40
0.5008657
50
169.8376422
51
173.0566086
0
ARC
8
DEFAULT_255_1_234
10
16.1524581
20
38.8792509
40
0.4083467
50
2.9091802
51
12.8847116
0
ARC
8
DEFAULT_255_1_234
10
16.2895257
20
38.9115101
40
0.2675383
50
12.6957781
51
28.6404489
0
ARC
8
DEFAULT_255_1_234
10
16.3436928
20
38.9395458
40
0.2065654
50
29.0169854
51
41.1487595
0
ARC
8
DEFAULT_255_1_234
10
16.3639713
20
38.9572003
40
0.1796786
50
41.1646065
51
85.0013516
0
ARC
8
DEFAULT_255_1_234
10
16.351881
20
38.8837431
40
0.2539726
50
83.7280015
51
90.0964893
0
LINE
8
DEFAULT_255_1_234
10
17.5272998
20
38.9883248
11
17.3779094
21
38.9883248
0
LINE
8
DEFAULT_255_1_234
10
16.844602
20
38.6421569
11
16.9931892
21
38.6421569
0
ARC
8
DEFAULT_255_1_234
10
17.2590913
20
38.6066959
40
0.1276617
50
359.3334982
51
18.5871358
0
ARC
8
DEFAULT_255_1_234
10
17.279955
20
38.6122133
40
0.1061371
50
19.3540742
51
54.6485071
0
ARC
8
DEFAULT_255_1_234
10
17.2295452
20
38.5426919
40
0.1920087
50
54.3827097
51
65.0622807
0
ARC
8
DEFAULT_255_1_234
10
17.1526848
20
38.38099
40
0.3710447
50
64.8282493
51
71.4200025
0
ARC
8
DEFAULT_255_1_234
10
17.0624724
20
38.1163107
40
0.6506741
50
71.3164301
51
75.8006402
0
ARC
8
DEFAULT_255_1_234
10
16.9783544
20
37.7922561
40
0.9854641
50
75.6809531
51
78.0061883
0
ARC
8
DEFAULT_255_1_234
10
17.4232077
20
39.890177
40
1.1591028
50
254.6901892
51
258.0466452
0
ARC
8
DEFAULT_255_1_234
10
17.3193985
20
39.5142781
40
0.7691345
50
249.9010773
51
254.755261
0
ARC
8
DEFAULT_255_1_234
10
17.2190327
20
39.2416982
40
0.478665
50
243.3097214
51
249.9709442
0
ARC
8
DEFAULT_255_1_234
10
17.1561349
20
39.1162778
40
0.3383568
50
234.4047477
51
243.2862168
0
ARC
8
DEFAULT_255_1_234
10
17.0938872
20
39.0303232
40
0.2322322
50
220.8667099
51
234.5493881
0
ARC
8
DEFAULT_255_1_234
10
17.0596813
20
38.9991817
40
0.1859923
50
214.3062465
51
220.5065136
0
ARC
8
DEFAULT_255_1_234
10
17.0570892
20
38.996088
40
0.1821108
50
186.912965
51
213.9618616
0
ARC
8
DEFAULT_255_1_234
10
17.1102987
20
39.0047009
40
0.2359799
50
179.8808832
51
187.4339886
0
ARC
8
DEFAULT_255_1_234
10
17.094812
20
39.0067088
40
0.2204978
50
132.005434
51
180.3942919
0
ARC
8
DEFAULT_255_1_234
10
17.1604734
20
38.9461083
40
0.3095791
50
129.2319861
51
133.5302299
0
ARC
8
DEFAULT_255_1_234
10
17.1658242
20
38.9366928
40
0.3202615
50
100.4410011
51
128.9081242
0
ARC
8
DEFAULT_255_1_234
10
17.1932126
20
38.8081455
40
0.4516583
50
89.6985377
51
100.9026564
0
ARC
8
DEFAULT_255_1_234
10
17.1989168
20
38.7921166
40
0.4676928
50
77.6965325
51
90.4076836
0
ARC
8
DEFAULT_255_1_234
10
17.2320152
20
38.9348413
40
0.3211988
50
50.7276602
51
78.0399361
0
ARC
8
DEFAULT_255_1_234
10
17.276461
20
38.9866296
40
0.2529778
50
25.7545084
51
51.0957453
0
ARC
8
DEFAULT_255_1_234
10
17.2765835
20
38.9916206
40
0.250738
50
359.2468627
51
24.7394243
0
ARC
8
DEFAULT_255_1_234
10
17.2481287
20
38.9887664
40
0.1297815
50
359.8050318
51
45.1544908
0
ARC
8
DEFAULT_255_1_234
10
17.2074429
20
38.9539794
40
0.1831883
50
43.8047702
51
49.6271585
0
ARC
8
DEFAULT_255_1_234
10
17.208233
20
38.9540678
40
0.18261
50
49.7980766
51
82.1218353
0
ARC
8
DEFAULT_255_1_234
10
17.1963302
20
38.8893998
40
0.2483163
50
81.4465357
51
90.1710293
0
ARC
8
DEFAULT_255_1_234
10
17.1938905
20
38.836788
40
0.300932
50
89.6766211
51
99.1264602
0
ARC
8
DEFAULT_255_1_234
10
17.1767367
20
38.9401537
40
0.1961547
50
98.968313
51
113.4570237
0
ARC
8
DEFAULT_255_1_234
10
17.1571452
20
38.9869965
40
0.1453859
50
113.722589
51
127.4763106
0
ARC
8
DEFAULT_255_1_234
10
17.1403098
20
39.0070124
40
0.1192639
50
126.9083309
51
150.3165862
0
ARC
8
DEFAULT_255_1_234
10
17.1355431
20
39.0120981
40
0.112623
50
151.3635175
51
180.0701457
0
ARC
8
DEFAULT_255_1_234
10
17.1664215
20
39.009999
40
0.1435149
50
179.2169974
51
179.9954013
0
ARC
8
DEFAULT_255_1_234
10
17.1303273
20
39.0087056
40
0.1074286
50
179.3040112
51
198.4225446
0
ARC
8
DEFAULT_255_1_234
10
17.1111406
20
39.0037127
40
0.0876573
50
199.2895851
51
238.6034594
0
ARC
8
DEFAULT_255_1_234
10
17.1714253
20
39.098345
40
0.1998512
50
237.9846301
51
246.8744712
0
ARC
8
DEFAULT_255_1_234
10
17.2572198
20
39.2946205
40
0.4140547
50
246.6234531
51
251.8168941
0
ARC
8
DEFAULT_255_1_234
10
17.3602741
20
39.6040905
40
0.7402308
50
251.713434
51
255.0778414
0
ARC
8
DEFAULT_255_1_234
10
17.4802004
20
40.0507563
40
1.2027155
50
255.0367487
51
257.4705983
0
ARC
8
DEFAULT_255_1_234
10
16.9694014
20
37.7493863
40
1.1546601
50
73.6837552
51
77.5016755
0
ARC
8
DEFAULT_255_1_234
10
17.0782789
20
38.1193581
40
0.7690009
50
68.7044154
51
73.7249639
0
ARC
8
DEFAULT_255_1_234
10
17.1685809
20
38.3520654
40
0.5193873
50
63.590599
51
68.6626804
0
ARC
8
DEFAULT_255_1_234
10
17.2456828
20
38.5058123
40
0.3473927
50
54.7106439
51
63.7013633
0
ARC
8
DEFAULT_255_1_234
10
17.3081283
20
38.59304
40
0.2401192
50
41.0622434
51
54.8487496
0
ARC
8
DEFAULT_255_1_234
10
17.3422669
20
38.6243592
40
0.1938094
50
34.4950568
51
40.7105546
0
ARC
8
DEFAULT_255_1_234
10
17.3469477
20
38.6292078
40
0.1872106
50
9.3763373
51
34.0833615
0
ARC
8
DEFAULT_255_1_234
10
17.2816347
20
38.6166728
40
0.2536988
50
359.7694872
51
9.7663171
0
ARC
8
DEFAULT_255_1_234
10
17.3013848
20
38.6123764
40
0.2339696
50
335.8654732
51
0.8022045
0
ARC
8
DEFAULT_255_1_234
10
17.3088892
20
38.6137197
40
0.2277108
50
307.7357725
51
334.7849066
0
ARC
8
DEFAULT_255_1_234
10
17.2688068
20
38.6587645
40
0.2878951
50
307.0241536
51
308.5578354
0
ARC
8
DEFAULT_255_1_234
10
17.2430399
20
38.6973801
40
0.3342515
50
282.9362969
51
306.5646424
0
ARC
8
DEFAULT_255_1_234
10
17.2068697
20
38.8441108
40
0.4853615
50
271.1026298
51
283.2200835
0
ARC
8
DEFAULT_255_1_234
10
17.2004941
20
38.9682418
40
0.6096052
50
269.9919117
51
271.4772449
0
ARC
8
DEFAULT_255_1_234
10
17.1978696
20
38.8604436
40
0.5018135
50
259.0723564
51
270.289833
0
ARC
8
DEFAULT_255_1_234
10
17.1766428
20
38.7487271
40
0.388099
50
245.4963068
51
259.0227342
0
ARC
8
DEFAULT_255_1_234
10
17.1488384
20
38.6905615
40
0.3236422
50
228.9684658
51
245.7044727
0
ARC
8
DEFAULT_255_1_234
10
17.1222828
20
38.6578575
40
0.2815426
50
214.4011705
51
228.6759915
0
ARC
8
DEFAULT_255_1_234
10
17.0933569
20
38.642029
40
0.2487548
50
179.9705531
51
215.1572795
0
ARC
8
DEFAULT_255_1_234
10
17.1634168
20
38.6493806
40
0.1703809
50
182.4299387
51
203.0329699
0
ARC
8
DEFAULT_255_1_234
10
17.1449826
20
38.6437396
40
0.1512226
50
203.798802
51
232.548466
0
ARC
8
DEFAULT_255_1_234
10
17.1726347
20
38.6788826
40
0.1959374
50
232.3782728
51
256.3934612
0
ARC
8
DEFAULT_255_1_234
10
17.1956709
20
38.7678842
40
0.2878639
50
256.104506
51
268.4626716
0
ARC
8
DEFAULT_255_1_234
10
17.2003193
20
38.8475487
40
0.3676329
50
268.0715632
51
270.0138206
0
ARC
8
DEFAULT_255_1_234
10
17.2021718
20
38.8203083
40
0.3403971
50
269.7031147
51
278.8341955
0
ARC
8
DEFAULT_255_1_234
10
17.2203811
20
38.7072876
40
0.2259217
50
278.6728789
51
292.8232582
0
ARC
8
DEFAULT_255_1_234
10
17.2404349
20
38.6571449
40
0.171929
50
293.1452328
51
303.6655899
0
ARC
8
DEFAULT_255_1_234
10
17.2669228
20
38.6195204
40
0.1259367
50
303.1248165
51
321.742847
0
ARC
8
DEFAULT_255_1_234
10
17.2855109
20
38.6032156
40
0.1012531
50
322.4748573
51
1.1291126
0
LINE
8
DEFAULT_255_1_234
10
4.9274119
20
36.5116792
11
4.9274119
21
36.3904
0
LINE
8
DEFAULT_255_1_234
10
4.9274119
20
36.3904
11
4.161184
21
36.3904
0
LINE
8
DEFAULT_255_1_234
10
4.161184
20
36.3904
11
4.161184
21
36.4972221
0
LINE
8
DEFAULT_255_1_234
10
4.161184
20
36.4972221
11
4.5659836
21
36.9469995
0
LINE
8
DEFAULT_255_1_234
10
4.2872823
20
37.2152595
11
4.1386952
21
37.2152595
0
LINE
8
DEFAULT_255_1_234
10
4.6535296
20
36.8514218
11
4.3402918
21
36.5116792
0
LINE
8
DEFAULT_255_1_234
10
4.3402918
20
36.5116792
11
4.9274119
21
36.5116792
0
ARC
8
DEFAULT_255_1_234
10
3.216967
20
38.1399527
40
1.8008286
50
318.5132453
51
320.7828378
0
ARC
8
DEFAULT_255_1_234
10
3.7456644
20
37.7096426
40
1.1191493
50
320.7372736
51
323.9737074
0
ARC
8
DEFAULT_255_1_234
10
4.1376501
20
37.4256361
40
0.6350923
50
323.8961724
51
328.6421089
0
ARC
8
DEFAULT_255_1_234
10
4.3423096
20
37.2994031
40
0.3946393
50
328.8299013
51
331.789948
0
ARC
8
DEFAULT_255_1_234
10
4.4420274
20
37.2479509
40
0.2824501
50
331.4255242
51
352.9364833
0
ARC
8
DEFAULT_255_1_234
10
4.4556775
20
37.2448976
40
0.2685315
50
353.2248685
51
0.0169286
0
ARC
8
DEFAULT_255_1_234
10
4.4766652
20
37.247195
40
0.2475536
50
359.4866256
51
15.9339782
0
ARC
8
DEFAULT_255_1_234
10
4.5273637
20
37.2608286
40
0.1950618
50
16.1714718
51
43.5284424
0
ARC
8
DEFAULT_255_1_234
10
4.5350946
20
37.2685573
40
0.184134
50
43.4415429
51
83.1661404
0
ARC
8
DEFAULT_255_1_234
10
4.5216864
20
37.1948771
40
0.258926
50
82.160215
51
90.1505798
0
ARC
8
DEFAULT_255_1_234
10
4.5185291
20
37.1411865
40
0.3126255
50
89.5460705
51
102.5418777
0
ARC
8
DEFAULT_255_1_234
10
4.4942377
20
37.2442665
40
0.2067346
50
102.1739365
51
129.2061916
0
ARC
8
DEFAULT_255_1_234
10
4.4863449
20
37.2567094
40
0.1921118
50
129.7279328
51
135.7542026
0
ARC
8
DEFAULT_255_1_234
10
4.4984977
20
37.2470045
40
0.2075944
50
136.175737
51
166.3674722
0
ARC
8
DEFAULT_255_1_234
10
4.5991896
20
37.2200182
40
0.3118201
50
165.9092917
51
178.8683903
0
ARC
8
DEFAULT_255_1_234
10
4.6856757
20
37.2153179
40
0.3983935
50
178.438168
51
180.0083905
0
ARC
8
DEFAULT_255_1_234
10
4.5455359
20
37.2192231
40
0.4068601
50
163.2878735
51
180.5581814
0
ARC
8
DEFAULT_255_1_234
10
4.4653621
20
37.241284
40
0.3237344
50
133.454115
51
162.9470031
0
ARC
8
DEFAULT_255_1_234
10
4.4832162
20
37.2223
40
0.349795
50
100.7869394
51
133.4384016
0
ARC
8
DEFAULT_255_1_234
10
4.5179934
20
37.0674319
40
0.5084616
50
89.6605301
51
101.3704185
0
ARC
8
DEFAULT_255_1_234
10
4.5246273
20
37.0735496
40
0.502348
50
78.2171172
51
90.4130393
0
ARC
8
DEFAULT_255_1_234
10
4.5601351
20
37.2359637
40
0.3361092
50
55.9268222
51
78.4888551
0
ARC
8
DEFAULT_255_1_234
10
4.5797791
20
37.2698324
40
0.2970617
50
47.9292255
51
55.4054003
0
ARC
8
DEFAULT_255_1_234
10
4.5899352
20
37.2801502
40
0.2825983
50
4.3347696
51
48.0560701
0
ARC
8
DEFAULT_255_1_234
10
4.4803745
20
37.2631601
40
0.393225
50
359.925209
51
5.5967654
0
ARC
8
DEFAULT_255_1_234
10
4.5232637
20
37.2687816
40
0.3503892
50
337.8914096
51
358.9967724
0
ARC
8
DEFAULT_255_1_234
10
4.2519049
20
37.3734706
40
0.6412172
50
326.9135351
51
338.3505194
0
ARC
8
DEFAULT_255_1_234
10
3.8533353
20
37.6289284
40
1.1146189
50
319.6472867
51
327.095818
0
ARC
8
DEFAULT_255_1_234
10
3.4700356
20
37.9451
40
1.6114559
50
317.2586784
51
319.9046139
0
LINE
8
DEFAULT_255_1_234
10
5.7121127
20
37.5598211
11
5.7121127
21
36.783152
0
LINE
8
DEFAULT_255_1_234
10
5.7121127
20
36.783152
11
5.8743538
21
36.783152
0
LINE
8
DEFAULT_255_1_234
10
5.8743538
20
36.783152
11
5.8743538
21
36.6618728
0
LINE
8
DEFAULT_255_1_234
10
5.8743538
20
36.6618728
11
5.7121127
21
36.6618728
0
LINE
8
DEFAULT_255_1_234
10
5.7121127
20
36.6618728
11
5.7121127
21
36.3904
0
LINE
8
DEFAULT_255_1_234
10
5.7121127
20
36.3904
11
5.5627224
21
36.3904
0
LINE
8
DEFAULT_255_1_234
10
5.5627224
20
36.3904
11
5.5627224
21
36.6618728
0
LINE
8
DEFAULT_255_1_234
10
5.5627224
20
36.6618728
11
5.0302181
21
36.6618728
0
LINE
8
DEFAULT_255_1_234
10
5.0302181
20
36.6618728
11
5.0302181
21
36.7494187
0
LINE
8
DEFAULT_255_1_234
10
5.0302181
20
36.7494187
11
5.5538875
21
37.5598211
0
LINE
8
DEFAULT_255_1_234
10
5.5538875
20
37.5598211
11
5.7121127
21
37.5598211
0
LINE
8
DEFAULT_255_1_234
10
5.5450525
20
37.3244912
11
5.1988846
21
36.783152
0
LINE
8
DEFAULT_255_1_234
10
5.1988846
20
36.783152
11
5.5627224
21
36.783152
0
LINE
8
DEFAULT_255_1_234
10
5.5627224
20
36.783152
11
5.5627224
21
37.3566181
0
LINE
8
DEFAULT_255_1_234
10
5.5627224
20
37.3566181
11
5.5450525
21
37.3244912
0
LINE
8
DEFAULT_255_1_234
10
6.101652
20
37.5598211
11
6.434166
21
36.5952093
0
LINE
8
DEFAULT_255_1_234
10
6.434166
20
36.5952093
11
6.7682863
21
37.5598211
0
LINE
8
DEFAULT_255_1_234
10
6.7682863
20
37.5598211
11
6.9369528
21
37.5598211
0
LINE
8
DEFAULT_255_1_234
10
6.9369528
20
37.5598211
11
6.5032389
21
36.3904
0
LINE
8
DEFAULT_255_1_234
10
6.5032389
20
36.3904
11
6.3666994
21
36.3904
0
LINE
8
DEFAULT_255_1_234
10
6.3666994
20
36.3904
11
5.9337887
21
37.5598211
0
LINE
8
DEFAULT_255_1_234
10
5.9337887
20
37.5598211
11
6.101652
21
37.5598211
0
LINE
8
DEFAULT_255_1_234
10
4.3087299
20
5.8098211
11
4.5906439
21
5.3616501
0
LINE
8
DEFAULT_255_1_234
10
4.5906439
20
5.3616501
11
4.8709516
21
5.8098211
0
LINE
8
DEFAULT_255_1_234
10
4.8709516
20
5.8098211
11
5.0524689
21
5.8098211
0
LINE
8
DEFAULT_255_1_234
10
5.0524689
20
5.8098211
11
4.6830089
21
5.2299296
0
LINE
8
DEFAULT_255_1_234
10
4.6830089
20
5.2299296
11
5.0613038
21
4.6404
0
LINE
8
DEFAULT_255_1_234
10
5.0613038
20
4.6404
11
4.8781802
21
4.6404
0
LINE
8
DEFAULT_255_1_234
10
4.8781802
20
4.6404
11
4.5906439
21
5.0966027
0
LINE
8
DEFAULT_255_1_234
10
4.5906439
20
5.0966027
11
4.3015014
21
4.6404
0
LINE
8
DEFAULT_255_1_234
10
4.3015014
20
4.6404
11
4.1191809
21
4.6404
0
LINE
8
DEFAULT_255_1_234
10
4.1191809
20
4.6404
11
4.498279
21
5.2299296
0
LINE
8
DEFAULT_255_1_234
10
4.498279
20
5.2299296
11
4.1280158
21
5.8098211
0
LINE
8
DEFAULT_255_1_234
10
4.1280158
20
5.8098211
11
4.3087299
21
5.8098211
0
LINE
8
DEFAULT_255_1_234
10
5.417913
20
5.1761169
11
5.417913
21
5.2973962
0
LINE
8
DEFAULT_255_1_234
10
5.417913
20
5.2973962
11
5.5295542
21
5.2973962
0
LINE
8
DEFAULT_255_1_234
10
5.339202
20
5.5030087
11
5.1906148
21
5.5030087
0
LINE
8
DEFAULT_255_1_234
10
5.1801735
20
4.9488188
11
5.3295639
21
4.9488188
0
LINE
8
DEFAULT_255_1_234
10
5.5295542
20
5.1761169
11
5.417913
21
5.1761169
0
ARC
8
DEFAULT_255_1_234
10
5.5266408
20
5.6366713
40
0.3392876
50
270.4919872
51
281.8951556
0
ARC
8
DEFAULT_255_1_234
10
5.550767
20
5.5264702
40
0.2264817
50
281.6691735
51
301.2943132
0
ARC
8
DEFAULT_255_1_234
10
5.567788
20
5.4953304
40
0.1910381
50
301.7833094
51
311.7545298
0
ARC
8
DEFAULT_255_1_234
10
5.5769456
20
5.4851748
40
0.1773635
50
311.7323931
51
354.2802411
0
ARC
8
DEFAULT_255_1_234
10
5.5043081
20
5.4976722
40
0.2509385
50
353.0937916
51
0.1181479
0
ARC
8
DEFAULT_255_1_234
10
5.4581866
20
5.5024386
40
0.2970898
50
359.1805295
51
15.0453146
0
ARC
8
DEFAULT_255_1_234
10
5.5927703
20
5.5416992
40
0.1569564
50
13.9577229
51
77.6713066
0
ARC
8
DEFAULT_255_1_234
10
5.5541232
20
5.4031949
40
0.3006298
50
76.1116566
51
90.7026153
0
ARC
8
DEFAULT_255_1_234
10
5.548207
20
5.4305545
40
0.2732568
50
89.5324876
51
103.531937
0
ARC
8
DEFAULT_255_1_234
10
5.5281514
20
5.5104884
40
0.1908508
50
103.2931773
51
133.5619022
0
ARC
8
DEFAULT_255_1_234
10
5.5237003
20
5.5164375
40
0.1834746
50
133.8349307
51
173.5344437
0
ARC
8
DEFAULT_255_1_234
10
5.5960046
20
5.5036213
40
0.2568033
50
172.5096846
51
180.1366907
0
ARC
8
DEFAULT_255_1_234
10
5.500894
20
5.5070622
40
0.3103056
50
155.3484492
51
180.7484736
0
ARC
8
DEFAULT_255_1_234
10
5.4960029
20
5.5041846
40
0.3070957
50
131.5744599
51
154.4798489
0
ARC
8
DEFAULT_255_1_234
10
5.5273176
20
5.472531
40
0.3515643
50
96.9875458
51
131.9690667
0
ARC
8
DEFAULT_255_1_234
10
5.5492656
20
5.3479636
40
0.4779224
50
89.8596053
51
97.7825159
0
ARC
8
DEFAULT_255_1_234
10
5.5540719
20
5.3217616
40
0.5041361
50
78.3655447
51
90.4131539
0
ARC
8
DEFAULT_255_1_234
10
5.5898637
20
5.4876887
40
0.3344039
50
56.6229102
51
78.638727
0
ARC
8
DEFAULT_255_1_234
10
5.6113581
20
5.5252805
40
0.2912001
50
47.0253525
51
56.0854072
0
ARC
8
DEFAULT_255_1_234
10
5.6133361
20
5.5292223
40
0.2869704
50
10.9208013
51
46.7778124
0
ARC
8
DEFAULT_255_1_234
10
5.4769427
20
5.4976857
40
0.426899
50
359.6364486
51
11.6087304
0
ARC
8
DEFAULT_255_1_234
10
5.6604271
20
5.4961752
40
0.243409
50
332.3549906
51
359.7179418
0
ARC
8
DEFAULT_255_1_234
10
5.5953873
20
5.5270142
40
0.3153459
50
325.2333722
51
332.8745602
0
ARC
8
DEFAULT_255_1_234
10
5.6106496
20
5.5163828
40
0.2967456
50
292.9802137
51
325.2392345
0
ARC
8
DEFAULT_255_1_234
10
5.583187
20
5.5697863
40
0.3566604
50
292.5402179
51
293.6924929
0
ARC
8
DEFAULT_255_1_234
10
5.6224466
20
4.9243091
40
0.3307468
50
57.6435486
51
72.8625112
0
ARC
8
DEFAULT_255_1_234
10
5.6578966
20
4.9817549
40
0.2632492
50
36.7248896
51
57.4697979
0
ARC
8
DEFAULT_255_1_234
10
5.6567598
20
4.983022
40
0.2634081
50
8.0545065
51
36.356114
0
ARC
8
DEFAULT_255_1_234
10
5.5704784
20
4.9675174
40
0.3510261
50
359.8320645
51
8.5869982
0
ARC
8
DEFAULT_255_1_234
10
5.532956
20
4.9627101
40
0.3885653
50
343.9829931
51
0.5571613
0
ARC
8
DEFAULT_255_1_234
10
5.6215757
20
4.9384438
40
0.2966924
50
311.6359546
51
343.7651759
0
ARC
8
DEFAULT_255_1_234
10
5.5837326
20
4.9811102
40
0.3537231
50
279.7829875
51
311.6255694
0
ARC
8
DEFAULT_255_1_234
10
5.5536102
20
5.124828
40
0.5004971
50
269.7286406
51
280.3856417
0
ARC
8
DEFAULT_255_1_234
10
5.5474175
20
5.1206996
40
0.4963778
50
256.6828919
51
270.4412052
0
ARC
8
DEFAULT_255_1_234
10
5.5135471
20
4.9822394
40
0.3538406
50
229.4223008
51
256.8556159
0
ARC
8
DEFAULT_255_1_234
10
5.4720864
20
4.9355736
40
0.2914296
50
181.818294
51
229.6455059
0
ARC
8
DEFAULT_255_1_234
10
5.576082
20
4.9486496
40
0.3959084
50
179.9755256
51
183.2323064
0
ARC
8
DEFAULT_255_1_234
10
5.5588566
20
4.9466037
40
0.2293034
50
179.4465117
51
196.2869258
0
ARC
8
DEFAULT_255_1_234
10
5.5100974
20
4.9332651
40
0.1787621
50
196.5661473
51
227.705904
0
ARC
8
DEFAULT_255_1_234
10
5.5265069
20
4.9516155
40
0.2033784
50
227.7652068
51
257.8762805
0
ARC
8
DEFAULT_255_1_234
10
5.5490039
20
5.0459156
40
0.3003081
50
257.4584385
51
270.426602
0
ARC
8
DEFAULT_255_1_234
10
5.5535605
20
5.0748996
40
0.329292
50
269.5962073
51
280.8789248
0
ARC
8
DEFAULT_255_1_234
10
5.5765134
20
4.9602685
40
0.2123908
50
280.6346389
51
299.8595945
0
ARC
8
DEFAULT_255_1_234
10
5.595604
20
4.9240212
40
0.171457
50
300.3576302
51
314.5517981
0
ARC
8
DEFAULT_255_1_234
10
5.5873101
20
4.9300919
40
0.1816095
50
315.0728369
51
345.0431014
0
ARC
8
DEFAULT_255_1_234
10
5.4949915
20
4.9569841
40
0.2777492
50
344.5986631
51
357.9269593
0
ARC
8
DEFAULT_255_1_234
10
5.4054241
20
4.9631276
40
0.3674917
50
357.4748886
51
0.0231117
0
ARC
8
DEFAULT_255_1_234
10
5.5077351
20
4.9655679
40
0.2651907
50
359.5047933
51
13.4239635
0
ARC
8
DEFAULT_255_1_234
10
5.5943994
20
4.9877478
40
0.1757509
50
12.9498199
51
48.7551375
0
ARC
8
DEFAULT_255_1_234
10
5.5761728
20
4.96284
40
0.2065134
50
49.5088623
51
72.1836453
0
ARC
8
DEFAULT_255_1_234
10
5.5403881
20
4.8566291
40
0.3185836
50
71.9010081
51
84.3554254
0
ARC
8
DEFAULT_255_1_234
10
5.5242513
20
4.7205326
40
0.4556151
50
84.0193428
51
89.333121
0
LINE
8
DEFAULT_255_1_234
10
4.3087299
20
13.7473211
11
4.5906439
21
13.2991501
0
LINE
8
DEFAULT_255_1_234
10
4.5906439
20
13.2991501
11
4.8709516
21
13.7473211
0
LINE
8
DEFAULT_255_1_234
10
4.8709516
20
13.7473211
11
5.0524689
21
13.7473211
0
LINE
8
DEFAULT_255_1_234
10
5.0524689
20
13.7473211
11
4.6830089
21
13.1674296
0
LINE
8
DEFAULT_255_1_234
10
4.6830089
20
13.1674296
11
5.0613038
21
12.5779
0
LINE
8
DEFAULT_255_1_234
10
5.0613038
20
12.5779
11
4.8781802
21
12.5779
0
LINE
8
DEFAULT_255_1_234
10
4.8781802
20
12.5779
11
4.5906439
21
13.0341027
0
LINE
8
DEFAULT_255_1_234
10
4.5906439
20
13.0341027
11
4.3015014
21
12.5779
0
LINE
8
DEFAULT_255_1_234
10
4.3015014
20
12.5779
11
4.1191809
21
12.5779
0
LINE
8
DEFAULT_255_1_234
10
4.1191809
20
12.5779
11
4.498279
21
13.1674296
0
LINE
8
DEFAULT_255_1_234
10
4.498279
20
13.1674296
11
4.1280158
21
13.7473211
0
LINE
8
DEFAULT_255_1_234
10
4.1280158
20
13.7473211
11
4.3087299
21
13.7473211
0
LINE
8
DEFAULT_255_1_234
10
5.9680871
20
12.6991792
11
5.9680871
21
12.5779
0
LINE
8
DEFAULT_255_1_234
10
5.9680871
20
12.5779
11
5.2018592
21
12.5779
0
LINE
8
DEFAULT_255_1_234
10
5.2018592
20
12.5779
11
5.2018592
21
12.6847221
0
LINE
8
DEFAULT_255_1_234
10
5.2018592
20
12.6847221
11
5.6066588
21
13.1344995
0
LINE
8
DEFAULT_255_1_234
10
5.3279575
20
13.4027595
11
5.1793704
21
13.4027595
0
LINE
8
DEFAULT_255_1_234
10
5.6942048
20
13.0389218
11
5.380967
21
12.6991792
0
LINE
8
DEFAULT_255_1_234
10
5.380967
20
12.6991792
11
5.9680871
21
12.6991792
0
ARC
8
DEFAULT_255_1_234
10
4.2576422
20
14.3274527
40
1.8008286
50
318.5132453
51
320.7828378
0
ARC
8
DEFAULT_255_1_234
10
4.7863396
20
13.8971426
40
1.1191493
50
320.7372736
51
323.9737074
0
ARC
8
DEFAULT_255_1_234
10
5.1783252
20
13.6131361
40
0.6350923
50
323.8961724
51
328.6421089
0
ARC
8
DEFAULT_255_1_234
10
5.3829848
20
13.4869031
40
0.3946393
50
328.8299013
51
331.789948
0
ARC
8
DEFAULT_255_1_234
10
5.4827026
20
13.4354509
40
0.2824501
50
331.4255242
51
352.9364833
0
ARC
8
DEFAULT_255_1_234
10
5.4963527
20
13.4323976
40
0.2685315
50
353.2248685
51
0.0169286
0
ARC
8
DEFAULT_255_1_234
10
5.5173404
20
13.434695
40
0.2475536
50
359.4866256
51
15.9339782
0
ARC
8
DEFAULT_255_1_234
10
5.5680389
20
13.4483286
40
0.1950618
50
16.1714718
51
43.5284424
0
ARC
8
DEFAULT_255_1_234
10
5.5757698
20
13.4560573
40
0.184134
50
43.4415429
51
83.1661404
0
ARC
8
DEFAULT_255_1_234
10
5.5623616
20
13.3823771
40
0.258926
50
82.160215
51
90.1505798
0
ARC
8
DEFAULT_255_1_234
10
5.5592043
20
13.3286865
40
0.3126255
50
89.5460705
51
102.5418777
0
ARC
8
DEFAULT_255_1_234
10
5.5349129
20
13.4317665
40
0.2067346
50
102.1739365
51
129.2061916
0
ARC
8
DEFAULT_255_1_234
10
5.5270201
20
13.4442094
40
0.1921118
50
129.7279328
51
135.7542026
0
ARC
8
DEFAULT_255_1_234
10
5.5391729
20
13.4345045
40
0.2075944
50
136.175737
51
166.3674722
0
ARC
8
DEFAULT_255_1_234
10
5.6398648
20
13.4075182
40
0.3118201
50
165.9092917
51
178.8683903
0
ARC
8
DEFAULT_255_1_234
10
5.7263509
20
13.4028179
40
0.3983935
50
178.438168
51
180.0083905
0
ARC
8
DEFAULT_255_1_234
10
5.5862111
20
13.4067231
40
0.4068601
50
163.2878735
51
180.5581814
0
ARC
8
DEFAULT_255_1_234
10
5.5060373
20
13.428784
40
0.3237344
50
133.454115
51
162.9470031
0
ARC
8
DEFAULT_255_1_234
10
5.5238914
20
13.4098
40
0.349795
50
100.7869394
51
133.4384016
0
ARC
8
DEFAULT_255_1_234
10
5.5586686
20
13.2549319
40
0.5084616
50
89.6605301
51
101.3704185
0
ARC
8
DEFAULT_255_1_234
10
5.5653024
20
13.2610496
40
0.502348
50
78.2171172
51
90.4130393
0
ARC
8
DEFAULT_255_1_234
10
5.6008103
20
13.4234637
40
0.3361092
50
55.9268222
51
78.4888551
0
ARC
8
DEFAULT_255_1_234
10
5.6204543
20
13.4573324
40
0.2970617
50
47.9292255
51
55.4054003
0
ARC
8
DEFAULT_255_1_234
10
5.6306103
20
13.4676502
40
0.2825983
50
4.3347696
51
48.0560701
0
ARC
8
DEFAULT_255_1_234
10
5.5210497
20
13.4506601
40
0.393225
50
359.925209
51
5.5967654
0
ARC
8
DEFAULT_255_1_234
10
5.5639389
20
13.4562816
40
0.3503892
50
337.8914096
51
358.9967724
0
ARC
8
DEFAULT_255_1_234
10
5.2925801
20
13.5609706
40
0.6412172
50
326.9135351
51
338.3505194
0
ARC
8
DEFAULT_255_1_234
10
4.8940105
20
13.8164284
40
1.1146189
50
319.6472867
51
327.095818
0
ARC
8
DEFAULT_255_1_234
10
4.5107108
20
14.1326
40
1.6114559
50
317.2586784
51
319.9046139
0
LINE
8
DEFAULT_255_1_234
10
4.3003299
20
21.6848211
11
4.5822439
21
21.2366501
0
LINE
8
DEFAULT_255_1_234
10
4.5822439
20
21.2366501
11
4.8625516
21
21.6848211
0
LINE
8
DEFAULT_255_1_234
10
4.8625516
20
21.6848211
11
5.0440689
21
21.6848211
0
LINE
8
DEFAULT_255_1_234
10
5.0440689
20
21.6848211
11
4.6746089
21
21.1049296
0
LINE
8
DEFAULT_255_1_234
10
4.6746089
20
21.1049296
11
5.0529038
21
20.5154
0
LINE
8
DEFAULT_255_1_234
10
5.0529038
20
20.5154
11
4.8697802
21
20.5154
0
LINE
8
DEFAULT_255_1_234
10
4.8697802
20
20.5154
11
4.5822439
21
20.9716027
0
LINE
8
DEFAULT_255_1_234
10
4.5822439
20
20.9716027
11
4.2931014
21
20.5154
0
LINE
8
DEFAULT_255_1_234
10
4.2931014
20
20.5154
11
4.1107809
21
20.5154
0
LINE
8
DEFAULT_255_1_234
10
4.1107809
20
20.5154
11
4.489879
21
21.1049296
0
LINE
8
DEFAULT_255_1_234
10
4.489879
20
21.1049296
11
4.1196158
21
21.6848211
0
LINE
8
DEFAULT_255_1_234
10
4.1196158
20
21.6848211
11
4.3003299
21
21.6848211
0
LINE
8
DEFAULT_255_1_234
10
5.6817889
20
21.6904433
11
5.6817889
21
20.5154
0
LINE
8
DEFAULT_255_1_234
10
5.6817889
20
20.5154
11
5.5323986
21
20.5154
0
LINE
8
DEFAULT_255_1_234
10
5.5323986
20
20.5154
11
5.5323986
21
21.5057133
0
LINE
8
DEFAULT_255_1_234
10
5.5323986
20
21.5057133
11
5.2328147
21
21.3956785
0
LINE
8
DEFAULT_255_1_234
10
5.2328147
20
21.3956785
11
5.2328147
21
21.5306117
0
LINE
8
DEFAULT_255_1_234
10
5.2328147
20
21.5306117
11
5.6584969
21
21.6904433
0
LINE
8
DEFAULT_255_1_234
10
5.6584969
20
21.6904433
11
5.6817889
21
21.6904433
0
LINE
8
DEFAULT_255_1_234
10
4.3087299
20
29.6223211
11
4.5906439
21
29.1741501
0
LINE
8
DEFAULT_255_1_234
10
4.5906439
20
29.1741501
11
4.8709516
21
29.6223211
0
LINE
8
DEFAULT_255_1_234
10
4.8709516
20
29.6223211
11
5.0524689
21
29.6223211
0
LINE
8
DEFAULT_255_1_234
10
5.0524689
20
29.6223211
11
4.6830089
21
29.0424296
0
LINE
8
DEFAULT_255_1_234
10
4.6830089
20
29.0424296
11
5.0613038
21
28.4529
0
LINE
8
DEFAULT_255_1_234
10
5.0613038
20
28.4529
11
4.8781802
21
28.4529
0
LINE
8
DEFAULT_255_1_234
10
4.8781802
20
28.4529
11
4.5906439
21
28.9091027
0
LINE
8
DEFAULT_255_1_234
10
4.5906439
20
28.9091027
11
4.3015014
21
28.4529
0
LINE
8
DEFAULT_255_1_234
10
4.3015014
20
28.4529
11
4.1191809
21
28.4529
0
LINE
8
DEFAULT_255_1_234
10
4.1191809
20
28.4529
11
4.498279
21
29.0424296
0
LINE
8
DEFAULT_255_1_234
10
4.498279
20
29.0424296
11
4.1280158
21
29.6223211
0
LINE
8
DEFAULT_255_1_234
10
4.1280158
20
29.6223211
11
4.3087299
21
29.6223211
0
LINE
8
DEFAULT_255_1_234
10
5.9351569
20
29.1444327
11
5.9351569
21
28.9516709
0
LINE
8
DEFAULT_255_1_234
10
5.1970402
20
28.9315916
11
5.1970402
21
29.1299755
0
LINE
8
DEFAULT_255_1_234
10
5.7865698
20
28.9115123
11
5.7865698
21
29.1548739
0
LINE
8
DEFAULT_255_1_234
10
5.3456273
20
29.1661184
11
5.3456273
21
28.9283789
0
ARC
8
DEFAULT_255_1_234
10
4.7104459
20
28.9467805
40
1.2247208
50
353.8441951
51
0.2287902
0
ARC
8
DEFAULT_255_1_234
10
5.1743963
20
28.8949806
40
0.7578929
50
344.4934747
51
353.9765454
0
ARC
8
DEFAULT_255_1_234
10
5.4736553
20
28.8098981
40
0.4467846
50
329.2803592
51
344.7472793
0
ARC
8
DEFAULT_255_1_234
10
5.5729378
20
28.7554018
40
0.3336173
50
324.9352394
51
328.6160465
0
ARC
8
DEFAULT_255_1_234
10
5.6106486
20
28.7290427
40
0.2876076
50
280.580143
51
324.9173126
0
ARC
8
DEFAULT_255_1_234
10
5.5705279
20
28.8961099
40
0.4592847
50
269.5977311
51
281.6734359
0
ARC
8
DEFAULT_255_1_234
10
5.5633185
20
28.8841173
40
0.4472986
50
256.6228859
51
270.51044
0
ARC
8
DEFAULT_255_1_234
10
5.5231162
20
28.7292877
40
0.2873874
50
215.8618325
51
257.2788573
0
ARC
8
DEFAULT_255_1_234
10
5.6252194
20
28.7977977
40
0.4102928
50
197.9693508
51
215.2623606
0
ARC
8
DEFAULT_255_1_234
10
5.873731
20
28.8816709
40
0.6725652
50
187.8816417
51
198.2346507
0
ARC
8
DEFAULT_255_1_234
10
6.2695518
20
28.9388079
40
1.0724845
50
180.8976217
51
188.0055519
0
ARC
8
DEFAULT_255_1_234
10
6.5495706
20
28.9491777
40
1.3526448
50
180.7449369
51
181.1510016
0
ARC
8
DEFAULT_255_1_234
10
6.3918435
20
29.1348042
40
1.1948131
50
173.7675579
51
180.231553
0
ARC
8
DEFAULT_255_1_234
10
5.9400582
20
29.1858666
40
0.7401564
50
164.3058563
51
173.9002247
0
ARC
8
DEFAULT_255_1_234
10
5.648865
20
29.2697656
40
0.4371288
50
148.7922025
51
164.568378
0
ARC
8
DEFAULT_255_1_234
10
5.5537103
20
29.3228929
40
0.3282386
50
144.5883898
51
148.1176286
0
ARC
8
DEFAULT_255_1_234
10
5.5194001
20
29.3468315
40
0.2864044
50
101.6440918
51
144.514236
0
ARC
8
DEFAULT_255_1_234
10
5.5619067
20
29.1779069
40
0.4604934
50
89.5284041
51
102.5819763
0
ARC
8
DEFAULT_255_1_234
10
5.5698155
20
29.1740018
40
0.464401
50
77.0437873
51
90.5081339
0
ARC
8
DEFAULT_255_1_234
10
5.6100157
20
29.3382615
40
0.2953195
50
48.2778575
51
77.4994676
0
ARC
8
DEFAULT_255_1_234
10
5.6172788
20
29.3511746
40
0.2808655
50
36.3142134
51
47.6305865
0
ARC
8
DEFAULT_255_1_234
10
5.5304095
20
29.2926515
40
0.3855453
50
18.2931786
51
35.6769206
0
ARC
8
DEFAULT_255_1_234
10
5.2760854
20
29.2053593
40
0.654423
50
8.024666
51
18.5605216
0
ARC
8
DEFAULT_255_1_234
10
4.8597774
20
29.1438792
40
1.0752407
50
1.1274072
51
8.1718305
0
ARC
8
DEFAULT_255_1_234
10
4.5361964
20
29.1311885
40
1.3990231
50
0.5424119
51
1.3863029
0
ARC
8
DEFAULT_255_1_234
10
4.7183342
20
29.1584342
40
1.0682415
50
359.8090433
51
4.9407866
0
ARC
8
DEFAULT_255_1_234
10
5.1393356
20
29.1960113
40
0.6455691
50
4.8362157
51
12.2904523
0
ARC
8
DEFAULT_255_1_234
10
5.4148471
20
29.2573965
40
0.3633074
50
12.0805627
51
23.8173984
0
ARC
8
DEFAULT_255_1_234
10
5.5322176
20
29.3070919
40
0.2358723
50
24.2871213
51
31.3935614
0
ARC
8
DEFAULT_255_1_234
10
5.5846874
20
29.3414233
40
0.1732111
50
30.7407893
51
82.4657128
0
ARC
8
DEFAULT_255_1_234
10
5.5667008
20
29.2530691
40
0.263235
50
81.1060089
51
90.2184952
0
ARC
8
DEFAULT_255_1_234
10
5.5631307
20
29.2788924
40
0.2374236
50
89.3806855
51
105.6762551
0
ARC
8
DEFAULT_255_1_234
10
5.5447938
20
29.3455567
40
0.1682847
50
105.7981136
51
149.7388061
0
ARC
8
DEFAULT_255_1_234
10
5.6512016
20
29.281595
40
0.2924306
50
149.4208916
51
163.6286378
0
ARC
8
DEFAULT_255_1_234
10
5.8602904
20
29.217825
40
0.5110213
50
163.3763315
51
172.1410975
0
ARC
8
DEFAULT_255_1_234
10
6.1903623
20
29.1705518
40
0.8444586
50
172.0259487
51
178.0703232
0
ARC
8
DEFAULT_255_1_234
10
6.4933712
20
29.1561906
40
1.1477868
50
177.8631668
51
179.5044149
0
ARC
8
DEFAULT_255_1_234
10
6.3861117
20
28.9247389
40
1.0404907
50
179.7995573
51
185.2460446
0
ARC
8
DEFAULT_255_1_234
10
5.9818156
20
28.8864513
40
0.6343885
50
185.1411642
51
193.0079639
0
ARC
8
DEFAULT_255_1_234
10
5.7174629
20
28.8239641
40
0.3627568
50
192.7897626
51
205.2507664
0
ARC
8
DEFAULT_255_1_234
10
5.6128176
20
28.7772415
40
0.2481908
50
205.8005384
51
211.2537509
0
ARC
8
DEFAULT_255_1_234
10
5.5604616
20
28.742158
40
0.1852521
50
210.3789793
51
238.4008143
0
ARC
8
DEFAULT_255_1_234
10
5.5585138
20
28.7468376
40
0.1882621
50
239.6520629
51
265.9793761
0
ARC
8
DEFAULT_255_1_234
10
5.5670338
20
28.8140427
40
0.2559272
50
265.1315437
51
270.060332
0
ARC
8
DEFAULT_255_1_234
10
5.5699117
20
28.7816534
40
0.2235528
50
269.3314664
51
287.2178029
0
ARC
8
DEFAULT_255_1_234
10
5.5836969
20
28.7313279
40
0.1714108
50
287.7958004
51
329.080874
0
ARC
8
DEFAULT_255_1_234
10
5.4879426
20
28.791093
40
0.2842745
50
328.6634704
51
343.3325132
0
ARC
8
DEFAULT_255_1_234
10
5.2706446
20
28.8587863
40
0.5118644
50
343.0499468
51
351.9393422
0
ARC
8
DEFAULT_255_1_234
10
4.9239746
20
28.9098949
40
0.8622784
50
351.8069023
51
357.7959224
0
ARC
8
DEFAULT_255_1_234
10
4.6004302
20
28.9266721
40
1.1862365
50
357.5871873
51
359.2677531
0
LINE
8
DEFAULT_255_1_234
10
23.1654817
20
37.0819327
11
23.1654817
21
36.8891709
0
LINE
8
DEFAULT_255_1_234
10
22.427365
20
36.8690916
11
22.427365
21
37.0674755
0
LINE
8
DEFAULT_255_1_234
10
23.0168946
20
36.8490123
11
23.0168946
21
37.0923739
0
LINE
8
DEFAULT_255_1_234
10
22.5759521
20
37.1036184
11
22.5759521
21
36.8658789
0
ARC
8
DEFAULT_255_1_234
10
21.9407707
20
36.8842805
40
1.2247208
50
353.8441951
51
0.2287902
0
ARC
8
DEFAULT_255_1_234
10
22.4047211
20
36.8324806
40
0.7578929
50
344.4934747
51
353.9765454
0
ARC
8
DEFAULT_255_1_234
10
22.7039801
20
36.7473981
40
0.4467846
50
329.2803592
51
344.7472793
0
ARC
8
DEFAULT_255_1_234
10
22.8032626
20
36.6929018
40
0.3336173
50
324.9352394
51
328.6160465
0
ARC
8
DEFAULT_255_1_234
10
22.8409734
20
36.6665427
40
0.2876076
50
280.580143
51
324.9173126
0
ARC
8
DEFAULT_255_1_234
10
22.8008527
20
36.8336099
40
0.4592847
50
269.5977311
51
281.6734359
0
ARC
8
DEFAULT_255_1_234
10
22.7936433
20
36.8216173
40
0.4472986
50
256.6228859
51
270.51044
0
ARC
8
DEFAULT_255_1_234
10
22.753441
20
36.6667877
40
0.2873874
50
215.8618325
51
257.2788573
0
ARC
8
DEFAULT_255_1_234
10
22.8555442
20
36.7352977
40
0.4102928
50
197.9693508
51
215.2623606
0
ARC
8
DEFAULT_255_1_234
10
23.1040558
20
36.8191709
40
0.6725652
50
187.8816417
51
198.2346507
0
ARC
8
DEFAULT_255_1_234
10
23.4998766
20
36.8763079
40
1.0724845
50
180.8976217
51
188.0055519
0
ARC
8
DEFAULT_255_1_234
10
23.7798954
20
36.8866777
40
1.3526448
50
180.7449369
51
181.1510016
0
ARC
8
DEFAULT_255_1_234
10
23.6221683
20
37.0723042
40
1.1948131
50
173.7675579
51
180.231553
0
ARC
8
DEFAULT_255_1_234
10
23.170383
20
37.1233666
40
0.7401564
50
164.3058563
51
173.9002247
0
ARC
8
DEFAULT_255_1_234
10
22.8791899
20
37.2072656
40
0.4371288
50
148.7922025
51
164.568378
0
ARC
8
DEFAULT_255_1_234
10
22.7840351
20
37.2603929
40
0.3282386
50
144.5883898
51
148.1176286
0
ARC
8
DEFAULT_255_1_234
10
22.7497249
20
37.2843315
40
0.2864044
50
101.6440918
51
144.514236
0
ARC
8
DEFAULT_255_1_234
10
22.7922315
20
37.1154069
40
0.4604934
50
89.5284041
51
102.5819763
0
ARC
8
DEFAULT_255_1_234
10
22.8001403
20
37.1115018
40
0.464401
50
77.0437873
51
90.5081339
0
ARC
8
DEFAULT_255_1_234
10
22.8403405
20
37.2757615
40
0.2953195
50
48.2778575
51
77.4994676
0
ARC
8
DEFAULT_255_1_234
10
22.8476036
20
37.2886746
40
0.2808655
50
36.3142134
51
47.6305865
0
ARC
8
DEFAULT_255_1_234
10
22.7607343
20
37.2301515
40
0.3855453
50
18.2931786
51
35.6769206
0
ARC
8
DEFAULT_255_1_234
10
22.5064102
20
37.1428593
40
0.654423
50
8.024666
51
18.5605216
0
ARC
8
DEFAULT_255_1_234
10
22.0901022
20
37.0813792
40
1.0752407
50
1.1274072
51
8.1718305
0
ARC
8
DEFAULT_255_1_234
10
21.7665213
20
37.0686885
40
1.3990231
50
0.5424119
51
1.3863029
0
ARC
8
DEFAULT_255_1_234
10
21.948659
20
37.0959342
40
1.0682415
50
359.8090433
51
4.9407866
0
ARC
8
DEFAULT_255_1_234
10
22.3696604
20
37.1335113
40
0.6455691
50
4.8362157
51
12.2904523
0
ARC
8
DEFAULT_255_1_234
10
22.6451719
20
37.1948965
40
0.3633074
50
12.0805627
51
23.8173984
0
ARC
8
DEFAULT_255_1_234
10
22.7625425
20
37.2445919
40
0.2358723
50
24.2871213
51
31.3935614
0
ARC
8
DEFAULT_255_1_234
10
22.8150122
20
37.2789233
40
0.1732111
50
30.7407893
51
82.4657128
0
ARC
8
DEFAULT_255_1_234
10
22.7970256
20
37.1905691
40
0.263235
50
81.1060089
51
90.2184952
0
ARC
8
DEFAULT_255_1_234
10
22.7934555
20
37.2163924
40
0.2374236
50
89.3806855
51
105.6762551
0
ARC
8
DEFAULT_255_1_234
10
22.7751186
20
37.2830567
40
0.1682847
50
105.7981136
51
149.7388061
0
ARC
8
DEFAULT_255_1_234
10
22.8815264
20
37.219095
40
0.2924306
50
149.4208916
51
163.6286378
0
ARC
8
DEFAULT_255_1_234
10
23.0906152
20
37.155325
40
0.5110213
50
163.3763315
51
172.1410975
0
ARC
8
DEFAULT_255_1_234
10
23.4206871
20
37.1080518
40
0.8444586
50
172.0259487
51
178.0703232
0
ARC
8
DEFAULT_255_1_234
10
23.723696
20
37.0936906
40
1.1477868
50
177.8631668
51
179.5044149
0
ARC
8
DEFAULT_255_1_234
10
23.6164365
20
36.8622389
40
1.0404907
50
179.7995573
51
185.2460446
0
ARC
8
DEFAULT_255_1_234
10
23.2121404
20
36.8239513
40
0.6343885
50
185.1411642
51
193.0079639
0
ARC
8
DEFAULT_255_1_234
10
22.9477877
20
36.7614641
40
0.3627568
50
192.7897626
51
205.2507664
0
ARC
8
DEFAULT_255_1_234
10
22.8431424
20
36.7147415
40
0.2481908
50
205.8005384
51
211.2537509
0
ARC
8
DEFAULT_255_1_234
10
22.7907864
20
36.679658
40
0.1852521
50
210.3789793
51
238.4008143
0
ARC
8
DEFAULT_255_1_234
10
22.7888386
20
36.6843376
40
0.1882621
50
239.6520629
51
265.9793761
0
ARC
8
DEFAULT_255_1_234
10
22.7973586
20
36.7515427
40
0.2559272
50
265.1315437
51
270.060332
0
ARC
8
DEFAULT_255_1_234
10
22.8002365
20
36.7191534
40
0.2235528
50
269.3314664
51
287.2178029
0
ARC
8
DEFAULT_255_1_234
10
22.8140217
20
36.6688279
40
0.1714108
50
287.7958004
51
329.080874
0
ARC
8
DEFAULT_255_1_234
10
22.7182674
20
36.728593
40
0.2842745
50
328.6634704
51
343.3325132
0
ARC
8
DEFAULT_255_1_234
10
22.5009694
20
36.7962863
40
0.5118644
50
343.0499468
51
351.9393422
0
ARC
8
DEFAULT_255_1_234
10
22.1542994
20
36.8473949
40
0.8622784
50
351.8069023
51
357.7959224
0
ARC
8
DEFAULT_255_1_234
10
21.830755
20
36.8641721
40
1.1862365
50
357.5871873
51
359.2677531
0
LINE
8
DEFAULT_255_1_234
10
23.4490021
20
37.5598211
11
23.7815161
21
36.5952093
0
LINE
8
DEFAULT_255_1_234
10
23.7815161
20
36.5952093
11
24.1156364
21
37.5598211
0
LINE
8
DEFAULT_255_1_234
10
24.1156364
20
37.5598211
11
24.2843029
21
37.5598211
0
LINE
8
DEFAULT_255_1_234
10
24.2843029
20
37.5598211
11
23.850589
21
36.3904
0
LINE
8
DEFAULT_255_1_234
10
23.850589
20
36.3904
11
23.7140495
21
36.3904
0
LINE
8
DEFAULT_255_1_234
10
23.7140495
20
36.3904
11
23.2811388
21
37.5598211
0
LINE
8
DEFAULT_255_1_234
10
23.2811388
20
37.5598211
11
23.4490021
21
37.5598211
0
LINE
8
DEFAULT_255_1_234
10
22.5173458
20
5.8098211
11
22.8209456
21
5.222701
0
LINE
8
DEFAULT_255_1_234
10
22.8209456
20
5.222701
11
23.1261516
21
5.8098211
0
LINE
8
DEFAULT_255_1_234
10
23.1261516
20
5.8098211
11
23.3012435
21
5.8098211
0
LINE
8
DEFAULT_255_1_234
10
23.3012435
20
5.8098211
11
22.8980502
21
5.0765234
0
LINE
8
DEFAULT_255_1_234
10
22.8980502
20
5.0765234
11
22.8980502
21
4.6404
0
LINE
8
DEFAULT_255_1_234
10
22.8980502
20
4.6404
11
22.7438409
21
4.6404
0
LINE
8
DEFAULT_255_1_234
10
22.7438409
20
4.6404
11
22.7438409
21
5.0765234
0
LINE
8
DEFAULT_255_1_234
10
22.7438409
20
5.0765234
11
22.3406476
21
5.8098211
0
LINE
8
DEFAULT_255_1_234
10
22.3406476
20
5.8098211
11
22.5173458
21
5.8098211
0
LINE
8
DEFAULT_255_1_234
10
23.6297416
20
5.1761169
11
23.6297416
21
5.2973962
0
LINE
8
DEFAULT_255_1_234
10
23.6297416
20
5.2973962
11
23.7413828
21
5.2973962
0
LINE
8
DEFAULT_255_1_234
10
23.5510306
20
5.5030087
11
23.4024434
21
5.5030087
0
LINE
8
DEFAULT_255_1_234
10
23.3920021
20
4.9488188
11
23.5413925
21
4.9488188
0
LINE
8
DEFAULT_255_1_234
10
23.7413828
20
5.1761169
11
23.6297416
21
5.1761169
0
ARC
8
DEFAULT_255_1_234
10
23.7384694
20
5.6366713
40
0.3392876
50
270.4919872
51
281.8951556
0
ARC
8
DEFAULT_255_1_234
10
23.7625956
20
5.5264702
40
0.2264817
50
281.6691735
51
301.2943132
0
ARC
8
DEFAULT_255_1_234
10
23.7796166
20
5.4953304
40
0.1910381
50
301.7833094
51
311.7545298
0
ARC
8
DEFAULT_255_1_234
10
23.7887742
20
5.4851748
40
0.1773635
50
311.7323931
51
354.2802411
0
ARC
8
DEFAULT_255_1_234
10
23.7161367
20
5.4976722
40
0.2509385
50
353.0937916
51
0.1181479
0
ARC
8
DEFAULT_255_1_234
10
23.6700152
20
5.5024386
40
0.2970898
50
359.1805295
51
15.0453146
0
ARC
8
DEFAULT_255_1_234
10
23.8045989
20
5.5416992
40
0.1569564
50
13.9577229
51
77.6713066
0
ARC
8
DEFAULT_255_1_234
10
23.7659518
20
5.4031949
40
0.3006298
50
76.1116566
51
90.7026153
0
ARC
8
DEFAULT_255_1_234
10
23.7600356
20
5.4305545
40
0.2732568
50
89.5324876
51
103.531937
0
ARC
8
DEFAULT_255_1_234
10
23.7399801
20
5.5104884
40
0.1908508
50
103.2931773
51
133.5619022
0
ARC
8
DEFAULT_255_1_234
10
23.7355289
20
5.5164375
40
0.1834746
50
133.8349307
51
173.5344437
0
ARC
8
DEFAULT_255_1_234
10
23.8078332
20
5.5036213
40
0.2568033
50
172.5096846
51
180.1366907
0
ARC
8
DEFAULT_255_1_234
10
23.7127226
20
5.5070622
40
0.3103056
50
155.3484492
51
180.7484736
0
ARC
8
DEFAULT_255_1_234
10
23.7078315
20
5.5041846
40
0.3070957
50
131.5744599
51
154.4798489
0
ARC
8
DEFAULT_255_1_234
10
23.7391462
20
5.472531
40
0.3515643
50
96.9875458
51
131.9690667
0
ARC
8
DEFAULT_255_1_234
10
23.7610942
20
5.3479636
40
0.4779224
50
89.8596053
51
97.7825159
0
ARC
8
DEFAULT_255_1_234
10
23.7659005
20
5.3217616
40
0.5041361
50
78.3655447
51
90.4131539
0
ARC
8
DEFAULT_255_1_234
10
23.8016923
20
5.4876887
40
0.3344039
50
56.6229102
51
78.638727
0
ARC
8
DEFAULT_255_1_234
10
23.8231867
20
5.5252805
40
0.2912001
50
47.0253525
51
56.0854072
0
ARC
8
DEFAULT_255_1_234
10
23.8251647
20
5.5292223
40
0.2869704
50
10.9208013
51
46.7778124
0
ARC
8
DEFAULT_255_1_234
10
23.6887713
20
5.4976857
40
0.426899
50
359.6364486
51
11.6087304
0
ARC
8
DEFAULT_255_1_234
10
23.8722557
20
5.4961752
40
0.243409
50
332.3549906
51
359.7179418
0
ARC
8
DEFAULT_255_1_234
10
23.8072159
20
5.5270142
40
0.3153459
50
325.2333722
51
332.8745602
0
ARC
8
DEFAULT_255_1_234
10
23.8224783
20
5.5163828
40
0.2967456
50
292.9802137
51
325.2392345
0
ARC
8
DEFAULT_255_1_234
10
23.7950157
20
5.5697863
40
0.3566604
50
292.5402179
51
293.6924929
0
ARC
8
DEFAULT_255_1_234
10
23.8342752
20
4.9243091
40
0.3307468
50
57.6435486
51
72.8625112
0
ARC
8
DEFAULT_255_1_234
10
23.8697252
20
4.9817549
40
0.2632492
50
36.7248896
51
57.4697979
0
ARC
8
DEFAULT_255_1_234
10
23.8685885
20
4.983022
40
0.2634081
50
8.0545065
51
36.356114
0
ARC
8
DEFAULT_255_1_234
10
23.782307
20
4.9675174
40
0.3510261
50
359.8320645
51
8.5869982
0
ARC
8
DEFAULT_255_1_234
10
23.7447846
20
4.9627101
40
0.3885653
50
343.9829931
51
0.5571613
0
ARC
8
DEFAULT_255_1_234
10
23.8334043
20
4.9384438
40
0.2966924
50
311.6359546
51
343.7651759
0
ARC
8
DEFAULT_255_1_234
10
23.7955613
20
4.9811102
40
0.3537231
50
279.7829875
51
311.6255694
0
ARC
8
DEFAULT_255_1_234
10
23.7654389
20
5.124828
40
0.5004971
50
269.7286406
51
280.3856417
0
ARC
8
DEFAULT_255_1_234
10
23.7592461
20
5.1206996
40
0.4963778
50
256.6828919
51
270.4412052
0
ARC
8
DEFAULT_255_1_234
10
23.7253757
20
4.9822394
40
0.3538406
50
229.4223008
51
256.8556159
0
ARC
8
DEFAULT_255_1_234
10
23.683915
20
4.9355736
40
0.2914296
50
181.818294
51
229.6455059
0
ARC
8
DEFAULT_255_1_234
10
23.7879106
20
4.9486496
40
0.3959084
50
179.9755256
51
183.2323064
0
ARC
8
DEFAULT_255_1_234
10
23.7706852
20
4.9466037
40
0.2293034
50
179.4465117
51
196.2869258
0
ARC
8
DEFAULT_255_1_234
10
23.721926
20
4.9332651
40
0.1787621
50
196.5661473
51
227.705904
0
ARC
8
DEFAULT_255_1_234
10
23.7383355
20
4.9516155
40
0.2033784
50
227.7652068
51
257.8762805
0
ARC
8
DEFAULT_255_1_234
10
23.7608325
20
5.0459156
40
0.3003081
50
257.4584385
51
270.426602
0
ARC
8
DEFAULT_255_1_234
10
23.7653891
20
5.0748996
40
0.329292
50
269.5962073
51
280.8789248
0
ARC
8
DEFAULT_255_1_234
10
23.788342
20
4.9602685
40
0.2123908
50
280.6346389
51
299.8595945
0
ARC
8
DEFAULT_255_1_234
10
23.8074327
20
4.9240212
40
0.171457
50
300.3576302
51
314.5517981
0
ARC
8
DEFAULT_255_1_234
10
23.7991387
20
4.9300919
40
0.1816095
50
315.0728369
51
345.0431014
0
ARC
8
DEFAULT_255_1_234
10
23.7068201
20
4.9569841
40
0.2777492
50
344.5986631
51
357.9269593
0
ARC
8
DEFAULT_255_1_234
10
23.6172528
20
4.9631276
40
0.3674917
50
357.4748886
51
0.0231117
0
ARC
8
DEFAULT_255_1_234
10
23.7195637
20
4.9655679
40
0.2651907
50
359.5047933
51
13.4239635
0
ARC
8
DEFAULT_255_1_234
10
23.8062281
20
4.9877478
40
0.1757509
50
12.9498199
51
48.7551375
0
ARC
8
DEFAULT_255_1_234
10
23.7880014
20
4.96284
40
0.2065134
50
49.5088623
51
72.1836453
0
ARC
8
DEFAULT_255_1_234
10
23.7522167
20
4.8566291
40
0.3185836
50
71.9010081
51
84.3554254
0
ARC
8
DEFAULT_255_1_234
10
23.7360799
20
4.7205326
40
0.4556151
50
84.0193428
51
89.333121
0
LINE
8
DEFAULT_255_1_234
10
22.5173458
20
13.7473211
11
22.8209456
21
13.160201
0
LINE
8
DEFAULT_255_1_234
10
22.8209456
20
13.160201
11
23.1261516
21
13.7473211
0
LINE
8
DEFAULT_255_1_234
10
23.1261516
20
13.7473211
11
23.3012435
21
13.7473211
0
LINE
8
DEFAULT_255_1_234
10
23.3012435
20
13.7473211
11
22.8980502
21
13.0140234
0
LINE
8
DEFAULT_255_1_234
10
22.8980502
20
13.0140234
11
22.8980502
21
12.5779
0
LINE
8
DEFAULT_255_1_234
10
22.8980502
20
12.5779
11
22.7438409
21
12.5779
0
LINE
8
DEFAULT_255_1_234
10
22.7438409
20
12.5779
11
22.7438409
21
13.0140234
0
LINE
8
DEFAULT_255_1_234
10
22.7438409
20
13.0140234
11
22.3406476
21
13.7473211
0
LINE
8
DEFAULT_255_1_234
10
22.3406476
20
13.7473211
11
22.5173458
21
13.7473211
0
LINE
8
DEFAULT_255_1_234
10
24.1799157
20
12.6991792
11
24.1799157
21
12.5779
0
LINE
8
DEFAULT_255_1_234
10
24.1799157
20
12.5779
11
23.4136878
21
12.5779
0
LINE
8
DEFAULT_255_1_234
10
23.4136878
20
12.5779
11
23.4136878
21
12.6847221
0
LINE
8
DEFAULT_255_1_234
10
23.4136878
20
12.6847221
11
23.8184875
21
13.1344995
0
LINE
8
DEFAULT_255_1_234
10
23.5397861
20
13.4027595
11
23.391199
21
13.4027595
0
LINE
8
DEFAULT_255_1_234
10
23.9060334
20
13.0389218
11
23.5927956
21
12.6991792
0
LINE
8
DEFAULT_255_1_234
10
23.5927956
20
12.6991792
11
24.1799157
21
12.6991792
0
ARC
8
DEFAULT_255_1_234
10
22.4694708
20
14.3274527
40
1.8008286
50
318.5132453
51
320.7828378
0
ARC
8
DEFAULT_255_1_234
10
22.9981682
20
13.8971426
40
1.1191493
50
320.7372736
51
323.9737074
0
ARC
8
DEFAULT_255_1_234
10
23.3901539
20
13.6131361
40
0.6350923
50
323.8961724
51
328.6421089
0
ARC
8
DEFAULT_255_1_234
10
23.5948134
20
13.4869031
40
0.3946393
50
328.8299013
51
331.789948
0
ARC
8
DEFAULT_255_1_234
10
23.6945313
20
13.4354509
40
0.2824501
50
331.4255242
51
352.9364833
0
ARC
8
DEFAULT_255_1_234
10
23.7081813
20
13.4323976
40
0.2685315
50
353.2248685
51
0.0169286
0
ARC
8
DEFAULT_255_1_234
10
23.729169
20
13.434695
40
0.2475536
50
359.4866256
51
15.9339782
0
ARC
8
DEFAULT_255_1_234
10
23.7798675
20
13.4483286
40
0.1950618
50
16.1714718
51
43.5284424
0
ARC
8
DEFAULT_255_1_234
10
23.7875984
20
13.4560573
40
0.184134
50
43.4415429
51
83.1661404
0
ARC
8
DEFAULT_255_1_234
10
23.7741902
20
13.3823771
40
0.258926
50
82.160215
51
90.1505798
0
ARC
8
DEFAULT_255_1_234
10
23.7710329
20
13.3286865
40
0.3126255
50
89.5460705
51
102.5418777
0
ARC
8
DEFAULT_255_1_234
10
23.7467416
20
13.4317665
40
0.2067346
50
102.1739365
51
129.2061916
0
ARC
8
DEFAULT_255_1_234
10
23.7388487
20
13.4442094
40
0.1921118
50
129.7279328
51
135.7542026
0
ARC
8
DEFAULT_255_1_234
10
23.7510015
20
13.4345045
40
0.2075944
50
136.175737
51
166.3674722
0
ARC
8
DEFAULT_255_1_234
10
23.8516934
20
13.4075182
40
0.3118201
50
165.9092917
51
178.8683903
0
ARC
8
DEFAULT_255_1_234
10
23.9381795
20
13.4028179
40
0.3983935
50
178.438168
51
180.0083905
0
ARC
8
DEFAULT_255_1_234
10
23.7980398
20
13.4067231
40
0.4068601
50
163.2878735
51
180.5581814
0
ARC
8
DEFAULT_255_1_234
10
23.7178659
20
13.428784
40
0.3237344
50
133.454115
51
162.9470031
0
ARC
8
DEFAULT_255_1_234
10
23.73572
20
13.4098
40
0.349795
50
100.7869394
51
133.4384016
0
ARC
8
DEFAULT_255_1_234
10
23.7704972
20
13.2549319
40
0.5084616
50
89.6605301
51
101.3704185
0
ARC
8
DEFAULT_255_1_234
10
23.7771311
20
13.2610496
40
0.502348
50
78.2171172
51
90.4130393
0
ARC
8
DEFAULT_255_1_234
10
23.8126389
20
13.4234637
40
0.3361092
50
55.9268222
51
78.4888551
0
ARC
8
DEFAULT_255_1_234
10
23.8322829
20
13.4573324
40
0.2970617
50
47.9292255
51
55.4054003
0
ARC
8
DEFAULT_255_1_234
10
23.842439
20
13.4676502
40
0.2825983
50
4.3347696
51
48.0560701
0
ARC
8
DEFAULT_255_1_234
10
23.7328783
20
13.4506601
40
0.393225
50
359.925209
51
5.5967654
0
ARC
8
DEFAULT_255_1_234
10
23.7757675
20
13.4562816
40
0.3503892
50
337.8914096
51
358.9967724
0
ARC
8
DEFAULT_255_1_234
10
23.5044087
20
13.5609706
40
0.6412172
50
326.9135351
51
338.3505194
0
ARC
8
DEFAULT_255_1_234
10
23.1058391
20
13.8164284
40
1.1146189
50
319.6472867
51
327.095818
0
ARC
8
DEFAULT_255_1_234
10
22.7225394
20
14.1326
40
1.6114559
50
317.2586784
51
319.9046139
0
LINE
8
DEFAULT_255_1_234
10
22.5261458
20
21.6848211
11
22.8297456
21
21.097701
0
LINE
8
DEFAULT_255_1_234
10
22.8297456
20
21.097701
11
23.1349516
21
21.6848211
0
LINE
8
DEFAULT_255_1_234
10
23.1349516
20
21.6848211
11
23.3100435
21
21.6848211
0
LINE
8
DEFAULT_255_1_234
10
23.3100435
20
21.6848211
11
22.9068502
21
20.9515234
0
LINE
8
DEFAULT_255_1_234
10
22.9068502
20
20.9515234
11
22.9068502
21
20.5154
0
LINE
8
DEFAULT_255_1_234
10
22.9068502
20
20.5154
11
22.7526409
21
20.5154
0
LINE
8
DEFAULT_255_1_234
10
22.7526409
20
20.5154
11
22.7526409
21
20.9515234
0
LINE
8
DEFAULT_255_1_234
10
22.7526409
20
20.9515234
11
22.3494476
21
21.6848211
0
LINE
8
DEFAULT_255_1_234
10
22.3494476
20
21.6848211
11
22.5261458
21
21.6848211
0
LINE
8
DEFAULT_255_1_234
10
23.9108175
20
21.6904433
11
23.9108175
21
20.5154
0
LINE
8
DEFAULT_255_1_234
10
23.9108175
20
20.5154
11
23.7614272
21
20.5154
0
LINE
8
DEFAULT_255_1_234
10
23.7614272
20
20.5154
11
23.7614272
21
21.5057133
0
LINE
8
DEFAULT_255_1_234
10
23.7614272
20
21.5057133
11
23.4618434
21
21.3956785
0
LINE
8
DEFAULT_255_1_234
10
23.4618434
20
21.3956785
11
23.4618434
21
21.5306117
0
LINE
8
DEFAULT_255_1_234
10
23.4618434
20
21.5306117
11
23.8875255
21
21.6904433
0
LINE
8
DEFAULT_255_1_234
10
23.8875255
20
21.6904433
11
23.9108175
21
21.6904433
0
LINE
8
DEFAULT_255_1_234
10
22.5173458
20
29.6223211
11
22.8209456
21
29.035201
0
LINE
8
DEFAULT_255_1_234
10
22.8209456
20
29.035201
11
23.1261516
21
29.6223211
0
LINE
8
DEFAULT_255_1_234
10
23.1261516
20
29.6223211
11
23.3012435
21
29.6223211
0
LINE
8
DEFAULT_255_1_234
10
23.3012435
20
29.6223211
11
22.8980502
21
28.8890234
0
LINE
8
DEFAULT_255_1_234
10
22.8980502
20
28.8890234
11
22.8980502
21
28.4529
0
LINE
8
DEFAULT_255_1_234
10
22.8980502
20
28.4529
11
22.7438409
21
28.4529
0
LINE
8
DEFAULT_255_1_234
10
22.7438409
20
28.4529
11
22.7438409
21
28.8890234
0
LINE
8
DEFAULT_255_1_234
10
22.7438409
20
28.8890234
11
22.3406476
21
29.6223211
0
LINE
8
DEFAULT_255_1_234
10
22.3406476
20
29.6223211
11
22.5173458
21
29.6223211
0
LINE
8
DEFAULT_255_1_234
10
24.1469855
20
29.1444327
11
24.1469855
21
28.9516709
0
LINE
8
DEFAULT_255_1_234
10
23.4088688
20
28.9315916
11
23.4088688
21
29.1299755
0
LINE
8
DEFAULT_255_1_234
10
23.9983984
20
28.9115123
11
23.9983984
21
29.1548739
0
LINE
8
DEFAULT_255_1_234
10
23.557456
20
29.1661184
11
23.557456
21
28.9283789
0
ARC
8
DEFAULT_255_1_234
10
22.9222745
20
28.9467805
40
1.2247208
50
353.8441951
51
0.2287902
0
ARC
8
DEFAULT_255_1_234
10
23.3862249
20
28.8949806
40
0.7578929
50
344.4934747
51
353.9765454
0
ARC
8
DEFAULT_255_1_234
10
23.6854839
20
28.8098981
40
0.4467846
50
329.2803592
51
344.7472793
0
ARC
8
DEFAULT_255_1_234
10
23.7847664
20
28.7554018
40
0.3336173
50
324.9352394
51
328.6160465
0
ARC
8
DEFAULT_255_1_234
10
23.8224773
20
28.7290427
40
0.2876076
50
280.580143
51
324.9173126
0
ARC
8
DEFAULT_255_1_234
10
23.7823565
20
28.8961099
40
0.4592847
50
269.5977311
51
281.6734359
0
ARC
8
DEFAULT_255_1_234
10
23.7751471
20
28.8841173
40
0.4472986
50
256.6228859
51
270.51044
0
ARC
8
DEFAULT_255_1_234
10
23.7349449
20
28.7292877
40
0.2873874
50
215.8618325
51
257.2788573
0
ARC
8
DEFAULT_255_1_234
10
23.837048
20
28.7977977
40
0.4102928
50
197.9693508
51
215.2623606
0
ARC
8
DEFAULT_255_1_234
10
24.0855596
20
28.8816709
40
0.6725652
50
187.8816417
51
198.2346507
0
ARC
8
DEFAULT_255_1_234
10
24.4813804
20
28.9388079
40
1.0724845
50
180.8976217
51
188.0055519
0
ARC
8
DEFAULT_255_1_234
10
24.7613992
20
28.9491777
40
1.3526448
50
180.7449369
51
181.1510016
0
ARC
8
DEFAULT_255_1_234
10
24.6036721
20
29.1348042
40
1.1948131
50
173.7675579
51
180.231553
0
ARC
8
DEFAULT_255_1_234
10
24.1518868
20
29.1858666
40
0.7401564
50
164.3058563
51
173.9002247
0
ARC
8
DEFAULT_255_1_234
10
23.8606937
20
29.2697656
40
0.4371288
50
148.7922025
51
164.568378
0
ARC
8
DEFAULT_255_1_234
10
23.7655389
20
29.3228929
40
0.3282386
50
144.5883898
51
148.1176286
0
ARC
8
DEFAULT_255_1_234
10
23.7312287
20
29.3468315
40
0.2864044
50
101.6440918
51
144.514236
0
ARC
8
DEFAULT_255_1_234
10
23.7737354
20
29.1779069
40
0.4604934
50
89.5284041
51
102.5819763
0
ARC
8
DEFAULT_255_1_234
10
23.7816441
20
29.1740018
40
0.464401
50
77.0437873
51
90.5081339
0
ARC
8
DEFAULT_255_1_234
10
23.8218443
20
29.3382615
40
0.2953195
50
48.2778575
51
77.4994676
0
ARC
8
DEFAULT_255_1_234
10
23.8291074
20
29.3511746
40
0.2808655
50
36.3142134
51
47.6305865
0
ARC
8
DEFAULT_255_1_234
10
23.7422381
20
29.2926515
40
0.3855453
50
18.2931786
51
35.6769206
0
ARC
8
DEFAULT_255_1_234
10
23.487914
20
29.2053593
40
0.654423
50
8.024666
51
18.5605216
0
ARC
8
DEFAULT_255_1_234
10
23.071606
20
29.1438792
40
1.0752407
50
1.1274072
51
8.1718305
0
ARC
8
DEFAULT_255_1_234
10
22.7480251
20
29.1311885
40
1.3990231
50
0.5424119
51
1.3863029
0
ARC
8
DEFAULT_255_1_234
10
22.9301629
20
29.1584342
40
1.0682415
50
359.8090433
51
4.9407866
0
ARC
8
DEFAULT_255_1_234
10
23.3511643
20
29.1960113
40
0.6455691
50
4.8362157
51
12.2904523
0
ARC
8
DEFAULT_255_1_234
10
23.6266757
20
29.2573965
40
0.3633074
50
12.0805627
51
23.8173984
0
ARC
8
DEFAULT_255_1_234
10
23.7440463
20
29.3070919
40
0.2358723
50
24.2871213
51
31.3935614
0
ARC
8
DEFAULT_255_1_234
10
23.796516
20
29.3414233
40
0.1732111
50
30.7407893
51
82.4657128
0
ARC
8
DEFAULT_255_1_234
10
23.7785294
20
29.2530691
40
0.263235
50
81.1060089
51
90.2184952
0
ARC
8
DEFAULT_255_1_234
10
23.7749593
20
29.2788924
40
0.2374236
50
89.3806855
51
105.6762551
0
ARC
8
DEFAULT_255_1_234
10
23.7566224
20
29.3455567
40
0.1682847
50
105.7981136
51
149.7388061
0
ARC
8
DEFAULT_255_1_234
10
23.8630302
20
29.281595
40
0.2924306
50
149.4208916
51
163.6286378
0
ARC
8
DEFAULT_255_1_234
10
24.072119
20
29.217825
40
0.5110213
50
163.3763315
51
172.1410975
0
ARC
8
DEFAULT_255_1_234
10
24.4021909
20
29.1705518
40
0.8444586
50
172.0259487
51
178.0703232
0
ARC
8
DEFAULT_255_1_234
10
24.7051999
20
29.1561906
40
1.1477868
50
177.8631668
51
179.5044149
0
ARC
8
DEFAULT_255_1_234
10
24.5979403
20
28.9247389
40
1.0404907
50
179.7995573
51
185.2460446
0
ARC
8
DEFAULT_255_1_234
10
24.1936442
20
28.8864513
40
0.6343885
50
185.1411642
51
193.0079639
0
ARC
8
DEFAULT_255_1_234
10
23.9292915
20
28.8239641
40
0.3627568
50
192.7897626
51
205.2507664
0
ARC
8
DEFAULT_255_1_234
10
23.8246462
20
28.7772415
40
0.2481908
50
205.8005384
51
211.2537509
0
ARC
8
DEFAULT_255_1_234
10
23.7722902
20
28.742158
40
0.1852521
50
210.3789793
51
238.4008143
0
ARC
8
DEFAULT_255_1_234
10
23.7703424
20
28.7468376
40
0.1882621
50
239.6520629
51
265.9793761
0
ARC
8
DEFAULT_255_1_234
10
23.7788624
20
28.8140427
40
0.2559272
50
265.1315437
51
270.060332
0
ARC
8
DEFAULT_255_1_234
10
23.7817403
20
28.7816534
40
0.2235528
50
269.3314664
51
287.2178029
0
ARC
8
DEFAULT_255_1_234
10
23.7955255
20
28.7313279
40
0.1714108
50
287.7958004
51
329.080874
0
ARC
8
DEFAULT_255_1_234
10
23.6997712
20
28.791093
40
0.2842745
50
328.6634704
51
343.3325132
0
ARC
8
DEFAULT_255_1_234
10
23.4824732
20
28.8587863
40
0.5118644
50
343.0499468
51
351.9393422
0
ARC
8
DEFAULT_255_1_234
10
23.1358032
20
28.9098949
40
0.8622784
50
351.8069023
51
357.7959224
0
ARC
8
DEFAULT_255_1_234
10
22.8122588
20
28.9266721
40
1.1862365
50
357.5871873
51
359.2677531
0
ENDSEC
0
EOF