0
SECTION
2
HEADER
9
$MEASUREMENT
70
1
0
ENDSEC
0
SECTION
2
TABLES
0
TABLE
2
LTYPE
0
LTYPE
72
65
70
64
2
CONTINUOUS
3
______
73
0
40
0
0
ENDTAB
0
TABLE
2
LAYER
0
LAYER
2
DEFAULT_255_2_778
70
0
62
255
6
CONTINUOUS
0
LAYER
2
DEFAULT_255_1_234
70
0
62
255
6
CONTINUOUS
0
ENDTAB
0
ENDSEC
0
SECTION
2
ENTITIES
0
ARC
8
DEFAULT_255_2_778
10
3.5700693
20
139.3052021
40
0.7914215
50
129.1312896
51
180.1450914
0
ARC
8
DEFAULT_255_2_778
10
3.5703345
20
139.3056893
40
0.7912112
50
89.854026
51
129.1684493
0
ARC
8
DEFAULT_255_2_778
10
25.7993937
20
139.3053758
40
0.7915249
50
39.4792447
51
90.147911
0
ARC
8
DEFAULT_255_2_778
10
25.7999935
20
139.3052224
40
0.7911595
50
359.8533901
51
39.5154338
0
ARC
8
DEFAULT_255_2_778
10
25.7996693
20
-1.9863501
40
0.7914836
50
309.4761667
51
0.1482649
0
ARC
8
DEFAULT_255_2_778
10
25.799398
20
-1.9867812
40
0.7913235
50
269.8517415
51
309.511178
0
ARC
8
DEFAULT_255_2_778
10
3.570342
20
-1.986723
40
0.7913815
50
219.1282118
51
270.1454017
0
ARC
8
DEFAULT_255_2_778
10
3.5700247
20
-1.9863406
40
0.7913769
50
179.8524075
51
219.1641908
0
LINE
8
DEFAULT_255_2_778
10
3.5723503
20
140.096898
11
25.7973503
21
140.096898
0
LINE
8
DEFAULT_255_2_778
10
26.5911503
20
139.303198
11
26.5911503
21
-1.984302
0
LINE
8
DEFAULT_255_2_778
10
25.7973503
20
-2.778102
11
3.5723503
21
-2.778102
0
LINE
8
DEFAULT_255_2_778
10
2.7786503
20
-1.984302
11
2.7786503
21
139.303198
0
LINE
8
DEFAULT_255_1_234
10
10.785785
20
-0.0087609
11
10.785785
21
-0.1348592
0
LINE
8
DEFAULT_255_1_234
10
10.785785
20
-0.1348592
11
10.2950458
21
-0.1348592
0
LINE
8
DEFAULT_255_1_234
10
10.2950458
20
-0.1348592
11
10.2950458
21
-0.6513
0
LINE
8
DEFAULT_255_1_234
10
10.2950458
20
-0.6513
11
10.1408364
21
-0.6513
0
LINE
8
DEFAULT_255_1_234
10
10.1408364
20
-0.6513
11
10.1408364
21
0.5181211
0
LINE
8
DEFAULT_255_1_234
10
10.1408364
20
0.5181211
11
10.8652992
21
0.5181211
0
LINE
8
DEFAULT_255_1_234
10
10.8652992
20
0.5181211
11
10.8652992
21
0.3912196
0
LINE
8
DEFAULT_255_1_234
10
10.8652992
20
0.3912196
11
10.2950458
21
0.3912196
0
LINE
8
DEFAULT_255_1_234
10
10.2950458
20
0.3912196
11
10.2950458
21
-0.0087609
0
LINE
8
DEFAULT_255_1_234
10
10.2950458
20
-0.0087609
11
10.785785
21
-0.0087609
0
LINE
8
DEFAULT_255_1_234
10
11.1496227
20
0.5181211
11
11.4315367
21
0.0699501
0
LINE
8
DEFAULT_255_1_234
10
11.4315367
20
0.0699501
11
11.7118444
21
0.5181211
0
LINE
8
DEFAULT_255_1_234
10
11.7118444
20
0.5181211
11
11.8933617
21
0.5181211
0
LINE
8
DEFAULT_255_1_234
10
11.8933617
20
0.5181211
11
11.5239017
21
-0.0617704
0
LINE
8
DEFAULT_255_1_234
10
11.5239017
20
-0.0617704
11
11.9021966
21
-0.6513
0
LINE
8
DEFAULT_255_1_234
10
11.9021966
20
-0.6513
11
11.7190729
21
-0.6513
0
LINE
8
DEFAULT_255_1_234
10
11.7190729
20
-0.6513
11
11.4315367
21
-0.1950973
0
LINE
8
DEFAULT_255_1_234
10
11.4315367
20
-0.1950973
11
11.1423941
21
-0.6513
0
LINE
8
DEFAULT_255_1_234
10
11.1423941
20
-0.6513
11
10.9600737
21
-0.6513
0
LINE
8
DEFAULT_255_1_234
10
10.9600737
20
-0.6513
11
11.3391717
21
-0.0617704
0
LINE
8
DEFAULT_255_1_234
10
11.3391717
20
-0.0617704
11
10.9689086
21
0.5181211
0
LINE
8
DEFAULT_255_1_234
10
10.9689086
20
0.5181211
11
11.1496227
21
0.5181211
0
LINE
8
DEFAULT_255_1_234
10
12.8089798
20
-0.5300208
11
12.8089798
21
-0.6513
0
LINE
8
DEFAULT_255_1_234
10
12.8089798
20
-0.6513
11
12.042752
21
-0.6513
0
LINE
8
DEFAULT_255_1_234
10
12.042752
20
-0.6513
11
12.042752
21
-0.5444779
0
LINE
8
DEFAULT_255_1_234
10
12.042752
20
-0.5444779
11
12.4475516
21
-0.0947005
0
LINE
8
DEFAULT_255_1_234
10
12.1688503
20
0.1735595
11
12.0202631
21
0.1735595
0
LINE
8
DEFAULT_255_1_234
10
12.5350976
20
-0.1902782
11
12.2218598
21
-0.5300208
0
LINE
8
DEFAULT_255_1_234
10
12.2218598
20
-0.5300208
11
12.8089798
21
-0.5300208
0
ARC
8
DEFAULT_255_1_234
10
11.0985349
20
1.0982527
40
1.8008286
50
318.5132453
51
320.7828378
0
ARC
8
DEFAULT_255_1_234
10
11.6272324
20
0.6679426
40
1.1191493
50
320.7372736
51
323.9737074
0
ARC
8
DEFAULT_255_1_234
10
12.019218
20
0.3839361
40
0.6350923
50
323.8961724
51
328.6421089
0
ARC
8
DEFAULT_255_1_234
10
12.2238776
20
0.2577031
40
0.3946393
50
328.8299013
51
331.789948
0
ARC
8
DEFAULT_255_1_234
10
12.3235954
20
0.2062509
40
0.2824501
50
331.4255242
51
352.9364833
0
ARC
8
DEFAULT_255_1_234
10
12.3372455
20
0.2031976
40
0.2685315
50
353.2248685
51
0.0169286
0
ARC
8
DEFAULT_255_1_234
10
12.3582332
20
0.205495
40
0.2475536
50
359.4866256
51
15.9339782
0
ARC
8
DEFAULT_255_1_234
10
12.4089317
20
0.2191286
40
0.1950618
50
16.1714718
51
43.5284424
0
ARC
8
DEFAULT_255_1_234
10
12.4166625
20
0.2268573
40
0.184134
50
43.4415429
51
83.1661404
0
ARC
8
DEFAULT_255_1_234
10
12.4032544
20
0.1531771
40
0.258926
50
82.160215
51
90.1505798
0
ARC
8
DEFAULT_255_1_234
10
12.4000971
20
0.0994865
40
0.3126255
50
89.5460705
51
102.5418777
0
ARC
8
DEFAULT_255_1_234
10
12.3758057
20
0.2025665
40
0.2067346
50
102.1739365
51
129.2061916
0
ARC
8
DEFAULT_255_1_234
10
12.3679129
20
0.2150094
40
0.1921118
50
129.7279328
51
135.7542026
0
ARC
8
DEFAULT_255_1_234
10
12.3800656
20
0.2053045
40
0.2075944
50
136.175737
51
166.3674722
0
ARC
8
DEFAULT_255_1_234
10
12.4807576
20
0.1783182
40
0.3118201
50
165.9092917
51
178.8683903
0
ARC
8
DEFAULT_255_1_234
10
12.5672437
20
0.1736179
40
0.3983935
50
178.438168
51
180.0083905
0
ARC
8
DEFAULT_255_1_234
10
12.4271039
20
0.1775231
40
0.4068601
50
163.2878735
51
180.5581814
0
ARC
8
DEFAULT_255_1_234
10
12.34693
20
0.199584
40
0.3237344
50
133.454115
51
162.9470031
0
ARC
8
DEFAULT_255_1_234
10
12.3647842
20
0.1806
40
0.349795
50
100.7869394
51
133.4384016
0
ARC
8
DEFAULT_255_1_234
10
12.3995613
20
0.0257319
40
0.5084616
50
89.6605301
51
101.3704185
0
ARC
8
DEFAULT_255_1_234
10
12.4061952
20
0.0318496
40
0.502348
50
78.2171172
51
90.4130393
0
ARC
8
DEFAULT_255_1_234
10
12.441703
20
0.1942637
40
0.3361092
50
55.9268222
51
78.4888551
0
ARC
8
DEFAULT_255_1_234
10
12.4613471
20
0.2281324
40
0.2970617
50
47.9292255
51
55.4054003
0
ARC
8
DEFAULT_255_1_234
10
12.4715031
20
0.2384502
40
0.2825983
50
4.3347696
51
48.0560701
0
ARC
8
DEFAULT_255_1_234
10
12.3619425
20
0.2214601
40
0.393225
50
359.925209
51
5.5967654
0
ARC
8
DEFAULT_255_1_234
10
12.4048317
20
0.2270816
40
0.3503892
50
337.8914096
51
358.9967724
0
ARC
8
DEFAULT_255_1_234
10
12.1334729
20
0.3317706
40
0.6412172
50
326.9135351
51
338.3505194
0
ARC
8
DEFAULT_255_1_234
10
11.7349032
20
0.5872284
40
1.1146189
50
319.6472867
51
327.095818
0
ARC
8
DEFAULT_255_1_234
10
11.3516036
20
0.9034
40
1.6114559
50
317.2586784
51
319.9046139
0
LINE
8
DEFAULT_255_1_234
10
13.9037058
20
0.5181211
11
13.9037058
21
-0.6513
0
LINE
8
DEFAULT_255_1_234
10
13.9037058
20
-0.6513
11
13.7486932
21
-0.6513
0
LINE
8
DEFAULT_255_1_234
10
13.7486932
20
-0.6513
11
13.1599668
21
0.249861
0
LINE
8
DEFAULT_255_1_234
10
13.1599668
20
0.249861
11
13.1599668
21
-0.6513
0
LINE
8
DEFAULT_255_1_234
10
13.1599668
20
-0.6513
11
13.0049542
21
-0.6513
0
LINE
8
DEFAULT_255_1_234
10
13.0049542
20
-0.6513
11
13.0049542
21
0.5181211
0
LINE
8
DEFAULT_255_1_234
10
13.0049542
20
0.5181211
11
13.1599668
21
0.5181211
0
LINE
8
DEFAULT_255_1_234
10
13.1599668
20
0.5181211
11
13.7502996
21
-0.3870558
0
LINE
8
DEFAULT_255_1_234
10
13.7502996
20
-0.3870558
11
13.7502996
21
0.5181211
0
LINE
8
DEFAULT_255_1_234
10
13.7502996
20
0.5181211
11
13.9037058
21
0.5181211
0
LINE
8
DEFAULT_255_1_234
10
14.4635179
20
-0.0938974
11
14.4635179
21
-0.2151766
0
LINE
8
DEFAULT_255_1_234
10
14.4635179
20
-0.2151766
11
14.0715691
21
-0.2151766
0
LINE
8
DEFAULT_255_1_234
10
14.0715691
20
-0.2151766
11
14.0715691
21
-0.0938974
0
LINE
8
DEFAULT_255_1_234
10
14.0715691
20
-0.0938974
11
14.4635179
21
-0.0938974
0
LINE
8
DEFAULT_255_1_234
10
15.0811586
20
0.5237433
11
15.0811586
21
-0.6513
0
LINE
8
DEFAULT_255_1_234
10
15.0811586
20
-0.6513
11
14.9317683
21
-0.6513
0
LINE
8
DEFAULT_255_1_234
10
14.9317683
20
-0.6513
11
14.9317683
21
0.3390133
0
LINE
8
DEFAULT_255_1_234
10
14.9317683
20
0.3390133
11
14.6321844
21
0.2289785
0
LINE
8
DEFAULT_255_1_234
10
14.6321844
20
0.2289785
11
14.6321844
21
0.3639117
0
LINE
8
DEFAULT_255_1_234
10
14.6321844
20
0.3639117
11
15.0578666
21
0.5237433
0
LINE
8
DEFAULT_255_1_234
10
15.0578666
20
0.5237433
11
15.0811586
21
0.5237433
0
LINE
8
DEFAULT_255_1_234
10
16.0730783
20
0.5189243
11
16.099583
21
0.5189243
0
LINE
8
DEFAULT_255_1_234
10
16.099583
20
0.5189243
11
16.099583
21
0.392826
0
LINE
8
DEFAULT_255_1_234
10
16.099583
20
0.392826
11
16.0722751
21
0.392826
0
LINE
8
DEFAULT_255_1_234
10
15.5253137
20
-0.2063417
11
15.5253137
21
-0.1493164
0
LINE
8
DEFAULT_255_1_234
10
15.6747041
20
-0.1685925
11
15.6747041
21
-0.2232083
0
ARC
8
DEFAULT_255_1_234
10
16.0775099
20
-0.1069545
40
0.4998079
50
90.6001036
51
104.514704
0
ARC
8
DEFAULT_255_1_234
10
16.0386614
20
0.0375131
40
0.3502176
50
104.2855254
51
133.862935
0
ARC
8
DEFAULT_255_1_234
10
16.0550372
20
0.026683
40
0.3693984
50
134.5302688
51
161.6210873
0
ARC
8
DEFAULT_255_1_234
10
16.220356
20
-0.0316105
40
0.5446739
50
161.2849839
51
174.2076652
0
ARC
8
DEFAULT_255_1_234
10
16.3610498
20
-0.0510213
40
0.6866274
50
173.7810589
51
174.9254635
0
ARC
8
DEFAULT_255_1_234
10
15.9060329
20
-0.1893161
40
0.3033419
50
95.8330959
51
138.9954921
0
ARC
8
DEFAULT_255_1_234
10
15.9283685
20
-0.3171625
40
0.4328947
50
89.8753725
51
97.0544009
0
ARC
8
DEFAULT_255_1_234
10
15.9331152
20
-0.2336252
40
0.3493769
50
71.6407809
51
90.6240094
0
ARC
8
DEFAULT_255_1_234
10
15.9481725
20
-0.1781918
40
0.2920396
50
39.6367836
51
71.019018
0
ARC
8
DEFAULT_255_1_234
10
15.8845198
20
-0.2332002
40
0.3761538
50
10.658731
51
39.9043955
0
ARC
8
DEFAULT_255_1_234
10
15.7297281
20
-0.2668314
40
0.5345136
50
359.682601
51
11.132623
0
ARC
8
DEFAULT_255_1_234
10
15.7257412
20
-0.273899
40
0.5385081
50
347.2486944
51
0.4369317
0
ARC
8
DEFAULT_255_1_234
10
15.8924889
20
-0.3140193
40
0.3670249
50
318.1409698
51
347.6118597
0
ARC
8
DEFAULT_255_1_234
10
15.9249882
20
-0.3407298
40
0.3250007
50
275.6342139
51
317.8248465
0
ARC
8
DEFAULT_255_1_234
10
15.9028993
20
-0.2107781
40
0.4565864
50
269.8874292
51
276.7917694
0
ARC
8
DEFAULT_255_1_234
10
15.8974064
20
-0.3133257
40
0.3540676
50
246.9140195
51
270.7437342
0
ARC
8
DEFAULT_255_1_234
10
15.8980454
20
-0.3275616
40
0.3412781
50
218.1665114
51
245.878116
0
ARC
8
DEFAULT_255_1_234
10
15.9859915
20
-0.2539721
40
0.455911
50
191.4115814
51
218.6077802
0
ARC
8
DEFAULT_255_1_234
10
16.1798004
20
-0.2105167
40
0.6545001
50
179.6345085
51
191.7836486
0
ARC
8
DEFAULT_255_1_234
10
16.7380341
20
-0.1426303
40
1.2127388
50
171.4525249
51
180.3158839
0
ARC
8
DEFAULT_255_1_234
10
16.2985216
20
-0.0742392
40
0.7679464
50
157.9802646
51
171.6246686
0
ARC
8
DEFAULT_255_1_234
10
16.0771237
20
0.0140421
40
0.5296008
50
141.4298019
51
157.854097
0
ARC
8
DEFAULT_255_1_234
10
16.0129558
20
0.0594381
40
0.4511509
50
102.8715806
51
140.8564722
0
ARC
8
DEFAULT_255_1_234
10
16.0777173
20
-0.1845448
40
0.7034845
50
90.3778349
51
103.5869322
0
ARC
8
DEFAULT_255_1_234
10
15.903895
20
-0.245027
40
0.2370698
50
89.8751008
51
126.2071704
0
ARC
8
DEFAULT_255_1_234
10
15.9084739
20
-0.2604697
40
0.2522934
50
124.9745049
51
144.895901
0
ARC
8
DEFAULT_255_1_234
10
15.890893
20
-0.246144
40
0.2296779
50
145.2974905
51
160.2660252
0
ARC
8
DEFAULT_255_1_234
10
16.1981469
20
-0.2263929
40
0.5234525
50
179.6514266
51
190.2855912
0
ARC
8
DEFAULT_255_1_234
10
16.0287606
20
-0.2583214
40
0.3510893
50
190.0945431
51
207.5098196
0
ARC
8
DEFAULT_255_1_234
10
15.9721876
20
-0.2852377
40
0.288489
50
207.9583163
51
216.3251085
0
ARC
8
DEFAULT_255_1_234
10
15.9381984
20
-0.3131895
40
0.2445587
50
215.7661442
51
232.5456785
0
ARC
8
DEFAULT_255_1_234
10
15.8998967
20
-0.3618518
40
0.1826382
50
232.8005391
51
270.6605633
0
ARC
8
DEFAULT_255_1_234
10
15.9044667
20
-0.3254388
40
0.2190529
50
269.35537
51
288.4744281
0
ARC
8
DEFAULT_255_1_234
10
15.9137565
20
-0.3603882
40
0.1829749
50
289.1833337
51
322.9683818
0
ARC
8
DEFAULT_255_1_234
10
15.8526087
20
-0.3121609
40
0.2608399
50
322.6007884
51
346.5182367
0
ARC
8
DEFAULT_255_1_234
10
15.7368683
20
-0.2826384
40
0.3802777
50
346.2582162
51
358.7741648
0
ARC
8
DEFAULT_255_1_234
10
15.6350352
20
-0.2771035
40
0.4822176
50
358.3755224
51
0.0098023
0
ARC
8
DEFAULT_255_1_234
10
15.7106539
20
-0.2743343
40
0.4066078
50
359.6214041
51
11.2839074
0
ARC
8
DEFAULT_255_1_234
10
15.8383686
20
-0.2476934
40
0.2761514
50
11.0482309
51
31.8146458
0
ARC
8
DEFAULT_255_1_234
10
15.8692729
20
-0.2309416
40
0.2410679
50
32.3035391
51
38.082671
0
ARC
8
DEFAULT_255_1_234
10
15.9113389
20
-0.1928338
40
0.1844966
50
36.825067
51
85.7415724
0
ARC
8
DEFAULT_255_1_234
10
15.9046222
20
-0.2428699
40
0.2349122
50
85.0140713
51
90.0513278
0
LINE
8
DEFAULT_255_1_234
10
17.1396931
20
0.0153343
11
17.1396931
21
-0.110764
0
LINE
8
DEFAULT_255_1_234
10
17.1396931
20
-0.110764
11
16.6328904
21
-0.110764
0
LINE
8
DEFAULT_255_1_234
10
16.6328904
20
-0.110764
11
16.6328904
21
-0.5252017
0
LINE
8
DEFAULT_255_1_234
10
16.6328904
20
-0.5252017
11
17.2216168
21
-0.5252017
0
LINE
8
DEFAULT_255_1_234
10
17.2216168
20
-0.5252017
11
17.2216168
21
-0.6513
0
LINE
8
DEFAULT_255_1_234
10
17.2216168
20
-0.6513
11
16.4786811
21
-0.6513
0
LINE
8
DEFAULT_255_1_234
10
16.4786811
20
-0.6513
11
16.4786811
21
0.5181211
0
LINE
8
DEFAULT_255_1_234
10
16.4786811
20
0.5181211
11
17.2135851
21
0.5181211
0
LINE
8
DEFAULT_255_1_234
10
17.2135851
20
0.5181211
11
17.2135851
21
0.3912196
0
LINE
8
DEFAULT_255_1_234
10
17.2135851
20
0.3912196
11
16.6328904
21
0.3912196
0
LINE
8
DEFAULT_255_1_234
10
16.6328904
20
0.3912196
11
16.6328904
21
0.0153343
0
LINE
8
DEFAULT_255_1_234
10
16.6328904
20
0.0153343
11
17.1396931
21
0.0153343
0
LINE
8
DEFAULT_255_1_234
10
17.5131689
20
0.5181211
11
17.795083
21
0.0699501
0
LINE
8
DEFAULT_255_1_234
10
17.795083
20
0.0699501
11
18.0753906
21
0.5181211
0
LINE
8
DEFAULT_255_1_234
10
18.0753906
20
0.5181211
11
18.2569079
21
0.5181211
0
LINE
8
DEFAULT_255_1_234
10
18.2569079
20
0.5181211
11
17.8874479
21
-0.0617704
0
LINE
8
DEFAULT_255_1_234
10
17.8874479
20
-0.0617704
11
18.2657428
21
-0.6513
0
LINE
8
DEFAULT_255_1_234
10
18.2657428
20
-0.6513
11
18.0826192
21
-0.6513
0
LINE
8
DEFAULT_255_1_234
10
18.0826192
20
-0.6513
11
17.795083
21
-0.1950973
0
LINE
8
DEFAULT_255_1_234
10
17.795083
20
-0.1950973
11
17.5059404
21
-0.6513
0
LINE
8
DEFAULT_255_1_234
10
17.5059404
20
-0.6513
11
17.3236199
21
-0.6513
0
LINE
8
DEFAULT_255_1_234
10
17.3236199
20
-0.6513
11
17.702718
21
-0.0617704
0
LINE
8
DEFAULT_255_1_234
10
17.702718
20
-0.0617704
11
17.3324548
21
0.5181211
0
LINE
8
DEFAULT_255_1_234
10
17.3324548
20
0.5181211
11
17.5131689
21
0.5181211
0
LINE
8
DEFAULT_255_2_778
10
9.3932417
20
123.7787483
11
10.7161417
21
123.7787483
0
LINE
8
DEFAULT_255_2_778
10
10.7161417
20
123.7787483
11
10.7161417
21
66.8933483
0
LINE
8
DEFAULT_255_2_778
10
10.7161417
20
61.6016483
11
10.7161417
21
4.7162483
0
LINE
8
DEFAULT_255_2_778
10
10.7161417
20
4.7162483
11
9.3932417
21
4.7162483
0
LINE
8
DEFAULT_255_2_778
10
9.3932834
20
66.8933333
11
12.0390834
21
66.8933333
0
LINE
8
DEFAULT_255_2_778
10
12.0390834
20
66.8933333
11
12.0390834
21
61.6016333
0
LINE
8
DEFAULT_255_2_778
10
12.0390834
20
61.6016333
11
9.3932834
21
61.6016333
0
LINE
8
DEFAULT_255_2_778
10
9.3932834
20
61.6016333
11
9.3932834
21
66.8933333
0
LINE
8
DEFAULT_255_2_778
10
10.187
20
62.1308666
11
10.187
21
66.3641666
0
LINE
8
DEFAULT_255_2_778
10
9.9224167
20
65.570375
11
10.1870167
21
66.364075
0
LINE
8
DEFAULT_255_2_778
10
10.1870167
20
66.364075
11
10.4516167
21
65.570375
0
LINE
8
DEFAULT_255_2_778
10
10.4516167
20
65.570375
11
9.9224167
21
65.570375
0
LINE
8
DEFAULT_255_2_778
10
11.2453
20
66.3641666
11
11.2453
21
62.1308666
0
LINE
8
DEFAULT_255_2_778
10
10.9807167
20
62.924575
11
11.2453167
21
62.130875
0
LINE
8
DEFAULT_255_2_778
10
11.2453167
20
62.130875
11
11.5099167
21
62.924575
0
LINE
8
DEFAULT_255_2_778
10
11.5099167
20
62.924575
11
10.9807167
21
62.924575
0
LINE
8
DEFAULT_255_2_778
10
10.5738396
20
136.1493073
11
9.3932396
21
136.1493073
0
LINE
8
DEFAULT_255_2_778
10
9.3932396
20
136.1493073
11
9.9837396
21
137.1719073
0
LINE
8
DEFAULT_255_2_778
10
9.9837396
20
137.1719073
11
11.1643396
21
137.1719073
0
LINE
8
DEFAULT_255_2_778
10
11.1643396
20
137.1719073
11
10.5738396
21
136.1493073
0
LINE
8
DEFAULT_255_2_778
10
10.5738396
20
136.1493073
11
10.5738396
21
136.1493073
0
LINE
8
DEFAULT_255_2_778
10
11.7546396
20
136.1493073
11
12.9354396
21
136.1493073
0
LINE
8
DEFAULT_255_2_778
10
12.9354396
20
136.1493073
11
12.3451396
21
137.1719073
0
LINE
8
DEFAULT_255_2_778
10
12.3451396
20
137.1719073
11
11.1643396
21
137.1719073
0
LINE
8
DEFAULT_255_2_778
10
11.1643396
20
137.1719073
11
11.7546396
21
136.1493073
0
LINE
8
DEFAULT_255_2_778
10
11.7546396
20
136.1493073
11
11.7546396
21
136.1493073
0
LINE
8
DEFAULT_255_2_778
10
11.7545823
20
138.1945146
11
11.1642823
21
139.2171146
0
LINE
8
DEFAULT_255_2_778
10
11.1642823
20
139.2171146
11
10.5737823
21
138.1945146
0
LINE
8
DEFAULT_255_2_778
10
10.5737823
20
138.1945146
11
11.1642823
21
137.1719146
0
LINE
8
DEFAULT_255_2_778
10
11.1642823
20
137.1719146
11
11.7545823
21
138.1945146
0
LINE
8
DEFAULT_255_2_778
10
11.7545823
20
138.1945146
11
11.7545823
21
138.1945146
0
ARC
8
DEFAULT_255_2_778
10
16.5183731
20
137.8407426
40
0.5650491
50
268.7543645
51
289.1417717
0
ARC
8
DEFAULT_255_2_778
10
16.606208
20
137.5855531
40
0.2951681
50
289.2776255
51
3.7648372
0
ARC
8
DEFAULT_255_2_778
10
16.3901618
20
137.6121085
40
0.5106278
50
359.1949826
51
0.0020862
0
ARC
8
DEFAULT_255_2_778
10
16.547449
20
137.5980832
40
0.1541914
50
280.2616216
51
358.5297855
0
ARC
8
DEFAULT_255_2_778
10
16.5080075
20
137.710655
40
0.2726346
50
269.5969454
51
284.2065679
0
ARC
8
DEFAULT_255_2_778
10
16.4981967
20
137.6950316
40
0.2571258
50
246.5290903
51
271.7590909
0
ARC
8
DEFAULT_255_2_778
10
16.4527148
20
137.5870009
40
0.1399248
50
188.1071678
51
245.9934684
0
ARC
8
DEFAULT_255_2_778
10
16.4829007
20
137.5939617
40
0.1708111
50
179.9445314
51
188.990814
0
ARC
8
DEFAULT_255_2_778
10
16.4924507
20
137.6007849
40
0.3763411
50
178.2272621
51
205.8283807
0
ARC
8
DEFAULT_255_2_778
10
16.4132476
20
137.5830833
40
0.2979176
50
209.4028057
51
263.0375728
0
ARC
8
DEFAULT_255_2_778
10
16.5005111
20
137.9577629
40
0.6816586
50
259.5722942
51
270.4689037
0
ARC
8
DEFAULT_255_2_778
10
17.411252
20
138.0139767
40
0.1217154
50
2.0482843
51
87.015299
0
ARC
8
DEFAULT_255_2_778
10
17.4060617
20
138.0183852
40
0.126828
50
353.0600847
51
359.9737428
0
ARC
8
DEFAULT_255_2_778
10
17.4110442
20
138.0152555
40
0.1215295
50
270.5739762
51
354.2410513
0
ARC
8
DEFAULT_255_2_778
10
17.4065059
20
138.0514297
40
0.1578027
50
269.9941256
51
272.0902921
0
ARC
8
DEFAULT_255_2_778
10
17.414084
20
137.6005295
40
0.1400686
50
358.2807293
51
95.6106825
0
ARC
8
DEFAULT_255_2_778
10
17.4103233
20
137.5966963
40
0.1437669
50
266.9962473
51
359.8528392
0
ARC
8
DEFAULT_255_2_778
10
17.4725249
20
137.6369988
40
0.3335288
50
268.2414507
51
302.0223478
0
ARC
8
DEFAULT_255_2_778
10
17.5091261
20
137.561683
40
0.2504234
50
304.0600275
51
2.0468005
0
ARC
8
DEFAULT_255_2_778
10
17.4832788
20
137.5683521
40
0.2761203
50
0.4720601
51
65.8403529
0
ARC
8
DEFAULT_255_2_778
10
17.5191655
20
137.6331061
40
0.2024466
50
67.606893
51
75.8693222
0
ARC
8
DEFAULT_255_2_778
10
17.5042026
20
138.040722
40
0.2208874
50
286.9473417
51
358.0074963
0
ARC
8
DEFAULT_255_2_778
10
17.4710866
20
138.0495045
40
0.2544031
50
356.2897886
51
0.0050857
0
ARC
8
DEFAULT_255_2_778
10
17.497262
20
138.0545946
40
0.2282839
50
358.7280137
51
81.8073164
0
ARC
8
DEFAULT_255_2_778
10
17.4216369
20
137.8031283
40
0.4895182
50
77.2355086
51
90.5088275
0
ARC
8
DEFAULT_255_2_778
10
17.5842742
20
136.8386263
40
0.130243
50
89.9974494
51
92.6776592
0
ARC
8
DEFAULT_255_2_778
10
17.5843316
20
136.8391872
40
0.129682
50
45.0880141
51
90.022782
0
ARC
8
DEFAULT_255_2_778
10
17.5844118
20
136.839219
40
0.1296029
50
0.001866
51
45.1031959
0
ARC
8
DEFAULT_255_2_778
10
17.5845123
20
136.8392202
40
0.1295026
50
357.4803735
51
0.0013544
0
ARC
8
DEFAULT_255_2_778
10
17.5901979
20
136.8353512
40
0.1237052
50
339.8672523
51
359.1550732
0
ARC
8
DEFAULT_255_2_778
10
17.5794513
20
136.8325079
40
0.1329691
50
272.0853006
51
342.6124646
0
ARC
8
DEFAULT_255_2_778
10
17.6596145
20
136.8707661
40
0.2575135
50
286.787355
51
290.6121696
0
ARC
8
DEFAULT_255_2_778
10
17.6689461
20
136.8564533
40
0.24086
50
289.7330405
51
342.3216972
0
ARC
8
DEFAULT_255_2_778
10
17.641261
20
136.8612954
40
0.268735
50
343.130572
51
0.3905272
0
ARC
8
DEFAULT_255_2_778
10
17.6578783
20
136.8786767
40
0.2525904
50
356.4706028
51
80.1788963
0
ARC
8
DEFAULT_255_2_778
10
17.5921649
20
136.6517163
40
0.4881286
50
77.1212301
51
90.4900821
0
ARC
8
DEFAULT_255_2_778
10
17.5166337
20
136.354036
40
0.1865405
50
50.1507009
51
92.9634648
0
ARC
8
DEFAULT_255_2_778
10
17.5301354
20
136.3823678
40
0.1563319
50
12.621233
51
47.2950617
0
ARC
8
DEFAULT_255_2_778
10
16.8485884
20
136.2494726
40
0.8506657
50
2.8173892
51
11.3253986
0
ARC
8
DEFAULT_255_2_778
10
-29.2295733
20
132.7531175
40
47.060992
50
4.3048394
51
4.3117143
0
ARC
8
DEFAULT_255_2_778
10
18.5500859
20
136.325584
40
0.8523717
50
182.6850102
51
191.2954256
0
ARC
8
DEFAULT_255_2_778
10
17.9656837
20
136.2192399
40
0.2586603
50
193.5512904
51
195.3825538
0
ARC
8
DEFAULT_255_2_778
10
19.3415679
20
136.4768916
40
1.4608773
50
182.5958701
51
192.9049706
0
ARC
8
DEFAULT_255_2_778
10
17.6207606
20
136.4052215
40
0.261487
50
1.2064311
51
30.4123358
0
ARC
8
DEFAULT_255_2_778
10
17.6663626
20
136.420276
40
0.2147766
50
33.1081154
51
71.7312197
0
LINE
8
DEFAULT_255_2_778
10
13.4657897
20
136.5848271
11
13.9385897
21
136.5848271
0
LINE
8
DEFAULT_255_2_778
10
13.9385897
20
136.5848271
11
13.9385897
21
136.7562271
0
LINE
8
DEFAULT_255_2_778
10
13.9385897
20
136.7562271
11
13.4657897
21
136.7562271
0
LINE
8
DEFAULT_255_2_778
10
13.4657897
20
136.7562271
11
13.4657897
21
136.9671271
0
LINE
8
DEFAULT_255_2_778
10
13.4657897
20
136.9671271
11
13.9977897
21
136.9671271
0
LINE
8
DEFAULT_255_2_778
10
13.9977897
20
136.9671271
11
13.9977897
21
137.1385271
0
LINE
8
DEFAULT_255_2_778
10
13.9977897
20
137.1385271
11
13.4657897
21
137.1385271
0
LINE
8
DEFAULT_255_2_778
10
13.4657897
20
137.1385271
11
13.2651897
21
137.1385271
0
LINE
8
DEFAULT_255_2_778
10
13.2651897
20
137.1385271
11
13.2651897
21
136.9671271
0
LINE
8
DEFAULT_255_2_778
10
13.2651897
20
136.9671271
11
13.2651897
21
136.3207271
0
LINE
8
DEFAULT_255_2_778
10
13.2651897
20
136.3207271
11
13.2651897
21
136.1492271
0
LINE
8
DEFAULT_255_2_778
10
13.2651897
20
136.1492271
11
13.4657897
21
136.1492271
0
LINE
8
DEFAULT_255_2_778
10
13.4657897
20
136.1492271
11
14.0118897
21
136.1492271
0
LINE
8
DEFAULT_255_2_778
10
14.0118897
20
136.1492271
11
14.0118897
21
136.3207271
0
LINE
8
DEFAULT_255_2_778
10
14.0118897
20
136.3207271
11
13.4657897
21
136.3207271
0
LINE
8
DEFAULT_255_2_778
10
13.4657897
20
136.3207271
11
13.4657897
21
136.5845271
0
LINE
8
DEFAULT_255_2_778
10
13.4657897
20
136.5845271
11
13.4657897
21
136.5848271
0
LINE
8
DEFAULT_255_2_778
10
13.4519897
20
138.0389271
11
13.6620897
21
137.3036271
0
LINE
8
DEFAULT_255_2_778
10
13.6620897
20
137.3036271
11
13.6704897
21
137.3036271
0
LINE
8
DEFAULT_255_2_778
10
13.6704897
20
137.3036271
11
13.8464897
21
137.3036271
0
LINE
8
DEFAULT_255_2_778
10
13.8464897
20
137.3036271
11
13.8546897
21
137.3036271
0
LINE
8
DEFAULT_255_2_778
10
13.8546897
20
137.3036271
11
14.0647897
21
138.0389271
0
LINE
8
DEFAULT_255_2_778
10
14.0647897
20
138.0389271
11
14.0647897
21
137.3036271
0
LINE
8
DEFAULT_255_2_778
10
14.0647897
20
137.3036271
11
14.2515897
21
137.3036271
0
LINE
8
DEFAULT_255_2_778
10
14.2515897
20
137.3036271
11
14.2515897
21
138.2929271
0
LINE
8
DEFAULT_255_2_778
10
14.2515897
20
138.2929271
11
14.1496897
21
138.2929271
0
LINE
8
DEFAULT_255_2_778
10
14.1496897
20
138.2929271
11
14.0615897
21
138.2929271
0
LINE
8
DEFAULT_255_2_778
10
14.0615897
20
138.2929271
11
13.9655897
21
138.2929271
0
LINE
8
DEFAULT_255_2_778
10
13.9655897
20
138.2929271
11
13.7583897
21
137.5986271
0
LINE
8
DEFAULT_255_2_778
10
13.7583897
20
137.5986271
11
13.5511897
21
138.2929271
0
LINE
8
DEFAULT_255_2_778
10
13.5511897
20
138.2929271
11
13.4551897
21
138.2929271
0
LINE
8
DEFAULT_255_2_778
10
13.4551897
20
138.2929271
11
13.3669897
21
138.2929271
0
LINE
8
DEFAULT_255_2_778
10
13.3669897
20
138.2929271
11
13.2651897
21
138.2929271
0
LINE
8
DEFAULT_255_2_778
10
13.2651897
20
138.2929271
11
13.2651897
21
137.3036271
0
LINE
8
DEFAULT_255_2_778
10
13.2651897
20
137.3036271
11
13.4519897
21
137.3036271
0
LINE
8
DEFAULT_255_2_778
10
13.4519897
20
137.3036271
11
13.4519897
21
138.0389271
0
LINE
8
DEFAULT_255_2_778
10
13.4519897
20
138.0389271
11
13.4519897
21
138.0389271
0
LINE
8
DEFAULT_255_2_778
10
18.0056897
20
138.2929271
11
17.8064897
21
138.2929271
0
LINE
8
DEFAULT_255_2_778
10
17.8064897
20
138.2929271
11
17.8064897
21
137.3036271
0
LINE
8
DEFAULT_255_2_778
10
17.8064897
20
137.3036271
11
18.0056897
21
137.3036271
0
LINE
8
DEFAULT_255_2_778
10
18.0056897
20
137.3036271
11
18.0056897
21
138.2929271
0
LINE
8
DEFAULT_255_2_778
10
18.0056897
20
138.2929271
11
18.0056897
21
138.2929271
0
LINE
8
DEFAULT_255_2_778
10
18.1681897
20
137.1388271
11
17.9689897
21
137.1388271
0
LINE
8
DEFAULT_255_2_778
10
17.9689897
20
137.1388271
11
17.9689897
21
136.1495271
0
LINE
8
DEFAULT_255_2_778
10
17.9689897
20
136.1495271
11
18.1681897
21
136.1495271
0
LINE
8
DEFAULT_255_2_778
10
18.1681897
20
136.1495271
11
18.1681897
21
137.1388271
0
LINE
8
DEFAULT_255_2_778
10
18.1681897
20
137.1388271
11
18.1681897
21
137.1388271
0
LINE
8
DEFAULT_255_2_778
10
19.9765897
20
138.2929271
11
19.7773897
21
138.2929271
0
LINE
8
DEFAULT_255_2_778
10
19.7773897
20
138.2929271
11
19.7773897
21
137.3036271
0
LINE
8
DEFAULT_255_2_778
10
19.7773897
20
137.3036271
11
19.9765897
21
137.3036271
0
LINE
8
DEFAULT_255_2_778
10
19.9765897
20
137.3036271
11
19.9765897
21
138.2929271
0
LINE
8
DEFAULT_255_2_778
10
19.9765897
20
138.2929271
11
19.9765897
21
138.2929271
0
LINE
8
DEFAULT_255_2_778
10
14.5298897
20
138.2929271
11
14.3306897
21
138.2929271
0
LINE
8
DEFAULT_255_2_778
10
14.3306897
20
138.2929271
11
14.3306897
21
137.3036271
0
LINE
8
DEFAULT_255_2_778
10
14.3306897
20
137.3036271
11
14.5298897
21
137.3036271
0
LINE
8
DEFAULT_255_2_778
10
14.5298897
20
137.3036271
11
14.5298897
21
138.2929271
0
LINE
8
DEFAULT_255_2_778
10
14.5298897
20
138.2929271
11
14.5298897
21
138.2929271
0
LINE
8
DEFAULT_255_2_778
10
19.4989897
20
137.9069271
11
19.1029897
21
137.9069271
0
LINE
8
DEFAULT_255_2_778
10
19.1029897
20
137.9069271
11
19.1029897
21
138.2926271
0
LINE
8
DEFAULT_255_2_778
10
19.1029897
20
138.2926271
11
18.9068897
21
138.2926271
0
LINE
8
DEFAULT_255_2_778
10
18.9068897
20
138.2926271
11
18.9068897
21
137.3036271
0
LINE
8
DEFAULT_255_2_778
10
18.9068897
20
137.3036271
11
19.1029897
21
137.3036271
0
LINE
8
DEFAULT_255_2_778
10
19.1029897
20
137.3036271
11
19.1029897
21
137.7354271
0
LINE
8
DEFAULT_255_2_778
10
19.1029897
20
137.7354271
11
19.4989897
21
137.7354271
0
LINE
8
DEFAULT_255_2_778
10
19.4989897
20
137.7354271
11
19.4989897
21
137.3036271
0
LINE
8
DEFAULT_255_2_778
10
19.4989897
20
137.3036271
11
19.6950897
21
137.3036271
0
LINE
8
DEFAULT_255_2_778
10
19.6950897
20
137.3036271
11
19.6950897
21
138.2926271
0
LINE
8
DEFAULT_255_2_778
10
19.6950897
20
138.2926271
11
19.4989897
21
138.2926271
0
LINE
8
DEFAULT_255_2_778
10
19.4989897
20
138.2926271
11
19.4989897
21
137.9069271
0
LINE
8
DEFAULT_255_2_778
10
19.4989897
20
137.9069271
11
19.4989897
21
137.9069271
0
LINE
8
DEFAULT_255_2_778
10
14.8246897
20
137.3036271
11
15.0280897
21
137.3036271
0
LINE
8
DEFAULT_255_2_778
10
15.0280897
20
137.3036271
11
15.0280897
21
138.1215271
0
LINE
8
DEFAULT_255_2_778
10
15.0280897
20
138.1215271
11
15.2696897
21
138.1215271
0
LINE
8
DEFAULT_255_2_778
10
15.2696897
20
138.1215271
11
15.2696897
21
138.2929271
0
LINE
8
DEFAULT_255_2_778
10
15.2696897
20
138.2929271
11
15.0280897
21
138.2929271
0
LINE
8
DEFAULT_255_2_778
10
15.0280897
20
138.2929271
11
14.8246897
21
138.2929271
0
LINE
8
DEFAULT_255_2_778
10
14.8246897
20
138.2929271
11
14.5830897
21
138.2929271
0
LINE
8
DEFAULT_255_2_778
10
14.5830897
20
138.2929271
11
14.5830897
21
138.1215271
0
LINE
8
DEFAULT_255_2_778
10
14.5830897
20
138.1215271
11
14.8246897
21
138.1215271
0
LINE
8
DEFAULT_255_2_778
10
14.8246897
20
138.1215271
11
14.8246897
21
137.3036271
0
LINE
8
DEFAULT_255_2_778
10
14.8246897
20
137.3036271
11
14.8246897
21
137.3036271
0
LINE
8
DEFAULT_255_2_778
10
16.6422897
20
136.1495271
11
16.8454897
21
136.1495271
0
LINE
8
DEFAULT_255_2_778
10
16.8454897
20
136.1495271
11
16.8454897
21
136.9673271
0
LINE
8
DEFAULT_255_2_778
10
16.8454897
20
136.9673271
11
17.0873897
21
136.9673271
0
LINE
8
DEFAULT_255_2_778
10
17.0873897
20
136.9673271
11
17.0873897
21
137.1391271
0
LINE
8
DEFAULT_255_2_778
10
17.0873897
20
137.1391271
11
16.8454897
21
137.1391271
0
LINE
8
DEFAULT_255_2_778
10
16.8454897
20
137.1391271
11
16.6422897
21
137.1391271
0
LINE
8
DEFAULT_255_2_778
10
16.6422897
20
137.1391271
11
16.4004897
21
137.1391271
0
LINE
8
DEFAULT_255_2_778
10
16.4004897
20
137.1391271
11
16.4004897
21
136.9673271
0
LINE
8
DEFAULT_255_2_778
10
16.4004897
20
136.9673271
11
16.6422897
21
136.9673271
0
LINE
8
DEFAULT_255_2_778
10
16.6422897
20
136.9673271
11
16.6422897
21
136.1495271
0
LINE
8
DEFAULT_255_2_778
10
16.6422897
20
136.1495271
11
16.6422897
21
136.1495271
0
LINE
8
DEFAULT_255_2_778
10
16.9007897
20
137.6121271
11
16.9007897
21
138.2926271
0
LINE
8
DEFAULT_255_2_778
10
16.9007897
20
138.2926271
11
16.7015897
21
138.2926271
0
LINE
8
DEFAULT_255_2_778
10
16.7015897
20
138.2926271
11
16.7015897
21
137.5941271
0
LINE
8
DEFAULT_255_2_778
10
16.3120897
20
137.5941271
11
16.3120897
21
138.2926271
0
LINE
8
DEFAULT_255_2_778
10
16.3120897
20
138.2926271
11
16.1162897
21
138.2926271
0
LINE
8
DEFAULT_255_2_778
10
16.1162897
20
138.2926271
11
16.1162897
21
137.6124271
0
LINE
8
DEFAULT_255_2_778
10
15.0000897
20
136.5848271
11
15.4730897
21
136.5848271
0
LINE
8
DEFAULT_255_2_778
10
15.4730897
20
136.5848271
11
15.4730897
21
136.7562271
0
LINE
8
DEFAULT_255_2_778
10
15.4730897
20
136.7562271
11
15.0000897
21
136.7562271
0
LINE
8
DEFAULT_255_2_778
10
15.0000897
20
136.7562271
11
15.0000897
21
136.9671271
0
LINE
8
DEFAULT_255_2_778
10
15.0000897
20
136.9671271
11
15.5320897
21
136.9671271
0
LINE
8
DEFAULT_255_2_778
10
15.5320897
20
136.9671271
11
15.5320897
21
137.1385271
0
LINE
8
DEFAULT_255_2_778
10
15.5320897
20
137.1385271
11
15.0000897
21
137.1385271
0
LINE
8
DEFAULT_255_2_778
10
15.0000897
20
137.1385271
11
14.7997897
21
137.1385271
0
LINE
8
DEFAULT_255_2_778
10
14.7997897
20
137.1385271
11
14.7997897
21
136.9671271
0
LINE
8
DEFAULT_255_2_778
10
14.7997897
20
136.9671271
11
14.7997897
21
136.3207271
0
LINE
8
DEFAULT_255_2_778
10
14.7997897
20
136.3207271
11
14.7997897
21
136.1492271
0
LINE
8
DEFAULT_255_2_778
10
14.7997897
20
136.1492271
11
15.0000897
21
136.1492271
0
LINE
8
DEFAULT_255_2_778
10
15.0000897
20
136.1492271
11
15.5461897
21
136.1492271
0
LINE
8
DEFAULT_255_2_778
10
15.5461897
20
136.1492271
11
15.5461897
21
136.3207271
0
LINE
8
DEFAULT_255_2_778
10
15.5461897
20
136.3207271
11
15.0000897
21
136.3207271
0
LINE
8
DEFAULT_255_2_778
10
15.0000897
20
136.3207271
11
15.0000897
21
136.5845271
0
LINE
8
DEFAULT_255_2_778
10
15.0000897
20
136.5845271
11
15.0000897
21
136.5848271
0
LINE
8
DEFAULT_255_2_778
10
17.4064897
20
137.8936271
11
17.1690897
21
137.8936271
0
LINE
8
DEFAULT_255_2_778
10
17.1690897
20
137.8936271
11
17.1690897
21
138.1352271
0
LINE
8
DEFAULT_255_2_778
10
17.1690897
20
138.1352271
11
17.4175897
21
138.1352271
0
LINE
8
DEFAULT_255_2_778
10
17.4175897
20
138.1352271
11
17.4175897
21
138.1355271
0
LINE
8
DEFAULT_255_2_778
10
17.4027897
20
137.4528271
11
17.1690897
21
137.4528271
0
LINE
8
DEFAULT_255_2_778
10
17.1690897
20
137.4528271
11
17.1690897
21
137.7399271
0
LINE
8
DEFAULT_255_2_778
10
17.1690897
20
137.7399271
11
17.4003897
21
137.7399271
0
LINE
8
DEFAULT_255_2_778
10
17.1767897
20
137.3036271
11
17.4622897
21
137.3036271
0
LINE
8
DEFAULT_255_2_778
10
17.4172897
20
138.2926271
11
17.1770897
21
138.2926271
0
LINE
8
DEFAULT_255_2_778
10
17.1770897
20
138.2926271
11
16.9722897
21
138.2926271
0
LINE
8
DEFAULT_255_2_778
10
16.9722897
20
138.2926271
11
16.9711897
21
138.2926271
0
LINE
8
DEFAULT_255_2_778
10
16.9711897
20
138.2926271
11
16.9711897
21
137.3036271
0
LINE
8
DEFAULT_255_2_778
10
16.9711897
20
137.3036271
11
16.9722897
21
137.3036271
0
LINE
8
DEFAULT_255_2_778
10
16.9722897
20
137.3036271
11
17.1770897
21
137.3036271
0
LINE
8
DEFAULT_255_2_778
10
17.1770897
20
137.3036271
11
17.1767897
21
137.3036271
0
LINE
8
DEFAULT_255_2_778
10
17.3368897
20
136.6993271
11
17.3368897
21
136.9687271
0
LINE
8
DEFAULT_255_2_778
10
17.3368897
20
136.9687271
11
17.5781897
21
136.9687271
0
LINE
8
DEFAULT_255_2_778
10
17.5842897
20
136.6996271
11
17.3370897
21
136.6996271
0
LINE
8
DEFAULT_255_2_778
10
17.3370897
20
136.6996271
11
17.3368897
21
136.6993271
0
LINE
8
DEFAULT_255_2_778
10
17.5879897
20
137.1398271
11
17.3368897
21
137.1398271
0
LINE
8
DEFAULT_255_2_778
10
17.3368897
20
137.1398271
11
17.1383897
21
137.1398271
0
LINE
8
DEFAULT_255_2_778
10
17.1383897
20
137.1398271
11
17.1362897
21
137.1398271
0
LINE
8
DEFAULT_255_2_778
10
17.1362897
20
137.1398271
11
17.1362897
21
136.1506271
0
LINE
8
DEFAULT_255_2_778
10
17.1362897
20
136.1506271
11
17.3368897
21
136.1506271
0
LINE
8
DEFAULT_255_2_778
10
17.3368897
20
136.1506271
11
17.3368897
21
136.5403271
0
LINE
8
DEFAULT_255_2_778
10
17.3368897
20
136.5403271
11
17.5069897
21
136.5403271
0
LINE
8
DEFAULT_255_2_778
10
17.7162897
20
136.1506271
11
17.9175897
21
136.1506271
0
LINE
8
DEFAULT_255_2_778
10
14.2763897
20
137.1388271
11
14.0760897
21
137.1388271
0
LINE
8
DEFAULT_255_2_778
10
14.0760897
20
137.1388271
11
14.0760897
21
136.3210271
0
LINE
8
DEFAULT_255_2_778
10
14.0760897
20
136.3210271
11
14.0760897
21
136.1495271
0
LINE
8
DEFAULT_255_2_778
10
14.0760897
20
136.1495271
11
14.2763897
21
136.1495271
0
LINE
8
DEFAULT_255_2_778
10
14.2763897
20
136.1495271
11
14.7428897
21
136.1495271
0
LINE
8
DEFAULT_255_2_778
10
14.7428897
20
136.1495271
11
14.7428897
21
136.3210271
0
LINE
8
DEFAULT_255_2_778
10
14.7428897
20
136.3210271
11
14.2763897
21
136.3210271
0
LINE
8
DEFAULT_255_2_778
10
14.2763897
20
136.3210271
11
14.2763897
21
137.1388271
0
LINE
8
DEFAULT_255_2_778
10
14.2763897
20
137.1388271
11
14.2763897
21
137.1388271
0
ARC
8
DEFAULT_255_2_778
10
15.4584271
20
136.7646969
40
0.9681224
50
72.4822103
51
81.3184214
0
ARC
8
DEFAULT_255_2_778
10
15.7160297
20
137.5413918
40
0.1503783
50
28.8883513
51
77.0092434
0
ARC
8
DEFAULT_255_2_778
10
15.7432379
20
137.5703196
40
0.113238
50
358.9917455
51
22.7117017
0
ARC
8
DEFAULT_255_2_778
10
15.7394861
20
137.5744918
40
0.1171346
50
289.2958104
51
356.9831562
0
ARC
8
DEFAULT_255_2_778
10
15.6668261
20
137.7319882
40
0.2902651
50
268.4665462
51
292.5613311
0
ARC
8
DEFAULT_255_2_778
10
15.6496856
20
137.6729179
40
0.2312808
50
236.4956947
51
272.3225735
0
ARC
8
DEFAULT_255_2_778
10
15.6106646
20
137.6046839
40
0.1529307
50
178.9722202
51
234.5742435
0
ARC
8
DEFAULT_255_2_778
10
15.5656113
20
137.5951079
40
0.3002058
50
177.6481608
51
245.5596397
0
ARC
8
DEFAULT_255_2_778
10
15.6409971
20
137.7673561
40
0.488217
50
245.8690375
51
267.169035
0
ARC
8
DEFAULT_255_2_778
10
15.6671503
20
138.0183916
40
0.7403648
50
266.1069867
51
270.0547972
0
ARC
8
DEFAULT_255_2_778
10
15.6772894
20
137.8496135
40
0.5716642
50
269.0547216
51
287.7147747
0
ARC
8
DEFAULT_255_2_778
10
15.7598889
20
137.6039091
40
0.3125017
50
286.995984
51
325.1221533
0
ARC
8
DEFAULT_255_2_778
10
15.7678294
20
137.587361
40
0.2966627
50
326.8673922
51
0.8625726
0
ARC
8
DEFAULT_255_2_778
10
15.7898286
20
137.5959409
40
0.2746606
50
359.1417932
51
76.9739731
0
ARC
8
DEFAULT_255_2_778
10
15.6705461
20
137.3150719
40
0.577616
50
71.7185727
51
79.1315439
0
ARC
8
DEFAULT_255_2_778
10
14.2492968
20
129.961467
40
8.0673056
50
79.0662148
51
79.6216572
0
ARC
8
DEFAULT_255_2_778
10
16.4356585
20
141.8391581
40
4.0099443
50
259.1227669
51
259.4665204
0
ARC
8
DEFAULT_255_2_778
10
15.7836732
20
138.5441142
40
0.6513291
50
249.9945768
51
260.7485895
0
ARC
8
DEFAULT_255_2_778
10
15.5880401
20
138.0330999
40
0.1046098
50
178.6705173
51
254.9333545
0
ARC
8
DEFAULT_255_2_778
10
15.6049957
20
138.0296688
40
0.1216785
50
93.288632
51
177.2403935
0
ARC
8
DEFAULT_255_2_778
10
15.6585677
20
137.8426752
40
0.3143588
50
89.6189463
51
101.1057977
0
ARC
8
DEFAULT_255_2_778
10
15.6722733
20
137.954516
40
0.2028439
50
53.5634072
51
93.2825843
0
ARC
8
DEFAULT_255_2_778
10
15.7018505
20
138.0127144
40
0.1388739
50
357.1985816
51
49.1152298
0
ARC
8
DEFAULT_255_2_778
10
15.7254907
20
138.0059274
40
0.3087677
50
359.9999335
51
2.3703878
0
ARC
8
DEFAULT_255_2_778
10
15.7353555
20
138.0074337
40
0.298851
50
2.1600756
51
60.1092229
0
ARC
8
DEFAULT_255_2_778
10
15.6766212
20
137.9008133
40
0.4205645
50
60.4106856
51
86.1444419
0
ARC
8
DEFAULT_255_2_778
10
15.6536151
20
137.7241228
40
0.5985046
50
85.0843314
51
90.0628677
0
ARC
8
DEFAULT_255_2_778
10
15.6529718
20
137.8475466
40
0.4750804
50
90.001616
51
92.2300394
0
ARC
8
DEFAULT_255_2_778
10
15.6281193
20
137.952687
40
0.3696351
50
89.0131319
51
149.6364996
0
ARC
8
DEFAULT_255_2_778
10
15.5505461
20
138.0249055
40
0.2671974
50
154.5962367
51
180.4885883
0
ARC
8
DEFAULT_255_2_778
10
15.5651524
20
138.023384
40
0.281795
50
180.1539064
51
255.1120325
0
ARC
8
DEFAULT_255_2_778
10
15.7094242
20
138.346232
40
0.6333958
50
249.9962237
51
260.4976723
0
ARC
8
DEFAULT_255_2_778
10
18.2470963
20
136.7658351
40
0.967002
50
72.4685023
51
81.3064395
0
ARC
8
DEFAULT_255_2_778
10
18.5045397
20
137.541427
40
0.1503535
50
28.8782248
51
76.9904304
0
ARC
8
DEFAULT_255_2_778
10
18.5317197
20
137.5703189
40
0.1132561
50
358.9922779
51
22.7082666
0
ARC
8
DEFAULT_255_2_778
10
18.5280402
20
137.5744088
40
0.1170763
50
289.2761556
51
357.0223042
0
ARC
8
DEFAULT_255_2_778
10
18.4553612
20
137.7322836
40
0.2905613
50
268.4611814
51
292.5289055
0
ARC
8
DEFAULT_255_2_778
10
18.4381801
20
137.6738175
40
0.2321799
50
236.6698634
51
272.3149402
0
ARC
8
DEFAULT_255_2_778
10
18.39878
20
137.6046762
40
0.1528464
50
178.9687581
51
234.7686008
0
ARC
8
DEFAULT_255_2_778
10
18.3540113
20
137.5951079
40
0.3002058
50
177.6481608
51
245.5596397
0
ARC
8
DEFAULT_255_2_778
10
18.4293971
20
137.7673561
40
0.488217
50
245.8690375
51
267.169035
0
ARC
8
DEFAULT_255_2_778
10
18.4555503
20
138.0183916
40
0.7403648
50
266.1069867
51
270.0547972
0
ARC
8
DEFAULT_255_2_778
10
18.4656836
20
137.8502451
40
0.5722957
50
269.0563423
51
287.7048702
0
ARC
8
DEFAULT_255_2_778
10
18.548344
20
137.6042682
40
0.312856
50
286.9832601
51
325.0871916
0
ARC
8
DEFAULT_255_2_778
10
18.5567708
20
137.5873856
40
0.2964208
50
326.8311942
51
0.8585267
0
ARC
8
DEFAULT_255_2_778
10
18.5785756
20
137.5960282
40
0.2746149
50
359.1234265
51
76.9343785
0
ARC
8
DEFAULT_255_2_778
10
18.4596421
20
137.3161965
40
0.5764934
50
71.6999697
51
79.1198353
0
ARC
8
DEFAULT_255_2_778
10
17.0173657
20
129.8394392
40
8.1910887
50
79.0843627
51
79.6321368
0
ARC
8
DEFAULT_255_2_778
10
19.2200266
20
141.8189177
40
3.9892176
50
259.1314419
51
259.4772924
0
ARC
8
DEFAULT_255_2_778
10
18.5723251
20
138.5435131
40
0.6507003
50
249.9919323
51
260.7592458
0
ARC
8
DEFAULT_255_2_778
10
18.376901
20
138.0330546
40
0.1045718
50
178.6452075
51
254.9151907
0
ARC
8
DEFAULT_255_2_778
10
18.3939581
20
138.0296016
40
0.121744
50
93.2745253
51
177.21023
0
ARC
8
DEFAULT_255_2_778
10
18.4475726
20
137.8425052
40
0.3145287
50
89.6200387
51
101.1027534
0
ARC
8
DEFAULT_255_2_778
10
18.4613489
20
137.9558453
40
0.2015212
50
53.1490002
51
93.3256649
0
ARC
8
DEFAULT_255_2_778
10
18.4902753
20
138.0126519
40
0.1391457
50
357.2298288
51
48.6469881
0
ARC
8
DEFAULT_255_2_778
10
18.5137232
20
138.0059226
40
0.3092351
50
0.0008291
51
2.3676985
0
ARC
8
DEFAULT_255_2_778
10
18.5240744
20
138.0074868
40
0.2988304
50
2.1500394
51
60.0956838
0
ARC
8
DEFAULT_255_2_778
10
18.4654399
20
137.9009909
40
0.4203859
50
60.40452
51
86.1455285
0
ARC
8
DEFAULT_255_2_778
10
18.4424157
20
137.7241686
40
0.5984588
50
85.0841409
51
90.0629301
0
ARC
8
DEFAULT_255_2_778
10
18.4417778
20
137.8471392
40
0.4754878
50
90.0023409
51
92.3231329
0
ARC
8
DEFAULT_255_2_778
10
18.4167555
20
137.9524604
40
0.3698206
50
89.1093915
51
149.6400816
0
ARC
8
DEFAULT_255_2_778
10
18.338761
20
138.0248917
40
0.2669122
50
154.6001925
51
180.486137
0
ARC
8
DEFAULT_255_2_778
10
18.3537607
20
138.0235152
40
0.2819037
50
180.1805176
51
255.132702
0
ARC
8
DEFAULT_255_2_778
10
18.4982264
20
138.3467784
40
0.6339516
50
250.0026216
51
260.4967164
0
ARC
8
DEFAULT_255_2_778
10
16.008917
20
136.5539283
40
0.2519711
50
190.2626864
51
267.3480013
0
ARC
8
DEFAULT_255_2_778
10
16.2443543
20
136.6452548
40
0.5022041
50
179.6723028
51
195.7380858
0
ARC
8
DEFAULT_255_2_778
10
16.1790511
20
136.6607671
40
0.4370755
50
148.7005643
51
181.6572045
0
ARC
8
DEFAULT_255_2_778
10
15.9957576
20
136.7708723
40
0.2232598
50
89.6148479
51
148.4074796
0
ARC
8
DEFAULT_255_2_778
10
16.0060936
20
136.792949
40
0.201372
50
41.9769772
51
92.5146611
0
ARC
8
DEFAULT_255_2_778
10
15.9522078
20
136.7552523
40
0.2667646
50
15.1848537
51
40.2549591
0
ARC
8
DEFAULT_255_2_778
10
16.028123
20
136.7655326
40
0.3935735
50
8.7091682
51
82.0550801
0
ARC
8
DEFAULT_255_2_778
10
15.9931241
20
136.6190871
40
0.543642
50
80.5350289
51
90.1544743
0
ARC
8
DEFAULT_255_2_778
10
15.9818804
20
136.7077192
40
0.4551129
50
88.7689246
51
119.6437418
0
ARC
8
DEFAULT_255_2_778
10
16.0077717
20
136.7114647
40
0.4653013
50
122.644121
51
173.3997839
0
ARC
8
DEFAULT_255_2_778
10
16.2711934
20
136.6471568
40
0.7351371
50
170.7798304
51
180.1348114
0
ARC
8
DEFAULT_255_2_778
10
16.1377257
20
136.6317615
40
0.6018225
50
178.6988735
51
210.5289552
0
ARC
8
DEFAULT_255_2_778
10
15.970325
20
136.5409953
40
0.4115783
50
211.4828222
51
265.8686737
0
ARC
8
DEFAULT_255_2_778
10
15.9909864
20
136.6657011
40
0.5375742
50
264.6297133
51
270.0503073
0
ARC
8
DEFAULT_255_2_778
10
16.0020995
20
136.5975749
40
0.4695684
50
268.7014824
51
300.1403067
0
ARC
8
DEFAULT_255_2_778
10
16.0350333
20
136.5191852
40
0.385394
50
301.7580058
51
353.77968
0
ARC
8
DEFAULT_255_2_778
10
16.0012256
20
136.5135219
40
0.2113379
50
268.8430278
51
350.1661143
0
ARC
8
DEFAULT_255_2_778
10
18.6896799
20
136.5538824
40
0.2519281
50
190.2538303
51
267.3332171
0
ARC
8
DEFAULT_255_2_778
10
18.9252249
20
136.6452581
40
0.5022746
50
179.672724
51
195.7362088
0
ARC
8
DEFAULT_255_2_778
10
18.8600432
20
136.6607917
40
0.4372682
50
148.7196987
51
181.6596982
0
ARC
8
DEFAULT_255_2_778
10
18.676443
20
136.7709906
40
0.2231415
50
89.6108896
51
148.4244661
0
ARC
8
DEFAULT_255_2_778
10
18.686876
20
136.792967
40
0.2013576
50
42.5913083
51
92.5383066
0
ARC
8
DEFAULT_255_2_778
10
18.6345542
20
136.7565973
40
0.2646316
50
15.0085433
51
40.7215892
0
ARC
8
DEFAULT_255_2_778
10
18.708623
20
136.7655326
40
0.3935735
50
8.7091682
51
82.0550801
0
ARC
8
DEFAULT_255_2_778
10
18.6736241
20
136.6190871
40
0.543642
50
80.5350289
51
90.1544743
0
ARC
8
DEFAULT_255_2_778
10
18.6623804
20
136.7077192
40
0.4551129
50
88.7689246
51
119.6437418
0
ARC
8
DEFAULT_255_2_778
10
18.6882717
20
136.7114647
40
0.4653013
50
122.644121
51
173.3997839
0
ARC
8
DEFAULT_255_2_778
10
18.9516934
20
136.6471568
40
0.7351371
50
170.7798304
51
180.1348114
0
ARC
8
DEFAULT_255_2_778
10
18.8177822
20
136.63182
40
0.6013778
50
178.7034849
51
210.5604279
0
ARC
8
DEFAULT_255_2_778
10
18.6511312
20
136.5413377
40
0.4119265
50
211.5090145
51
265.8592607
0
ARC
8
DEFAULT_255_2_778
10
18.6716883
20
136.6654521
40
0.5373252
50
264.628472
51
270.0501277
0
ARC
8
DEFAULT_255_2_778
10
18.682837
20
136.5973685
40
0.4693629
50
268.6963312
51
300.2191972
0
ARC
8
DEFAULT_255_2_778
10
18.7155684
20
136.5194124
40
0.3856821
50
301.8465101
51
353.7503927
0
ARC
8
DEFAULT_255_2_778
10
18.6820648
20
136.5133604
40
0.2111733
50
268.8857714
51
350.2028431
0
LINE
8
DEFAULT_255_2_778
10
15.4577584
20
137.6074271
11
15.2656584
21
137.6074271
0
LINE
8
DEFAULT_255_2_778
10
15.8405584
20
138.0059271
11
16.0342584
21
138.0059271
0
LINE
8
DEFAULT_255_2_778
10
18.2459584
20
137.6074271
11
18.0540584
21
137.6074271
0
LINE
8
DEFAULT_255_2_778
10
18.6292584
20
138.0059271
11
18.8229584
21
138.0059271
0
LINE
8
DEFAULT_255_2_778
10
16.2096584
20
136.8251271
11
16.4171584
21
136.8251271
0
LINE
8
DEFAULT_255_2_778
10
16.4181584
20
136.4774271
11
16.2094584
21
136.4774271
0
LINE
8
DEFAULT_255_2_778
10
18.8901584
20
136.8251271
11
19.0976584
21
136.8251271
0
LINE
8
DEFAULT_255_2_778
10
19.0989584
20
136.4774271
11
18.8901584
21
136.4774271
0
LINE
8
DEFAULT_255_1_234
10
11.7257657
20
134.2463565
11
11.7257657
21
134.1716614
0
LINE
8
DEFAULT_255_1_234
10
11.5209563
20
133.6881507
11
11.7297815
21
133.5243033
0
LINE
8
DEFAULT_255_1_234
10
11.7297815
20
133.5243033
11
11.6245658
21
133.4271192
0
LINE
8
DEFAULT_255_1_234
10
11.6245658
20
133.4271192
11
11.3779914
21
133.6230937
0
LINE
8
DEFAULT_255_1_234
10
10.7844459
20
134.1612201
11
10.7844459
21
134.2455534
0
LINE
8
DEFAULT_255_1_234
10
11.5715563
20
134.1604169
11
11.5715563
21
134.2471597
0
LINE
8
DEFAULT_255_1_234
10
10.9386553
20
134.257601
11
10.9386553
21
134.1716614
0
ARC
8
DEFAULT_255_1_234
10
10.8303909
20
134.1677707
40
0.8953833
50
351.453011
51
0.2489685
0
ARC
8
DEFAULT_255_1_234
10
11.0888709
20
134.1277933
40
0.6338333
50
338.6861641
51
351.5540711
0
ARC
8
DEFAULT_255_1_234
10
11.1822593
20
134.0947828
40
0.5348431
50
336.2887631
51
338.3442418
0
ARC
8
DEFAULT_255_1_234
10
11.2162215
20
134.0761698
40
0.4962747
50
321.1170344
51
336.6795229
0
ARC
8
DEFAULT_255_1_234
10
11.2794044
20
134.0275206
40
0.4165565
50
305.4419708
51
320.8705636
0
ARC
8
DEFAULT_255_1_234
10
11.2597514
20
134.1022707
40
0.4935497
50
271.6373023
51
283.8611969
0
ARC
8
DEFAULT_255_1_234
10
11.2559767
20
134.1678572
40
0.5592206
50
269.9930596
51
271.8318864
0
ARC
8
DEFAULT_255_1_234
10
11.252221
20
134.0870681
40
0.4784458
50
252.5219675
51
270.4416499
0
ARC
8
DEFAULT_255_1_234
10
11.2378469
20
134.0331592
40
0.422716
50
237.5352116
51
252.1857531
0
ARC
8
DEFAULT_255_1_234
10
11.2467665
20
134.0445363
40
0.4371052
50
209.063312
51
237.3492538
0
ARC
8
DEFAULT_255_1_234
10
11.3337513
20
134.0991685
40
0.5397041
50
205.1183774
51
209.6470015
0
ARC
8
DEFAULT_255_1_234
10
11.413455
20
134.132983
40
0.6262326
50
188.7215458
51
204.8240747
0
ARC
8
DEFAULT_255_1_234
10
11.6132078
20
134.1666067
40
0.8287794
50
180.3723947
51
188.9252049
0
ARC
8
DEFAULT_255_1_234
10
11.610483
20
134.2495402
40
0.8260467
50
169.5253763
51
180.2765336
0
ARC
8
DEFAULT_255_1_234
10
11.4202279
20
134.2845309
40
0.6326007
50
155.8315255
51
169.5089989
0
ARC
8
DEFAULT_255_1_234
10
11.292178
20
134.3439348
40
0.4914567
50
139.6258461
51
156.0379525
0
ARC
8
DEFAULT_255_1_234
10
11.2332113
20
134.3913799
40
0.4158054
50
122.6416387
51
139.3430715
0
ARC
8
DEFAULT_255_1_234
10
11.2432733
20
134.3730451
40
0.4366739
50
93.0223692
51
122.455762
0
ARC
8
DEFAULT_255_1_234
10
11.254073
20
134.2765709
40
0.5336137
50
89.975342
51
93.6341897
0
ARC
8
DEFAULT_255_1_234
10
11.2579616
20
134.3145375
40
0.4956606
50
73.9665422
51
90.4229648
0
ARC
8
DEFAULT_255_1_234
10
11.2763263
20
134.3860451
40
0.4218674
50
57.5178019
51
73.6813337
0
ARC
8
DEFAULT_255_1_234
10
11.2719046
20
134.3824462
40
0.4272816
50
28.7261108
51
57.2767933
0
ARC
8
DEFAULT_255_1_234
10
11.1808378
20
134.3261688
40
0.534218
50
24.2448911
51
29.3248482
0
ARC
8
DEFAULT_255_1_234
10
11.0882479
20
134.2878819
40
0.6343711
50
9.064382
51
23.9639114
0
ARC
8
DEFAULT_255_1_234
10
10.8626807
20
134.2499925
40
0.8630926
50
359.7586264
51
9.1891435
0
ARC
8
DEFAULT_255_1_234
10
10.7372287
20
134.2513343
40
0.834338
50
359.7133237
51
7.96545
0
ARC
8
DEFAULT_255_1_234
10
11.0334504
20
134.2940681
40
0.5350538
50
7.8291991
51
20.0421623
0
ARC
8
DEFAULT_255_1_234
10
11.1959067
20
134.3531606
40
0.3621841
50
20.0677553
51
35.9161685
0
ARC
8
DEFAULT_255_1_234
10
11.2734105
20
134.410767
40
0.2656263
50
35.6594382
51
85.1578074
0
ARC
8
DEFAULT_255_1_234
10
11.2549361
20
134.2992378
40
0.3784238
50
83.7959068
51
90.095906
0
ARC
8
DEFAULT_255_1_234
10
11.2506295
20
134.3725601
40
0.3051229
50
89.3102392
51
109.9889877
0
ARC
8
DEFAULT_255_1_234
10
11.2423778
20
134.4081433
40
0.2688988
50
110.9285147
51
143.9411762
0
ARC
8
DEFAULT_255_1_234
10
11.3354724
20
134.3369236
40
0.3860887
50
143.5289163
51
163.2980757
0
ARC
8
DEFAULT_255_1_234
10
11.5262545
20
134.2769433
40
0.5860659
50
163.0418846
51
174.3140048
0
ARC
8
DEFAULT_255_1_234
10
11.7666657
20
134.2491854
40
0.8280531
50
174.0509143
51
179.4176892
0
ARC
8
DEFAULT_255_1_234
10
11.7152992
20
134.1673634
40
0.7766558
50
179.6829237
51
188.9631324
0
ARC
8
DEFAULT_255_1_234
10
11.4482553
20
134.1238752
40
0.5060992
50
188.8100743
51
202.9300012
0
ARC
8
DEFAULT_255_1_234
10
11.3266182
20
134.0743855
40
0.3747967
50
203.2069261
51
215.7876482
0
ARC
8
DEFAULT_255_1_234
10
11.2417579
20
134.0072671
40
0.2667526
50
214.7521006
51
264.2834488
0
ARC
8
DEFAULT_255_1_234
10
11.2553234
20
134.092778
40
0.3532247
50
263.4755397
51
270.0949833
0
ARC
8
DEFAULT_255_1_234
10
11.2595345
20
134.0666374
40
0.3271036
50
269.3649385
51
287.5152008
0
ARC
8
DEFAULT_255_1_234
10
11.2773503
20
134.0019238
40
0.2600406
50
288.0630309
51
323.8113348
0
ARC
8
DEFAULT_255_1_234
10
11.1902345
20
134.0669049
40
0.3687189
50
323.6547608
51
342.6590488
0
ARC
8
DEFAULT_255_1_234
10
10.987096
20
134.1329952
40
0.5823286
50
342.4091907
51
353.6451149
0
ARC
8
DEFAULT_255_1_234
10
10.7039471
20
134.168219
40
0.8676442
50
353.4029884
51
359.4847795
0
LINE
8
DEFAULT_255_1_234
10
12.6566441
20
134.1821026
11
12.6566441
21
134.0608234
0
LINE
8
DEFAULT_255_1_234
10
12.6566441
20
134.0608234
11
12.2646953
21
134.0608234
0
LINE
8
DEFAULT_255_1_234
10
12.2646953
20
134.0608234
11
12.2646953
21
134.1821026
0
LINE
8
DEFAULT_255_1_234
10
12.2646953
20
134.1821026
11
12.6566441
21
134.1821026
0
LINE
8
DEFAULT_255_1_234
10
14.0075825
20
134.4559849
11
13.85257
21
134.4559849
0
LINE
8
DEFAULT_255_1_234
10
13.1602341
20
133.9636394
11
13.3152467
21
133.9636394
0
ARC
8
DEFAULT_255_1_234
10
13.9184513
20
135.3506768
40
1.252368
50
248.9199003
51
254.1439814
0
ARC
8
DEFAULT_255_1_234
10
13.7504007
20
134.9180234
40
0.788226
50
241.633709
51
249.0064503
0
ARC
8
DEFAULT_255_1_234
10
13.5975402
20
134.6379317
40
0.4691427
50
230.498225
51
241.8087113
0
ARC
8
DEFAULT_255_1_234
10
13.5190976
20
134.5379906
40
0.3421437
50
227.4064532
51
229.9881192
0
ARC
8
DEFAULT_255_1_234
10
13.4703497
20
134.4904088
40
0.2741476
50
200.6781896
51
228.1763934
0
ARC
8
DEFAULT_255_1_234
10
13.4775807
20
134.4889077
40
0.2804109
50
179.5061581
51
199.8694617
0
ARC
8
DEFAULT_255_1_234
10
13.4766559
20
134.496321
40
0.2795204
50
132.4834203
51
181.0242172
0
ARC
8
DEFAULT_255_1_234
10
13.5362141
20
134.4400704
40
0.3612768
50
129.2532479
51
133.4242687
0
ARC
8
DEFAULT_255_1_234
10
13.5508591
20
134.4180965
40
0.3875675
50
101.98776
51
128.8742646
0
ARC
8
DEFAULT_255_1_234
10
13.5907202
20
134.2459741
40
0.5642249
50
89.5906553
51
102.3169264
0
ARC
8
DEFAULT_255_1_234
10
13.5977694
20
134.2778148
40
0.5323783
50
77.2360837
51
90.3248275
0
ARC
8
DEFAULT_255_1_234
10
13.6184773
20
134.37454
40
0.4334697
50
63.837784
51
77.0809408
0
ARC
8
DEFAULT_255_1_234
10
13.6462535
20
134.4262911
40
0.3747796
50
45.9864267
51
64.1607727
0
ARC
8
DEFAULT_255_1_234
10
13.6723416
20
134.4560866
40
0.3352302
50
32.2747395
51
45.6547121
0
ARC
8
DEFAULT_255_1_234
10
13.6789857
20
134.457988
40
0.328603
50
359.6507365
51
32.6130309
0
ARC
8
DEFAULT_255_1_234
10
13.5846952
20
134.458466
40
0.2678863
50
359.469343
51
14.9832209
0
ARC
8
DEFAULT_255_1_234
10
13.6552014
20
134.4773539
40
0.1948938
50
14.9781179
51
48.2004265
0
ARC
8
DEFAULT_255_1_234
10
13.6387658
20
134.4566983
40
0.2212521
50
48.5927837
51
74.1241538
0
ARC
8
DEFAULT_255_1_234
10
13.6054148
20
134.3466248
40
0.3362561
50
73.7888341
51
86.6652678
0
ARC
8
DEFAULT_255_1_234
10
13.5951714
20
134.2258881
40
0.4573953
50
86.2640471
51
90.0526343
0
ARC
8
DEFAULT_255_1_234
10
13.5923426
20
134.2654192
40
0.4178709
50
89.6697524
51
99.2309573
0
ARC
8
DEFAULT_255_1_234
10
13.5680877
20
134.4098964
40
0.2713749
50
99.069534
51
113.7658566
0
ARC
8
DEFAULT_255_1_234
10
13.5407068
20
134.4744677
40
0.2012469
50
114.0401004
51
127.9850673
0
ARC
8
DEFAULT_255_1_234
10
13.5166632
20
134.504073
40
0.1631167
50
127.7287463
51
176.7105154
0
ARC
8
DEFAULT_255_1_234
10
13.5845349
20
134.4939693
40
0.2315392
50
175.1779447
51
180.0581938
0
ARC
8
DEFAULT_255_1_234
10
13.5002196
20
134.4927428
40
0.1472271
50
179.6142195
51
228.1246017
0
ARC
8
DEFAULT_255_1_234
10
13.5443865
20
134.5336308
40
0.2072299
50
226.5779593
51
230.8800004
0
ARC
8
DEFAULT_255_1_234
10
13.5914944
20
134.5961636
40
0.2854818
50
231.4635071
51
241.9260842
0
ARC
8
DEFAULT_255_1_234
10
13.7112122
20
134.81648
40
0.53622
50
241.7178533
51
248.3259551
0
ARC
8
DEFAULT_255_1_234
10
13.8497493
20
135.1597064
40
0.9063478
50
248.2007737
51
252.4528373
0
ARC
8
DEFAULT_255_1_234
10
13.9701218
20
135.5318441
40
1.2974635
50
252.3391078
51
254.3469452
0
ARC
8
DEFAULT_255_1_234
10
13.2158921
20
132.8341148
40
1.5037162
50
71.0197183
51
74.4087047
0
ARC
8
DEFAULT_255_1_234
10
13.3853606
20
133.3233111
40
0.9859993
50
66.1847285
51
71.086374
0
ARC
8
DEFAULT_255_1_234
10
13.5409918
20
133.67372
40
0.6025855
50
59.3536294
51
66.2691831
0
ARC
8
DEFAULT_255_1_234
10
13.6298571
20
133.8240609
40
0.4279449
50
49.1020879
51
59.3293958
0
ARC
8
DEFAULT_255_1_234
10
13.7117311
20
133.9173834
40
0.3038015
50
32.7919921
51
49.2505539
0
ARC
8
DEFAULT_255_1_234
10
13.7438401
20
133.9402191
40
0.264448
50
31.1181161
51
32.4005348
0
ARC
8
DEFAULT_255_1_234
10
13.7349938
20
133.9366779
40
0.2738556
50
8.1116974
51
30.7958831
0
ARC
8
DEFAULT_255_1_234
10
13.6539607
20
133.9228753
40
0.3560327
50
359.8389159
51
8.4706516
0
ARC
8
DEFAULT_255_1_234
10
13.7165398
20
133.9180137
40
0.2934776
50
337.4731098
51
0.7537279
0
ARC
8
DEFAULT_255_1_234
10
13.7344093
20
133.9160387
40
0.2762607
50
307.5917067
51
336.4315538
0
ARC
8
DEFAULT_255_1_234
10
13.6883921
20
133.9673102
40
0.3449979
50
307.6551545
51
308.4529766
0
ARC
8
DEFAULT_255_1_234
10
13.665364
20
134.002825
40
0.3871988
50
284.3734338
51
307.1424381
0
ARC
8
DEFAULT_255_1_234
10
13.615847
20
134.1849932
40
0.5759636
50
272.4382747
51
284.646547
0
ARC
8
DEFAULT_255_1_234
10
13.6031679
20
134.3649893
40
0.7563528
50
269.9708387
51
272.8178037
0
ARC
8
DEFAULT_255_1_234
10
13.5988718
20
134.1611716
40
0.5525489
50
248.2707594
51
270.4055579
0
ARC
8
DEFAULT_255_1_234
10
13.5934459
20
134.1421192
40
0.5328452
50
246.1383403
51
248.0542782
0
ARC
8
DEFAULT_255_1_234
10
13.5515838
20
134.0541843
40
0.4355005
50
233.1670131
51
246.4950969
0
ARC
8
DEFAULT_255_1_234
10
13.4961743
20
133.9793812
40
0.3424126
50
215.3403242
51
233.0843104
0
ARC
8
DEFAULT_255_1_234
10
13.4689175
20
133.9595549
40
0.3087104
50
179.2419209
51
215.2648451
0
ARC
8
DEFAULT_255_1_234
10
13.5456768
20
133.9609666
40
0.2304457
50
179.335461
51
199.1045811
0
ARC
8
DEFAULT_255_1_234
10
13.5124445
20
133.9522766
40
0.1962176
50
199.8828939
51
232.7063202
0
ARC
8
DEFAULT_255_1_234
10
13.5596713
20
134.0116788
40
0.2720938
50
232.3738199
51
255.5136649
0
ARC
8
DEFAULT_255_1_234
10
13.593758
20
134.1360835
40
0.4010747
50
255.2446292
51
267.5320849
0
ARC
8
DEFAULT_255_1_234
10
13.6025203
20
134.2593702
40
0.5246356
50
267.1557994
51
270.0286766
0
ARC
8
DEFAULT_255_1_234
10
13.6052976
20
134.214995
40
0.4802668
50
269.7000017
51
278.1660162
0
ARC
8
DEFAULT_255_1_234
10
13.630898
20
134.0419515
40
0.3053425
50
278.0231263
51
290.625471
0
ARC
8
DEFAULT_255_1_234
10
13.6656667
20
133.9492025
40
0.206291
50
290.6619762
51
307.0370976
0
ARC
8
DEFAULT_255_1_234
10
13.6957057
20
133.9123504
40
0.1587906
50
306.3943566
51
355.3030547
0
ARC
8
DEFAULT_255_1_234
10
13.6444988
20
133.9200113
40
0.2104809
50
354.3660432
51
0.0698737
0
ARC
8
DEFAULT_255_1_234
10
13.6587333
20
133.9222617
40
0.1962563
50
359.417946
51
16.1971788
0
ARC
8
DEFAULT_255_1_234
10
13.7042644
20
133.9347418
40
0.149053
50
16.4723299
51
52.6262157
0
ARC
8
DEFAULT_255_1_234
10
13.6221698
20
133.8263433
40
0.2850296
50
52.7386432
51
62.4979148
0
ARC
8
DEFAULT_255_1_234
10
13.4836774
20
133.5657283
40
0.5801521
50
62.2515216
51
68.1220564
0
ARC
8
DEFAULT_255_1_234
10
13.3116685
20
133.1429872
40
1.0365451
50
68.0062803
51
71.8053402
0
ARC
8
DEFAULT_255_1_234
10
13.1321057
20
132.6044758
40
1.6042013
50
71.7183119
51
73.9258742
0
LINE
8
DEFAULT_255_1_234
10
14.1465316
20
134.0351218
11
14.1465316
21
134.0624297
0
LINE
8
DEFAULT_255_1_234
10
14.8838452
20
134.0784932
11
14.8838452
21
134.0166488
0
LINE
8
DEFAULT_255_1_234
10
14.8838452
20
134.0166488
11
14.2951188
21
134.0166488
0
LINE
8
DEFAULT_255_1_234
10
14.7818421
20
133.8471792
11
14.8726007
21
133.7764999
0
LINE
8
DEFAULT_255_1_234
10
14.2999378
20
134.1387313
11
14.735258
21
134.1387313
0
LINE
8
DEFAULT_255_1_234
10
14.735258
20
134.1387313
11
14.735258
21
134.1499757
0
ARC
8
DEFAULT_255_1_234
10
14.5404681
20
134.0462332
40
0.4376191
50
252.3266134
51
270.5810217
0
ARC
8
DEFAULT_255_1_234
10
14.519977
20
133.9721644
40
0.3608374
50
223.3000567
51
251.8561855
0
ARC
8
DEFAULT_255_1_234
10
14.5411131
20
133.9926937
40
0.3902993
50
190.9374509
51
223.3654032
0
ARC
8
DEFAULT_255_1_234
10
14.7136103
20
134.0316885
40
0.5670891
50
179.6531105
51
191.4989439
0
ARC
8
DEFAULT_255_1_234
10
14.7258115
20
134.0656417
40
0.5792888
50
167.4007466
51
180.3176909
0
ARC
8
DEFAULT_255_1_234
10
14.6206177
20
134.0878885
40
0.471777
50
154.1835823
51
167.250763
0
ARC
8
DEFAULT_255_1_234
10
14.5574644
20
134.1211417
40
0.4004528
50
134.3149965
51
154.5315275
0
ARC
8
DEFAULT_255_1_234
10
14.5357139
20
134.1402228
40
0.371612
50
122.8616532
51
133.9707695
0
ARC
8
DEFAULT_255_1_234
10
14.5253714
20
134.1624703
40
0.3473289
50
89.8249009
51
123.4199222
0
ARC
8
DEFAULT_255_1_234
10
14.5303755
20
134.0977967
40
0.4120197
50
74.7876118
51
90.5482747
0
ARC
8
DEFAULT_255_1_234
10
14.5597498
20
134.206303
40
0.2996077
50
39.8178249
51
74.7633718
0
ARC
8
DEFAULT_255_1_234
10
14.5084818
20
134.1663351
40
0.3645855
50
16.8990863
51
39.4829761
0
ARC
8
DEFAULT_255_1_234
10
14.3190114
20
134.1056526
40
0.5635218
50
4.9636328
51
17.2026414
0
ARC
8
DEFAULT_255_1_234
10
14.0772185
20
134.080134
40
0.8066286
50
359.8834553
51
5.2834307
0
ARC
8
DEFAULT_255_1_234
10
14.6809709
20
134.0232803
40
0.3859091
50
180.9846213
51
194.9401313
0
ARC
8
DEFAULT_255_1_234
10
14.5759987
20
133.9945849
40
0.2770883
50
194.80314
51
222.0412631
0
ARC
8
DEFAULT_255_1_234
10
14.5455869
20
133.9644116
40
0.2343055
50
221.5417084
51
268.8614402
0
ARC
8
DEFAULT_255_1_234
10
14.5528863
20
134.0320686
40
0.3021528
50
267.732405
51
270.0097136
0
ARC
8
DEFAULT_255_1_234
10
14.5546673
20
134.0522105
40
0.3222994
50
269.6924892
51
280.4117579
0
ARC
8
DEFAULT_255_1_234
10
14.572308
20
133.9603193
40
0.2287344
50
280.2255091
51
298.6338936
0
ARC
8
DEFAULT_255_1_234
10
14.5839872
20
133.9359223
40
0.2017294
50
299.0430333
51
300.4643464
0
ARC
8
DEFAULT_255_1_234
10
14.5159878
20
134.0493038
40
0.3339357
50
300.6577328
51
322.0378878
0
ARC
8
DEFAULT_255_1_234
10
14.4809417
20
134.0797021
40
0.3802736
50
321.6750233
51
322.3046845
0
ARC
8
DEFAULT_255_1_234
10
14.5740378
20
133.963037
40
0.3520454
50
276.9728461
51
328.0035423
0
ARC
8
DEFAULT_255_1_234
10
14.5463431
20
134.1110841
40
0.5024498
50
269.8361028
51
278.0581756
0
ARC
8
DEFAULT_255_1_234
10
14.5236168
20
134.1855757
40
0.202159
50
89.2018686
51
117.2851756
0
ARC
8
DEFAULT_255_1_234
10
14.5289337
20
134.1813752
40
0.2083484
50
118.0551165
51
137.4540413
0
ARC
8
DEFAULT_255_1_234
10
14.5664077
20
134.1473304
40
0.2589774
50
137.5109581
51
158.8516286
0
ARC
8
DEFAULT_255_1_234
10
14.6801913
20
134.1014074
40
0.38167
50
158.5845963
51
170.1721436
0
ARC
8
DEFAULT_255_1_234
10
14.7971302
20
134.0781823
40
0.5008657
50
169.8376422
51
173.0566086
0
ARC
8
DEFAULT_255_1_234
10
14.3274376
20
134.1292509
40
0.4083467
50
2.9091802
51
12.8847116
0
ARC
8
DEFAULT_255_1_234
10
14.4645053
20
134.1615101
40
0.2675383
50
12.6957781
51
28.6404489
0
ARC
8
DEFAULT_255_1_234
10
14.5186723
20
134.1895458
40
0.2065654
50
29.0169854
51
41.1487595
0
ARC
8
DEFAULT_255_1_234
10
14.5389509
20
134.2072003
40
0.1796786
50
41.1646065
51
85.0013516
0
ARC
8
DEFAULT_255_1_234
10
14.5268605
20
134.1337431
40
0.2539726
50
83.7280015
51
90.0964893
0
LINE
8
DEFAULT_255_1_234
10
15.4757843
20
134.4985531
11
15.4757843
21
134.3604072
0
LINE
8
DEFAULT_255_1_234
10
15.2043115
20
134.2415375
11
15.2043115
21
133.6247
0
LINE
8
DEFAULT_255_1_234
10
15.2043115
20
133.6247
11
15.0557244
21
133.6247
0
LINE
8
DEFAULT_255_1_234
10
15.0557244
20
133.6247
11
15.0557244
21
134.4937341
0
LINE
8
DEFAULT_255_1_234
10
15.0557244
20
134.4937341
11
15.2002957
21
134.4937341
0
LINE
8
DEFAULT_255_1_234
10
15.2002957
20
134.4937341
11
15.2027052
21
134.3933374
0
ARC
8
DEFAULT_255_1_234
10
15.4091248
20
133.9544342
40
0.4114092
50
80.6754243
51
86.8932892
0
ARC
8
DEFAULT_255_1_234
10
15.4030783
20
133.85767
40
0.5083596
50
86.8038578
51
90.0431435
0
ARC
8
DEFAULT_255_1_234
10
15.3993763
20
134.1033866
40
0.2626638
50
89.2759698
51
106.6213787
0
ARC
8
DEFAULT_255_1_234
10
15.3789327
20
134.177683
40
0.1856317
50
107.1346045
51
157.6458115
0
ARC
8
DEFAULT_255_1_234
10
15.4480929
20
134.1393311
40
0.2643398
50
155.6586782
51
157.2539184
0
ARC
8
DEFAULT_255_1_234
10
15.4276131
20
134.2562157
40
0.2634121
50
127.8165941
51
148.6302098
0
ARC
8
DEFAULT_255_1_234
10
15.40226
20
134.2822218
40
0.2273596
50
91.3329982
51
126.7875809
0
ARC
8
DEFAULT_255_1_234
10
15.409854
20
134.2107195
40
0.299078
50
89.986594
51
92.4688449
0
ARC
8
DEFAULT_255_1_234
10
15.4106935
20
134.2382078
40
0.2715908
50
85.3589899
51
90.1623399
0
ARC
8
DEFAULT_255_1_234
10
15.4191451
20
134.3386164
40
0.1708278
50
78.401942
51
85.4594656
0
ARC
8
DEFAULT_255_1_234
10
15.4336335
20
134.4077236
40
0.1002194
50
67.7858312
51
78.5728455
0
ARC
8
DEFAULT_255_1_234
10
15.4444188
20
134.4356887
40
0.0702548
50
63.4835954
51
67.3062642
0
LINE
8
DEFAULT_255_1_234
10
15.7737618
20
134.4937341
11
15.7737618
21
133.6247
0
LINE
8
DEFAULT_255_1_234
10
15.7737618
20
133.6247
11
15.6251746
21
133.6247
0
LINE
8
DEFAULT_255_1_234
10
15.6251746
20
133.6247
11
15.6251746
21
134.4937341
0
LINE
8
DEFAULT_255_1_234
10
15.6251746
20
134.4937341
11
15.7737618
21
134.4937341
0
ARC
8
DEFAULT_255_1_234
10
15.7109895
20
134.7251889
40
0.097867
50
161.415052
51
180.5526306
0
ARC
8
DEFAULT_255_1_234
10
15.6985673
20
134.7286077
40
0.0850062
50
138.1827368
51
160.9307106
0
ARC
8
DEFAULT_255_1_234
10
15.6875619
20
134.7381588
40
0.0704362
50
104.6368899
51
138.0039868
0
ARC
8
DEFAULT_255_1_234
10
15.6982773
20
134.7014963
40
0.1086221
50
92.0600725
51
105.2189128
0
ARC
8
DEFAULT_255_1_234
10
15.7006122
20
134.6672117
40
0.1429728
50
89.9756393
51
92.5012496
0
ARC
8
DEFAULT_255_1_234
10
15.7016141
20
134.6897731
40
0.1204151
50
78.0235316
51
90.4478182
0
ARC
8
DEFAULT_255_1_234
10
15.7108233
20
134.7311295
40
0.0780493
50
55.051506
51
78.3369085
0
ARC
8
DEFAULT_255_1_234
10
15.7158507
20
134.7395711
40
0.0682538
50
42.0501187
51
54.4513741
0
ARC
8
DEFAULT_255_1_234
10
15.7023374
20
134.7271798
40
0.0865878
50
1.7497075
51
42.1496013
0
ARC
8
DEFAULT_255_1_234
10
15.6768707
20
134.7242738
40
0.1121515
50
359.9852656
51
2.8364544
0
ARC
8
DEFAULT_255_1_234
10
15.6934699
20
134.7233229
40
0.0955566
50
342.1070653
51
0.552888
0
ARC
8
DEFAULT_255_1_234
10
15.7077397
20
134.7193904
40
0.0807713
50
316.7107116
51
341.6516965
0
ARC
8
DEFAULT_255_1_234
10
15.7144434
20
134.7133823
40
0.0717724
50
285.4397031
51
316.5324284
0
ARC
8
DEFAULT_255_1_234
10
15.7034351
20
134.7499554
40
0.1099597
50
272.3547054
51
285.8953117
0
ARC
8
DEFAULT_255_1_234
10
15.7007509
20
134.7865048
40
0.1465932
50
269.9695369
51
272.8160237
0
ARC
8
DEFAULT_255_1_234
10
15.699769
20
134.7645863
40
0.1246779
50
258.8431134
51
270.4153935
0
ARC
8
DEFAULT_255_1_234
10
15.6907733
20
134.7210414
40
0.0802162
50
238.5431189
51
259.1288175
0
ARC
8
DEFAULT_255_1_234
10
15.6839618
20
134.7086856
40
0.0661247
50
222.5062634
51
237.9906969
0
ARC
8
DEFAULT_255_1_234
10
15.6967205
20
134.7202889
40
0.0833707
50
184.1069131
51
222.460413
0
ARC
8
DEFAULT_255_1_234
10
15.7236446
20
134.7241349
40
0.1105176
50
179.9429482
51
185.0960898
0
LINE
8
DEFAULT_255_1_234
10
15.9737521
20
134.0351218
11
15.9737521
21
134.0624297
0
LINE
8
DEFAULT_255_1_234
10
16.7110656
20
134.0784932
11
16.7110656
21
134.0166488
0
LINE
8
DEFAULT_255_1_234
10
16.7110656
20
134.0166488
11
16.1223392
21
134.0166488
0
LINE
8
DEFAULT_255_1_234
10
16.6090625
20
133.8471792
11
16.6998212
21
133.7764999
0
LINE
8
DEFAULT_255_1_234
10
16.1271583
20
134.1387313
11
16.5624785
21
134.1387313
0
LINE
8
DEFAULT_255_1_234
10
16.5624785
20
134.1387313
11
16.5624785
21
134.1499757
0
ARC
8
DEFAULT_255_1_234
10
16.3676886
20
134.0462332
40
0.4376191
50
252.3266134
51
270.5810217
0
ARC
8
DEFAULT_255_1_234
10
16.3471975
20
133.9721644
40
0.3608374
50
223.3000567
51
251.8561855
0
ARC
8
DEFAULT_255_1_234
10
16.3683335
20
133.9926937
40
0.3902993
50
190.9374509
51
223.3654032
0
ARC
8
DEFAULT_255_1_234
10
16.5408308
20
134.0316885
40
0.5670891
50
179.6531105
51
191.4989439
0
ARC
8
DEFAULT_255_1_234
10
16.553032
20
134.0656417
40
0.5792888
50
167.4007466
51
180.3176909
0
ARC
8
DEFAULT_255_1_234
10
16.4478381
20
134.0878885
40
0.471777
50
154.1835823
51
167.250763
0
ARC
8
DEFAULT_255_1_234
10
16.3846849
20
134.1211417
40
0.4004528
50
134.3149965
51
154.5315275
0
ARC
8
DEFAULT_255_1_234
10
16.3629344
20
134.1402228
40
0.371612
50
122.8616532
51
133.9707695
0
ARC
8
DEFAULT_255_1_234
10
16.3525918
20
134.1624703
40
0.3473289
50
89.8249009
51
123.4199222
0
ARC
8
DEFAULT_255_1_234
10
16.3575959
20
134.0977967
40
0.4120197
50
74.7876118
51
90.5482747
0
ARC
8
DEFAULT_255_1_234
10
16.3869702
20
134.206303
40
0.2996077
50
39.8178249
51
74.7633718
0
ARC
8
DEFAULT_255_1_234
10
16.3357023
20
134.1663351
40
0.3645855
50
16.8990863
51
39.4829761
0
ARC
8
DEFAULT_255_1_234
10
16.1462319
20
134.1056526
40
0.5635218
50
4.9636328
51
17.2026414
0
ARC
8
DEFAULT_255_1_234
10
15.9044389
20
134.080134
40
0.8066286
50
359.8834553
51
5.2834307
0
ARC
8
DEFAULT_255_1_234
10
16.5081914
20
134.0232803
40
0.3859091
50
180.9846213
51
194.9401313
0
ARC
8
DEFAULT_255_1_234
10
16.4032191
20
133.9945849
40
0.2770883
50
194.80314
51
222.0412631
0
ARC
8
DEFAULT_255_1_234
10
16.3728073
20
133.9644116
40
0.2343055
50
221.5417084
51
268.8614402
0
ARC
8
DEFAULT_255_1_234
10
16.3801068
20
134.0320686
40
0.3021528
50
267.732405
51
270.0097136
0
ARC
8
DEFAULT_255_1_234
10
16.3818878
20
134.0522105
40
0.3222994
50
269.6924892
51
280.4117579
0
ARC
8
DEFAULT_255_1_234
10
16.3995285
20
133.9603193
40
0.2287344
50
280.2255091
51
298.6338936
0
ARC
8
DEFAULT_255_1_234
10
16.4112077
20
133.9359223
40
0.2017294
50
299.0430333
51
300.4643464
0
ARC
8
DEFAULT_255_1_234
10
16.3432082
20
134.0493038
40
0.3339357
50
300.6577328
51
322.0378878
0
ARC
8
DEFAULT_255_1_234
10
16.3081621
20
134.0797021
40
0.3802736
50
321.6750233
51
322.3046845
0
ARC
8
DEFAULT_255_1_234
10
16.4012583
20
133.963037
40
0.3520454
50
276.9728461
51
328.0035423
0
ARC
8
DEFAULT_255_1_234
10
16.3735635
20
134.1110841
40
0.5024498
50
269.8361028
51
278.0581756
0
ARC
8
DEFAULT_255_1_234
10
16.3508373
20
134.1855757
40
0.202159
50
89.2018686
51
117.2851756
0
ARC
8
DEFAULT_255_1_234
10
16.3561542
20
134.1813752
40
0.2083484
50
118.0551165
51
137.4540413
0
ARC
8
DEFAULT_255_1_234
10
16.3936282
20
134.1473304
40
0.2589774
50
137.5109581
51
158.8516286
0
ARC
8
DEFAULT_255_1_234
10
16.5074117
20
134.1014074
40
0.38167
50
158.5845963
51
170.1721436
0
ARC
8
DEFAULT_255_1_234
10
16.6243507
20
134.0781823
40
0.5008657
50
169.8376422
51
173.0566086
0
ARC
8
DEFAULT_255_1_234
10
16.1546581
20
134.1292509
40
0.4083467
50
2.9091802
51
12.8847116
0
ARC
8
DEFAULT_255_1_234
10
16.2917257
20
134.1615101
40
0.2675383
50
12.6957781
51
28.6404489
0
ARC
8
DEFAULT_255_1_234
10
16.3458928
20
134.1895458
40
0.2065654
50
29.0169854
51
41.1487595
0
ARC
8
DEFAULT_255_1_234
10
16.3661713
20
134.2072003
40
0.1796786
50
41.1646065
51
85.0013516
0
ARC
8
DEFAULT_255_1_234
10
16.354081
20
134.1337431
40
0.2539726
50
83.7280015
51
90.0964893
0
LINE
8
DEFAULT_255_1_234
10
17.5294998
20
134.2383248
11
17.3801094
21
134.2383248
0
LINE
8
DEFAULT_255_1_234
10
16.846802
20
133.8921569
11
16.9953892
21
133.8921569
0
ARC
8
DEFAULT_255_1_234
10
17.2612913
20
133.8566959
40
0.1276617
50
359.3334982
51
18.5871358
0
ARC
8
DEFAULT_255_1_234
10
17.282155
20
133.8622133
40
0.1061371
50
19.3540742
51
54.6485071
0
ARC
8
DEFAULT_255_1_234
10
17.2317452
20
133.7926919
40
0.1920087
50
54.3827097
51
65.0622807
0
ARC
8
DEFAULT_255_1_234
10
17.1548848
20
133.63099
40
0.3710447
50
64.8282493
51
71.4200025
0
ARC
8
DEFAULT_255_1_234
10
17.0646724
20
133.3663107
40
0.6506741
50
71.3164301
51
75.8006402
0
ARC
8
DEFAULT_255_1_234
10
16.9805544
20
133.0422561
40
0.9854641
50
75.6809531
51
78.0061883
0
ARC
8
DEFAULT_255_1_234
10
17.4254077
20
135.140177
40
1.1591028
50
254.6901892
51
258.0466452
0
ARC
8
DEFAULT_255_1_234
10
17.3215985
20
134.7642781
40
0.7691345
50
249.9010773
51
254.755261
0
ARC
8
DEFAULT_255_1_234
10
17.2212327
20
134.4916982
40
0.478665
50
243.3097214
51
249.9709442
0
ARC
8
DEFAULT_255_1_234
10
17.1583349
20
134.3662778
40
0.3383568
50
234.4047477
51
243.2862168
0
ARC
8
DEFAULT_255_1_234
10
17.0960872
20
134.2803232
40
0.2322322
50
220.8667099
51
234.5493881
0
ARC
8
DEFAULT_255_1_234
10
17.0618813
20
134.2491817
40
0.1859923
50
214.3062465
51
220.5065136
0
ARC
8
DEFAULT_255_1_234
10
17.0592892
20
134.246088
40
0.1821108
50
186.912965
51
213.9618616
0
ARC
8
DEFAULT_255_1_234
10
17.1124987
20
134.2547009
40
0.2359799
50
179.8808832
51
187.4339886
0
ARC
8
DEFAULT_255_1_234
10
17.097012
20
134.2567088
40
0.2204978
50
132.005434
51
180.3942919
0
ARC
8
DEFAULT_255_1_234
10
17.1626734
20
134.1961083
40
0.3095791
50
129.2319861
51
133.5302299
0
ARC
8
DEFAULT_255_1_234
10
17.1680242
20
134.1866928
40
0.3202615
50
100.4410011
51
128.9081242
0
ARC
8
DEFAULT_255_1_234
10
17.1954126
20
134.0581455
40
0.4516583
50
89.6985377
51
100.9026564
0
ARC
8
DEFAULT_255_1_234
10
17.2011168
20
134.0421166
40
0.4676928
50
77.6965325
51
90.4076836
0
ARC
8
DEFAULT_255_1_234
10
17.2342152
20
134.1848413
40
0.3211988
50
50.7276602
51
78.0399361
0
ARC
8
DEFAULT_255_1_234
10
17.278661
20
134.2366296
40
0.2529778
50
25.7545084
51
51.0957453
0
ARC
8
DEFAULT_255_1_234
10
17.2787835
20
134.2416206
40
0.250738
50
359.2468627
51
24.7394243
0
ARC
8
DEFAULT_255_1_234
10
17.2503287
20
134.2387664
40
0.1297815
50
359.8050318
51
45.1544908
0
ARC
8
DEFAULT_255_1_234
10
17.2096429
20
134.2039794
40
0.1831883
50
43.8047702
51
49.6271585
0
ARC
8
DEFAULT_255_1_234
10
17.210433
20
134.2040678
40
0.18261
50
49.7980766
51
82.1218353
0
ARC
8
DEFAULT_255_1_234
10
17.1985302
20
134.1393998
40
0.2483163
50
81.4465357
51
90.1710293
0
ARC
8
DEFAULT_255_1_234
10
17.1960905
20
134.086788
40
0.300932
50
89.6766211
51
99.1264602
0
ARC
8
DEFAULT_255_1_234
10
17.1789367
20
134.1901537
40
0.1961547
50
98.968313
51
113.4570237
0
ARC
8
DEFAULT_255_1_234
10
17.1593452
20
134.2369965
40
0.1453859
50
113.722589
51
127.4763106
0
ARC
8
DEFAULT_255_1_234
10
17.1425098
20
134.2570124
40
0.1192639
50
126.9083309
51
150.3165862
0
ARC
8
DEFAULT_255_1_234
10
17.1377431
20
134.2620981
40
0.112623
50
151.3635175
51
180.0701457
0
ARC
8
DEFAULT_255_1_234
10
17.1686215
20
134.259999
40
0.1435149
50
179.2169974
51
179.9954013
0
ARC
8
DEFAULT_255_1_234
10
17.1325273
20
134.2587056
40
0.1074286
50
179.3040112
51
198.4225446
0
ARC
8
DEFAULT_255_1_234
10
17.1133406
20
134.2537127
40
0.0876573
50
199.2895851
51
238.6034594
0
ARC
8
DEFAULT_255_1_234
10
17.1736253
20
134.348345
40
0.1998512
50
237.9846301
51
246.8744712
0
ARC
8
DEFAULT_255_1_234
10
17.2594198
20
134.5446205
40
0.4140547
50
246.6234531
51
251.8168941
0
ARC
8
DEFAULT_255_1_234
10
17.3624741
20
134.8540905
40
0.7402308
50
251.713434
51
255.0778414
0
ARC
8
DEFAULT_255_1_234
10
17.4824004
20
135.3007563
40
1.2027155
50
255.0367487
51
257.4705983
0
ARC
8
DEFAULT_255_1_234
10
16.9716014
20
132.9993863
40
1.1546601
50
73.6837552
51
77.5016755
0
ARC
8
DEFAULT_255_1_234
10
17.0804789
20
133.3693581
40
0.7690009
50
68.7044154
51
73.7249639
0
ARC
8
DEFAULT_255_1_234
10
17.1707809
20
133.6020654
40
0.5193873
50
63.590599
51
68.6626804
0
ARC
8
DEFAULT_255_1_234
10
17.2478828
20
133.7558123
40
0.3473927
50
54.7106439
51
63.7013633
0
ARC
8
DEFAULT_255_1_234
10
17.3103283
20
133.84304
40
0.2401192
50
41.0622434
51
54.8487496
0
ARC
8
DEFAULT_255_1_234
10
17.3444669
20
133.8743592
40
0.1938094
50
34.4950568
51
40.7105546
0
ARC
8
DEFAULT_255_1_234
10
17.3491477
20
133.8792078
40
0.1872106
50
9.3763373
51
34.0833615
0
ARC
8
DEFAULT_255_1_234
10
17.2838347
20
133.8666728
40
0.2536988
50
359.7694872
51
9.7663171
0
ARC
8
DEFAULT_255_1_234
10
17.3035848
20
133.8623764
40
0.2339696
50
335.8654732
51
0.8022045
0
ARC
8
DEFAULT_255_1_234
10
17.3110892
20
133.8637197
40
0.2277108
50
307.7357725
51
334.7849066
0
ARC
8
DEFAULT_255_1_234
10
17.2710068
20
133.9087645
40
0.2878951
50
307.0241536
51
308.5578354
0
ARC
8
DEFAULT_255_1_234
10
17.2452399
20
133.9473801
40
0.3342515
50
282.9362969
51
306.5646424
0
ARC
8
DEFAULT_255_1_234
10
17.2090697
20
134.0941108
40
0.4853615
50
271.1026298
51
283.2200835
0
ARC
8
DEFAULT_255_1_234
10
17.2026941
20
134.2182418
40
0.6096052
50
269.9919117
51
271.4772449
0
ARC
8
DEFAULT_255_1_234
10
17.2000696
20
134.1104436
40
0.5018135
50
259.0723564
51
270.289833
0
ARC
8
DEFAULT_255_1_234
10
17.1788428
20
133.9987271
40
0.388099
50
245.4963068
51
259.0227342
0
ARC
8
DEFAULT_255_1_234
10
17.1510384
20
133.9405615
40
0.3236422
50
228.9684658
51
245.7044727
0
ARC
8
DEFAULT_255_1_234
10
17.1244828
20
133.9078575
40
0.2815426
50
214.4011705
51
228.6759915
0
ARC
8
DEFAULT_255_1_234
10
17.0955569
20
133.892029
40
0.2487548
50
179.9705531
51
215.1572795
0
ARC
8
DEFAULT_255_1_234
10
17.1656168
20
133.8993806
40
0.1703809
50
182.4299387
51
203.0329699
0
ARC
8
DEFAULT_255_1_234
10
17.1471826
20
133.8937396
40
0.1512226
50
203.798802
51
232.548466
0
ARC
8
DEFAULT_255_1_234
10
17.1748347
20
133.9288826
40
0.1959374
50
232.3782728
51
256.3934612
0
ARC
8
DEFAULT_255_1_234
10
17.1978709
20
134.0178842
40
0.2878639
50
256.104506
51
268.4626716
0
ARC
8
DEFAULT_255_1_234
10
17.2025193
20
134.0975487
40
0.3676329
50
268.0715632
51
270.0138206
0
ARC
8
DEFAULT_255_1_234
10
17.2043718
20
134.0703083
40
0.3403971
50
269.7031147
51
278.8341955
0
ARC
8
DEFAULT_255_1_234
10
17.2225811
20
133.9572876
40
0.2259217
50
278.6728789
51
292.8232582
0
ARC
8
DEFAULT_255_1_234
10
17.2426349
20
133.9071449
40
0.171929
50
293.1452328
51
303.6655899
0
ARC
8
DEFAULT_255_1_234
10
17.2691228
20
133.8695204
40
0.1259367
50
303.1248165
51
321.742847
0
ARC
8
DEFAULT_255_1_234
10
17.2877109
20
133.8532156
40
0.1012531
50
322.4748573
51
1.1291126
0
LINE
8
DEFAULT_255_1_234
10
4.9274119
20
131.7616792
11
4.9274119
21
131.6404
0
LINE
8
DEFAULT_255_1_234
10
4.9274119
20
131.6404
11
4.161184
21
131.6404
0
LINE
8
DEFAULT_255_1_234
10
4.161184
20
131.6404
11
4.161184
21
131.7472221
0
LINE
8
DEFAULT_255_1_234
10
4.161184
20
131.7472221
11
4.5659836
21
132.1969995
0
LINE
8
DEFAULT_255_1_234
10
4.2872823
20
132.4652595
11
4.1386952
21
132.4652595
0
LINE
8
DEFAULT_255_1_234
10
4.6535296
20
132.1014218
11
4.3402918
21
131.7616792
0
LINE
8
DEFAULT_255_1_234
10
4.3402918
20
131.7616792
11
4.9274119
21
131.7616792
0
ARC
8
DEFAULT_255_1_234
10
3.216967
20
133.3899527
40
1.8008286
50
318.5132453
51
320.7828378
0
ARC
8
DEFAULT_255_1_234
10
3.7456644
20
132.9596426
40
1.1191493
50
320.7372736
51
323.9737074
0
ARC
8
DEFAULT_255_1_234
10
4.1376501
20
132.6756361
40
0.6350923
50
323.8961724
51
328.6421089
0
ARC
8
DEFAULT_255_1_234
10
4.3423096
20
132.5494031
40
0.3946393
50
328.8299013
51
331.789948
0
ARC
8
DEFAULT_255_1_234
10
4.4420274
20
132.4979509
40
0.2824501
50
331.4255242
51
352.9364833
0
ARC
8
DEFAULT_255_1_234
10
4.4556775
20
132.4948976
40
0.2685315
50
353.2248685
51
0.0169286
0
ARC
8
DEFAULT_255_1_234
10
4.4766652
20
132.497195
40
0.2475536
50
359.4866256
51
15.9339782
0
ARC
8
DEFAULT_255_1_234
10
4.5273637
20
132.5108286
40
0.1950618
50
16.1714718
51
43.5284424
0
ARC
8
DEFAULT_255_1_234
10
4.5350946
20
132.5185573
40
0.184134
50
43.4415429
51
83.1661404
0
ARC
8
DEFAULT_255_1_234
10
4.5216864
20
132.4448771
40
0.258926
50
82.160215
51
90.1505798
0
ARC
8
DEFAULT_255_1_234
10
4.5185291
20
132.3911865
40
0.3126255
50
89.5460705
51
102.5418777
0
ARC
8
DEFAULT_255_1_234
10
4.4942377
20
132.4942665
40
0.2067346
50
102.1739365
51
129.2061916
0
ARC
8
DEFAULT_255_1_234
10
4.4863449
20
132.5067094
40
0.1921118
50
129.7279328
51
135.7542026
0
ARC
8
DEFAULT_255_1_234
10
4.4984977
20
132.4970045
40
0.2075944
50
136.175737
51
166.3674722
0
ARC
8
DEFAULT_255_1_234
10
4.5991896
20
132.4700182
40
0.3118201
50
165.9092917
51
178.8683903
0
ARC
8
DEFAULT_255_1_234
10
4.6856757
20
132.4653179
40
0.3983935
50
178.438168
51
180.0083905
0
ARC
8
DEFAULT_255_1_234
10
4.5455359
20
132.4692231
40
0.4068601
50
163.2878735
51
180.5581814
0
ARC
8
DEFAULT_255_1_234
10
4.4653621
20
132.491284
40
0.3237344
50
133.454115
51
162.9470031
0
ARC
8
DEFAULT_255_1_234
10
4.4832162
20
132.4723
40
0.349795
50
100.7869394
51
133.4384016
0
ARC
8
DEFAULT_255_1_234
10
4.5179934
20
132.3174319
40
0.5084616
50
89.6605301
51
101.3704185
0
ARC
8
DEFAULT_255_1_234
10
4.5246273
20
132.3235496
40
0.502348
50
78.2171172
51
90.4130393
0
ARC
8
DEFAULT_255_1_234
10
4.5601351
20
132.4859637
40
0.3361092
50
55.9268222
51
78.4888551
0
ARC
8
DEFAULT_255_1_234
10
4.5797791
20
132.5198324
40
0.2970617
50
47.9292255
51
55.4054003
0
ARC
8
DEFAULT_255_1_234
10
4.5899352
20
132.5301502
40
0.2825983
50
4.3347696
51
48.0560701
0
ARC
8
DEFAULT_255_1_234
10
4.4803745
20
132.5131601
40
0.393225
50
359.925209
51
5.5967654
0
ARC
8
DEFAULT_255_1_234
10
4.5232637
20
132.5187816
40
0.3503892
50
337.8914096
51
358.9967724
0
ARC
8
DEFAULT_255_1_234
10
4.2519049
20
132.6234706
40
0.6412172
50
326.9135351
51
338.3505194
0
ARC
8
DEFAULT_255_1_234
10
3.8533353
20
132.8789284
40
1.1146189
50
319.6472867
51
327.095818
0
ARC
8
DEFAULT_255_1_234
10
3.4700356
20
133.1951
40
1.6114559
50
317.2586784
51
319.9046139
0
LINE
8
DEFAULT_255_1_234
10
5.7121127
20
132.8098211
11
5.7121127
21
132.033152
0
LINE
8
DEFAULT_255_1_234
10
5.7121127
20
132.033152
11
5.8743538
21
132.033152
0
LINE
8
DEFAULT_255_1_234
10
5.8743538
20
132.033152
11
5.8743538
21
131.9118728
0
LINE
8
DEFAULT_255_1_234
10
5.8743538
20
131.9118728
11
5.7121127
21
131.9118728
0
LINE
8
DEFAULT_255_1_234
10
5.7121127
20
131.9118728
11
5.7121127
21
131.6404
0
LINE
8
DEFAULT_255_1_234
10
5.7121127
20
131.6404
11
5.5627224
21
131.6404
0
LINE
8
DEFAULT_255_1_234
10
5.5627224
20
131.6404
11
5.5627224
21
131.9118728
0
LINE
8
DEFAULT_255_1_234
10
5.5627224
20
131.9118728
11
5.0302181
21
131.9118728
0
LINE
8
DEFAULT_255_1_234
10
5.0302181
20
131.9118728
11
5.0302181
21
131.9994187
0
LINE
8
DEFAULT_255_1_234
10
5.0302181
20
131.9994187
11
5.5538875
21
132.8098211
0
LINE
8
DEFAULT_255_1_234
10
5.5538875
20
132.8098211
11
5.7121127
21
132.8098211
0
LINE
8
DEFAULT_255_1_234
10
5.5450525
20
132.5744912
11
5.1988846
21
132.033152
0
LINE
8
DEFAULT_255_1_234
10
5.1988846
20
132.033152
11
5.5627224
21
132.033152
0
LINE
8
DEFAULT_255_1_234
10
5.5627224
20
132.033152
11
5.5627224
21
132.6066181
0
LINE
8
DEFAULT_255_1_234
10
5.5627224
20
132.6066181
11
5.5450525
21
132.5744912
0
LINE
8
DEFAULT_255_1_234
10
6.101652
20
132.8098211
11
6.434166
21
131.8452093
0
LINE
8
DEFAULT_255_1_234
10
6.434166
20
131.8452093
11
6.7682863
21
132.8098211
0
LINE
8
DEFAULT_255_1_234
10
6.7682863
20
132.8098211
11
6.9369528
21
132.8098211
0
LINE
8
DEFAULT_255_1_234
10
6.9369528
20
132.8098211
11
6.5032389
21
131.6404
0
LINE
8
DEFAULT_255_1_234
10
6.5032389
20
131.6404
11
6.3666994
21
131.6404
0
LINE
8
DEFAULT_255_1_234
10
6.3666994
20
131.6404
11
5.9337887
21
132.8098211
0
LINE
8
DEFAULT_255_1_234
10
5.9337887
20
132.8098211
11
6.101652
21
132.8098211
0
LINE
8
DEFAULT_255_1_234
10
4.3681299
20
5.8098211
11
4.6500439
21
5.3616501
0
LINE
8
DEFAULT_255_1_234
10
4.6500439
20
5.3616501
11
4.9303516
21
5.8098211
0
LINE
8
DEFAULT_255_1_234
10
4.9303516
20
5.8098211
11
5.1118689
21
5.8098211
0
LINE
8
DEFAULT_255_1_234
10
5.1118689
20
5.8098211
11
4.7424089
21
5.2299296
0
LINE
8
DEFAULT_255_1_234
10
4.7424089
20
5.2299296
11
5.1207038
21
4.6404
0
LINE
8
DEFAULT_255_1_234
10
5.1207038
20
4.6404
11
4.9375802
21
4.6404
0
LINE
8
DEFAULT_255_1_234
10
4.9375802
20
4.6404
11
4.6500439
21
5.0966027
0
LINE
8
DEFAULT_255_1_234
10
4.6500439
20
5.0966027
11
4.3609014
21
4.6404
0
LINE
8
DEFAULT_255_1_234
10
4.3609014
20
4.6404
11
4.1785809
21
4.6404
0
LINE
8
DEFAULT_255_1_234
10
4.1785809
20
4.6404
11
4.557679
21
5.2299296
0
LINE
8
DEFAULT_255_1_234
10
4.557679
20
5.2299296
11
4.1874158
21
5.8098211
0
LINE
8
DEFAULT_255_1_234
10
4.1874158
20
5.8098211
11
4.3681299
21
5.8098211
0
LINE
8
DEFAULT_255_1_234
10
5.7495889
20
5.8154433
11
5.7495889
21
4.6404
0
LINE
8
DEFAULT_255_1_234
10
5.7495889
20
4.6404
11
5.6001986
21
4.6404
0
LINE
8
DEFAULT_255_1_234
10
5.6001986
20
4.6404
11
5.6001986
21
5.6307133
0
LINE
8
DEFAULT_255_1_234
10
5.6001986
20
5.6307133
11
5.3006147
21
5.5206785
0
LINE
8
DEFAULT_255_1_234
10
5.3006147
20
5.5206785
11
5.3006147
21
5.6556117
0
LINE
8
DEFAULT_255_1_234
10
5.3006147
20
5.6556117
11
5.7262969
21
5.8154433
0
LINE
8
DEFAULT_255_1_234
10
5.7262969
20
5.8154433
11
5.7495889
21
5.8154433
0
LINE
8
DEFAULT_255_1_234
10
6.3720486
20
5.1961963
11
6.2531789
21
5.2267169
0
LINE
8
DEFAULT_255_1_234
10
6.2531789
20
5.2267169
11
6.3126138
21
5.8098211
0
LINE
8
DEFAULT_255_1_234
10
6.3126138
20
5.8098211
11
6.9117814
21
5.8098211
0
LINE
8
DEFAULT_255_1_234
10
6.9117814
20
5.8098211
11
6.9117814
21
5.6724784
0
LINE
8
DEFAULT_255_1_234
10
6.9117814
20
5.6724784
11
6.4387121
21
5.6724784
0
LINE
8
DEFAULT_255_1_234
10
6.4387121
20
5.6724784
11
6.4033724
21
5.3536184
0
LINE
8
DEFAULT_255_1_234
10
6.2114139
20
4.9480156
11
6.3519693
21
4.9480156
0
LINE
8
DEFAULT_255_1_234
10
6.4114042
20
5.2283232
11
6.3720486
21
5.1961963
0
ARC
8
DEFAULT_255_1_234
10
6.5888508
20
5.035623
40
0.3681349
50
93.7182161
51
120.2538958
0
ARC
8
DEFAULT_255_1_234
10
6.5982771
20
4.9548394
40
0.449379
50
89.9660152
51
94.2496022
0
ARC
8
DEFAULT_255_1_234
10
6.6023505
20
5.0137549
40
0.390482
50
73.8043271
51
90.5585896
0
ARC
8
DEFAULT_255_1_234
10
6.6258402
20
5.0995602
40
0.3015334
50
41.3071453
51
73.5430202
0
ARC
8
DEFAULT_255_1_234
10
6.5842229
20
5.0637324
40
0.3564457
50
13.5075983
51
41.2174222
0
ARC
8
DEFAULT_255_1_234
10
6.4200433
20
5.0207486
40
0.5261351
50
1.1331335
51
13.8829381
0
ARC
8
DEFAULT_255_1_234
10
6.2788802
20
5.0131665
40
0.6674378
50
359.9919444
51
1.544251
0
ARC
8
DEFAULT_255_1_234
10
6.4065628
20
5.009028
40
0.5397702
50
347.8572367
51
0.4293338
0
ARC
8
DEFAULT_255_1_234
10
6.5815946
20
4.9693736
40
0.3603188
50
323.673004
51
348.1672506
0
ARC
8
DEFAULT_255_1_234
10
6.6110454
20
4.9514168
40
0.3259678
50
316.8171152
51
323.1492751
0
ARC
8
DEFAULT_255_1_234
10
6.6171643
20
4.947746
40
0.3189975
50
281.8396411
51
316.5457803
0
ARC
8
DEFAULT_255_1_234
10
6.5795907
20
5.1032762
40
0.4789527
50
269.5770101
51
282.4214771
0
ARC
8
DEFAULT_255_1_234
10
6.5724718
20
5.0819125
40
0.45759
50
256.2427136
51
270.4486331
0
ARC
8
DEFAULT_255_1_234
10
6.542562
20
4.9619229
40
0.3339303
50
228.9023911
51
256.3314342
0
ARC
8
DEFAULT_255_1_234
10
6.5351853
20
4.9502746
40
0.32031
50
193.753695
51
228.5271154
0
ARC
8
DEFAULT_255_1_234
10
6.6589807
20
4.98658
40
0.4492253
50
184.924711
51
194.497588
0
ARC
8
DEFAULT_255_1_234
10
6.6782374
20
4.9901591
40
0.3289787
50
187.3600538
51
198.6732863
0
ARC
8
DEFAULT_255_1_234
10
6.5732668
20
4.9537674
40
0.217884
50
198.4451669
51
217.794479
0
ARC
8
DEFAULT_255_1_234
10
6.5436843
20
4.9328085
40
0.1816698
50
218.2887171
51
228.5612368
0
ARC
8
DEFAULT_255_1_234
10
6.553463
20
4.9459963
40
0.1980329
50
228.9654866
51
258.1234728
0
ARC
8
DEFAULT_255_1_234
10
6.574034
20
5.0340833
40
0.2884748
50
257.7258293
51
270.401361
0
ARC
8
DEFAULT_255_1_234
10
6.5785226
20
4.9895821
40
0.2439788
50
269.4204404
51
286.4209037
0
ARC
8
DEFAULT_255_1_234
10
6.5933714
20
4.9356657
40
0.1880666
50
286.7251356
51
320.600362
0
ARC
8
DEFAULT_255_1_234
10
6.5550539
20
4.9667595
40
0.2374121
50
320.6712579
51
344.5441685
0
ARC
8
DEFAULT_255_1_234
10
6.4393865
20
5.0007045
40
0.3579479
50
344.2412205
51
356.7357071
0
ARC
8
DEFAULT_255_1_234
10
6.3145014
20
5.0110444
40
0.4832297
50
356.3548756
51
0.0500261
0
ARC
8
DEFAULT_255_1_234
10
6.4481523
20
5.014165
40
0.3495889
50
359.5576869
51
12.953486
0
ARC
8
DEFAULT_255_1_234
10
6.553642
20
5.0397434
40
0.2410532
50
12.6490276
51
41.6081334
0
ARC
8
DEFAULT_255_1_234
10
6.5766791
20
5.0593321
40
0.2108218
50
41.7850273
51
85.9892764
0
ARC
8
DEFAULT_255_1_234
10
6.5643528
20
4.9780462
40
0.2928454
50
84.6957577
51
90.0676183
0
ARC
8
DEFAULT_255_1_234
10
6.5620012
20
4.9111716
40
0.3597255
50
89.6804936
51
99.1614436
0
ARC
8
DEFAULT_255_1_234
10
6.5414643
20
5.0339131
40
0.235281
50
98.9830931
51
113.8908934
0
ARC
8
DEFAULT_255_1_234
10
6.5185053
20
5.0880587
40
0.176479
50
114.1950727
51
127.3641004
0
LINE
8
DEFAULT_255_1_234
10
4.4740299
20
13.7473211
11
4.7559439
21
13.2991501
0
LINE
8
DEFAULT_255_1_234
10
4.7559439
20
13.2991501
11
5.0362516
21
13.7473211
0
LINE
8
DEFAULT_255_1_234
10
5.0362516
20
13.7473211
11
5.2177689
21
13.7473211
0
LINE
8
DEFAULT_255_1_234
10
5.2177689
20
13.7473211
11
4.8483089
21
13.1674296
0
LINE
8
DEFAULT_255_1_234
10
4.8483089
20
13.1674296
11
5.2266038
21
12.5779
0
LINE
8
DEFAULT_255_1_234
10
5.2266038
20
12.5779
11
5.0434802
21
12.5779
0
LINE
8
DEFAULT_255_1_234
10
5.0434802
20
12.5779
11
4.7559439
21
13.0341027
0
LINE
8
DEFAULT_255_1_234
10
4.7559439
20
13.0341027
11
4.4668014
21
12.5779
0
LINE
8
DEFAULT_255_1_234
10
4.4668014
20
12.5779
11
4.2844809
21
12.5779
0
LINE
8
DEFAULT_255_1_234
10
4.2844809
20
12.5779
11
4.663579
21
13.1674296
0
LINE
8
DEFAULT_255_1_234
10
4.663579
20
13.1674296
11
4.2933158
21
13.7473211
0
LINE
8
DEFAULT_255_1_234
10
4.2933158
20
13.7473211
11
4.4740299
21
13.7473211
0
LINE
8
DEFAULT_255_1_234
10
5.8554889
20
13.7529433
11
5.8554889
21
12.5779
0
LINE
8
DEFAULT_255_1_234
10
5.8554889
20
12.5779
11
5.7060986
21
12.5779
0
LINE
8
DEFAULT_255_1_234
10
5.7060986
20
12.5779
11
5.7060986
21
13.5682133
0
LINE
8
DEFAULT_255_1_234
10
5.7060986
20
13.5682133
11
5.4065147
21
13.4581785
0
LINE
8
DEFAULT_255_1_234
10
5.4065147
20
13.4581785
11
5.4065147
21
13.5931117
0
LINE
8
DEFAULT_255_1_234
10
5.4065147
20
13.5931117
11
5.8321969
21
13.7529433
0
LINE
8
DEFAULT_255_1_234
10
5.8321969
20
13.7529433
11
5.8554889
21
13.7529433
0
LINE
8
DEFAULT_255_1_234
10
6.9180879
20
13.7473211
11
6.9180879
21
12.970652
0
LINE
8
DEFAULT_255_1_234
10
6.9180879
20
12.970652
11
7.080329
21
12.970652
0
LINE
8
DEFAULT_255_1_234
10
7.080329
20
12.970652
11
7.080329
21
12.8493728
0
LINE
8
DEFAULT_255_1_234
10
7.080329
20
12.8493728
11
6.9180879
21
12.8493728
0
LINE
8
DEFAULT_255_1_234
10
6.9180879
20
12.8493728
11
6.9180879
21
12.5779
0
LINE
8
DEFAULT_255_1_234
10
6.9180879
20
12.5779
11
6.7686976
21
12.5779
0
LINE
8
DEFAULT_255_1_234
10
6.7686976
20
12.5779
11
6.7686976
21
12.8493728
0
LINE
8
DEFAULT_255_1_234
10
6.7686976
20
12.8493728
11
6.2361933
21
12.8493728
0
LINE
8
DEFAULT_255_1_234
10
6.2361933
20
12.8493728
11
6.2361933
21
12.9369187
0
LINE
8
DEFAULT_255_1_234
10
6.2361933
20
12.9369187
11
6.7598626
21
13.7473211
0
LINE
8
DEFAULT_255_1_234
10
6.7598626
20
13.7473211
11
6.9180879
21
13.7473211
0
LINE
8
DEFAULT_255_1_234
10
6.7510277
20
13.5119912
11
6.4048598
21
12.970652
0
LINE
8
DEFAULT_255_1_234
10
6.4048598
20
12.970652
11
6.7686976
21
12.970652
0
LINE
8
DEFAULT_255_1_234
10
6.7686976
20
12.970652
11
6.7686976
21
13.5441181
0
LINE
8
DEFAULT_255_1_234
10
6.7686976
20
13.5441181
11
6.7510277
21
13.5119912
0
LINE
8
DEFAULT_255_1_234
10
4.3681299
20
21.6848211
11
4.6500439
21
21.2366501
0
LINE
8
DEFAULT_255_1_234
10
4.6500439
20
21.2366501
11
4.9303516
21
21.6848211
0
LINE
8
DEFAULT_255_1_234
10
4.9303516
20
21.6848211
11
5.1118689
21
21.6848211
0
LINE
8
DEFAULT_255_1_234
10
5.1118689
20
21.6848211
11
4.7424089
21
21.1049296
0
LINE
8
DEFAULT_255_1_234
10
4.7424089
20
21.1049296
11
5.1207038
21
20.5154
0
LINE
8
DEFAULT_255_1_234
10
5.1207038
20
20.5154
11
4.9375802
21
20.5154
0
LINE
8
DEFAULT_255_1_234
10
4.9375802
20
20.5154
11
4.6500439
21
20.9716027
0
LINE
8
DEFAULT_255_1_234
10
4.6500439
20
20.9716027
11
4.3609014
21
20.5154
0
LINE
8
DEFAULT_255_1_234
10
4.3609014
20
20.5154
11
4.1785809
21
20.5154
0
LINE
8
DEFAULT_255_1_234
10
4.1785809
20
20.5154
11
4.557679
21
21.1049296
0
LINE
8
DEFAULT_255_1_234
10
4.557679
20
21.1049296
11
4.1874158
21
21.6848211
0
LINE
8
DEFAULT_255_1_234
10
4.1874158
20
21.6848211
11
4.3681299
21
21.6848211
0
LINE
8
DEFAULT_255_1_234
10
5.7495889
20
21.6904433
11
5.7495889
21
20.5154
0
LINE
8
DEFAULT_255_1_234
10
5.7495889
20
20.5154
11
5.6001986
21
20.5154
0
LINE
8
DEFAULT_255_1_234
10
5.6001986
20
20.5154
11
5.6001986
21
21.5057133
0
LINE
8
DEFAULT_255_1_234
10
5.6001986
20
21.5057133
11
5.3006147
21
21.3956785
0
LINE
8
DEFAULT_255_1_234
10
5.3006147
20
21.3956785
11
5.3006147
21
21.5306117
0
LINE
8
DEFAULT_255_1_234
10
5.3006147
20
21.5306117
11
5.7262969
21
21.6904433
0
LINE
8
DEFAULT_255_1_234
10
5.7262969
20
21.6904433
11
5.7495889
21
21.6904433
0
LINE
8
DEFAULT_255_1_234
10
6.4009629
20
21.0511169
11
6.4009629
21
21.1723962
0
LINE
8
DEFAULT_255_1_234
10
6.4009629
20
21.1723962
11
6.5126041
21
21.1723962
0
LINE
8
DEFAULT_255_1_234
10
6.3222519
20
21.3780087
11
6.1736647
21
21.3780087
0
LINE
8
DEFAULT_255_1_234
10
6.1632234
20
20.8238188
11
6.3126138
21
20.8238188
0
LINE
8
DEFAULT_255_1_234
10
6.5126041
20
21.0511169
11
6.4009629
21
21.0511169
0
ARC
8
DEFAULT_255_1_234
10
6.5096907
20
21.5116713
40
0.3392876
50
270.4919872
51
281.8951556
0
ARC
8
DEFAULT_255_1_234
10
6.5338169
20
21.4014702
40
0.2264817
50
281.6691735
51
301.2943132
0
ARC
8
DEFAULT_255_1_234
10
6.5508379
20
21.3703304
40
0.1910381
50
301.7833094
51
311.7545298
0
ARC
8
DEFAULT_255_1_234
10
6.5599955
20
21.3601748
40
0.1773635
50
311.7323931
51
354.2802411
0
ARC
8
DEFAULT_255_1_234
10
6.487358
20
21.3726722
40
0.2509385
50
353.0937916
51
0.1181479
0
ARC
8
DEFAULT_255_1_234
10
6.4412365
20
21.3774386
40
0.2970898
50
359.1805295
51
15.0453146
0
ARC
8
DEFAULT_255_1_234
10
6.5758202
20
21.4166992
40
0.1569564
50
13.9577229
51
77.6713066
0
ARC
8
DEFAULT_255_1_234
10
6.5371731
20
21.2781949
40
0.3006298
50
76.1116566
51
90.7026153
0
ARC
8
DEFAULT_255_1_234
10
6.5312569
20
21.3055545
40
0.2732568
50
89.5324876
51
103.531937
0
ARC
8
DEFAULT_255_1_234
10
6.5112013
20
21.3854884
40
0.1908508
50
103.2931773
51
133.5619022
0
ARC
8
DEFAULT_255_1_234
10
6.5067502
20
21.3914375
40
0.1834746
50
133.8349307
51
173.5344437
0
ARC
8
DEFAULT_255_1_234
10
6.5790545
20
21.3786213
40
0.2568033
50
172.5096846
51
180.1366907
0
ARC
8
DEFAULT_255_1_234
10
6.4839439
20
21.3820622
40
0.3103056
50
155.3484492
51
180.7484736
0
ARC
8
DEFAULT_255_1_234
10
6.4790528
20
21.3791846
40
0.3070957
50
131.5744599
51
154.4798489
0
ARC
8
DEFAULT_255_1_234
10
6.5103675
20
21.347531
40
0.3515643
50
96.9875458
51
131.9690667
0
ARC
8
DEFAULT_255_1_234
10
6.5323155
20
21.2229636
40
0.4779224
50
89.8596053
51
97.7825159
0
ARC
8
DEFAULT_255_1_234
10
6.5371218
20
21.1967616
40
0.5041361
50
78.3655447
51
90.4131539
0
ARC
8
DEFAULT_255_1_234
10
6.5729136
20
21.3626887
40
0.3344039
50
56.6229102
51
78.638727
0
ARC
8
DEFAULT_255_1_234
10
6.594408
20
21.4002805
40
0.2912001
50
47.0253525
51
56.0854072
0
ARC
8
DEFAULT_255_1_234
10
6.596386
20
21.4042223
40
0.2869704
50
10.9208013
51
46.7778124
0
ARC
8
DEFAULT_255_1_234
10
6.4599926
20
21.3726857
40
0.426899
50
359.6364486
51
11.6087304
0
ARC
8
DEFAULT_255_1_234
10
6.643477
20
21.3711752
40
0.243409
50
332.3549906
51
359.7179418
0
ARC
8
DEFAULT_255_1_234
10
6.5784372
20
21.4020142
40
0.3153459
50
325.2333722
51
332.8745602
0
ARC
8
DEFAULT_255_1_234
10
6.5936995
20
21.3913828
40
0.2967456
50
292.9802137
51
325.2392345
0
ARC
8
DEFAULT_255_1_234
10
6.5662369
20
21.4447863
40
0.3566604
50
292.5402179
51
293.6924929
0
ARC
8
DEFAULT_255_1_234
10
6.6054965
20
20.7993091
40
0.3307468
50
57.6435486
51
72.8625112
0
ARC
8
DEFAULT_255_1_234
10
6.6409465
20
20.8567549
40
0.2632492
50
36.7248896
51
57.4697979
0
ARC
8
DEFAULT_255_1_234
10
6.6398098
20
20.858022
40
0.2634081
50
8.0545065
51
36.356114
0
ARC
8
DEFAULT_255_1_234
10
6.5535283
20
20.8425174
40
0.3510261
50
359.8320645
51
8.5869982
0
ARC
8
DEFAULT_255_1_234
10
6.5160059
20
20.8377101
40
0.3885653
50
343.9829931
51
0.5571613
0
ARC
8
DEFAULT_255_1_234
10
6.6046256
20
20.8134438
40
0.2966924
50
311.6359546
51
343.7651759
0
ARC
8
DEFAULT_255_1_234
10
6.5667825
20
20.8561102
40
0.3537231
50
279.7829875
51
311.6255694
0
ARC
8
DEFAULT_255_1_234
10
6.5366601
20
20.999828
40
0.5004971
50
269.7286406
51
280.3856417
0
ARC
8
DEFAULT_255_1_234
10
6.5304674
20
20.9956996
40
0.4963778
50
256.6828919
51
270.4412052
0
ARC
8
DEFAULT_255_1_234
10
6.496597
20
20.8572394
40
0.3538406
50
229.4223008
51
256.8556159
0
ARC
8
DEFAULT_255_1_234
10
6.4551363
20
20.8105736
40
0.2914296
50
181.818294
51
229.6455059
0
ARC
8
DEFAULT_255_1_234
10
6.5591319
20
20.8236496
40
0.3959084
50
179.9755256
51
183.2323064
0
ARC
8
DEFAULT_255_1_234
10
6.5419065
20
20.8216037
40
0.2293034
50
179.4465117
51
196.2869258
0
ARC
8
DEFAULT_255_1_234
10
6.4931473
20
20.8082651
40
0.1787621
50
196.5661473
51
227.705904
0
ARC
8
DEFAULT_255_1_234
10
6.5095568
20
20.8266155
40
0.2033784
50
227.7652068
51
257.8762805
0
ARC
8
DEFAULT_255_1_234
10
6.5320538
20
20.9209156
40
0.3003081
50
257.4584385
51
270.426602
0
ARC
8
DEFAULT_255_1_234
10
6.5366104
20
20.9498996
40
0.329292
50
269.5962073
51
280.8789248
0
ARC
8
DEFAULT_255_1_234
10
6.5595633
20
20.8352685
40
0.2123908
50
280.6346389
51
299.8595945
0
ARC
8
DEFAULT_255_1_234
10
6.578654
20
20.7990212
40
0.171457
50
300.3576302
51
314.5517981
0
ARC
8
DEFAULT_255_1_234
10
6.57036
20
20.8050919
40
0.1816095
50
315.0728369
51
345.0431014
0
ARC
8
DEFAULT_255_1_234
10
6.4780414
20
20.8319841
40
0.2777492
50
344.5986631
51
357.9269593
0
ARC
8
DEFAULT_255_1_234
10
6.388474
20
20.8381276
40
0.3674917
50
357.4748886
51
0.0231117
0
ARC
8
DEFAULT_255_1_234
10
6.490785
20
20.8405679
40
0.2651907
50
359.5047933
51
13.4239635
0
ARC
8
DEFAULT_255_1_234
10
6.5774493
20
20.8627478
40
0.1757509
50
12.9498199
51
48.7551375
0
ARC
8
DEFAULT_255_1_234
10
6.5592227
20
20.83784
40
0.2065134
50
49.5088623
51
72.1836453
0
ARC
8
DEFAULT_255_1_234
10
6.523438
20
20.7316291
40
0.3185836
50
71.9010081
51
84.3554254
0
ARC
8
DEFAULT_255_1_234
10
6.5073012
20
20.5955326
40
0.4556151
50
84.0193428
51
89.333121
0
LINE
8
DEFAULT_255_1_234
10
4.3681299
20
29.6223211
11
4.6500439
21
29.1741501
0
LINE
8
DEFAULT_255_1_234
10
4.6500439
20
29.1741501
11
4.9303516
21
29.6223211
0
LINE
8
DEFAULT_255_1_234
10
4.9303516
20
29.6223211
11
5.1118689
21
29.6223211
0
LINE
8
DEFAULT_255_1_234
10
5.1118689
20
29.6223211
11
4.7424089
21
29.0424296
0
LINE
8
DEFAULT_255_1_234
10
4.7424089
20
29.0424296
11
5.1207038
21
28.4529
0
LINE
8
DEFAULT_255_1_234
10
5.1207038
20
28.4529
11
4.9375802
21
28.4529
0
LINE
8
DEFAULT_255_1_234
10
4.9375802
20
28.4529
11
4.6500439
21
28.9091027
0
LINE
8
DEFAULT_255_1_234
10
4.6500439
20
28.9091027
11
4.3609014
21
28.4529
0
LINE
8
DEFAULT_255_1_234
10
4.3609014
20
28.4529
11
4.1785809
21
28.4529
0
LINE
8
DEFAULT_255_1_234
10
4.1785809
20
28.4529
11
4.557679
21
29.0424296
0
LINE
8
DEFAULT_255_1_234
10
4.557679
20
29.0424296
11
4.1874158
21
29.6223211
0
LINE
8
DEFAULT_255_1_234
10
4.1874158
20
29.6223211
11
4.3681299
21
29.6223211
0
LINE
8
DEFAULT_255_1_234
10
5.7495889
20
29.6279433
11
5.7495889
21
28.4529
0
LINE
8
DEFAULT_255_1_234
10
5.7495889
20
28.4529
11
5.6001986
21
28.4529
0
LINE
8
DEFAULT_255_1_234
10
5.6001986
20
28.4529
11
5.6001986
21
29.4432133
0
LINE
8
DEFAULT_255_1_234
10
5.6001986
20
29.4432133
11
5.3006147
21
29.3331785
0
LINE
8
DEFAULT_255_1_234
10
5.3006147
20
29.3331785
11
5.3006147
21
29.4681117
0
LINE
8
DEFAULT_255_1_234
10
5.3006147
20
29.4681117
11
5.7262969
21
29.6279433
0
LINE
8
DEFAULT_255_1_234
10
5.7262969
20
29.6279433
11
5.7495889
21
29.6279433
0
LINE
8
DEFAULT_255_1_234
10
6.951137
20
28.5741792
11
6.951137
21
28.4529
0
LINE
8
DEFAULT_255_1_234
10
6.951137
20
28.4529
11
6.1849091
21
28.4529
0
LINE
8
DEFAULT_255_1_234
10
6.1849091
20
28.4529
11
6.1849091
21
28.5597221
0
LINE
8
DEFAULT_255_1_234
10
6.1849091
20
28.5597221
11
6.5897087
21
29.0094995
0
LINE
8
DEFAULT_255_1_234
10
6.3110074
20
29.2777595
11
6.1624203
21
29.2777595
0
LINE
8
DEFAULT_255_1_234
10
6.6772547
20
28.9139218
11
6.3640169
21
28.5741792
0
LINE
8
DEFAULT_255_1_234
10
6.3640169
20
28.5741792
11
6.951137
21
28.5741792
0
ARC
8
DEFAULT_255_1_234
10
5.2406921
20
30.2024527
40
1.8008286
50
318.5132453
51
320.7828378
0
ARC
8
DEFAULT_255_1_234
10
5.7693895
20
29.7721426
40
1.1191493
50
320.7372736
51
323.9737074
0
ARC
8
DEFAULT_255_1_234
10
6.1613751
20
29.4881361
40
0.6350923
50
323.8961724
51
328.6421089
0
ARC
8
DEFAULT_255_1_234
10
6.3660347
20
29.3619031
40
0.3946393
50
328.8299013
51
331.789948
0
ARC
8
DEFAULT_255_1_234
10
6.4657525
20
29.3104509
40
0.2824501
50
331.4255242
51
352.9364833
0
ARC
8
DEFAULT_255_1_234
10
6.4794026
20
29.3073976
40
0.2685315
50
353.2248685
51
0.0169286
0
ARC
8
DEFAULT_255_1_234
10
6.5003903
20
29.309695
40
0.2475536
50
359.4866256
51
15.9339782
0
ARC
8
DEFAULT_255_1_234
10
6.5510888
20
29.3233286
40
0.1950618
50
16.1714718
51
43.5284424
0
ARC
8
DEFAULT_255_1_234
10
6.5588197
20
29.3310573
40
0.184134
50
43.4415429
51
83.1661404
0
ARC
8
DEFAULT_255_1_234
10
6.5454115
20
29.2573771
40
0.258926
50
82.160215
51
90.1505798
0
ARC
8
DEFAULT_255_1_234
10
6.5422542
20
29.2036865
40
0.3126255
50
89.5460705
51
102.5418777
0
ARC
8
DEFAULT_255_1_234
10
6.5179628
20
29.3067665
40
0.2067346
50
102.1739365
51
129.2061916
0
ARC
8
DEFAULT_255_1_234
10
6.51007
20
29.3192094
40
0.1921118
50
129.7279328
51
135.7542026
0
ARC
8
DEFAULT_255_1_234
10
6.5222228
20
29.3095045
40
0.2075944
50
136.175737
51
166.3674722
0
ARC
8
DEFAULT_255_1_234
10
6.6229147
20
29.2825182
40
0.3118201
50
165.9092917
51
178.8683903
0
ARC
8
DEFAULT_255_1_234
10
6.7094008
20
29.2778179
40
0.3983935
50
178.438168
51
180.0083905
0
ARC
8
DEFAULT_255_1_234
10
6.569261
20
29.2817231
40
0.4068601
50
163.2878735
51
180.5581814
0
ARC
8
DEFAULT_255_1_234
10
6.4890872
20
29.303784
40
0.3237344
50
133.454115
51
162.9470031
0
ARC
8
DEFAULT_255_1_234
10
6.5069413
20
29.2848
40
0.349795
50
100.7869394
51
133.4384016
0
ARC
8
DEFAULT_255_1_234
10
6.5417185
20
29.1299319
40
0.5084616
50
89.6605301
51
101.3704185
0
ARC
8
DEFAULT_255_1_234
10
6.5483523
20
29.1360496
40
0.502348
50
78.2171172
51
90.4130393
0
ARC
8
DEFAULT_255_1_234
10
6.5838602
20
29.2984637
40
0.3361092
50
55.9268222
51
78.4888551
0
ARC
8
DEFAULT_255_1_234
10
6.6035042
20
29.3323324
40
0.2970617
50
47.9292255
51
55.4054003
0
ARC
8
DEFAULT_255_1_234
10
6.6136603
20
29.3426502
40
0.2825983
50
4.3347696
51
48.0560701
0
ARC
8
DEFAULT_255_1_234
10
6.5040996
20
29.3256601
40
0.393225
50
359.925209
51
5.5967654
0
ARC
8
DEFAULT_255_1_234
10
6.5469888
20
29.3312816
40
0.3503892
50
337.8914096
51
358.9967724
0
ARC
8
DEFAULT_255_1_234
10
6.27563
20
29.4359706
40
0.6412172
50
326.9135351
51
338.3505194
0
ARC
8
DEFAULT_255_1_234
10
5.8770604
20
29.6914284
40
1.1146189
50
319.6472867
51
327.095818
0
ARC
8
DEFAULT_255_1_234
10
5.4937607
20
30.0076
40
1.6114559
50
317.2586784
51
319.9046139
0
LINE
8
DEFAULT_255_1_234
10
4.3590299
20
37.5598211
11
4.6409439
21
37.1116501
0
LINE
8
DEFAULT_255_1_234
10
4.6409439
20
37.1116501
11
4.9212516
21
37.5598211
0
LINE
8
DEFAULT_255_1_234
10
4.9212516
20
37.5598211
11
5.1027689
21
37.5598211
0
LINE
8
DEFAULT_255_1_234
10
5.1027689
20
37.5598211
11
4.7333089
21
36.9799296
0
LINE
8
DEFAULT_255_1_234
10
4.7333089
20
36.9799296
11
5.1116038
21
36.3904
0
LINE
8
DEFAULT_255_1_234
10
5.1116038
20
36.3904
11
4.9284802
21
36.3904
0
LINE
8
DEFAULT_255_1_234
10
4.9284802
20
36.3904
11
4.6409439
21
36.8466027
0
LINE
8
DEFAULT_255_1_234
10
4.6409439
20
36.8466027
11
4.3518014
21
36.3904
0
LINE
8
DEFAULT_255_1_234
10
4.3518014
20
36.3904
11
4.1694809
21
36.3904
0
LINE
8
DEFAULT_255_1_234
10
4.1694809
20
36.3904
11
4.548579
21
36.9799296
0
LINE
8
DEFAULT_255_1_234
10
4.548579
20
36.9799296
11
4.1783158
21
37.5598211
0
LINE
8
DEFAULT_255_1_234
10
4.1783158
20
37.5598211
11
4.3590299
21
37.5598211
0
LINE
8
DEFAULT_255_1_234
10
5.7404889
20
37.5654433
11
5.7404889
21
36.3904
0
LINE
8
DEFAULT_255_1_234
10
5.7404889
20
36.3904
11
5.5910986
21
36.3904
0
LINE
8
DEFAULT_255_1_234
10
5.5910986
20
36.3904
11
5.5910986
21
37.3807133
0
LINE
8
DEFAULT_255_1_234
10
5.5910986
20
37.3807133
11
5.2915147
21
37.2706785
0
LINE
8
DEFAULT_255_1_234
10
5.2915147
20
37.2706785
11
5.2915147
21
37.4056117
0
LINE
8
DEFAULT_255_1_234
10
5.2915147
20
37.4056117
11
5.7171969
21
37.5654433
0
LINE
8
DEFAULT_255_1_234
10
5.7171969
20
37.5654433
11
5.7404889
21
37.5654433
0
LINE
8
DEFAULT_255_1_234
10
6.6641388
20
37.5654433
11
6.6641388
21
36.3904
0
LINE
8
DEFAULT_255_1_234
10
6.6641388
20
36.3904
11
6.5147485
21
36.3904
0
LINE
8
DEFAULT_255_1_234
10
6.5147485
20
36.3904
11
6.5147485
21
37.3807133
0
LINE
8
DEFAULT_255_1_234
10
6.5147485
20
37.3807133
11
6.2151646
21
37.2706785
0
LINE
8
DEFAULT_255_1_234
10
6.2151646
20
37.2706785
11
6.2151646
21
37.4056117
0
LINE
8
DEFAULT_255_1_234
10
6.2151646
20
37.4056117
11
6.6408468
21
37.5654433
0
LINE
8
DEFAULT_255_1_234
10
6.6408468
20
37.5654433
11
6.6641388
21
37.5654433
0
LINE
8
DEFAULT_255_1_234
10
4.3681299
20
45.4973211
11
4.6500439
21
45.0491501
0
LINE
8
DEFAULT_255_1_234
10
4.6500439
20
45.0491501
11
4.9303516
21
45.4973211
0
LINE
8
DEFAULT_255_1_234
10
4.9303516
20
45.4973211
11
5.1118689
21
45.4973211
0
LINE
8
DEFAULT_255_1_234
10
5.1118689
20
45.4973211
11
4.7424089
21
44.9174296
0
LINE
8
DEFAULT_255_1_234
10
4.7424089
20
44.9174296
11
5.1207038
21
44.3279
0
LINE
8
DEFAULT_255_1_234
10
5.1207038
20
44.3279
11
4.9375802
21
44.3279
0
LINE
8
DEFAULT_255_1_234
10
4.9375802
20
44.3279
11
4.6500439
21
44.7841027
0
LINE
8
DEFAULT_255_1_234
10
4.6500439
20
44.7841027
11
4.3609014
21
44.3279
0
LINE
8
DEFAULT_255_1_234
10
4.3609014
20
44.3279
11
4.1785809
21
44.3279
0
LINE
8
DEFAULT_255_1_234
10
4.1785809
20
44.3279
11
4.557679
21
44.9174296
0
LINE
8
DEFAULT_255_1_234
10
4.557679
20
44.9174296
11
4.1874158
21
45.4973211
0
LINE
8
DEFAULT_255_1_234
10
4.1874158
20
45.4973211
11
4.3681299
21
45.4973211
0
LINE
8
DEFAULT_255_1_234
10
5.7495889
20
45.5029433
11
5.7495889
21
44.3279
0
LINE
8
DEFAULT_255_1_234
10
5.7495889
20
44.3279
11
5.6001986
21
44.3279
0
LINE
8
DEFAULT_255_1_234
10
5.6001986
20
44.3279
11
5.6001986
21
45.3182133
0
LINE
8
DEFAULT_255_1_234
10
5.6001986
20
45.3182133
11
5.3006147
21
45.2081785
0
LINE
8
DEFAULT_255_1_234
10
5.3006147
20
45.2081785
11
5.3006147
21
45.3431117
0
LINE
8
DEFAULT_255_1_234
10
5.3006147
20
45.3431117
11
5.7262969
21
45.5029433
0
LINE
8
DEFAULT_255_1_234
10
5.7262969
20
45.5029433
11
5.7495889
21
45.5029433
0
LINE
8
DEFAULT_255_1_234
10
6.9182068
20
45.0194327
11
6.9182068
21
44.8266709
0
LINE
8
DEFAULT_255_1_234
10
6.1800901
20
44.8065916
11
6.1800901
21
45.0049755
0
LINE
8
DEFAULT_255_1_234
10
6.7696197
20
44.7865123
11
6.7696197
21
45.0298739
0
LINE
8
DEFAULT_255_1_234
10
6.3286772
20
45.0411184
11
6.3286772
21
44.8033789
0
ARC
8
DEFAULT_255_1_234
10
5.6934958
20
44.8217805
40
1.2247208
50
353.8441951
51
0.2287902
0
ARC
8
DEFAULT_255_1_234
10
6.1574462
20
44.7699806
40
0.7578929
50
344.4934747
51
353.9765454
0
ARC
8
DEFAULT_255_1_234
10
6.4567052
20
44.6848981
40
0.4467846
50
329.2803592
51
344.7472793
0
ARC
8
DEFAULT_255_1_234
10
6.5559877
20
44.6304018
40
0.3336173
50
324.9352394
51
328.6160465
0
ARC
8
DEFAULT_255_1_234
10
6.5936985
20
44.6040427
40
0.2876076
50
280.580143
51
324.9173126
0
ARC
8
DEFAULT_255_1_234
10
6.5535778
20
44.7711099
40
0.4592847
50
269.5977311
51
281.6734359
0
ARC
8
DEFAULT_255_1_234
10
6.5463684
20
44.7591173
40
0.4472986
50
256.6228859
51
270.51044
0
ARC
8
DEFAULT_255_1_234
10
6.5061661
20
44.6042877
40
0.2873874
50
215.8618325
51
257.2788573
0
ARC
8
DEFAULT_255_1_234
10
6.6082693
20
44.6727977
40
0.4102928
50
197.9693508
51
215.2623606
0
ARC
8
DEFAULT_255_1_234
10
6.8567809
20
44.7566709
40
0.6725652
50
187.8816417
51
198.2346507
0
ARC
8
DEFAULT_255_1_234
10
7.2526017
20
44.8138079
40
1.0724845
50
180.8976217
51
188.0055519
0
ARC
8
DEFAULT_255_1_234
10
7.5326205
20
44.8241777
40
1.3526448
50
180.7449369
51
181.1510016
0
ARC
8
DEFAULT_255_1_234
10
7.3748934
20
45.0098042
40
1.1948131
50
173.7675579
51
180.231553
0
ARC
8
DEFAULT_255_1_234
10
6.9231081
20
45.0608666
40
0.7401564
50
164.3058563
51
173.9002247
0
ARC
8
DEFAULT_255_1_234
10
6.631915
20
45.1447656
40
0.4371288
50
148.7922025
51
164.568378
0
ARC
8
DEFAULT_255_1_234
10
6.5367602
20
45.1978929
40
0.3282386
50
144.5883898
51
148.1176286
0
ARC
8
DEFAULT_255_1_234
10
6.50245
20
45.2218315
40
0.2864044
50
101.6440918
51
144.514236
0
ARC
8
DEFAULT_255_1_234
10
6.5449566
20
45.0529069
40
0.4604934
50
89.5284041
51
102.5819763
0
ARC
8
DEFAULT_255_1_234
10
6.5528654
20
45.0490018
40
0.464401
50
77.0437873
51
90.5081339
0
ARC
8
DEFAULT_255_1_234
10
6.5930656
20
45.2132615
40
0.2953195
50
48.2778575
51
77.4994676
0
ARC
8
DEFAULT_255_1_234
10
6.6003287
20
45.2261746
40
0.2808655
50
36.3142134
51
47.6305865
0
ARC
8
DEFAULT_255_1_234
10
6.5134594
20
45.1676515
40
0.3855453
50
18.2931786
51
35.6769206
0
ARC
8
DEFAULT_255_1_234
10
6.2591353
20
45.0803593
40
0.654423
50
8.024666
51
18.5605216
0
ARC
8
DEFAULT_255_1_234
10
5.8428273
20
45.0188792
40
1.0752407
50
1.1274072
51
8.1718305
0
ARC
8
DEFAULT_255_1_234
10
5.5192464
20
45.0061885
40
1.3990231
50
0.5424119
51
1.3863029
0
ARC
8
DEFAULT_255_1_234
10
5.7013841
20
45.0334342
40
1.0682415
50
359.8090433
51
4.9407866
0
ARC
8
DEFAULT_255_1_234
10
6.1223855
20
45.0710113
40
0.6455691
50
4.8362157
51
12.2904523
0
ARC
8
DEFAULT_255_1_234
10
6.397897
20
45.1323965
40
0.3633074
50
12.0805627
51
23.8173984
0
ARC
8
DEFAULT_255_1_234
10
6.5152676
20
45.1820919
40
0.2358723
50
24.2871213
51
31.3935614
0
ARC
8
DEFAULT_255_1_234
10
6.5677373
20
45.2164233
40
0.1732111
50
30.7407893
51
82.4657128
0
ARC
8
DEFAULT_255_1_234
10
6.5497507
20
45.1280691
40
0.263235
50
81.1060089
51
90.2184952
0
ARC
8
DEFAULT_255_1_234
10
6.5461806
20
45.1538924
40
0.2374236
50
89.3806855
51
105.6762551
0
ARC
8
DEFAULT_255_1_234
10
6.5278437
20
45.2205567
40
0.1682847
50
105.7981136
51
149.7388061
0
ARC
8
DEFAULT_255_1_234
10
6.6342515
20
45.156595
40
0.2924306
50
149.4208916
51
163.6286378
0
ARC
8
DEFAULT_255_1_234
10
6.8433403
20
45.092825
40
0.5110213
50
163.3763315
51
172.1410975
0
ARC
8
DEFAULT_255_1_234
10
7.1734122
20
45.0455518
40
0.8444586
50
172.0259487
51
178.0703232
0
ARC
8
DEFAULT_255_1_234
10
7.4764211
20
45.0311906
40
1.1477868
50
177.8631668
51
179.5044149
0
ARC
8
DEFAULT_255_1_234
10
7.3691616
20
44.7997389
40
1.0404907
50
179.7995573
51
185.2460446
0
ARC
8
DEFAULT_255_1_234
10
6.9648655
20
44.7614513
40
0.6343885
50
185.1411642
51
193.0079639
0
ARC
8
DEFAULT_255_1_234
10
6.7005128
20
44.6989641
40
0.3627568
50
192.7897626
51
205.2507664
0
ARC
8
DEFAULT_255_1_234
10
6.5958675
20
44.6522415
40
0.2481908
50
205.8005384
51
211.2537509
0
ARC
8
DEFAULT_255_1_234
10
6.5435115
20
44.617158
40
0.1852521
50
210.3789793
51
238.4008143
0
ARC
8
DEFAULT_255_1_234
10
6.5415637
20
44.6218376
40
0.1882621
50
239.6520629
51
265.9793761
0
ARC
8
DEFAULT_255_1_234
10
6.5500837
20
44.6890427
40
0.2559272
50
265.1315437
51
270.060332
0
ARC
8
DEFAULT_255_1_234
10
6.5529616
20
44.6566534
40
0.2235528
50
269.3314664
51
287.2178029
0
ARC
8
DEFAULT_255_1_234
10
6.5667468
20
44.6063279
40
0.1714108
50
287.7958004
51
329.080874
0
ARC
8
DEFAULT_255_1_234
10
6.4709925
20
44.666093
40
0.2842745
50
328.6634704
51
343.3325132
0
ARC
8
DEFAULT_255_1_234
10
6.2536945
20
44.7337863
40
0.5118644
50
343.0499468
51
351.9393422
0
ARC
8
DEFAULT_255_1_234
10
5.9070245
20
44.7848949
40
0.8622784
50
351.8069023
51
357.7959224
0
ARC
8
DEFAULT_255_1_234
10
5.5834801
20
44.8016721
40
1.1862365
50
357.5871873
51
359.2677531
0
LINE
8
DEFAULT_255_1_234
10
4.3084299
20
53.4348211
11
4.5903439
21
52.9866501
0
LINE
8
DEFAULT_255_1_234
10
4.5903439
20
52.9866501
11
4.8706516
21
53.4348211
0
LINE
8
DEFAULT_255_1_234
10
4.8706516
20
53.4348211
11
5.0521689
21
53.4348211
0
LINE
8
DEFAULT_255_1_234
10
5.0521689
20
53.4348211
11
4.6827089
21
52.8549296
0
LINE
8
DEFAULT_255_1_234
10
4.6827089
20
52.8549296
11
5.0610038
21
52.2654
0
LINE
8
DEFAULT_255_1_234
10
5.0610038
20
52.2654
11
4.8778802
21
52.2654
0
LINE
8
DEFAULT_255_1_234
10
4.8778802
20
52.2654
11
4.5903439
21
52.7216027
0
LINE
8
DEFAULT_255_1_234
10
4.5903439
20
52.7216027
11
4.3012014
21
52.2654
0
LINE
8
DEFAULT_255_1_234
10
4.3012014
20
52.2654
11
4.1188809
21
52.2654
0
LINE
8
DEFAULT_255_1_234
10
4.1188809
20
52.2654
11
4.497979
21
52.8549296
0
LINE
8
DEFAULT_255_1_234
10
4.497979
20
52.8549296
11
4.1277158
21
53.4348211
0
LINE
8
DEFAULT_255_1_234
10
4.1277158
20
53.4348211
11
4.3084299
21
53.4348211
0
LINE
8
DEFAULT_255_1_234
10
5.9203998
20
52.9673739
11
5.9203998
21
52.9240025
0
LINE
8
DEFAULT_255_1_234
10
5.3782575
20
52.2645968
11
5.3493432
21
52.2645968
0
LINE
8
DEFAULT_255_1_234
10
5.3493432
20
52.2645968
11
5.3493432
21
52.3898919
0
LINE
8
DEFAULT_255_1_234
10
5.3493432
20
52.3898919
11
5.380667
21
52.3898919
0
LINE
8
DEFAULT_255_1_234
10
5.7718126
20
52.9384597
11
5.7718126
21
52.9978945
0
ARC
8
DEFAULT_255_1_234
10
5.4924396
20
53.0130403
40
0.3635579
50
297.4037347
51
320.016758
0
ARC
8
DEFAULT_255_1_234
10
5.5214345
20
52.957324
40
0.3007486
50
270.2633101
51
297.3851877
0
ARC
8
DEFAULT_255_1_234
10
5.51803
20
53.0036904
40
0.3471448
50
269.9966443
51
270.7900392
0
ARC
8
DEFAULT_255_1_234
10
5.5154782
20
53.0035143
40
0.3469779
50
254.5999133
51
270.4180344
0
ARC
8
DEFAULT_255_1_234
10
5.5012141
20
52.9470647
40
0.2887697
50
236.4717942
51
254.3541279
0
ARC
8
DEFAULT_255_1_234
10
5.5168359
20
52.9680711
40
0.3149125
50
208.4727207
51
236.2134933
0
ARC
8
DEFAULT_255_1_234
10
5.5807134
20
53.0071455
40
0.3897115
50
204.3447514
51
209.0453999
0
ARC
8
DEFAULT_255_1_234
10
5.648671
20
53.0359656
40
0.4635101
50
183.9375985
51
204.1276318
0
ARC
8
DEFAULT_255_1_234
10
5.7394961
20
53.0457482
40
0.5548037
50
179.9652252
51
184.3013875
0
ARC
8
DEFAULT_255_1_234
10
5.7155007
20
53.0490507
40
0.5308164
50
166.7585989
51
180.3201225
0
ARC
8
DEFAULT_255_1_234
10
5.6308621
20
53.0674488
40
0.4442163
50
154.6955053
51
166.5679793
0
ARC
8
DEFAULT_255_1_234
10
5.5455491
20
53.110421
40
0.3487299
50
136.3324195
51
155.0871442
0
ARC
8
DEFAULT_255_1_234
10
5.5174564
20
53.1344954
40
0.3117924
50
121.236733
51
135.9680508
0
ARC
8
DEFAULT_255_1_234
10
5.5315062
20
53.1084743
40
0.3413302
50
96.845628
51
120.9881519
0
ARC
8
DEFAULT_255_1_234
10
5.5460643
20
53.0149515
40
0.4359341
50
89.8870174
51
97.2802754
0
ARC
8
DEFAULT_255_1_234
10
5.5513082
20
53.0787095
40
0.3722009
50
70.6505584
51
90.6749113
0
ARC
8
DEFAULT_255_1_234
10
5.5644361
20
53.1300361
40
0.3194571
50
36.7492984
51
69.8219918
0
ARC
8
DEFAULT_255_1_234
10
5.4645525
20
53.0521993
40
0.4460685
50
15.39587
51
37.0840084
0
ARC
8
DEFAULT_255_1_234
10
5.2515959
20
52.9901242
40
0.6678714
50
3.9488873
51
15.6798563
0
ARC
8
DEFAULT_255_1_234
10
5.0114587
20
52.9684964
40
0.9089418
50
359.929245
51
4.2665314
0
ARC
8
DEFAULT_255_1_234
10
4.5509024
20
52.9173513
40
1.3695135
50
352.8366322
51
0.2782669
0
ARC
8
DEFAULT_255_1_234
10
5.0796703
20
52.8486629
40
0.8363105
50
341.8359505
51
352.9884176
0
ARC
8
DEFAULT_255_1_234
10
5.4015422
20
52.74017
40
0.4966642
50
322.8578092
51
342.1527901
0
ARC
8
DEFAULT_255_1_234
10
5.4879378
20
52.6812384
40
0.3922466
50
319.334325
51
322.0998941
0
ARC
8
DEFAULT_255_1_234
10
5.4569715
20
52.7123209
40
0.4360033
50
285.9541367
51
318.8878087
0
ARC
8
DEFAULT_255_1_234
10
5.3842976
20
52.94336
40
0.678149
50
272.9281676
51
286.4922826
0
ARC
8
DEFAULT_255_1_234
10
5.3653094
20
53.1684587
40
0.9039547
50
270.8207226
51
273.4012994
0
ARC
8
DEFAULT_255_1_234
10
5.3741945
20
52.9865666
40
0.5967098
50
270.6214993
51
281.4062806
0
ARC
8
DEFAULT_255_1_234
10
5.4171925
20
52.7809833
40
0.3866861
50
281.1852553
51
299.0621114
0
ARC
8
DEFAULT_255_1_234
10
5.4545497
20
52.7088798
40
0.3055236
50
299.5067782
51
313.1200873
0
ARC
8
DEFAULT_255_1_234
10
5.4567464
20
52.7009554
40
0.2982623
50
313.8526205
51
338.5989322
0
ARC
8
DEFAULT_255_1_234
10
5.2943538
20
52.7676781
40
0.4738131
50
338.2523585
51
351.2430902
0
ARC
8
DEFAULT_255_1_234
10
5.0532834
20
52.8086447
40
0.7183203
50
350.9409515
51
357.6691871
0
ARC
8
DEFAULT_255_1_234
10
5.5423264
20
53.0088764
40
0.2294452
50
269.9447023
51
306.8248917
0
ARC
8
DEFAULT_255_1_234
10
5.5186179
20
53.0511898
40
0.2775994
50
305.5072438
51
327.0773448
0
ARC
8
DEFAULT_255_1_234
10
5.530462
20
53.0417025
40
0.2625056
50
327.4104943
51
336.840169
0
ARC
8
DEFAULT_255_1_234
10
5.2210685
20
53.0011302
40
0.5507537
50
359.6633817
51
10.117533
0
ARC
8
DEFAULT_255_1_234
10
5.3964483
20
53.0335777
40
0.372403
50
9.9430141
51
26.7700076
0
ARC
8
DEFAULT_255_1_234
10
5.4561695
20
53.0611187
40
0.3066865
50
27.2015464
51
34.6829435
0
ARC
8
DEFAULT_255_1_234
10
5.5051175
20
53.0978977
40
0.245519
50
34.1250343
51
50.3070065
0
ARC
8
DEFAULT_255_1_234
10
5.5497855
20
53.1513385
40
0.1758693
50
50.3851167
51
90.6705993
0
ARC
8
DEFAULT_255_1_234
10
5.5451088
20
53.1208799
40
0.2063326
50
89.272901
51
111.9140407
0
ARC
8
DEFAULT_255_1_234
10
5.5431616
20
53.134944
40
0.1925887
50
112.9382311
51
142.5320782
0
ARC
8
DEFAULT_255_1_234
10
5.5977796
20
53.0905969
40
0.2629232
50
142.1021256
51
166.3835592
0
ARC
8
DEFAULT_255_1_234
10
5.7159101
20
53.0600915
40
0.3849193
50
166.1100289
51
178.665427
0
ARC
8
DEFAULT_255_1_234
10
5.820669
20
53.0542117
40
0.4897989
50
178.2632126
51
180.0111093
0
ARC
8
DEFAULT_255_1_234
10
5.7404811
20
53.0513728
40
0.40962
50
179.6161962
51
191.8787166
0
ARC
8
DEFAULT_255_1_234
10
5.618465
20
53.0243896
40
0.2846655
50
191.6191692
51
215.2972286
0
ARC
8
DEFAULT_255_1_234
10
5.5987841
20
53.0128918
40
0.2619665
50
215.7320102
51
216.5355409
0
ARC
8
DEFAULT_255_1_234
10
5.5448927
20
52.9696647
40
0.1929497
50
215.7486685
51
239.9727502
0
ARC
8
DEFAULT_255_1_234
10
5.5378843
20
52.9645894
40
0.1850822
50
241.0650169
51
269.2810483
0
ARC
8
DEFAULT_255_1_234
10
5.5420758
20
53.0136371
40
0.2342059
50
268.4062526
51
270.0071348
0
LINE
8
DEFAULT_255_1_234
10
4.3084299
20
61.3723211
11
4.5903439
21
60.9241501
0
LINE
8
DEFAULT_255_1_234
10
4.5903439
20
60.9241501
11
4.8706516
21
61.3723211
0
LINE
8
DEFAULT_255_1_234
10
4.8706516
20
61.3723211
11
5.0521689
21
61.3723211
0
LINE
8
DEFAULT_255_1_234
10
5.0521689
20
61.3723211
11
4.6827089
21
60.7924296
0
LINE
8
DEFAULT_255_1_234
10
4.6827089
20
60.7924296
11
5.0610038
21
60.2029
0
LINE
8
DEFAULT_255_1_234
10
5.0610038
20
60.2029
11
4.8778802
21
60.2029
0
LINE
8
DEFAULT_255_1_234
10
4.8778802
20
60.2029
11
4.5903439
21
60.6591027
0
LINE
8
DEFAULT_255_1_234
10
4.5903439
20
60.6591027
11
4.3012014
21
60.2029
0
LINE
8
DEFAULT_255_1_234
10
4.3012014
20
60.2029
11
4.1188809
21
60.2029
0
LINE
8
DEFAULT_255_1_234
10
4.1188809
20
60.2029
11
4.497979
21
60.7924296
0
LINE
8
DEFAULT_255_1_234
10
4.497979
20
60.7924296
11
4.1277158
21
61.3723211
0
LINE
8
DEFAULT_255_1_234
10
4.1277158
20
61.3723211
11
4.3084299
21
61.3723211
0
ARC
8
DEFAULT_255_1_234
10
5.6285376
20
61.0645703
40
0.2822356
50
338.8763615
51
0.5166041
0
ARC
8
DEFAULT_255_1_234
10
5.645403
20
61.0600208
40
0.2648703
50
325.8412414
51
338.4795939
0
ARC
8
DEFAULT_255_1_234
10
5.6063398
20
61.0871042
40
0.3124019
50
296.7586019
51
325.753654
0
ARC
8
DEFAULT_255_1_234
10
5.5775506
20
61.1355789
40
0.368668
50
296.0902311
51
297.3618122
0
ARC
8
DEFAULT_255_1_234
10
5.6032964
20
60.4801041
40
0.3518806
50
47.9009248
51
67.1946869
0
ARC
8
DEFAULT_255_1_234
10
5.6229206
20
60.5047395
40
0.320451
50
35.236241
51
47.551371
0
ARC
8
DEFAULT_255_1_234
10
5.6490824
20
60.5221993
40
0.2890103
50
359.2759738
51
35.4014081
0
ARC
8
DEFAULT_255_1_234
10
5.5745855
20
60.5148826
40
0.3635026
50
343.1294516
51
0.5776525
0
ARC
8
DEFAULT_255_1_234
10
5.64704
20
60.494933
40
0.2883832
50
310.8497458
51
342.744803
0
ARC
8
DEFAULT_255_1_234
10
5.6052513
20
60.5426294
40
0.3517954
50
281.5473923
51
310.9169905
0
ARC
8
DEFAULT_255_1_234
10
5.5695962
20
60.6979084
40
0.5110832
50
269.6192722
51
281.9789957
0
ARC
8
DEFAULT_255_1_234
10
5.5623752
20
60.6979828
40
0.5111606
50
257.4584469
51
270.4287458
0
ARC
8
DEFAULT_255_1_234
10
5.5242895
20
60.5376344
40
0.3463762
50
228.7553743
51
257.8484423
0
ARC
8
DEFAULT_255_1_234
10
5.4933093
20
60.5003442
40
0.297916
50
184.0104442
51
228.5071787
0
ARC
8
DEFAULT_255_1_234
10
5.6096037
20
60.5180512
40
0.4152734
50
179.9315461
51
185.3254504
0
ARC
8
DEFAULT_255_1_234
10
5.4919683
20
60.5217992
40
0.2976554
50
145.6795913
51
180.6259649
0
ARC
8
DEFAULT_255_1_234
10
5.5083032
20
60.5103929
40
0.3175776
50
115.5537925
51
145.6416199
0
ARC
8
DEFAULT_255_1_234
10
5.5423962
20
60.4493028
40
0.3874232
50
113.2437915
51
116.2054627
0
ARC
8
DEFAULT_255_1_234
10
5.5271175
20
61.089158
40
0.3154751
50
222.9548379
51
244.1372485
0
ARC
8
DEFAULT_255_1_234
10
5.514925
20
61.0754834
40
0.2972382
50
213.3439227
51
222.6271327
0
ARC
8
DEFAULT_255_1_234
10
5.4957184
20
61.0624308
40
0.274019
50
180.4316517
51
213.2713999
0
ARC
8
DEFAULT_255_1_234
10
5.5532186
20
61.067111
40
0.33158
50
179.9992944
51
181.1655061
0
ARC
8
DEFAULT_255_1_234
10
5.5941603
20
61.0705561
40
0.3725376
50
164.6186108
51
180.5292368
0
ARC
8
DEFAULT_255_1_234
10
5.5043466
20
61.0947101
40
0.2795349
50
132.2454369
51
164.5092287
0
ARC
8
DEFAULT_255_1_234
10
5.533057
20
61.0622028
40
0.3229019
50
100.7052766
51
132.1387266
0
ARC
8
DEFAULT_255_1_234
10
5.5635542
20
60.9244086
40
0.4639835
50
89.6732617
51
101.2449487
0
ARC
8
DEFAULT_255_1_234
10
5.569774
20
60.941899
40
0.4464999
50
76.2876631
51
90.4586123
0
ARC
8
DEFAULT_255_1_234
10
5.6003972
20
61.064122
40
0.3205023
50
47.8240157
51
76.4266918
0
ARC
8
DEFAULT_255_1_234
10
5.6226522
20
61.090159
40
0.2862661
50
6.9168658
51
47.6261438
0
ARC
8
DEFAULT_255_1_234
10
5.5039925
20
61.068237
40
0.4067708
50
359.8419705
51
7.9694496
0
ARC
8
DEFAULT_255_1_234
10
5.5381822
20
60.5241925
40
0.2513121
50
359.4454068
51
16.9256425
0
ARC
8
DEFAULT_255_1_234
10
5.5850633
20
60.5371033
40
0.2027071
50
17.292259
51
45.462717
0
ARC
8
DEFAULT_255_1_234
10
5.5796569
20
60.5324434
40
0.2098212
50
45.3028762
51
83.1921472
0
ARC
8
DEFAULT_255_1_234
10
5.5653253
20
60.4522895
40
0.2911472
50
82.2614531
51
90.143954
0
ARC
8
DEFAULT_255_1_234
10
5.5622373
20
60.475595
40
0.2678513
50
89.4959189
51
104.8579811
0
ARC
8
DEFAULT_255_1_234
10
5.5445632
20
60.542589
40
0.1985654
50
104.8855873
51
135.2448349
0
ARC
8
DEFAULT_255_1_234
10
5.5495405
20
60.5381336
40
0.2052373
50
135.3398955
51
172.104394
0
ARC
8
DEFAULT_255_1_234
10
5.6302463
20
60.5226925
40
0.2873299
50
171.2651929
51
180.1859362
0
ARC
8
DEFAULT_255_1_234
10
5.6133164
20
60.5194733
40
0.2704083
50
179.515471
51
193.6466734
0
ARC
8
DEFAULT_255_1_234
10
5.5316933
20
60.4986777
40
0.1861855
50
193.3540587
51
225.8256931
0
ARC
8
DEFAULT_255_1_234
10
5.535769
20
60.5057524
40
0.1941102
50
226.418029
51
255.8553723
0
ARC
8
DEFAULT_255_1_234
10
5.5614123
20
60.5993998
40
0.2911917
50
255.4655572
51
268.7985967
0
ARC
8
DEFAULT_255_1_234
10
5.5661315
20
60.6832491
40
0.3751331
50
268.3464808
51
270.0104874
0
ARC
8
DEFAULT_255_1_234
10
5.5684703
20
60.6148138
40
0.3067064
50
269.575914
51
282.0823146
0
ARC
8
DEFAULT_255_1_234
10
5.5909612
20
60.5153803
40
0.2047712
50
281.7522535
51
306.6056425
0
ARC
8
DEFAULT_255_1_234
10
5.6008038
20
60.4992487
40
0.1859604
50
307.1350025
51
314.0277951
0
ARC
8
DEFAULT_255_1_234
10
5.5972122
20
60.5018766
40
0.1903475
50
314.2553419
51
350.169324
0
ARC
8
DEFAULT_255_1_234
10
5.5120591
20
60.5203409
40
0.2774269
50
349.4145679
51
0.2930737
0
ARC
8
DEFAULT_255_1_234
10
5.5641024
20
61.0362353
40
0.2300764
50
89.477591
51
105.729794
0
ARC
8
DEFAULT_255_1_234
10
5.5504937
20
61.0867637
40
0.1777519
50
105.922966
51
135.1662921
0
ARC
8
DEFAULT_255_1_234
10
5.552544
20
61.0853419
40
0.1802087
50
135.3053131
51
168.9882338
0
ARC
8
DEFAULT_255_1_234
10
5.6353012
20
61.0663721
40
0.2650806
50
168.3802067
51
180.3602358
0
ARC
8
DEFAULT_255_1_234
10
5.6124592
20
61.0626041
40
0.2422425
50
179.5029707
51
194.9126783
0
ARC
8
DEFAULT_255_1_234
10
5.5539253
20
61.047211
40
0.1817188
50
194.9722181
51
224.1943972
0
ARC
8
DEFAULT_255_1_234
10
5.551112
20
61.0449169
40
0.1781027
50
224.2961434
51
262.0157375
0
ARC
8
DEFAULT_255_1_234
10
5.5653363
20
61.1180661
40
0.2525492
50
261.1250369
51
270.1959853
0
ARC
8
DEFAULT_255_1_234
10
5.5683118
20
61.0993339
40
0.233825
50
269.4825617
51
285.0988277
0
ARC
8
DEFAULT_255_1_234
10
5.5837277
20
61.041499
40
0.1739712
50
285.1585659
51
315.9484648
0
ARC
8
DEFAULT_255_1_234
10
5.5748289
20
61.0496886
40
0.1860616
50
316.0412958
51
351.9162715
0
ARC
8
DEFAULT_255_1_234
10
5.5015244
20
61.0638245
40
0.2606517
50
351.1056823
51
0.1936567
0
ARC
8
DEFAULT_255_1_234
10
5.5278073
20
61.0668369
40
0.234377
50
359.4789506
51
16.0679113
0
ARC
8
DEFAULT_255_1_234
10
5.5754032
20
61.079681
40
0.1850875
50
16.3251951
51
44.791304
0
ARC
8
DEFAULT_255_1_234
10
5.5736313
20
61.0797339
40
0.186312
50
44.3958661
51
88.2498933
0
ARC
8
DEFAULT_255_1_234
10
5.5662867
20
61.0186154
40
0.2476868
50
86.9833827
51
90.0200148
0
LINE
8
DEFAULT_255_1_234
10
4.3084299
20
69.3098211
11
4.5903439
21
68.8616501
0
LINE
8
DEFAULT_255_1_234
10
4.5903439
20
68.8616501
11
4.8706516
21
69.3098211
0
LINE
8
DEFAULT_255_1_234
10
4.8706516
20
69.3098211
11
5.0521689
21
69.3098211
0
LINE
8
DEFAULT_255_1_234
10
5.0521689
20
69.3098211
11
4.6827089
21
68.7299296
0
LINE
8
DEFAULT_255_1_234
10
4.6827089
20
68.7299296
11
5.0610038
21
68.1404
0
LINE
8
DEFAULT_255_1_234
10
5.0610038
20
68.1404
11
4.8778802
21
68.1404
0
LINE
8
DEFAULT_255_1_234
10
4.8778802
20
68.1404
11
4.5903439
21
68.5966027
0
LINE
8
DEFAULT_255_1_234
10
4.5903439
20
68.5966027
11
4.3012014
21
68.1404
0
LINE
8
DEFAULT_255_1_234
10
4.3012014
20
68.1404
11
4.1188809
21
68.1404
0
LINE
8
DEFAULT_255_1_234
10
4.1188809
20
68.1404
11
4.497979
21
68.7299296
0
LINE
8
DEFAULT_255_1_234
10
4.497979
20
68.7299296
11
4.1277158
21
69.3098211
0
LINE
8
DEFAULT_255_1_234
10
4.1277158
20
69.3098211
11
4.3084299
21
69.3098211
0
LINE
8
DEFAULT_255_1_234
10
5.9565426
20
69.3098211
11
5.9565426
21
69.226291
0
LINE
8
DEFAULT_255_1_234
10
5.9565426
20
69.226291
11
5.4722288
21
68.1404
0
LINE
8
DEFAULT_255_1_234
10
5.4722288
20
68.1404
11
5.3164131
21
68.1404
0
LINE
8
DEFAULT_255_1_234
10
5.3164131
20
68.1404
11
5.7991206
21
69.1877387
0
LINE
8
DEFAULT_255_1_234
10
5.7991206
20
69.1877387
11
5.1662196
21
69.1877387
0
LINE
8
DEFAULT_255_1_234
10
5.1662196
20
69.1877387
11
5.1662196
21
69.3098211
0
LINE
8
DEFAULT_255_1_234
10
5.1662196
20
69.3098211
11
5.9565426
21
69.3098211
0
LINE
8
DEFAULT_255_1_234
10
4.3084299
20
77.2473211
11
4.5903439
21
76.7991501
0
LINE
8
DEFAULT_255_1_234
10
4.5903439
20
76.7991501
11
4.8706516
21
77.2473211
0
LINE
8
DEFAULT_255_1_234
10
4.8706516
20
77.2473211
11
5.0521689
21
77.2473211
0
LINE
8
DEFAULT_255_1_234
10
5.0521689
20
77.2473211
11
4.6827089
21
76.6674296
0
LINE
8
DEFAULT_255_1_234
10
4.6827089
20
76.6674296
11
5.0610038
21
76.0779
0
LINE
8
DEFAULT_255_1_234
10
5.0610038
20
76.0779
11
4.8778802
21
76.0779
0
LINE
8
DEFAULT_255_1_234
10
4.8778802
20
76.0779
11
4.5903439
21
76.5341027
0
LINE
8
DEFAULT_255_1_234
10
4.5903439
20
76.5341027
11
4.3012014
21
76.0779
0
LINE
8
DEFAULT_255_1_234
10
4.3012014
20
76.0779
11
4.1188809
21
76.0779
0
LINE
8
DEFAULT_255_1_234
10
4.1188809
20
76.0779
11
4.497979
21
76.6674296
0
LINE
8
DEFAULT_255_1_234
10
4.497979
20
76.6674296
11
4.1277158
21
77.2473211
0
LINE
8
DEFAULT_255_1_234
10
4.1277158
20
77.2473211
11
4.3084299
21
77.2473211
0
LINE
8
DEFAULT_255_1_234
10
5.7581587
20
77.2481243
11
5.7846634
21
77.2481243
0
LINE
8
DEFAULT_255_1_234
10
5.7846634
20
77.2481243
11
5.7846634
21
77.122026
0
LINE
8
DEFAULT_255_1_234
10
5.7846634
20
77.122026
11
5.7573555
21
77.122026
0
LINE
8
DEFAULT_255_1_234
10
5.2103941
20
76.5228583
11
5.2103941
21
76.5798836
0
LINE
8
DEFAULT_255_1_234
10
5.3597845
20
76.5606075
11
5.3597845
21
76.5059917
0
ARC
8
DEFAULT_255_1_234
10
5.7625903
20
76.6222455
40
0.4998079
50
90.6001036
51
104.514704
0
ARC
8
DEFAULT_255_1_234
10
5.7237419
20
76.7667131
40
0.3502176
50
104.2855254
51
133.862935
0
ARC
8
DEFAULT_255_1_234
10
5.7401176
20
76.755883
40
0.3693984
50
134.5302688
51
161.6210873
0
ARC
8
DEFAULT_255_1_234
10
5.9054365
20
76.6975895
40
0.5446739
50
161.2849839
51
174.2076652
0
ARC
8
DEFAULT_255_1_234
10
6.0461302
20
76.6781787
40
0.6866274
50
173.7810589
51
174.9254635
0
ARC
8
DEFAULT_255_1_234
10
5.5911134
20
76.5398839
40
0.3033419
50
95.8330959
51
138.9954921
0
ARC
8
DEFAULT_255_1_234
10
5.613449
20
76.4120375
40
0.4328947
50
89.8753725
51
97.0544009
0
ARC
8
DEFAULT_255_1_234
10
5.6181956
20
76.4955748
40
0.3493769
50
71.6407809
51
90.6240094
0
ARC
8
DEFAULT_255_1_234
10
5.6332529
20
76.5510082
40
0.2920396
50
39.6367836
51
71.019018
0
ARC
8
DEFAULT_255_1_234
10
5.5696002
20
76.4959998
40
0.3761538
50
10.658731
51
39.9043955
0
ARC
8
DEFAULT_255_1_234
10
5.4148085
20
76.4623686
40
0.5345136
50
359.682601
51
11.132623
0
ARC
8
DEFAULT_255_1_234
10
5.4108216
20
76.455301
40
0.5385081
50
347.2486944
51
0.4369317
0
ARC
8
DEFAULT_255_1_234
10
5.5775693
20
76.4151807
40
0.3670249
50
318.1409698
51
347.6118597
0
ARC
8
DEFAULT_255_1_234
10
5.6100686
20
76.3884702
40
0.3250007
50
275.6342139
51
317.8248465
0
ARC
8
DEFAULT_255_1_234
10
5.5879797
20
76.5184219
40
0.4565864
50
269.8874292
51
276.7917694
0
ARC
8
DEFAULT_255_1_234
10
5.5824868
20
76.4158743
40
0.3540676
50
246.9140195
51
270.7437342
0
ARC
8
DEFAULT_255_1_234
10
5.5831258
20
76.4016384
40
0.3412781
50
218.1665114
51
245.878116
0
ARC
8
DEFAULT_255_1_234
10
5.6710719
20
76.4752279
40
0.455911
50
191.4115814
51
218.6077802
0
ARC
8
DEFAULT_255_1_234
10
5.8648808
20
76.5186833
40
0.6545001
50
179.6345085
51
191.7836486
0
ARC
8
DEFAULT_255_1_234
10
6.4231145
20
76.5865697
40
1.2127388
50
171.4525249
51
180.3158839
0
ARC
8
DEFAULT_255_1_234
10
5.9836021
20
76.6549608
40
0.7679464
50
157.9802646
51
171.6246686
0
ARC
8
DEFAULT_255_1_234
10
5.7622042
20
76.7432421
40
0.5296008
50
141.4298019
51
157.854097
0
ARC
8
DEFAULT_255_1_234
10
5.6980362
20
76.7886381
40
0.4511509
50
102.8715806
51
140.8564722
0
ARC
8
DEFAULT_255_1_234
10
5.7627978
20
76.5446552
40
0.7034845
50
90.3778349
51
103.5869322
0
ARC
8
DEFAULT_255_1_234
10
5.5889754
20
76.484173
40
0.2370698
50
89.8751008
51
126.2071704
0
ARC
8
DEFAULT_255_1_234
10
5.5935544
20
76.4687303
40
0.2522934
50
124.9745049
51
144.895901
0
ARC
8
DEFAULT_255_1_234
10
5.5759734
20
76.483056
40
0.2296779
50
145.2974905
51
160.2660252
0
ARC
8
DEFAULT_255_1_234
10
5.8832273
20
76.5028071
40
0.5234525
50
179.6514266
51
190.2855912
0
ARC
8
DEFAULT_255_1_234
10
5.713841
20
76.4708786
40
0.3510893
50
190.0945431
51
207.5098196
0
ARC
8
DEFAULT_255_1_234
10
5.657268
20
76.4439623
40
0.288489
50
207.9583163
51
216.3251085
0
ARC
8
DEFAULT_255_1_234
10
5.6232788
20
76.4160105
40
0.2445587
50
215.7661442
51
232.5456785
0
ARC
8
DEFAULT_255_1_234
10
5.5849771
20
76.3673482
40
0.1826382
50
232.8005391
51
270.6605633
0
ARC
8
DEFAULT_255_1_234
10
5.5895472
20
76.4037612
40
0.2190529
50
269.35537
51
288.4744281
0
ARC
8
DEFAULT_255_1_234
10
5.5988369
20
76.3688118
40
0.1829749
50
289.1833337
51
322.9683818
0
ARC
8
DEFAULT_255_1_234
10
5.5376891
20
76.4170391
40
0.2608399
50
322.6007884
51
346.5182367
0
ARC
8
DEFAULT_255_1_234
10
5.4219487
20
76.4465616
40
0.3802777
50
346.2582162
51
358.7741648
0
ARC
8
DEFAULT_255_1_234
10
5.3201156
20
76.4520965
40
0.4822176
50
358.3755224
51
0.0098023
0
ARC
8
DEFAULT_255_1_234
10
5.3957343
20
76.4548657
40
0.4066078
50
359.6214041
51
11.2839074
0
ARC
8
DEFAULT_255_1_234
10
5.523449
20
76.4815066
40
0.2761514
50
11.0482309
51
31.8146458
0
ARC
8
DEFAULT_255_1_234
10
5.5543533
20
76.4982584
40
0.2410679
50
32.3035391
51
38.082671
0
ARC
8
DEFAULT_255_1_234
10
5.5964193
20
76.5363662
40
0.1844966
50
36.825067
51
85.7415724
0
ARC
8
DEFAULT_255_1_234
10
5.5897026
20
76.4863301
40
0.2349122
50
85.0140713
51
90.0513278
0
LINE
8
DEFAULT_255_1_234
10
4.3084299
20
85.1848211
11
4.5903439
21
84.7366501
0
LINE
8
DEFAULT_255_1_234
10
4.5903439
20
84.7366501
11
4.8706516
21
85.1848211
0
LINE
8
DEFAULT_255_1_234
10
4.8706516
20
85.1848211
11
5.0521689
21
85.1848211
0
LINE
8
DEFAULT_255_1_234
10
5.0521689
20
85.1848211
11
4.6827089
21
84.6049296
0
LINE
8
DEFAULT_255_1_234
10
4.6827089
20
84.6049296
11
5.0610038
21
84.0154
0
LINE
8
DEFAULT_255_1_234
10
5.0610038
20
84.0154
11
4.8778802
21
84.0154
0
LINE
8
DEFAULT_255_1_234
10
4.8778802
20
84.0154
11
4.5903439
21
84.4716027
0
LINE
8
DEFAULT_255_1_234
10
4.5903439
20
84.4716027
11
4.3012014
21
84.0154
0
LINE
8
DEFAULT_255_1_234
10
4.3012014
20
84.0154
11
4.1188809
21
84.0154
0
LINE
8
DEFAULT_255_1_234
10
4.1188809
20
84.0154
11
4.497979
21
84.6049296
0
LINE
8
DEFAULT_255_1_234
10
4.497979
20
84.6049296
11
4.1277158
21
85.1848211
0
LINE
8
DEFAULT_255_1_234
10
4.1277158
20
85.1848211
11
4.3084299
21
85.1848211
0
LINE
8
DEFAULT_255_1_234
10
5.3886987
20
84.5711963
11
5.269829
21
84.6017169
0
LINE
8
DEFAULT_255_1_234
10
5.269829
20
84.6017169
11
5.3292639
21
85.1848211
0
LINE
8
DEFAULT_255_1_234
10
5.3292639
20
85.1848211
11
5.9284315
21
85.1848211
0
LINE
8
DEFAULT_255_1_234
10
5.9284315
20
85.1848211
11
5.9284315
21
85.0474784
0
LINE
8
DEFAULT_255_1_234
10
5.9284315
20
85.0474784
11
5.4553622
21
85.0474784
0
LINE
8
DEFAULT_255_1_234
10
5.4553622
20
85.0474784
11
5.4200225
21
84.7286184
0
LINE
8
DEFAULT_255_1_234
10
5.228064
20
84.3230156
11
5.3686194
21
84.3230156
0
LINE
8
DEFAULT_255_1_234
10
5.4280542
20
84.6033232
11
5.3886987
21
84.5711963
0
ARC
8
DEFAULT_255_1_234
10
5.6055009
20
84.410623
40
0.3681349
50
93.7182161
51
120.2538958
0
ARC
8
DEFAULT_255_1_234
10
5.6149272
20
84.3298394
40
0.449379
50
89.9660152
51
94.2496022
0
ARC
8
DEFAULT_255_1_234
10
5.6190006
20
84.3887549
40
0.390482
50
73.8043271
51
90.5585896
0
ARC
8
DEFAULT_255_1_234
10
5.6424903
20
84.4745602
40
0.3015334
50
41.3071453
51
73.5430202
0
ARC
8
DEFAULT_255_1_234
10
5.600873
20
84.4387324
40
0.3564457
50
13.5075983
51
41.2174222
0
ARC
8
DEFAULT_255_1_234
10
5.4366934
20
84.3957486
40
0.5261351
50
1.1331335
51
13.8829381
0
ARC
8
DEFAULT_255_1_234
10
5.2955303
20
84.3881665
40
0.6674378
50
359.9919444
51
1.544251
0
ARC
8
DEFAULT_255_1_234
10
5.4232129
20
84.384028
40
0.5397702
50
347.8572367
51
0.4293338
0
ARC
8
DEFAULT_255_1_234
10
5.5982447
20
84.3443736
40
0.3603188
50
323.673004
51
348.1672506
0
ARC
8
DEFAULT_255_1_234
10
5.6276955
20
84.3264168
40
0.3259678
50
316.8171152
51
323.1492751
0
ARC
8
DEFAULT_255_1_234
10
5.6338144
20
84.322746
40
0.3189975
50
281.8396411
51
316.5457803
0
ARC
8
DEFAULT_255_1_234
10
5.5962408
20
84.4782762
40
0.4789527
50
269.5770101
51
282.4214771
0
ARC
8
DEFAULT_255_1_234
10
5.5891219
20
84.4569125
40
0.45759
50
256.2427136
51
270.4486331
0
ARC
8
DEFAULT_255_1_234
10
5.5592121
20
84.3369229
40
0.3339303
50
228.9023911
51
256.3314342
0
ARC
8
DEFAULT_255_1_234
10
5.5518354
20
84.3252746
40
0.32031
50
193.753695
51
228.5271154
0
ARC
8
DEFAULT_255_1_234
10
5.6756308
20
84.36158
40
0.4492253
50
184.924711
51
194.497588
0
ARC
8
DEFAULT_255_1_234
10
5.6948875
20
84.3651591
40
0.3289787
50
187.3600538
51
198.6732863
0
ARC
8
DEFAULT_255_1_234
10
5.5899169
20
84.3287674
40
0.217884
50
198.4451669
51
217.794479
0
ARC
8
DEFAULT_255_1_234
10
5.5603344
20
84.3078085
40
0.1816698
50
218.2887171
51
228.5612368
0
ARC
8
DEFAULT_255_1_234
10
5.5701131
20
84.3209963
40
0.1980329
50
228.9654866
51
258.1234728
0
ARC
8
DEFAULT_255_1_234
10
5.5906841
20
84.4090833
40
0.2884748
50
257.7258293
51
270.401361
0
ARC
8
DEFAULT_255_1_234
10
5.5951727
20
84.3645821
40
0.2439788
50
269.4204404
51
286.4209037
0
ARC
8
DEFAULT_255_1_234
10
5.6100215
20
84.3106657
40
0.1880666
50
286.7251356
51
320.600362
0
ARC
8
DEFAULT_255_1_234
10
5.571704
20
84.3417595
40
0.2374121
50
320.6712579
51
344.5441685
0
ARC
8
DEFAULT_255_1_234
10
5.4560366
20
84.3757045
40
0.3579479
50
344.2412205
51
356.7357071
0
ARC
8
DEFAULT_255_1_234
10
5.3311515
20
84.3860444
40
0.4832297
50
356.3548756
51
0.0500261
0
ARC
8
DEFAULT_255_1_234
10
5.4648024
20
84.389165
40
0.3495889
50
359.5576869
51
12.953486
0
ARC
8
DEFAULT_255_1_234
10
5.5702921
20
84.4147434
40
0.2410532
50
12.6490276
51
41.6081334
0
ARC
8
DEFAULT_255_1_234
10
5.5933292
20
84.4343321
40
0.2108218
50
41.7850273
51
85.9892764
0
ARC
8
DEFAULT_255_1_234
10
5.5810029
20
84.3530462
40
0.2928454
50
84.6957577
51
90.0676183
0
ARC
8
DEFAULT_255_1_234
10
5.5786513
20
84.2861716
40
0.3597255
50
89.6804936
51
99.1614436
0
ARC
8
DEFAULT_255_1_234
10
5.5581144
20
84.4089131
40
0.235281
50
98.9830931
51
113.8908934
0
ARC
8
DEFAULT_255_1_234
10
5.5351554
20
84.4630587
40
0.176479
50
114.1950727
51
127.3641004
0
LINE
8
DEFAULT_255_1_234
10
4.4142299
20
93.1223211
11
4.6961439
21
92.6741501
0
LINE
8
DEFAULT_255_1_234
10
4.6961439
20
92.6741501
11
4.9764516
21
93.1223211
0
LINE
8
DEFAULT_255_1_234
10
4.9764516
20
93.1223211
11
5.1579689
21
93.1223211
0
LINE
8
DEFAULT_255_1_234
10
5.1579689
20
93.1223211
11
4.7885089
21
92.5424296
0
LINE
8
DEFAULT_255_1_234
10
4.7885089
20
92.5424296
11
5.1668038
21
91.9529
0
LINE
8
DEFAULT_255_1_234
10
5.1668038
20
91.9529
11
4.9836802
21
91.9529
0
LINE
8
DEFAULT_255_1_234
10
4.9836802
20
91.9529
11
4.6961439
21
92.4091027
0
LINE
8
DEFAULT_255_1_234
10
4.6961439
20
92.4091027
11
4.4070014
21
91.9529
0
LINE
8
DEFAULT_255_1_234
10
4.4070014
20
91.9529
11
4.2246809
21
91.9529
0
LINE
8
DEFAULT_255_1_234
10
4.2246809
20
91.9529
11
4.603779
21
92.5424296
0
LINE
8
DEFAULT_255_1_234
10
4.603779
20
92.5424296
11
4.2335158
21
93.1223211
0
LINE
8
DEFAULT_255_1_234
10
4.2335158
20
93.1223211
11
4.4142299
21
93.1223211
0
LINE
8
DEFAULT_255_1_234
10
5.934638
20
93.1223211
11
5.934638
21
92.345652
0
LINE
8
DEFAULT_255_1_234
10
5.934638
20
92.345652
11
6.0968791
21
92.345652
0
LINE
8
DEFAULT_255_1_234
10
6.0968791
20
92.345652
11
6.0968791
21
92.2243728
0
LINE
8
DEFAULT_255_1_234
10
6.0968791
20
92.2243728
11
5.934638
21
92.2243728
0
LINE
8
DEFAULT_255_1_234
10
5.934638
20
92.2243728
11
5.934638
21
91.9529
0
LINE
8
DEFAULT_255_1_234
10
5.934638
20
91.9529
11
5.7852477
21
91.9529
0
LINE
8
DEFAULT_255_1_234
10
5.7852477
20
91.9529
11
5.7852477
21
92.2243728
0
LINE
8
DEFAULT_255_1_234
10
5.7852477
20
92.2243728
11
5.2527434
21
92.2243728
0
LINE
8
DEFAULT_255_1_234
10
5.2527434
20
92.2243728
11
5.2527434
21
92.3119187
0
LINE
8
DEFAULT_255_1_234
10
5.2527434
20
92.3119187
11
5.7764127
21
93.1223211
0
LINE
8
DEFAULT_255_1_234
10
5.7764127
20
93.1223211
11
5.934638
21
93.1223211
0
LINE
8
DEFAULT_255_1_234
10
5.7675778
20
92.8869912
11
5.4214099
21
92.345652
0
LINE
8
DEFAULT_255_1_234
10
5.4214099
20
92.345652
11
5.7852477
21
92.345652
0
LINE
8
DEFAULT_255_1_234
10
5.7852477
20
92.345652
11
5.7852477
21
92.9191181
0
LINE
8
DEFAULT_255_1_234
10
5.7852477
20
92.9191181
11
5.7675778
21
92.8869912
0
LINE
8
DEFAULT_255_1_234
10
4.3084299
20
101.0598211
11
4.5903439
21
100.6116501
0
LINE
8
DEFAULT_255_1_234
10
4.5903439
20
100.6116501
11
4.8706516
21
101.0598211
0
LINE
8
DEFAULT_255_1_234
10
4.8706516
20
101.0598211
11
5.0521689
21
101.0598211
0
LINE
8
DEFAULT_255_1_234
10
5.0521689
20
101.0598211
11
4.6827089
21
100.4799296
0
LINE
8
DEFAULT_255_1_234
10
4.6827089
20
100.4799296
11
5.0610038
21
99.8904
0
LINE
8
DEFAULT_255_1_234
10
5.0610038
20
99.8904
11
4.8778802
21
99.8904
0
LINE
8
DEFAULT_255_1_234
10
4.8778802
20
99.8904
11
4.5903439
21
100.3466027
0
LINE
8
DEFAULT_255_1_234
10
4.5903439
20
100.3466027
11
4.3012014
21
99.8904
0
LINE
8
DEFAULT_255_1_234
10
4.3012014
20
99.8904
11
4.1188809
21
99.8904
0
LINE
8
DEFAULT_255_1_234
10
4.1188809
20
99.8904
11
4.497979
21
100.4799296
0
LINE
8
DEFAULT_255_1_234
10
4.497979
20
100.4799296
11
4.1277158
21
101.0598211
0
LINE
8
DEFAULT_255_1_234
10
4.1277158
20
101.0598211
11
4.3084299
21
101.0598211
0
LINE
8
DEFAULT_255_1_234
10
5.417613
20
100.4261169
11
5.417613
21
100.5473962
0
LINE
8
DEFAULT_255_1_234
10
5.417613
20
100.5473962
11
5.5292542
21
100.5473962
0
LINE
8
DEFAULT_255_1_234
10
5.338902
20
100.7530087
11
5.1903148
21
100.7530087
0
LINE
8
DEFAULT_255_1_234
10
5.1798735
20
100.1988188
11
5.3292639
21
100.1988188
0
LINE
8
DEFAULT_255_1_234
10
5.5292542
20
100.4261169
11
5.417613
21
100.4261169
0
ARC
8
DEFAULT_255_1_234
10
5.5263408
20
100.8866713
40
0.3392876
50
270.4919872
51
281.8951556
0
ARC
8
DEFAULT_255_1_234
10
5.550467
20
100.7764702
40
0.2264817
50
281.6691735
51
301.2943132
0
ARC
8
DEFAULT_255_1_234
10
5.567488
20
100.7453304
40
0.1910381
50
301.7833094
51
311.7545298
0
ARC
8
DEFAULT_255_1_234
10
5.5766456
20
100.7351748
40
0.1773635
50
311.7323931
51
354.2802411
0
ARC
8
DEFAULT_255_1_234
10
5.5040081
20
100.7476722
40
0.2509385
50
353.0937916
51
0.1181479
0
ARC
8
DEFAULT_255_1_234
10
5.4578866
20
100.7524386
40
0.2970898
50
359.1805295
51
15.0453146
0
ARC
8
DEFAULT_255_1_234
10
5.5924703
20
100.7916992
40
0.1569564
50
13.9577229
51
77.6713066
0
ARC
8
DEFAULT_255_1_234
10
5.5538232
20
100.6531949
40
0.3006298
50
76.1116566
51
90.7026153
0
ARC
8
DEFAULT_255_1_234
10
5.547907
20
100.6805545
40
0.2732568
50
89.5324876
51
103.531937
0
ARC
8
DEFAULT_255_1_234
10
5.5278514
20
100.7604884
40
0.1908508
50
103.2931773
51
133.5619022
0
ARC
8
DEFAULT_255_1_234
10
5.5234003
20
100.7664375
40
0.1834746
50
133.8349307
51
173.5344437
0
ARC
8
DEFAULT_255_1_234
10
5.5957046
20
100.7536213
40
0.2568033
50
172.5096846
51
180.1366907
0
ARC
8
DEFAULT_255_1_234
10
5.500594
20
100.7570622
40
0.3103056
50
155.3484492
51
180.7484736
0
ARC
8
DEFAULT_255_1_234
10
5.4957029
20
100.7541846
40
0.3070957
50
131.5744599
51
154.4798489
0
ARC
8
DEFAULT_255_1_234
10
5.5270176
20
100.722531
40
0.3515643
50
96.9875458
51
131.9690667
0
ARC
8
DEFAULT_255_1_234
10
5.5489656
20
100.5979636
40
0.4779224
50
89.8596053
51
97.7825159
0
ARC
8
DEFAULT_255_1_234
10
5.5537719
20
100.5717616
40
0.5041361
50
78.3655447
51
90.4131539
0
ARC
8
DEFAULT_255_1_234
10
5.5895637
20
100.7376887
40
0.3344039
50
56.6229102
51
78.638727
0
ARC
8
DEFAULT_255_1_234
10
5.6110581
20
100.7752805
40
0.2912001
50
47.0253525
51
56.0854072
0
ARC
8
DEFAULT_255_1_234
10
5.6130361
20
100.7792223
40
0.2869704
50
10.9208013
51
46.7778124
0
ARC
8
DEFAULT_255_1_234
10
5.4766427
20
100.7476857
40
0.426899
50
359.6364486
51
11.6087304
0
ARC
8
DEFAULT_255_1_234
10
5.6601271
20
100.7461752
40
0.243409
50
332.3549906
51
359.7179418
0
ARC
8
DEFAULT_255_1_234
10
5.5950873
20
100.7770142
40
0.3153459
50
325.2333722
51
332.8745602
0
ARC
8
DEFAULT_255_1_234
10
5.6103496
20
100.7663828
40
0.2967456
50
292.9802137
51
325.2392345
0
ARC
8
DEFAULT_255_1_234
10
5.582887
20
100.8197863
40
0.3566604
50
292.5402179
51
293.6924929
0
ARC
8
DEFAULT_255_1_234
10
5.6221466
20
100.1743091
40
0.3307468
50
57.6435486
51
72.8625112
0
ARC
8
DEFAULT_255_1_234
10
5.6575966
20
100.2317549
40
0.2632492
50
36.7248896
51
57.4697979
0
ARC
8
DEFAULT_255_1_234
10
5.6564598
20
100.233022
40
0.2634081
50
8.0545065
51
36.356114
0
ARC
8
DEFAULT_255_1_234
10
5.5701784
20
100.2175174
40
0.3510261
50
359.8320645
51
8.5869982
0
ARC
8
DEFAULT_255_1_234
10
5.532656
20
100.2127101
40
0.3885653
50
343.9829931
51
0.5571613
0
ARC
8
DEFAULT_255_1_234
10
5.6212757
20
100.1884438
40
0.2966924
50
311.6359546
51
343.7651759
0
ARC
8
DEFAULT_255_1_234
10
5.5834326
20
100.2311102
40
0.3537231
50
279.7829875
51
311.6255694
0
ARC
8
DEFAULT_255_1_234
10
5.5533102
20
100.374828
40
0.5004971
50
269.7286406
51
280.3856417
0
ARC
8
DEFAULT_255_1_234
10
5.5471175
20
100.3706996
40
0.4963778
50
256.6828919
51
270.4412052
0
ARC
8
DEFAULT_255_1_234
10
5.5132471
20
100.2322394
40
0.3538406
50
229.4223008
51
256.8556159
0
ARC
8
DEFAULT_255_1_234
10
5.4717864
20
100.1855736
40
0.2914296
50
181.818294
51
229.6455059
0
ARC
8
DEFAULT_255_1_234
10
5.575782
20
100.1986496
40
0.3959084
50
179.9755256
51
183.2323064
0
ARC
8
DEFAULT_255_1_234
10
5.5585566
20
100.1966037
40
0.2293034
50
179.4465117
51
196.2869258
0
ARC
8
DEFAULT_255_1_234
10
5.5097974
20
100.1832651
40
0.1787621
50
196.5661473
51
227.705904
0
ARC
8
DEFAULT_255_1_234
10
5.5262069
20
100.2016155
40
0.2033784
50
227.7652068
51
257.8762805
0
ARC
8
DEFAULT_255_1_234
10
5.5487039
20
100.2959156
40
0.3003081
50
257.4584385
51
270.426602
0
ARC
8
DEFAULT_255_1_234
10
5.5532605
20
100.3248996
40
0.329292
50
269.5962073
51
280.8789248
0
ARC
8
DEFAULT_255_1_234
10
5.5762134
20
100.2102685
40
0.2123908
50
280.6346389
51
299.8595945
0
ARC
8
DEFAULT_255_1_234
10
5.595304
20
100.1740212
40
0.171457
50
300.3576302
51
314.5517981
0
ARC
8
DEFAULT_255_1_234
10
5.5870101
20
100.1800919
40
0.1816095
50
315.0728369
51
345.0431014
0
ARC
8
DEFAULT_255_1_234
10
5.4946915
20
100.2069841
40
0.2777492
50
344.5986631
51
357.9269593
0
ARC
8
DEFAULT_255_1_234
10
5.4051241
20
100.2131276
40
0.3674917
50
357.4748886
51
0.0231117
0
ARC
8
DEFAULT_255_1_234
10
5.5074351
20
100.2155679
40
0.2651907
50
359.5047933
51
13.4239635
0
ARC
8
DEFAULT_255_1_234
10
5.5940994
20
100.2377478
40
0.1757509
50
12.9498199
51
48.7551375
0
ARC
8
DEFAULT_255_1_234
10
5.5758728
20
100.21284
40
0.2065134
50
49.5088623
51
72.1836453
0
ARC
8
DEFAULT_255_1_234
10
5.5400881
20
100.1066291
40
0.3185836
50
71.9010081
51
84.3554254
0
ARC
8
DEFAULT_255_1_234
10
5.5239513
20
99.9705326
40
0.4556151
50
84.0193428
51
89.333121
0
LINE
8
DEFAULT_255_1_234
10
4.3084299
20
108.9973211
11
4.5903439
21
108.5491501
0
LINE
8
DEFAULT_255_1_234
10
4.5903439
20
108.5491501
11
4.8706516
21
108.9973211
0
LINE
8
DEFAULT_255_1_234
10
4.8706516
20
108.9973211
11
5.0521689
21
108.9973211
0
LINE
8
DEFAULT_255_1_234
10
5.0521689
20
108.9973211
11
4.6827089
21
108.4174296
0
LINE
8
DEFAULT_255_1_234
10
4.6827089
20
108.4174296
11
5.0610038
21
107.8279
0
LINE
8
DEFAULT_255_1_234
10
5.0610038
20
107.8279
11
4.8778802
21
107.8279
0
LINE
8
DEFAULT_255_1_234
10
4.8778802
20
107.8279
11
4.5903439
21
108.2841027
0
LINE
8
DEFAULT_255_1_234
10
4.5903439
20
108.2841027
11
4.3012014
21
107.8279
0
LINE
8
DEFAULT_255_1_234
10
4.3012014
20
107.8279
11
4.1188809
21
107.8279
0
LINE
8
DEFAULT_255_1_234
10
4.1188809
20
107.8279
11
4.497979
21
108.4174296
0
LINE
8
DEFAULT_255_1_234
10
4.497979
20
108.4174296
11
4.1277158
21
108.9973211
0
LINE
8
DEFAULT_255_1_234
10
4.1277158
20
108.9973211
11
4.3084299
21
108.9973211
0
LINE
8
DEFAULT_255_1_234
10
5.9677871
20
107.9491792
11
5.9677871
21
107.8279
0
LINE
8
DEFAULT_255_1_234
10
5.9677871
20
107.8279
11
5.2015592
21
107.8279
0
LINE
8
DEFAULT_255_1_234
10
5.2015592
20
107.8279
11
5.2015592
21
107.9347221
0
LINE
8
DEFAULT_255_1_234
10
5.2015592
20
107.9347221
11
5.6063588
21
108.3844995
0
LINE
8
DEFAULT_255_1_234
10
5.3276575
20
108.6527595
11
5.1790704
21
108.6527595
0
LINE
8
DEFAULT_255_1_234
10
5.6939048
20
108.2889218
11
5.380667
21
107.9491792
0
LINE
8
DEFAULT_255_1_234
10
5.380667
20
107.9491792
11
5.9677871
21
107.9491792
0
ARC
8
DEFAULT_255_1_234
10
4.2573422
20
109.5774527
40
1.8008286
50
318.5132453
51
320.7828378
0
ARC
8
DEFAULT_255_1_234
10
4.7860396
20
109.1471426
40
1.1191493
50
320.7372736
51
323.9737074
0
ARC
8
DEFAULT_255_1_234
10
5.1780252
20
108.8631361
40
0.6350923
50
323.8961724
51
328.6421089
0
ARC
8
DEFAULT_255_1_234
10
5.3826848
20
108.7369031
40
0.3946393
50
328.8299013
51
331.789948
0
ARC
8
DEFAULT_255_1_234
10
5.4824026
20
108.6854509
40
0.2824501
50
331.4255242
51
352.9364833
0
ARC
8
DEFAULT_255_1_234
10
5.4960527
20
108.6823976
40
0.2685315
50
353.2248685
51
0.0169286
0
ARC
8
DEFAULT_255_1_234
10
5.5170404
20
108.684695
40
0.2475536
50
359.4866256
51
15.9339782
0
ARC
8
DEFAULT_255_1_234
10
5.5677389
20
108.6983286
40
0.1950618
50
16.1714718
51
43.5284424
0
ARC
8
DEFAULT_255_1_234
10
5.5754698
20
108.7060573
40
0.184134
50
43.4415429
51
83.1661404
0
ARC
8
DEFAULT_255_1_234
10
5.5620616
20
108.6323771
40
0.258926
50
82.160215
51
90.1505798
0
ARC
8
DEFAULT_255_1_234
10
5.5589043
20
108.5786865
40
0.3126255
50
89.5460705
51
102.5418777
0
ARC
8
DEFAULT_255_1_234
10
5.5346129
20
108.6817665
40
0.2067346
50
102.1739365
51
129.2061916
0
ARC
8
DEFAULT_255_1_234
10
5.5267201
20
108.6942094
40
0.1921118
50
129.7279328
51
135.7542026
0
ARC
8
DEFAULT_255_1_234
10
5.5388729
20
108.6845045
40
0.2075944
50
136.175737
51
166.3674722
0
ARC
8
DEFAULT_255_1_234
10
5.6395648
20
108.6575182
40
0.3118201
50
165.9092917
51
178.8683903
0
ARC
8
DEFAULT_255_1_234
10
5.7260509
20
108.6528179
40
0.3983935
50
178.438168
51
180.0083905
0
ARC
8
DEFAULT_255_1_234
10
5.5859111
20
108.6567231
40
0.4068601
50
163.2878735
51
180.5581814
0
ARC
8
DEFAULT_255_1_234
10
5.5057373
20
108.678784
40
0.3237344
50
133.454115
51
162.9470031
0
ARC
8
DEFAULT_255_1_234
10
5.5235914
20
108.6598
40
0.349795
50
100.7869394
51
133.4384016
0
ARC
8
DEFAULT_255_1_234
10
5.5583686
20
108.5049319
40
0.5084616
50
89.6605301
51
101.3704185
0
ARC
8
DEFAULT_255_1_234
10
5.5650024
20
108.5110496
40
0.502348
50
78.2171172
51
90.4130393
0
ARC
8
DEFAULT_255_1_234
10
5.6005103
20
108.6734637
40
0.3361092
50
55.9268222
51
78.4888551
0
ARC
8
DEFAULT_255_1_234
10
5.6201543
20
108.7073324
40
0.2970617
50
47.9292255
51
55.4054003
0
ARC
8
DEFAULT_255_1_234
10
5.6303103
20
108.7176502
40
0.2825983
50
4.3347696
51
48.0560701
0
ARC
8
DEFAULT_255_1_234
10
5.5207497
20
108.7006601
40
0.393225
50
359.925209
51
5.5967654
0
ARC
8
DEFAULT_255_1_234
10
5.5636389
20
108.7062816
40
0.3503892
50
337.8914096
51
358.9967724
0
ARC
8
DEFAULT_255_1_234
10
5.2922801
20
108.8109706
40
0.6412172
50
326.9135351
51
338.3505194
0
ARC
8
DEFAULT_255_1_234
10
4.8937105
20
109.0664284
40
1.1146189
50
319.6472867
51
327.095818
0
ARC
8
DEFAULT_255_1_234
10
4.5104108
20
109.3826
40
1.6114559
50
317.2586784
51
319.9046139
0
LINE
8
DEFAULT_255_1_234
10
4.3000299
20
116.9348211
11
4.5819439
21
116.4866501
0
LINE
8
DEFAULT_255_1_234
10
4.5819439
20
116.4866501
11
4.8622516
21
116.9348211
0
LINE
8
DEFAULT_255_1_234
10
4.8622516
20
116.9348211
11
5.0437689
21
116.9348211
0
LINE
8
DEFAULT_255_1_234
10
5.0437689
20
116.9348211
11
4.6743089
21
116.3549296
0
LINE
8
DEFAULT_255_1_234
10
4.6743089
20
116.3549296
11
5.0526038
21
115.7654
0
LINE
8
DEFAULT_255_1_234
10
5.0526038
20
115.7654
11
4.8694802
21
115.7654
0
LINE
8
DEFAULT_255_1_234
10
4.8694802
20
115.7654
11
4.5819439
21
116.2216027
0
LINE
8
DEFAULT_255_1_234
10
4.5819439
20
116.2216027
11
4.2928014
21
115.7654
0
LINE
8
DEFAULT_255_1_234
10
4.2928014
20
115.7654
11
4.1104809
21
115.7654
0
LINE
8
DEFAULT_255_1_234
10
4.1104809
20
115.7654
11
4.489579
21
116.3549296
0
LINE
8
DEFAULT_255_1_234
10
4.489579
20
116.3549296
11
4.1193158
21
116.9348211
0
LINE
8
DEFAULT_255_1_234
10
4.1193158
20
116.9348211
11
4.3000299
21
116.9348211
0
LINE
8
DEFAULT_255_1_234
10
5.6814889
20
116.9404433
11
5.6814889
21
115.7654
0
LINE
8
DEFAULT_255_1_234
10
5.6814889
20
115.7654
11
5.5320986
21
115.7654
0
LINE
8
DEFAULT_255_1_234
10
5.5320986
20
115.7654
11
5.5320986
21
116.7557133
0
LINE
8
DEFAULT_255_1_234
10
5.5320986
20
116.7557133
11
5.2325147
21
116.6456785
0
LINE
8
DEFAULT_255_1_234
10
5.2325147
20
116.6456785
11
5.2325147
21
116.7806117
0
LINE
8
DEFAULT_255_1_234
10
5.2325147
20
116.7806117
11
5.6581969
21
116.9404433
0
LINE
8
DEFAULT_255_1_234
10
5.6581969
20
116.9404433
11
5.6814889
21
116.9404433
0
LINE
8
DEFAULT_255_1_234
10
4.3084299
20
124.8723211
11
4.5903439
21
124.4241501
0
LINE
8
DEFAULT_255_1_234
10
4.5903439
20
124.4241501
11
4.8706516
21
124.8723211
0
LINE
8
DEFAULT_255_1_234
10
4.8706516
20
124.8723211
11
5.0521689
21
124.8723211
0
LINE
8
DEFAULT_255_1_234
10
5.0521689
20
124.8723211
11
4.6827089
21
124.2924296
0
LINE
8
DEFAULT_255_1_234
10
4.6827089
20
124.2924296
11
5.0610038
21
123.7029
0
LINE
8
DEFAULT_255_1_234
10
5.0610038
20
123.7029
11
4.8778802
21
123.7029
0
LINE
8
DEFAULT_255_1_234
10
4.8778802
20
123.7029
11
4.5903439
21
124.1591027
0
LINE
8
DEFAULT_255_1_234
10
4.5903439
20
124.1591027
11
4.3012014
21
123.7029
0
LINE
8
DEFAULT_255_1_234
10
4.3012014
20
123.7029
11
4.1188809
21
123.7029
0
LINE
8
DEFAULT_255_1_234
10
4.1188809
20
123.7029
11
4.497979
21
124.2924296
0
LINE
8
DEFAULT_255_1_234
10
4.497979
20
124.2924296
11
4.1277158
21
124.8723211
0
LINE
8
DEFAULT_255_1_234
10
4.1277158
20
124.8723211
11
4.3084299
21
124.8723211
0
LINE
8
DEFAULT_255_1_234
10
5.9348569
20
124.3944327
11
5.9348569
21
124.2016709
0
LINE
8
DEFAULT_255_1_234
10
5.1967402
20
124.1815916
11
5.1967402
21
124.3799755
0
LINE
8
DEFAULT_255_1_234
10
5.7862698
20
124.1615123
11
5.7862698
21
124.4048739
0
LINE
8
DEFAULT_255_1_234
10
5.3453273
20
124.4161184
11
5.3453273
21
124.1783789
0
ARC
8
DEFAULT_255_1_234
10
4.7101459
20
124.1967805
40
1.2247208
50
353.8441951
51
0.2287902
0
ARC
8
DEFAULT_255_1_234
10
5.1740963
20
124.1449806
40
0.7578929
50
344.4934747
51
353.9765454
0
ARC
8
DEFAULT_255_1_234
10
5.4733553
20
124.0598981
40
0.4467846
50
329.2803592
51
344.7472793
0
ARC
8
DEFAULT_255_1_234
10
5.5726378
20
124.0054018
40
0.3336173
50
324.9352394
51
328.6160465
0
ARC
8
DEFAULT_255_1_234
10
5.6103486
20
123.9790427
40
0.2876076
50
280.580143
51
324.9173126
0
ARC
8
DEFAULT_255_1_234
10
5.5702279
20
124.1461099
40
0.4592847
50
269.5977311
51
281.6734359
0
ARC
8
DEFAULT_255_1_234
10
5.5630185
20
124.1341173
40
0.4472986
50
256.6228859
51
270.51044
0
ARC
8
DEFAULT_255_1_234
10
5.5228162
20
123.9792877
40
0.2873874
50
215.8618325
51
257.2788573
0
ARC
8
DEFAULT_255_1_234
10
5.6249194
20
124.0477977
40
0.4102928
50
197.9693508
51
215.2623606
0
ARC
8
DEFAULT_255_1_234
10
5.873431
20
124.1316709
40
0.6725652
50
187.8816417
51
198.2346507
0
ARC
8
DEFAULT_255_1_234
10
6.2692518
20
124.1888079
40
1.0724845
50
180.8976217
51
188.0055519
0
ARC
8
DEFAULT_255_1_234
10
6.5492706
20
124.1991777
40
1.3526448
50
180.7449369
51
181.1510016
0
ARC
8
DEFAULT_255_1_234
10
6.3915435
20
124.3848042
40
1.1948131
50
173.7675579
51
180.231553
0
ARC
8
DEFAULT_255_1_234
10
5.9397582
20
124.4358666
40
0.7401564
50
164.3058563
51
173.9002247
0
ARC
8
DEFAULT_255_1_234
10
5.648565
20
124.5197656
40
0.4371288
50
148.7922025
51
164.568378
0
ARC
8
DEFAULT_255_1_234
10
5.5534103
20
124.5728929
40
0.3282386
50
144.5883898
51
148.1176286
0
ARC
8
DEFAULT_255_1_234
10
5.5191001
20
124.5968315
40
0.2864044
50
101.6440918
51
144.514236
0
ARC
8
DEFAULT_255_1_234
10
5.5616067
20
124.4279069
40
0.4604934
50
89.5284041
51
102.5819763
0
ARC
8
DEFAULT_255_1_234
10
5.5695155
20
124.4240018
40
0.464401
50
77.0437873
51
90.5081339
0
ARC
8
DEFAULT_255_1_234
10
5.6097157
20
124.5882615
40
0.2953195
50
48.2778575
51
77.4994676
0
ARC
8
DEFAULT_255_1_234
10
5.6169788
20
124.6011746
40
0.2808655
50
36.3142134
51
47.6305865
0
ARC
8
DEFAULT_255_1_234
10
5.5301095
20
124.5426515
40
0.3855453
50
18.2931786
51
35.6769206
0
ARC
8
DEFAULT_255_1_234
10
5.2757854
20
124.4553593
40
0.654423
50
8.024666
51
18.5605216
0
ARC
8
DEFAULT_255_1_234
10
4.8594774
20
124.3938792
40
1.0752407
50
1.1274072
51
8.1718305
0
ARC
8
DEFAULT_255_1_234
10
4.5358964
20
124.3811885
40
1.3990231
50
0.5424119
51
1.3863029
0
ARC
8
DEFAULT_255_1_234
10
4.7180342
20
124.4084342
40
1.0682415
50
359.8090433
51
4.9407866
0
ARC
8
DEFAULT_255_1_234
10
5.1390356
20
124.4460113
40
0.6455691
50
4.8362157
51
12.2904523
0
ARC
8
DEFAULT_255_1_234
10
5.4145471
20
124.5073965
40
0.3633074
50
12.0805627
51
23.8173984
0
ARC
8
DEFAULT_255_1_234
10
5.5319176
20
124.5570919
40
0.2358723
50
24.2871213
51
31.3935614
0
ARC
8
DEFAULT_255_1_234
10
5.5843874
20
124.5914233
40
0.1732111
50
30.7407893
51
82.4657128
0
ARC
8
DEFAULT_255_1_234
10
5.5664008
20
124.5030691
40
0.263235
50
81.1060089
51
90.2184952
0
ARC
8
DEFAULT_255_1_234
10
5.5628307
20
124.5288924
40
0.2374236
50
89.3806855
51
105.6762551
0
ARC
8
DEFAULT_255_1_234
10
5.5444938
20
124.5955567
40
0.1682847
50
105.7981136
51
149.7388061
0
ARC
8
DEFAULT_255_1_234
10
5.6509016
20
124.531595
40
0.2924306
50
149.4208916
51
163.6286378
0
ARC
8
DEFAULT_255_1_234
10
5.8599904
20
124.467825
40
0.5110213
50
163.3763315
51
172.1410975
0
ARC
8
DEFAULT_255_1_234
10
6.1900623
20
124.4205518
40
0.8444586
50
172.0259487
51
178.0703232
0
ARC
8
DEFAULT_255_1_234
10
6.4930712
20
124.4061906
40
1.1477868
50
177.8631668
51
179.5044149
0
ARC
8
DEFAULT_255_1_234
10
6.3858117
20
124.1747389
40
1.0404907
50
179.7995573
51
185.2460446
0
ARC
8
DEFAULT_255_1_234
10
5.9815156
20
124.1364513
40
0.6343885
50
185.1411642
51
193.0079639
0
ARC
8
DEFAULT_255_1_234
10
5.7171629
20
124.0739641
40
0.3627568
50
192.7897626
51
205.2507664
0
ARC
8
DEFAULT_255_1_234
10
5.6125176
20
124.0272415
40
0.2481908
50
205.8005384
51
211.2537509
0
ARC
8
DEFAULT_255_1_234
10
5.5601616
20
123.992158
40
0.1852521
50
210.3789793
51
238.4008143
0
ARC
8
DEFAULT_255_1_234
10
5.5582138
20
123.9968376
40
0.1882621
50
239.6520629
51
265.9793761
0
ARC
8
DEFAULT_255_1_234
10
5.5667338
20
124.0640427
40
0.2559272
50
265.1315437
51
270.060332
0
ARC
8
DEFAULT_255_1_234
10
5.5696117
20
124.0316534
40
0.2235528
50
269.3314664
51
287.2178029
0
ARC
8
DEFAULT_255_1_234
10
5.5833969
20
123.9813279
40
0.1714108
50
287.7958004
51
329.080874
0
ARC
8
DEFAULT_255_1_234
10
5.4876426
20
124.041093
40
0.2842745
50
328.6634704
51
343.3325132
0
ARC
8
DEFAULT_255_1_234
10
5.2703446
20
124.1087863
40
0.5118644
50
343.0499468
51
351.9393422
0
ARC
8
DEFAULT_255_1_234
10
4.9236746
20
124.1598949
40
0.8622784
50
351.8069023
51
357.7959224
0
ARC
8
DEFAULT_255_1_234
10
4.6001302
20
124.1766721
40
1.1862365
50
357.5871873
51
359.2677531
0
LINE
8
DEFAULT_255_1_234
10
23.1643817
20
132.3319327
11
23.1643817
21
132.1391709
0
LINE
8
DEFAULT_255_1_234
10
22.426265
20
132.1190916
11
22.426265
21
132.3174755
0
LINE
8
DEFAULT_255_1_234
10
23.0157946
20
132.0990123
11
23.0157946
21
132.3423739
0
LINE
8
DEFAULT_255_1_234
10
22.5748521
20
132.3536184
11
22.5748521
21
132.1158789
0
ARC
8
DEFAULT_255_1_234
10
21.9396707
20
132.1342805
40
1.2247208
50
353.8441951
51
0.2287902
0
ARC
8
DEFAULT_255_1_234
10
22.4036211
20
132.0824806
40
0.7578929
50
344.4934747
51
353.9765454
0
ARC
8
DEFAULT_255_1_234
10
22.7028801
20
131.9973981
40
0.4467846
50
329.2803592
51
344.7472793
0
ARC
8
DEFAULT_255_1_234
10
22.8021626
20
131.9429018
40
0.3336173
50
324.9352394
51
328.6160465
0
ARC
8
DEFAULT_255_1_234
10
22.8398734
20
131.9165427
40
0.2876076
50
280.580143
51
324.9173126
0
ARC
8
DEFAULT_255_1_234
10
22.7997527
20
132.0836099
40
0.4592847
50
269.5977311
51
281.6734359
0
ARC
8
DEFAULT_255_1_234
10
22.7925433
20
132.0716173
40
0.4472986
50
256.6228859
51
270.51044
0
ARC
8
DEFAULT_255_1_234
10
22.752341
20
131.9167877
40
0.2873874
50
215.8618325
51
257.2788573
0
ARC
8
DEFAULT_255_1_234
10
22.8544442
20
131.9852977
40
0.4102928
50
197.9693508
51
215.2623606
0
ARC
8
DEFAULT_255_1_234
10
23.1029558
20
132.0691709
40
0.6725652
50
187.8816417
51
198.2346507
0
ARC
8
DEFAULT_255_1_234
10
23.4987766
20
132.1263079
40
1.0724845
50
180.8976217
51
188.0055519
0
ARC
8
DEFAULT_255_1_234
10
23.7787954
20
132.1366777
40
1.3526448
50
180.7449369
51
181.1510016
0
ARC
8
DEFAULT_255_1_234
10
23.6210683
20
132.3223042
40
1.1948131
50
173.7675579
51
180.231553
0
ARC
8
DEFAULT_255_1_234
10
23.169283
20
132.3733666
40
0.7401564
50
164.3058563
51
173.9002247
0
ARC
8
DEFAULT_255_1_234
10
22.8780899
20
132.4572656
40
0.4371288
50
148.7922025
51
164.568378
0
ARC
8
DEFAULT_255_1_234
10
22.7829351
20
132.5103929
40
0.3282386
50
144.5883898
51
148.1176286
0
ARC
8
DEFAULT_255_1_234
10
22.7486249
20
132.5343315
40
0.2864044
50
101.6440918
51
144.514236
0
ARC
8
DEFAULT_255_1_234
10
22.7911315
20
132.3654069
40
0.4604934
50
89.5284041
51
102.5819763
0
ARC
8
DEFAULT_255_1_234
10
22.7990403
20
132.3615018
40
0.464401
50
77.0437873
51
90.5081339
0
ARC
8
DEFAULT_255_1_234
10
22.8392405
20
132.5257615
40
0.2953195
50
48.2778575
51
77.4994676
0
ARC
8
DEFAULT_255_1_234
10
22.8465036
20
132.5386746
40
0.2808655
50
36.3142134
51
47.6305865
0
ARC
8
DEFAULT_255_1_234
10
22.7596343
20
132.4801515
40
0.3855453
50
18.2931786
51
35.6769206
0
ARC
8
DEFAULT_255_1_234
10
22.5053102
20
132.3928593
40
0.654423
50
8.024666
51
18.5605216
0
ARC
8
DEFAULT_255_1_234
10
22.0890022
20
132.3313792
40
1.0752407
50
1.1274072
51
8.1718305
0
ARC
8
DEFAULT_255_1_234
10
21.7654213
20
132.3186885
40
1.3990231
50
0.5424119
51
1.3863029
0
ARC
8
DEFAULT_255_1_234
10
21.947559
20
132.3459342
40
1.0682415
50
359.8090433
51
4.9407866
0
ARC
8
DEFAULT_255_1_234
10
22.3685604
20
132.3835113
40
0.6455691
50
4.8362157
51
12.2904523
0
ARC
8
DEFAULT_255_1_234
10
22.6440719
20
132.4448965
40
0.3633074
50
12.0805627
51
23.8173984
0
ARC
8
DEFAULT_255_1_234
10
22.7614425
20
132.4945919
40
0.2358723
50
24.2871213
51
31.3935614
0
ARC
8
DEFAULT_255_1_234
10
22.8139122
20
132.5289233
40
0.1732111
50
30.7407893
51
82.4657128
0
ARC
8
DEFAULT_255_1_234
10
22.7959256
20
132.4405691
40
0.263235
50
81.1060089
51
90.2184952
0
ARC
8
DEFAULT_255_1_234
10
22.7923555
20
132.4663924
40
0.2374236
50
89.3806855
51
105.6762551
0
ARC
8
DEFAULT_255_1_234
10
22.7740186
20
132.5330567
40
0.1682847
50
105.7981136
51
149.7388061
0
ARC
8
DEFAULT_255_1_234
10
22.8804264
20
132.469095
40
0.2924306
50
149.4208916
51
163.6286378
0
ARC
8
DEFAULT_255_1_234
10
23.0895152
20
132.405325
40
0.5110213
50
163.3763315
51
172.1410975
0
ARC
8
DEFAULT_255_1_234
10
23.4195871
20
132.3580518
40
0.8444586
50
172.0259487
51
178.0703232
0
ARC
8
DEFAULT_255_1_234
10
23.722596
20
132.3436906
40
1.1477868
50
177.8631668
51
179.5044149
0
ARC
8
DEFAULT_255_1_234
10
23.6153365
20
132.1122389
40
1.0404907
50
179.7995573
51
185.2460446
0
ARC
8
DEFAULT_255_1_234
10
23.2110404
20
132.0739513
40
0.6343885
50
185.1411642
51
193.0079639
0
ARC
8
DEFAULT_255_1_234
10
22.9466877
20
132.0114641
40
0.3627568
50
192.7897626
51
205.2507664
0
ARC
8
DEFAULT_255_1_234
10
22.8420424
20
131.9647415
40
0.2481908
50
205.8005384
51
211.2537509
0
ARC
8
DEFAULT_255_1_234
10
22.7896864
20
131.929658
40
0.1852521
50
210.3789793
51
238.4008143
0
ARC
8
DEFAULT_255_1_234
10
22.7877386
20
131.9343376
40
0.1882621
50
239.6520629
51
265.9793761
0
ARC
8
DEFAULT_255_1_234
10
22.7962586
20
132.0015427
40
0.2559272
50
265.1315437
51
270.060332
0
ARC
8
DEFAULT_255_1_234
10
22.7991365
20
131.9691534
40
0.2235528
50
269.3314664
51
287.2178029
0
ARC
8
DEFAULT_255_1_234
10
22.8129217
20
131.9188279
40
0.1714108
50
287.7958004
51
329.080874
0
ARC
8
DEFAULT_255_1_234
10
22.7171674
20
131.978593
40
0.2842745
50
328.6634704
51
343.3325132
0
ARC
8
DEFAULT_255_1_234
10
22.4998694
20
132.0462863
40
0.5118644
50
343.0499468
51
351.9393422
0
ARC
8
DEFAULT_255_1_234
10
22.1531994
20
132.0973949
40
0.8622784
50
351.8069023
51
357.7959224
0
ARC
8
DEFAULT_255_1_234
10
21.829655
20
132.1141721
40
1.1862365
50
357.5871873
51
359.2677531
0
LINE
8
DEFAULT_255_1_234
10
23.4479021
20
132.8098211
11
23.7804161
21
131.8452093
0
LINE
8
DEFAULT_255_1_234
10
23.7804161
20
131.8452093
11
24.1145364
21
132.8098211
0
LINE
8
DEFAULT_255_1_234
10
24.1145364
20
132.8098211
11
24.2832029
21
132.8098211
0
LINE
8
DEFAULT_255_1_234
10
24.2832029
20
132.8098211
11
23.849489
21
131.6404
0
LINE
8
DEFAULT_255_1_234
10
23.849489
20
131.6404
11
23.7129495
21
131.6404
0
LINE
8
DEFAULT_255_1_234
10
23.7129495
20
131.6404
11
23.2800388
21
132.8098211
0
LINE
8
DEFAULT_255_1_234
10
23.2800388
20
132.8098211
11
23.4479021
21
132.8098211
0
ENDSEC
0
EOF