0
SECTION
2
HEADER
9
$MEASUREMENT
70
1
0
ENDSEC
0
SECTION
2
TABLES
0
TABLE
2
LTYPE
0
LTYPE
72
65
70
64
2
CONTINUOUS
3
______
73
0
40
0
0
ENDTAB
0
TABLE
2
LAYER
0
LAYER
2
DEFAULT_255_2_778
70
0
62
255
6
CONTINUOUS
0
LAYER
2
DEFAULT_255_1_388
70
0
62
255
6
CONTINUOUS
0
ENDTAB
0
ENDSEC
0
SECTION
2
ENTITIES
0
ARC
8
DEFAULT_255_2_778
10
3.5700693
20
139.3052021
40
0.7914215
50
129.1312896
51
180.1450914
0
ARC
8
DEFAULT_255_2_778
10
3.5703345
20
139.3056893
40
0.7912112
50
89.854026
51
129.1684493
0
ARC
8
DEFAULT_255_2_778
10
25.7993937
20
139.3053758
40
0.7915249
50
39.4792447
51
90.147911
0
ARC
8
DEFAULT_255_2_778
10
25.7999935
20
139.3052224
40
0.7911595
50
359.8533901
51
39.5154338
0
ARC
8
DEFAULT_255_2_778
10
25.7996693
20
-1.9863501
40
0.7914836
50
309.4761667
51
0.1482649
0
ARC
8
DEFAULT_255_2_778
10
25.799398
20
-1.9867812
40
0.7913235
50
269.8517415
51
309.511178
0
ARC
8
DEFAULT_255_2_778
10
3.570342
20
-1.986723
40
0.7913815
50
219.1282118
51
270.1454017
0
ARC
8
DEFAULT_255_2_778
10
3.5700247
20
-1.9863406
40
0.7913769
50
179.8524075
51
219.1641908
0
LINE
8
DEFAULT_255_2_778
10
3.5723503
20
140.096898
11
25.7973503
21
140.096898
0
LINE
8
DEFAULT_255_2_778
10
26.5911503
20
139.303198
11
26.5911503
21
-1.984302
0
LINE
8
DEFAULT_255_2_778
10
25.7973503
20
-2.778102
11
3.5723503
21
-2.778102
0
LINE
8
DEFAULT_255_2_778
10
2.7786503
20
-1.984302
11
2.7786503
21
139.303198
0
LINE
8
DEFAULT_255_1_388
10
7.1378646
20
0.0830516
11
7.1378646
21
-0.0588081
0
LINE
8
DEFAULT_255_1_388
10
7.1378646
20
-0.0588081
11
6.5857868
21
-0.0588081
0
LINE
8
DEFAULT_255_1_388
10
6.5857868
20
-0.0588081
11
6.5857868
21
-0.6398
0
LINE
8
DEFAULT_255_1_388
10
6.5857868
20
-0.6398
11
6.4123024
21
-0.6398
0
LINE
8
DEFAULT_255_1_388
10
6.4123024
20
-0.6398
11
6.4123024
21
0.6757898
0
LINE
8
DEFAULT_255_1_388
10
6.4123024
20
0.6757898
11
7.2273175
21
0.6757898
0
LINE
8
DEFAULT_255_1_388
10
7.2273175
20
0.6757898
11
7.2273175
21
0.5330267
0
LINE
8
DEFAULT_255_1_388
10
7.2273175
20
0.5330267
11
6.5857868
21
0.5330267
0
LINE
8
DEFAULT_255_1_388
10
6.5857868
20
0.5330267
11
6.5857868
21
0.0830516
0
LINE
8
DEFAULT_255_1_388
10
6.5857868
20
0.0830516
11
7.1378646
21
0.0830516
0
LINE
8
DEFAULT_255_1_388
10
7.5471793
20
0.6757898
11
7.8643305
21
0.1716009
0
LINE
8
DEFAULT_255_1_388
10
7.8643305
20
0.1716009
11
8.1796745
21
0.6757898
0
LINE
8
DEFAULT_255_1_388
10
8.1796745
20
0.6757898
11
8.38388
21
0.6757898
0
LINE
8
DEFAULT_255_1_388
10
8.38388
20
0.6757898
11
7.9682404
21
0.0234163
0
LINE
8
DEFAULT_255_1_388
10
7.9682404
20
0.0234163
11
8.3938192
21
-0.6398
0
LINE
8
DEFAULT_255_1_388
10
8.3938192
20
-0.6398
11
8.1878065
21
-0.6398
0
LINE
8
DEFAULT_255_1_388
10
8.1878065
20
-0.6398
11
7.8643305
21
-0.1265754
0
LINE
8
DEFAULT_255_1_388
10
7.8643305
20
-0.1265754
11
7.5390473
21
-0.6398
0
LINE
8
DEFAULT_255_1_388
10
7.5390473
20
-0.6398
11
7.3339381
21
-0.6398
0
LINE
8
DEFAULT_255_1_388
10
7.3339381
20
-0.6398
11
7.7604206
21
0.0234163
0
LINE
8
DEFAULT_255_1_388
10
7.7604206
20
0.0234163
11
7.3438773
21
0.6757898
0
LINE
8
DEFAULT_255_1_388
10
7.3438773
20
0.6757898
11
7.5471793
21
0.6757898
0
LINE
8
DEFAULT_255_1_388
10
9.4139435
20
-0.5033618
11
9.4139435
21
-0.6398
0
LINE
8
DEFAULT_255_1_388
10
9.4139435
20
-0.6398
11
8.551943
21
-0.6398
0
LINE
8
DEFAULT_255_1_388
10
8.551943
20
-0.6398
11
8.551943
21
-0.5196259
0
LINE
8
DEFAULT_255_1_388
10
8.551943
20
-0.5196259
11
9.0073395
21
-0.0136298
0
LINE
8
DEFAULT_255_1_388
10
8.6938026
20
0.2881607
11
8.5266432
21
0.2881607
0
LINE
8
DEFAULT_255_1_388
10
9.105828
20
-0.121154
11
8.7534379
21
-0.5033618
0
LINE
8
DEFAULT_255_1_388
10
8.7534379
20
-0.5033618
11
9.4139435
21
-0.5033618
0
ARC
8
DEFAULT_255_1_388
10
7.4897455
20
1.3283983
40
2.0258655
50
318.5132526
51
320.7829045
0
ARC
8
DEFAULT_255_1_388
10
8.0845411
20
0.8442929
40
1.2589638
50
320.7372878
51
323.9739031
0
ARC
8
DEFAULT_255_1_388
10
8.5254343
20
0.5248554
40
0.7145141
50
323.8962701
51
328.64194
0
ARC
8
DEFAULT_255_1_388
10
8.7556601
20
0.3828545
40
0.4440242
50
328.8294576
51
331.7891185
0
ARC
8
DEFAULT_255_1_388
10
8.8678921
20
0.3249374
40
0.3177517
50
331.4254512
51
352.9365785
0
ARC
8
DEFAULT_255_1_388
10
8.8831921
20
0.321505
40
0.3021496
50
353.2257659
51
0.0166158
0
ARC
8
DEFAULT_255_1_388
10
8.9068681
20
0.3240894
40
0.2784847
50
359.486299
51
15.9343185
0
ARC
8
DEFAULT_255_1_388
10
8.9638948
20
0.3394269
40
0.2194403
50
16.1712913
51
43.5286088
0
ARC
8
DEFAULT_255_1_388
10
8.9725893
20
0.3481191
40
0.2071504
50
43.4417391
51
83.1661095
0
ARC
8
DEFAULT_255_1_388
10
8.9575054
20
0.2652316
40
0.2912888
50
82.160179
51
90.1505708
0
ARC
8
DEFAULT_255_1_388
10
8.9539536
20
0.2048279
40
0.3517025
50
89.5460741
51
102.5418361
0
ARC
8
DEFAULT_255_1_388
10
8.9266256
20
0.3207933
40
0.2325748
50
102.1738499
51
129.206123
0
ARC
8
DEFAULT_255_1_388
10
8.9177709
20
0.3347664
40
0.2161591
50
129.72865
51
135.753947
0
ARC
8
DEFAULT_255_1_388
10
8.9314191
20
0.3238728
40
0.2335433
50
136.1757367
51
166.3673339
0
ARC
8
DEFAULT_255_1_388
10
9.044688
20
0.2935148
40
0.3507873
50
165.9090694
51
178.8684636
0
ARC
8
DEFAULT_255_1_388
10
9.1422651
20
0.2882263
40
0.4484624
50
178.4391136
51
180.0083808
0
ARC
8
DEFAULT_255_1_388
10
8.9843353
20
0.2926197
40
0.4577138
50
163.2878482
51
180.5581842
0
ARC
8
DEFAULT_255_1_388
10
8.8941394
20
0.3174393
40
0.3641968
50
133.4540601
51
162.947111
0
ARC
8
DEFAULT_255_1_388
10
8.9142275
20
0.2960789
40
0.3935189
50
100.7869829
51
133.4382499
0
ARC
8
DEFAULT_255_1_388
10
8.953352
20
0.1218399
40
0.5720313
50
89.660664
51
101.3702276
0
ARC
8
DEFAULT_255_1_388
10
8.9608129
20
0.1287263
40
0.5651495
50
78.2172678
51
90.412935
0
ARC
8
DEFAULT_255_1_388
10
9.0007595
20
0.3114511
40
0.378122
50
55.9269121
51
78.4888449
0
ARC
8
DEFAULT_255_1_388
10
9.022831
20
0.3495187
40
0.3342379
50
47.929771
51
55.4049217
0
ARC
8
DEFAULT_255_1_388
10
9.0342841
20
0.3611618
40
0.3179217
50
4.334829
51
48.0560205
0
ARC
8
DEFAULT_255_1_388
10
8.9110642
20
0.3420487
40
0.442341
50
359.9251713
51
5.5971671
0
ARC
8
DEFAULT_255_1_388
10
8.9592797
20
0.3483728
40
0.3941854
50
337.8914027
51
358.9967534
0
ARC
8
DEFAULT_255_1_388
10
8.6540367
20
0.4661295
40
0.7213271
50
326.9132501
51
338.3508308
0
ARC
8
DEFAULT_255_1_388
10
8.2056479
20
0.7535105
40
1.2538973
50
319.6471833
51
327.0959558
0
ARC
8
DEFAULT_255_1_388
10
7.7743137
20
1.109305
40
1.8129975
50
317.2588228
51
319.9045804
0
LINE
8
DEFAULT_255_1_388
10
10.6455019
20
0.6757898
11
10.6455019
21
-0.6398
0
LINE
8
DEFAULT_255_1_388
10
10.6455019
20
-0.6398
11
10.4711139
21
-0.6398
0
LINE
8
DEFAULT_255_1_388
10
10.4711139
20
-0.6398
11
9.8088012
21
0.3739993
0
LINE
8
DEFAULT_255_1_388
10
9.8088012
20
0.3739993
11
9.8088012
21
-0.6398
0
LINE
8
DEFAULT_255_1_388
10
9.8088012
20
-0.6398
11
9.6344132
21
-0.6398
0
LINE
8
DEFAULT_255_1_388
10
9.6344132
20
-0.6398
11
9.6344132
21
0.6757898
0
LINE
8
DEFAULT_255_1_388
10
9.6344132
20
0.6757898
11
9.8088012
21
0.6757898
0
LINE
8
DEFAULT_255_1_388
10
9.8088012
20
0.6757898
11
10.472921
21
-0.3425273
0
LINE
8
DEFAULT_255_1_388
10
10.472921
20
-0.3425273
11
10.472921
21
0.6757898
0
LINE
8
DEFAULT_255_1_388
10
10.472921
20
0.6757898
11
10.6455019
21
0.6757898
0
LINE
8
DEFAULT_255_1_388
10
11.2752863
20
-0.0127263
11
11.2752863
21
-0.1491645
0
LINE
8
DEFAULT_255_1_388
10
11.2752863
20
-0.1491645
11
10.8343468
21
-0.1491645
0
LINE
8
DEFAULT_255_1_388
10
10.8343468
20
-0.1491645
11
10.8343468
21
-0.0127263
0
LINE
8
DEFAULT_255_1_388
10
10.8343468
20
-0.0127263
11
11.2752863
21
-0.0127263
0
LINE
8
DEFAULT_255_1_388
10
11.663819
20
-0.0371225
11
11.663819
21
0.0993157
0
LINE
8
DEFAULT_255_1_388
10
11.663819
20
0.0993157
11
11.7894145
21
0.0993157
0
LINE
8
DEFAULT_255_1_388
10
11.5752697
20
0.3306282
11
11.4081103
21
0.3306282
0
LINE
8
DEFAULT_255_1_388
10
11.3963639
20
-0.2928313
11
11.5644269
21
-0.2928313
0
LINE
8
DEFAULT_255_1_388
10
11.7894145
20
-0.0371225
11
11.663819
21
-0.0371225
0
ARC
8
DEFAULT_255_1_388
10
11.7861371
20
0.4809922
40
0.3816905
50
270.491971
51
281.8953028
0
ARC
8
DEFAULT_255_1_388
10
11.8132798
20
0.3570199
40
0.2547877
50
281.6690378
51
301.2943765
0
ARC
8
DEFAULT_255_1_388
10
11.8324249
20
0.3219926
40
0.2149197
50
301.7834992
51
311.754567
0
ARC
8
DEFAULT_255_1_388
10
11.8427291
20
0.310565
40
0.1995326
50
311.7325027
51
354.2803031
0
ARC
8
DEFAULT_255_1_388
10
11.7609707
20
0.324628
40
0.2823461
50
353.0941646
51
0.1174696
0
ARC
8
DEFAULT_255_1_388
10
11.7091265
20
0.3299874
40
0.3342238
50
359.1804452
51
15.0452323
0
ARC
8
DEFAULT_255_1_388
10
11.8605323
20
0.3741546
40
0.1765747
50
13.957816
51
77.6713812
0
ARC
8
DEFAULT_255_1_388
10
11.8170559
20
0.2183464
40
0.3381982
50
76.111571
51
90.7028736
0
ARC
8
DEFAULT_255_1_388
10
11.8103971
20
0.249125
40
0.3074046
50
89.5321574
51
103.5319393
0
ARC
8
DEFAULT_255_1_388
10
11.7878354
20
0.3390443
40
0.2147041
50
103.2930114
51
133.5619756
0
ARC
8
DEFAULT_255_1_388
10
11.7828296
20
0.3457351
40
0.2064084
50
133.8349761
51
173.5343225
0
ARC
8
DEFAULT_255_1_388
10
11.8641953
20
0.3313144
40
0.2889266
50
172.5097183
51
180.1360699
0
ARC
8
DEFAULT_255_1_388
10
11.7571717
20
0.335188
40
0.3490913
50
155.3483706
51
180.7484035
0
ARC
8
DEFAULT_255_1_388
10
11.7516693
20
0.3319519
40
0.3454798
50
131.5745177
51
154.4799474
0
ARC
8
DEFAULT_255_1_388
10
11.7868976
20
0.2963422
40
0.3955058
50
96.9874487
51
131.9690874
0
ARC
8
DEFAULT_255_1_388
10
11.8115868
20
0.1562407
40
0.537622
50
89.8592909
51
97.7827481
0
ARC
8
DEFAULT_255_1_388
10
11.8169977
20
0.126736
40
0.5671399
50
78.3654493
51
90.4132586
0
ARC
8
DEFAULT_255_1_388
10
11.8572618
20
0.3133918
40
0.3762034
50
56.6229818
51
78.6387103
0
ARC
8
DEFAULT_255_1_388
10
11.8814448
20
0.3556846
40
0.3275964
50
47.0254604
51
56.085558
0
ARC
8
DEFAULT_255_1_388
10
11.8836699
20
0.3601189
40
0.3228382
50
10.9207523
51
46.777927
0
ARC
8
DEFAULT_255_1_388
10
11.7302293
20
0.3246401
40
0.4802559
50
359.6364235
51
11.6087615
0
ARC
8
DEFAULT_255_1_388
10
11.9366458
20
0.3229404
40
0.273833
50
332.3549969
51
359.7179765
0
ARC
8
DEFAULT_255_1_388
10
11.8634859
20
0.3576285
40
0.3547505
50
325.2332381
51
332.8746682
0
ARC
8
DEFAULT_255_1_388
10
11.8806442
20
0.3456763
40
0.3338396
50
292.9803892
51
325.2391113
0
ARC
8
DEFAULT_255_1_388
10
11.8495638
20
0.4061679
40
0.4016959
50
292.542178
51
293.6931461
0
ARC
8
DEFAULT_255_1_388
10
11.8939209
20
-0.3203964
40
0.372079
50
57.643292
51
72.8626085
0
ARC
8
DEFAULT_255_1_388
10
11.9338044
20
-0.2557727
40
0.2961455
50
36.7246661
51
57.4701329
0
ARC
8
DEFAULT_255_1_388
10
11.9325201
20
-0.254353
40
0.2963321
50
8.054535
51
36.3561529
0
ARC
8
DEFAULT_255_1_388
10
11.8354873
20
-0.2717927
40
0.3948682
50
359.8316595
51
8.5873361
0
ARC
8
DEFAULT_255_1_388
10
11.7932348
20
-0.277203
40
0.4371398
50
343.9831631
51
0.557075
0
ARC
8
DEFAULT_255_1_388
10
11.8929397
20
-0.3045037
40
0.3337749
50
311.6358204
51
343.7652116
0
ARC
8
DEFAULT_255_1_388
10
11.8503651
20
-0.2565045
40
0.3979351
50
279.7829743
51
311.625622
0
ARC
8
DEFAULT_255_1_388
10
11.8164786
20
-0.0948358
40
0.5630417
50
269.7285092
51
280.3857694
0
ARC
8
DEFAULT_255_1_388
10
11.8095099
20
-0.0994759
40
0.5584119
50
256.6827433
51
270.4412869
0
ARC
8
DEFAULT_255_1_388
10
11.7714086
20
-0.2552302
40
0.3980715
50
229.4223821
51
256.8554507
0
ARC
8
DEFAULT_255_1_388
10
11.7247639
20
-0.3077317
40
0.3278564
50
181.8183354
51
229.6455015
0
ARC
8
DEFAULT_255_1_388
10
11.8417248
20
-0.2930175
40
0.4453611
50
179.9760419
51
183.2330638
0
ARC
8
DEFAULT_255_1_388
10
11.8223801
20
-0.2953219
40
0.2579652
50
179.4467996
51
196.2871626
0
ARC
8
DEFAULT_255_1_388
10
11.7675254
20
-0.3103291
40
0.2011057
50
196.5661293
51
227.7059371
0
ARC
8
DEFAULT_255_1_388
10
11.7859862
20
-0.2896845
40
0.2287994
50
227.7653015
51
257.8763321
0
ARC
8
DEFAULT_255_1_388
10
11.8112945
20
-0.1836039
40
0.3378385
50
257.4583525
51
270.4267406
0
ARC
8
DEFAULT_255_1_388
10
11.8164194
20
-0.150977
40
0.3704652
50
269.5965319
51
280.8788143
0
ARC
8
DEFAULT_255_1_388
10
11.8422422
20
-0.2799471
40
0.2389415
50
280.6347277
51
299.8594068
0
ARC
8
DEFAULT_255_1_388
10
11.8637192
20
-0.3207264
40
0.19289
50
300.3575552
51
314.5515667
0
ARC
8
DEFAULT_255_1_388
10
11.8543868
20
-0.3138975
40
0.204312
50
315.0730962
51
345.0429362
0
ARC
8
DEFAULT_255_1_388
10
11.7505375
20
-0.2836461
40
0.31246
50
344.598526
51
357.9270698
0
ARC
8
DEFAULT_255_1_388
10
11.649568
20
-0.2767295
40
0.4136265
50
357.4755098
51
0.0224936
0
ARC
8
DEFAULT_255_1_388
10
11.7648558
20
-0.2739901
40
0.2983498
50
359.5051035
51
13.4236939
0
ARC
8
DEFAULT_255_1_388
10
11.8623648
20
-0.2490363
40
0.1977186
50
12.9497905
51
48.7550905
0
ARC
8
DEFAULT_255_1_388
10
11.8418569
20
-0.2770627
40
0.2323321
50
49.509109
51
72.1832965
0
ARC
8
DEFAULT_255_1_388
10
11.8016038
20
-0.3965368
40
0.358397
50
71.9008458
51
84.3555134
0
ARC
8
DEFAULT_255_1_388
10
11.7834432
20
-0.5497288
40
0.512641
50
84.019632
51
89.3326067
0
LINE
8
DEFAULT_255_1_388
10
13.3218598
20
-0.5033618
11
13.3218598
21
-0.6398
0
LINE
8
DEFAULT_255_1_388
10
13.3218598
20
-0.6398
11
12.4598593
21
-0.6398
0
LINE
8
DEFAULT_255_1_388
10
12.4598593
20
-0.6398
11
12.4598593
21
-0.5196259
0
LINE
8
DEFAULT_255_1_388
10
12.4598593
20
-0.5196259
11
12.9152558
21
-0.0136298
0
LINE
8
DEFAULT_255_1_388
10
12.6017189
20
0.2881607
11
12.4345595
21
0.2881607
0
LINE
8
DEFAULT_255_1_388
10
13.0137443
20
-0.121154
11
12.6613542
21
-0.5033618
0
LINE
8
DEFAULT_255_1_388
10
12.6613542
20
-0.5033618
11
13.3218598
21
-0.5033618
0
ARC
8
DEFAULT_255_1_388
10
11.3976617
20
1.3283983
40
2.0258655
50
318.5132526
51
320.7829045
0
ARC
8
DEFAULT_255_1_388
10
11.9924574
20
0.8442929
40
1.2589638
50
320.7372878
51
323.9739031
0
ARC
8
DEFAULT_255_1_388
10
12.4333506
20
0.5248554
40
0.7145141
50
323.8962701
51
328.64194
0
ARC
8
DEFAULT_255_1_388
10
12.6635763
20
0.3828545
40
0.4440242
50
328.8294576
51
331.7891185
0
ARC
8
DEFAULT_255_1_388
10
12.7758083
20
0.3249374
40
0.3177517
50
331.4254512
51
352.9365785
0
ARC
8
DEFAULT_255_1_388
10
12.7911083
20
0.321505
40
0.3021496
50
353.2257659
51
0.0166158
0
ARC
8
DEFAULT_255_1_388
10
12.8147844
20
0.3240894
40
0.2784847
50
359.486299
51
15.9343185
0
ARC
8
DEFAULT_255_1_388
10
12.8718111
20
0.3394269
40
0.2194403
50
16.1712913
51
43.5286088
0
ARC
8
DEFAULT_255_1_388
10
12.8805055
20
0.3481191
40
0.2071504
50
43.4417391
51
83.1661095
0
ARC
8
DEFAULT_255_1_388
10
12.8654216
20
0.2652316
40
0.2912888
50
82.160179
51
90.1505708
0
ARC
8
DEFAULT_255_1_388
10
12.8618698
20
0.2048279
40
0.3517025
50
89.5460741
51
102.5418361
0
ARC
8
DEFAULT_255_1_388
10
12.8345418
20
0.3207933
40
0.2325748
50
102.1738499
51
129.206123
0
ARC
8
DEFAULT_255_1_388
10
12.8256871
20
0.3347664
40
0.2161591
50
129.72865
51
135.753947
0
ARC
8
DEFAULT_255_1_388
10
12.8393354
20
0.3238728
40
0.2335433
50
136.1757367
51
166.3673339
0
ARC
8
DEFAULT_255_1_388
10
12.9526042
20
0.2935148
40
0.3507873
50
165.9090694
51
178.8684636
0
ARC
8
DEFAULT_255_1_388
10
13.0501814
20
0.2882263
40
0.4484624
50
178.4391136
51
180.0083808
0
ARC
8
DEFAULT_255_1_388
10
12.8922515
20
0.2926197
40
0.4577138
50
163.2878482
51
180.5581842
0
ARC
8
DEFAULT_255_1_388
10
12.8020556
20
0.3174393
40
0.3641968
50
133.4540601
51
162.947111
0
ARC
8
DEFAULT_255_1_388
10
12.8221438
20
0.2960789
40
0.3935189
50
100.7869829
51
133.4382499
0
ARC
8
DEFAULT_255_1_388
10
12.8612683
20
0.1218399
40
0.5720313
50
89.660664
51
101.3702276
0
ARC
8
DEFAULT_255_1_388
10
12.8687292
20
0.1287263
40
0.5651495
50
78.2172678
51
90.412935
0
ARC
8
DEFAULT_255_1_388
10
12.9086758
20
0.3114511
40
0.378122
50
55.9269121
51
78.4888449
0
ARC
8
DEFAULT_255_1_388
10
12.9307473
20
0.3495187
40
0.3342379
50
47.929771
51
55.4049217
0
ARC
8
DEFAULT_255_1_388
10
12.9422003
20
0.3611618
40
0.3179217
50
4.334829
51
48.0560205
0
ARC
8
DEFAULT_255_1_388
10
12.8189805
20
0.3420487
40
0.442341
50
359.9251713
51
5.5971671
0
ARC
8
DEFAULT_255_1_388
10
12.8671959
20
0.3483728
40
0.3941854
50
337.8914027
51
358.9967534
0
ARC
8
DEFAULT_255_1_388
10
12.561953
20
0.4661295
40
0.7213271
50
326.9132501
51
338.3508308
0
ARC
8
DEFAULT_255_1_388
10
12.1135641
20
0.7535105
40
1.2538973
50
319.6471833
51
327.0959558
0
ARC
8
DEFAULT_255_1_388
10
11.68223
20
1.109305
40
1.8129975
50
317.2588228
51
319.9045804
0
LINE
8
DEFAULT_255_1_388
10
14.285963
20
0.1101585
11
14.285963
21
-0.0317011
0
LINE
8
DEFAULT_255_1_388
10
14.285963
20
-0.0317011
11
13.7158139
21
-0.0317011
0
LINE
8
DEFAULT_255_1_388
10
13.7158139
20
-0.0317011
11
13.7158139
21
-0.4979404
0
LINE
8
DEFAULT_255_1_388
10
13.7158139
20
-0.4979404
11
14.3781266
21
-0.4979404
0
LINE
8
DEFAULT_255_1_388
10
14.3781266
20
-0.4979404
11
14.3781266
21
-0.6398
0
LINE
8
DEFAULT_255_1_388
10
14.3781266
20
-0.6398
11
13.5423295
21
-0.6398
0
LINE
8
DEFAULT_255_1_388
10
13.5423295
20
-0.6398
11
13.5423295
21
0.6757898
0
LINE
8
DEFAULT_255_1_388
10
13.5423295
20
0.6757898
11
14.369091
21
0.6757898
0
LINE
8
DEFAULT_255_1_388
10
14.369091
20
0.6757898
11
14.369091
21
0.5330267
0
LINE
8
DEFAULT_255_1_388
10
14.369091
20
0.5330267
11
13.7158139
21
0.5330267
0
LINE
8
DEFAULT_255_1_388
10
13.7158139
20
0.5330267
11
13.7158139
21
0.1101585
0
LINE
8
DEFAULT_255_1_388
10
13.7158139
20
0.1101585
11
14.285963
21
0.1101585
0
LINE
8
DEFAULT_255_1_388
10
15.5211356
20
0.6757898
11
15.5211356
21
0.5330267
0
LINE
8
DEFAULT_255_1_388
10
15.5211356
20
0.5330267
11
15.0982675
21
0.5330267
0
LINE
8
DEFAULT_255_1_388
10
15.0982675
20
0.5330267
11
15.0982675
21
-0.6398
0
LINE
8
DEFAULT_255_1_388
10
15.0982675
20
-0.6398
11
14.9256867
21
-0.6398
0
LINE
8
DEFAULT_255_1_388
10
14.9256867
20
-0.6398
11
14.9256867
21
0.5330267
0
LINE
8
DEFAULT_255_1_388
10
14.9256867
20
0.5330267
11
14.5037221
21
0.5330267
0
LINE
8
DEFAULT_255_1_388
10
14.5037221
20
0.5330267
11
14.5037221
21
0.6757898
0
LINE
8
DEFAULT_255_1_388
10
14.5037221
20
0.6757898
11
15.5211356
21
0.6757898
0
LINE
8
DEFAULT_255_1_388
10
15.8283476
20
-0.0127263
11
15.8283476
21
-0.1491645
0
LINE
8
DEFAULT_255_1_388
10
15.8283476
20
-0.1491645
11
15.3874081
21
-0.1491645
0
LINE
8
DEFAULT_255_1_388
10
15.3874081
20
-0.1491645
11
15.3874081
21
-0.0127263
0
LINE
8
DEFAULT_255_1_388
10
15.3874081
20
-0.0127263
11
15.8283476
21
-0.0127263
0
LINE
8
DEFAULT_255_1_388
10
16.7608261
20
0.1101585
11
16.7608261
21
-0.0317011
0
LINE
8
DEFAULT_255_1_388
10
16.7608261
20
-0.0317011
11
16.1906769
21
-0.0317011
0
LINE
8
DEFAULT_255_1_388
10
16.1906769
20
-0.0317011
11
16.1906769
21
-0.4979404
0
LINE
8
DEFAULT_255_1_388
10
16.1906769
20
-0.4979404
11
16.8529896
21
-0.4979404
0
LINE
8
DEFAULT_255_1_388
10
16.8529896
20
-0.4979404
11
16.8529896
21
-0.6398
0
LINE
8
DEFAULT_255_1_388
10
16.8529896
20
-0.6398
11
16.0171925
21
-0.6398
0
LINE
8
DEFAULT_255_1_388
10
16.0171925
20
-0.6398
11
16.0171925
21
0.6757898
0
LINE
8
DEFAULT_255_1_388
10
16.0171925
20
0.6757898
11
16.843954
21
0.6757898
0
LINE
8
DEFAULT_255_1_388
10
16.843954
20
0.6757898
11
16.843954
21
0.5330267
0
LINE
8
DEFAULT_255_1_388
10
16.843954
20
0.5330267
11
16.1906769
21
0.5330267
0
LINE
8
DEFAULT_255_1_388
10
16.1906769
20
0.5330267
11
16.1906769
21
0.1101585
0
LINE
8
DEFAULT_255_1_388
10
16.1906769
20
0.1101585
11
16.7608261
21
0.1101585
0
LINE
8
DEFAULT_255_1_388
10
17.9417848
20
0.2953892
11
17.7673969
21
0.2953892
0
LINE
8
DEFAULT_255_1_388
10
16.9885243
20
-0.2584958
11
17.1629123
21
-0.2584958
0
ARC
8
DEFAULT_255_1_388
10
17.8414696
20
1.3017821
40
1.4087688
50
248.9196578
51
254.1442424
0
ARC
8
DEFAULT_255_1_388
10
17.6524576
20
0.8151805
40
0.8867498
50
241.6337352
51
249.0064643
0
ARC
8
DEFAULT_255_1_388
10
17.4804889
20
0.5000764
40
0.5277799
50
230.4982261
51
241.8087583
0
ARC
8
DEFAULT_255_1_388
10
17.392266
20
0.3876686
40
0.3849419
50
227.4062979
51
229.9877433
0
ARC
8
DEFAULT_255_1_388
10
17.3374007
20
0.3341155
40
0.3084129
50
200.6782127
51
228.1765252
0
ARC
8
DEFAULT_255_1_388
10
17.3455376
20
0.3324277
40
0.315461
50
179.506278
51
199.8695278
0
ARC
8
DEFAULT_255_1_388
10
17.3444965
20
0.3407671
40
0.3144584
50
132.4834401
51
181.0242352
0
ARC
8
DEFAULT_255_1_388
10
17.4114169
20
0.2775788
40
0.4063094
50
129.2526113
51
133.4249077
0
ARC
8
DEFAULT_255_1_388
10
17.4279761
20
0.2527619
40
0.436014
50
101.9878945
51
128.8741833
0
ARC
8
DEFAULT_255_1_388
10
17.4728177
20
0.059136
40
0.6347415
50
89.5906376
51
102.3170567
0
ARC
8
DEFAULT_255_1_388
10
17.4807488
20
0.0949586
40
0.5989122
50
77.2359491
51
90.3248968
0
ARC
8
DEFAULT_255_1_388
10
17.5040419
20
0.2037554
40
0.4876594
50
63.8379856
51
77.0808925
0
ARC
8
DEFAULT_255_1_388
10
17.5352953
20
0.2619882
40
0.4216191
50
45.9863127
51
64.1608798
0
ARC
8
DEFAULT_255_1_388
10
17.5646346
20
0.295499
40
0.3771394
50
32.2747934
51
45.6544796
0
ARC
8
DEFAULT_255_1_388
10
17.5721153
20
0.2976426
40
0.3696765
50
359.6507495
51
32.6129943
0
ARC
8
DEFAULT_255_1_388
10
17.4660336
20
0.2981788
40
0.3013762
50
359.469654
51
14.983205
0
ARC
8
DEFAULT_255_1_388
10
17.5453588
20
0.3194288
40
0.2192542
50
14.9781954
51
48.2004799
0
ARC
8
DEFAULT_255_1_388
10
17.5268699
20
0.2961937
40
0.2489048
50
48.5926661
51
74.1242559
0
ARC
8
DEFAULT_255_1_388
10
17.4893501
20
0.1723607
40
0.3782845
50
73.7889321
51
86.6653996
0
ARC
8
DEFAULT_255_1_388
10
17.4778316
20
0.0365955
40
0.5145025
50
86.2642725
51
90.0533288
0
ARC
8
DEFAULT_255_1_388
10
17.4746408
20
0.0810376
40
0.4700681
50
89.669455
51
99.2313411
0
ARC
8
DEFAULT_255_1_388
10
17.4473568
20
0.2435401
40
0.3052945
50
99.0695987
51
113.7659242
0
ARC
8
DEFAULT_255_1_388
10
17.4165563
20
0.3161772
40
0.226407
50
114.0402885
51
127.9848946
0
ARC
8
DEFAULT_255_1_388
10
17.3895039
20
0.3494884
40
0.1835045
50
127.7287217
51
176.7106493
0
ARC
8
DEFAULT_255_1_388
10
17.4658704
20
0.338121
40
0.2604907
50
175.1780759
51
180.0581213
0
ARC
8
DEFAULT_255_1_388
10
17.3710047
20
0.3367411
40
0.1656287
50
179.6140658
51
228.124674
0
ARC
8
DEFAULT_255_1_388
10
17.4207405
20
0.382794
40
0.2332038
50
226.5785315
51
230.8792476
0
ARC
8
DEFAULT_255_1_388
10
17.4736891
20
0.4530908
40
0.3211664
50
231.4636401
51
241.9261664
0
ARC
8
DEFAULT_255_1_388
10
17.6083675
20
0.7009349
40
0.6032345
50
241.7177136
51
248.3259138
0
ARC
8
DEFAULT_255_1_388
10
17.764227
20
1.0870771
40
1.0196417
50
248.2007377
51
252.4527713
0
ARC
8
DEFAULT_255_1_388
10
17.8995796
20
1.5055092
40
1.4594143
50
252.3388938
51
254.347037
0
ARC
8
DEFAULT_255_1_388
10
17.0511097
20
-1.5292905
40
1.6917621
50
71.0197462
51
74.4085467
0
ARC
8
DEFAULT_255_1_388
10
17.2418185
20
-0.9787856
40
1.1091618
50
66.1845203
51
71.086519
0
ARC
8
DEFAULT_255_1_388
10
17.4168733
20
-0.5846561
40
0.6779073
50
59.3537334
51
66.269255
0
ARC
8
DEFAULT_255_1_388
10
17.516846
20
-0.4155223
40
0.4814366
50
49.1021732
51
59.3294421
0
ARC
8
DEFAULT_255_1_388
10
17.6089448
20
-0.3105425
40
0.3417875
50
32.7924183
51
49.2503526
0
ARC
8
DEFAULT_255_1_388
10
17.6439062
20
-0.2855689
40
0.2988789
50
31.121225
51
32.3977355
0
ARC
8
DEFAULT_255_1_388
10
17.635124
20
-0.2888272
40
0.3080861
50
8.1116803
51
30.7958224
0
ARC
8
DEFAULT_255_1_388
10
17.5439586
20
-0.3043563
40
0.4005385
50
359.8390945
51
8.4707348
0
ARC
8
DEFAULT_255_1_388
10
17.6143633
20
-0.3098249
40
0.3301608
50
337.4732479
51
0.7538283
0
ARC
8
DEFAULT_255_1_388
10
17.6344658
20
-0.3120446
40
0.3107929
50
307.5917028
51
336.4313755
0
ARC
8
DEFAULT_255_1_388
10
17.5833716
20
-0.2552491
40
0.3870096
50
307.6560665
51
308.4561779
0
ARC
8
DEFAULT_255_1_388
10
17.5567932
20
-0.2144168
40
0.435591
50
284.3733666
51
307.1426212
0
ARC
8
DEFAULT_255_1_388
10
17.5010827
20
-0.0094609
40
0.6479685
50
272.4384566
51
284.6464689
0
ARC
8
DEFAULT_255_1_388
10
17.4868212
20
0.1929434
40
0.8508149
50
269.9708517
51
272.8180721
0
ARC
8
DEFAULT_255_1_388
10
17.4819894
20
-0.0362717
40
0.6216151
50
248.2707343
51
270.4054609
0
ARC
8
DEFAULT_255_1_388
10
17.4758766
20
-0.0577327
40
0.5994203
50
246.1380358
51
248.054058
0
ARC
8
DEFAULT_255_1_388
10
17.4287908
20
-0.1566295
40
0.4899388
50
233.1671897
51
246.4951656
0
ARC
8
DEFAULT_255_1_388
10
17.3664544
20
-0.2407863
40
0.3852115
50
215.3403381
51
233.084328
0
ARC
8
DEFAULT_255_1_388
10
17.3357908
20
-0.2630907
40
0.3472969
50
179.2419235
51
215.2648426
0
ARC
8
DEFAULT_255_1_388
10
17.4221459
20
-0.2615021
40
0.259251
50
179.3355796
51
199.1045873
0
ARC
8
DEFAULT_255_1_388
10
17.38476
20
-0.2712777
40
0.2207454
50
199.8830064
51
232.7061328
0
ARC
8
DEFAULT_255_1_388
10
17.4378875
20
-0.2044544
40
0.306101
50
232.3736206
51
255.5136621
0
ARC
8
DEFAULT_255_1_388
10
17.4762381
20
-0.0644823
40
0.4512213
50
255.2447928
51
267.5318292
0
ARC
8
DEFAULT_255_1_388
10
17.4860847
20
0.0741709
40
0.5901825
50
267.1564563
51
270.0294721
0
ARC
8
DEFAULT_255_1_388
10
17.4892173
20
0.0242623
40
0.5402814
50
269.6999944
51
278.1662446
0
ARC
8
DEFAULT_255_1_388
10
17.51802
20
-0.1704026
40
0.3435003
50
278.0229022
51
290.6255326
0
ARC
8
DEFAULT_255_1_388
10
17.5571367
20
-0.2747453
40
0.2320666
50
290.6616368
51
307.0374127
0
ARC
8
DEFAULT_255_1_388
10
17.5909267
20
-0.316196
40
0.1786372
50
306.3942078
51
355.303191
0
ARC
8
DEFAULT_255_1_388
10
17.533356
20
-0.3075814
40
0.2367516
50
354.3662092
51
0.0709489
0
ARC
8
DEFAULT_255_1_388
10
17.5493429
20
-0.3050439
40
0.2207761
50
359.4175379
51
16.1975911
0
ARC
8
DEFAULT_255_1_388
10
17.6005546
20
-0.2910046
40
0.1676828
50
16.4721294
51
52.6261798
0
ARC
8
DEFAULT_255_1_388
10
17.5082054
20
-0.4129394
40
0.3206412
50
52.7381828
51
62.4979144
0
ARC
8
DEFAULT_255_1_388
10
17.3523807
20
-0.7061764
40
0.6527035
50
62.2517425
51
68.1219454
0
ARC
8
DEFAULT_255_1_388
10
17.1589295
20
-1.1816049
40
1.1659797
50
68.006043
51
71.8055127
0
ARC
8
DEFAULT_255_1_388
10
16.9569203
20
-1.7874277
40
1.8045908
50
71.718361
51
73.9260743
0
LINE
8
DEFAULT_255_1_388
10
19.0396156
20
0.2953892
11
18.8652277
21
0.2953892
0
LINE
8
DEFAULT_255_1_388
10
18.0863551
20
-0.2584958
11
18.2607431
21
-0.2584958
0
ARC
8
DEFAULT_255_1_388
10
18.9393004
20
1.3017821
40
1.4087688
50
248.9196578
51
254.1442424
0
ARC
8
DEFAULT_255_1_388
10
18.7502884
20
0.8151805
40
0.8867498
50
241.6337352
51
249.0064643
0
ARC
8
DEFAULT_255_1_388
10
18.5783197
20
0.5000764
40
0.5277799
50
230.4982261
51
241.8087583
0
ARC
8
DEFAULT_255_1_388
10
18.4900968
20
0.3876686
40
0.3849419
50
227.4062979
51
229.9877433
0
ARC
8
DEFAULT_255_1_388
10
18.4352315
20
0.3341155
40
0.3084129
50
200.6782127
51
228.1765252
0
ARC
8
DEFAULT_255_1_388
10
18.4433684
20
0.3324277
40
0.315461
50
179.506278
51
199.8695278
0
ARC
8
DEFAULT_255_1_388
10
18.4423273
20
0.3407671
40
0.3144584
50
132.4834401
51
181.0242352
0
ARC
8
DEFAULT_255_1_388
10
18.5092477
20
0.2775788
40
0.4063094
50
129.2526113
51
133.4249077
0
ARC
8
DEFAULT_255_1_388
10
18.5258069
20
0.2527619
40
0.436014
50
101.9878945
51
128.8741833
0
ARC
8
DEFAULT_255_1_388
10
18.5706485
20
0.059136
40
0.6347415
50
89.5906376
51
102.3170567
0
ARC
8
DEFAULT_255_1_388
10
18.5785796
20
0.0949586
40
0.5989122
50
77.2359491
51
90.3248968
0
ARC
8
DEFAULT_255_1_388
10
18.6018727
20
0.2037554
40
0.4876594
50
63.8379856
51
77.0808925
0
ARC
8
DEFAULT_255_1_388
10
18.6331261
20
0.2619882
40
0.4216191
50
45.9863127
51
64.1608798
0
ARC
8
DEFAULT_255_1_388
10
18.6624655
20
0.295499
40
0.3771394
50
32.2747934
51
45.6544796
0
ARC
8
DEFAULT_255_1_388
10
18.6699461
20
0.2976426
40
0.3696765
50
359.6507495
51
32.6129943
0
ARC
8
DEFAULT_255_1_388
10
18.5638644
20
0.2981788
40
0.3013762
50
359.469654
51
14.983205
0
ARC
8
DEFAULT_255_1_388
10
18.6431896
20
0.3194288
40
0.2192542
50
14.9781954
51
48.2004799
0
ARC
8
DEFAULT_255_1_388
10
18.6247007
20
0.2961937
40
0.2489048
50
48.5926661
51
74.1242559
0
ARC
8
DEFAULT_255_1_388
10
18.5871809
20
0.1723607
40
0.3782845
50
73.7889321
51
86.6653996
0
ARC
8
DEFAULT_255_1_388
10
18.5756624
20
0.0365955
40
0.5145025
50
86.2642725
51
90.0533288
0
ARC
8
DEFAULT_255_1_388
10
18.5724716
20
0.0810376
40
0.4700681
50
89.669455
51
99.2313411
0
ARC
8
DEFAULT_255_1_388
10
18.5451876
20
0.2435401
40
0.3052945
50
99.0695987
51
113.7659242
0
ARC
8
DEFAULT_255_1_388
10
18.5143871
20
0.3161772
40
0.226407
50
114.0402885
51
127.9848946
0
ARC
8
DEFAULT_255_1_388
10
18.4873347
20
0.3494884
40
0.1835045
50
127.7287217
51
176.7106493
0
ARC
8
DEFAULT_255_1_388
10
18.5637012
20
0.338121
40
0.2604907
50
175.1780759
51
180.0581213
0
ARC
8
DEFAULT_255_1_388
10
18.4688355
20
0.3367411
40
0.1656287
50
179.6140658
51
228.124674
0
ARC
8
DEFAULT_255_1_388
10
18.5185713
20
0.382794
40
0.2332038
50
226.5785315
51
230.8792476
0
ARC
8
DEFAULT_255_1_388
10
18.57152
20
0.4530908
40
0.3211664
50
231.4636401
51
241.9261664
0
ARC
8
DEFAULT_255_1_388
10
18.7061983
20
0.7009349
40
0.6032345
50
241.7177136
51
248.3259138
0
ARC
8
DEFAULT_255_1_388
10
18.8620578
20
1.0870771
40
1.0196417
50
248.2007377
51
252.4527713
0
ARC
8
DEFAULT_255_1_388
10
18.9974104
20
1.5055092
40
1.4594143
50
252.3388938
51
254.347037
0
ARC
8
DEFAULT_255_1_388
10
18.1489405
20
-1.5292905
40
1.6917621
50
71.0197462
51
74.4085467
0
ARC
8
DEFAULT_255_1_388
10
18.3396493
20
-0.9787856
40
1.1091618
50
66.1845203
51
71.086519
0
ARC
8
DEFAULT_255_1_388
10
18.5147042
20
-0.5846561
40
0.6779073
50
59.3537334
51
66.269255
0
ARC
8
DEFAULT_255_1_388
10
18.6146768
20
-0.4155223
40
0.4814366
50
49.1021732
51
59.3294421
0
ARC
8
DEFAULT_255_1_388
10
18.7067756
20
-0.3105425
40
0.3417875
50
32.7924183
51
49.2503526
0
ARC
8
DEFAULT_255_1_388
10
18.741737
20
-0.2855689
40
0.2988789
50
31.121225
51
32.3977355
0
ARC
8
DEFAULT_255_1_388
10
18.7329548
20
-0.2888272
40
0.3080861
50
8.1116803
51
30.7958224
0
ARC
8
DEFAULT_255_1_388
10
18.6417894
20
-0.3043563
40
0.4005385
50
359.8390945
51
8.4707348
0
ARC
8
DEFAULT_255_1_388
10
18.7121941
20
-0.3098249
40
0.3301608
50
337.4732479
51
0.7538283
0
ARC
8
DEFAULT_255_1_388
10
18.7322966
20
-0.3120446
40
0.3107929
50
307.5917028
51
336.4313755
0
ARC
8
DEFAULT_255_1_388
10
18.6812024
20
-0.2552491
40
0.3870096
50
307.6560665
51
308.4561779
0
ARC
8
DEFAULT_255_1_388
10
18.6546241
20
-0.2144168
40
0.435591
50
284.3733666
51
307.1426212
0
ARC
8
DEFAULT_255_1_388
10
18.5989135
20
-0.0094609
40
0.6479685
50
272.4384566
51
284.6464689
0
ARC
8
DEFAULT_255_1_388
10
18.584652
20
0.1929434
40
0.8508149
50
269.9708517
51
272.8180721
0
ARC
8
DEFAULT_255_1_388
10
18.5798202
20
-0.0362717
40
0.6216151
50
248.2707343
51
270.4054609
0
ARC
8
DEFAULT_255_1_388
10
18.5737074
20
-0.0577327
40
0.5994203
50
246.1380358
51
248.054058
0
ARC
8
DEFAULT_255_1_388
10
18.5266217
20
-0.1566295
40
0.4899388
50
233.1671897
51
246.4951656
0
ARC
8
DEFAULT_255_1_388
10
18.4642852
20
-0.2407863
40
0.3852115
50
215.3403381
51
233.084328
0
ARC
8
DEFAULT_255_1_388
10
18.4336216
20
-0.2630907
40
0.3472969
50
179.2419235
51
215.2648426
0
ARC
8
DEFAULT_255_1_388
10
18.5199767
20
-0.2615021
40
0.259251
50
179.3355796
51
199.1045873
0
ARC
8
DEFAULT_255_1_388
10
18.4825909
20
-0.2712777
40
0.2207454
50
199.8830064
51
232.7061328
0
ARC
8
DEFAULT_255_1_388
10
18.5357183
20
-0.2044544
40
0.306101
50
232.3736206
51
255.5136621
0
ARC
8
DEFAULT_255_1_388
10
18.5740689
20
-0.0644823
40
0.4512213
50
255.2447928
51
267.5318292
0
ARC
8
DEFAULT_255_1_388
10
18.5839156
20
0.0741709
40
0.5901825
50
267.1564563
51
270.0294721
0
ARC
8
DEFAULT_255_1_388
10
18.5870481
20
0.0242623
40
0.5402814
50
269.6999944
51
278.1662446
0
ARC
8
DEFAULT_255_1_388
10
18.6158508
20
-0.1704026
40
0.3435003
50
278.0229022
51
290.6255326
0
ARC
8
DEFAULT_255_1_388
10
18.6549675
20
-0.2747453
40
0.2320666
50
290.6616368
51
307.0374127
0
ARC
8
DEFAULT_255_1_388
10
18.6887575
20
-0.316196
40
0.1786372
50
306.3942078
51
355.303191
0
ARC
8
DEFAULT_255_1_388
10
18.6311868
20
-0.3075814
40
0.2367516
50
354.3662092
51
0.0709489
0
ARC
8
DEFAULT_255_1_388
10
18.6471737
20
-0.3050439
40
0.2207761
50
359.4175379
51
16.1975911
0
ARC
8
DEFAULT_255_1_388
10
18.6983854
20
-0.2910046
40
0.1676828
50
16.4721294
51
52.6261798
0
ARC
8
DEFAULT_255_1_388
10
18.6060362
20
-0.4129394
40
0.3206412
50
52.7381828
51
62.4979144
0
ARC
8
DEFAULT_255_1_388
10
18.4502115
20
-0.7061764
40
0.6527035
50
62.2517425
51
68.1219454
0
ARC
8
DEFAULT_255_1_388
10
18.2567603
20
-1.1816049
40
1.1659797
50
68.006043
51
71.8055127
0
ARC
8
DEFAULT_255_1_388
10
18.0547511
20
-1.7874277
40
1.8045908
50
71.718361
51
73.9260743
0
LINE
8
DEFAULT_255_1_388
10
19.8202953
20
0.6757898
11
19.2718317
21
-0.7527456
0
LINE
8
DEFAULT_255_1_388
10
19.2718317
20
-0.7527456
11
19.1281649
21
-0.7527456
0
LINE
8
DEFAULT_255_1_388
10
19.1281649
20
-0.7527456
11
19.6775321
21
0.6757898
0
LINE
8
DEFAULT_255_1_388
10
19.6775321
20
0.6757898
11
19.8202953
21
0.6757898
0
LINE
8
DEFAULT_255_1_388
10
20.7789772
20
0.6757898
11
20.9533651
21
0.6757898
0
LINE
8
DEFAULT_255_1_388
10
20.9533651
20
0.6757898
11
20.9533651
21
-0.218739
0
LINE
8
DEFAULT_255_1_388
10
20.5214613
20
-0.6560642
11
20.4753795
21
-0.6578713
0
LINE
8
DEFAULT_255_1_388
10
20.0010082
20
-0.2205461
11
20.0010082
21
0.6757898
0
LINE
8
DEFAULT_255_1_388
10
20.0010082
20
0.6757898
11
20.1726854
21
0.6757898
0
LINE
8
DEFAULT_255_1_388
10
20.1726854
20
0.6757898
11
20.1726854
21
-0.2151247
0
LINE
8
DEFAULT_255_1_388
10
20.7789772
20
-0.2160283
11
20.7789772
21
0.6757898
0
ARC
8
DEFAULT_255_1_388
10
20.463645
20
-0.220973
40
0.4897252
50
343.0897723
51
0.2613727
0
ARC
8
DEFAULT_255_1_388
10
20.5568421
20
-0.246973
40
0.3930016
50
315.3344451
51
342.7642569
0
ARC
8
DEFAULT_255_1_388
10
20.5316917
20
-0.2208915
40
0.4292244
50
284.6605441
51
315.2183439
0
ARC
8
DEFAULT_255_1_388
10
20.4804696
20
-0.0469492
40
0.6104926
50
273.8500371
51
285.1796441
0
ARC
8
DEFAULT_255_1_388
10
20.4705761
20
-0.0085238
40
0.6493653
50
257.6315393
51
270.4238259
0
ARC
8
DEFAULT_255_1_388
10
20.4227844
20
-0.2134085
40
0.4390079
50
230.6086859
51
257.9965362
0
ARC
8
DEFAULT_255_1_388
10
20.4081903
20
-0.2363357
40
0.4120404
50
227.745033
51
230.1538266
0
ARC
8
DEFAULT_255_1_388
10
20.3928432
20
-0.2547747
40
0.3880742
50
189.2524335
51
227.5915299
0
ARC
8
DEFAULT_255_1_388
10
20.5640303
20
-0.2179265
40
0.5630282
50
180.2665782
51
190.1525221
0
ARC
8
DEFAULT_255_1_388
10
20.5890031
20
-0.2182746
40
0.4163296
50
179.566507
51
191.9954402
0
ARC
8
DEFAULT_255_1_388
10
20.450872
20
-0.2490849
40
0.274815
50
191.6974619
51
215.1403758
0
ARC
8
DEFAULT_255_1_388
10
20.4241112
20
-0.2650311
40
0.2437647
50
215.6958251
51
224.8509274
0
ARC
8
DEFAULT_255_1_388
10
20.4303588
20
-0.2560984
40
0.2545012
50
225.2846515
51
255.0110023
0
ARC
8
DEFAULT_255_1_388
10
20.4668035
20
-0.1307983
40
0.384974
50
254.5945979
51
267.9129427
0
ARC
8
DEFAULT_255_1_388
10
20.4751728
20
-0.0090556
40
0.506956
50
267.4687563
51
270.0233681
0
ARC
8
DEFAULT_255_1_388
10
20.4785723
20
-0.0750712
40
0.440952
50
269.5851384
51
281.1845308
0
ARC
8
DEFAULT_255_1_388
10
20.5099327
20
-0.2272531
40
0.2855802
50
280.9345159
51
300.9740496
0
ARC
8
DEFAULT_255_1_388
10
20.5338507
20
-0.2712872
40
0.2355257
50
301.4982546
51
315.1468616
0
ARC
8
DEFAULT_255_1_388
10
20.5176003
20
-0.2579512
40
0.2564594
50
315.5952932
51
345.6679188
0
ARC
8
DEFAULT_255_1_388
10
20.391656
20
-0.2228765
40
0.3871766
50
345.2525685
51
358.6303941
0
ARC
8
DEFAULT_255_1_388
10
20.2772951
20
-0.2161305
40
0.5016822
50
358.1723541
51
0.0116795
0
LINE
8
DEFAULT_255_1_388
10
21.4015331
20
0.6757898
11
21.4015331
21
-0.4979404
0
LINE
8
DEFAULT_255_1_388
10
21.4015331
20
-0.4979404
11
22.0249926
21
-0.4979404
0
LINE
8
DEFAULT_255_1_388
10
22.0249926
20
-0.4979404
11
22.0249926
21
-0.6398
0
LINE
8
DEFAULT_255_1_388
10
22.0249926
20
-0.6398
11
21.2271452
21
-0.6398
0
LINE
8
DEFAULT_255_1_388
10
21.2271452
20
-0.6398
11
21.2271452
21
0.6757898
0
LINE
8
DEFAULT_255_1_388
10
21.2271452
20
0.6757898
11
21.4015331
21
0.6757898
0
LINE
8
DEFAULT_255_2_778
10
9.3932417
20
123.7787483
11
10.7161417
21
123.7787483
0
LINE
8
DEFAULT_255_2_778
10
10.7161417
20
123.7787483
11
10.7161417
21
66.8933483
0
LINE
8
DEFAULT_255_2_778
10
10.7161417
20
61.6016483
11
10.7161417
21
4.7162483
0
LINE
8
DEFAULT_255_2_778
10
10.7161417
20
4.7162483
11
9.3932417
21
4.7162483
0
LINE
8
DEFAULT_255_2_778
10
9.3932834
20
66.8933333
11
12.0390834
21
66.8933333
0
LINE
8
DEFAULT_255_2_778
10
12.0390834
20
66.8933333
11
12.0390834
21
61.6016333
0
LINE
8
DEFAULT_255_2_778
10
12.0390834
20
61.6016333
11
9.3932834
21
61.6016333
0
LINE
8
DEFAULT_255_2_778
10
9.3932834
20
61.6016333
11
9.3932834
21
66.8933333
0
LINE
8
DEFAULT_255_2_778
10
10.187
20
62.1308666
11
10.187
21
66.3641666
0
LINE
8
DEFAULT_255_2_778
10
9.9224167
20
65.570375
11
10.1870167
21
66.364075
0
LINE
8
DEFAULT_255_2_778
10
10.1870167
20
66.364075
11
10.4516167
21
65.570375
0
LINE
8
DEFAULT_255_2_778
10
10.4516167
20
65.570375
11
9.9224167
21
65.570375
0
LINE
8
DEFAULT_255_2_778
10
11.2453
20
66.3641666
11
11.2453
21
62.1308666
0
LINE
8
DEFAULT_255_2_778
10
10.9807167
20
62.924575
11
11.2453167
21
62.130875
0
LINE
8
DEFAULT_255_2_778
10
11.2453167
20
62.130875
11
11.5099167
21
62.924575
0
LINE
8
DEFAULT_255_2_778
10
11.5099167
20
62.924575
11
10.9807167
21
62.924575
0
LINE
8
DEFAULT_255_2_778
10
19.9765417
20
123.7787075
11
18.6536417
21
123.7787075
0
LINE
8
DEFAULT_255_2_778
10
18.6536417
20
123.7787075
11
18.6536417
21
66.8933075
0
LINE
8
DEFAULT_255_2_778
10
17.3307834
20
66.8933333
11
19.9765834
21
66.8933333
0
LINE
8
DEFAULT_255_2_778
10
19.9765834
20
66.8933333
11
19.9765834
21
61.6016333
0
LINE
8
DEFAULT_255_2_778
10
19.9765834
20
61.6016333
11
17.3307834
21
61.6016333
0
LINE
8
DEFAULT_255_2_778
10
17.3307834
20
61.6016333
11
17.3307834
21
66.8933333
0
LINE
8
DEFAULT_255_2_778
10
18.1245
20
62.1308666
11
18.1245
21
66.3641666
0
LINE
8
DEFAULT_255_2_778
10
17.8599167
20
65.570375
11
18.1245167
21
66.364075
0
LINE
8
DEFAULT_255_2_778
10
18.1245167
20
66.364075
11
18.3891167
21
65.570375
0
LINE
8
DEFAULT_255_2_778
10
18.3891167
20
65.570375
11
17.8599167
21
65.570375
0
LINE
8
DEFAULT_255_2_778
10
19.1828
20
66.3641666
11
19.1828
21
62.1308666
0
LINE
8
DEFAULT_255_2_778
10
18.9182167
20
62.924575
11
19.1828167
21
62.130875
0
LINE
8
DEFAULT_255_2_778
10
19.1828167
20
62.130875
11
19.4474167
21
62.924575
0
LINE
8
DEFAULT_255_2_778
10
19.4474167
20
62.924575
11
18.9182167
21
62.924575
0
LINE
8
DEFAULT_255_2_778
10
18.6536417
20
61.6016075
11
18.6536417
21
4.7162075
0
LINE
8
DEFAULT_255_2_778
10
18.6536417
20
4.7162075
11
19.9765417
21
4.7162075
0
LINE
8
DEFAULT_255_2_778
10
10.5738396
20
136.1493073
11
9.3932396
21
136.1493073
0
LINE
8
DEFAULT_255_2_778
10
9.3932396
20
136.1493073
11
9.9837396
21
137.1719073
0
LINE
8
DEFAULT_255_2_778
10
9.9837396
20
137.1719073
11
11.1643396
21
137.1719073
0
LINE
8
DEFAULT_255_2_778
10
11.1643396
20
137.1719073
11
10.5738396
21
136.1493073
0
LINE
8
DEFAULT_255_2_778
10
10.5738396
20
136.1493073
11
10.5738396
21
136.1493073
0
LINE
8
DEFAULT_255_2_778
10
11.7546396
20
136.1493073
11
12.9354396
21
136.1493073
0
LINE
8
DEFAULT_255_2_778
10
12.9354396
20
136.1493073
11
12.3451396
21
137.1719073
0
LINE
8
DEFAULT_255_2_778
10
12.3451396
20
137.1719073
11
11.1643396
21
137.1719073
0
LINE
8
DEFAULT_255_2_778
10
11.1643396
20
137.1719073
11
11.7546396
21
136.1493073
0
LINE
8
DEFAULT_255_2_778
10
11.7546396
20
136.1493073
11
11.7546396
21
136.1493073
0
LINE
8
DEFAULT_255_2_778
10
11.7545823
20
138.1945146
11
11.1642823
21
139.2171146
0
LINE
8
DEFAULT_255_2_778
10
11.1642823
20
139.2171146
11
10.5737823
21
138.1945146
0
LINE
8
DEFAULT_255_2_778
10
10.5737823
20
138.1945146
11
11.1642823
21
137.1719146
0
LINE
8
DEFAULT_255_2_778
10
11.1642823
20
137.1719146
11
11.7545823
21
138.1945146
0
LINE
8
DEFAULT_255_2_778
10
11.7545823
20
138.1945146
11
11.7545823
21
138.1945146
0
ARC
8
DEFAULT_255_2_778
10
16.5183731
20
137.8407426
40
0.5650491
50
268.7543645
51
289.1417717
0
ARC
8
DEFAULT_255_2_778
10
16.606208
20
137.5855531
40
0.2951681
50
289.2776255
51
3.7648372
0
ARC
8
DEFAULT_255_2_778
10
16.3901618
20
137.6121085
40
0.5106278
50
359.1949826
51
0.0020862
0
ARC
8
DEFAULT_255_2_778
10
16.547449
20
137.5980832
40
0.1541914
50
280.2616216
51
358.5297855
0
ARC
8
DEFAULT_255_2_778
10
16.5080075
20
137.710655
40
0.2726346
50
269.5969454
51
284.2065679
0
ARC
8
DEFAULT_255_2_778
10
16.4981883
20
137.6948788
40
0.2569732
50
246.5218562
51
271.7619895
0
ARC
8
DEFAULT_255_2_778
10
16.4527498
20
137.5869164
40
0.1398527
50
188.0764216
51
245.9747848
0
ARC
8
DEFAULT_255_2_778
10
16.4833113
20
137.5939608
40
0.1711218
50
179.9443312
51
188.9740498
0
ARC
8
DEFAULT_255_2_778
10
16.4924507
20
137.6007849
40
0.3763411
50
178.2272621
51
205.8283807
0
ARC
8
DEFAULT_255_2_778
10
16.4132476
20
137.5830833
40
0.2979176
50
209.4028057
51
263.0375728
0
ARC
8
DEFAULT_255_2_778
10
16.5005111
20
137.9577629
40
0.6816586
50
259.5722942
51
270.4689037
0
ARC
8
DEFAULT_255_2_778
10
17.411252
20
138.0139767
40
0.1217154
50
2.0482843
51
87.015299
0
ARC
8
DEFAULT_255_2_778
10
17.4057913
20
138.0183868
40
0.1270984
50
353.0742102
51
359.9730821
0
ARC
8
DEFAULT_255_2_778
10
17.4111345
20
138.0151717
40
0.1214332
50
270.7420557
51
354.2761882
0
ARC
8
DEFAULT_255_2_778
10
17.4065072
20
138.0517509
40
0.1581238
50
269.9936646
51
272.2471507
0
ARC
8
DEFAULT_255_2_778
10
17.414084
20
137.6005295
40
0.1400686
50
358.2807293
51
95.6106825
0
ARC
8
DEFAULT_255_2_778
10
17.4103233
20
137.5966963
40
0.1437669
50
266.9962473
51
359.8528392
0
ARC
8
DEFAULT_255_2_778
10
17.4725249
20
137.6369988
40
0.3335288
50
268.2414507
51
302.0223478
0
ARC
8
DEFAULT_255_2_778
10
17.5091261
20
137.561683
40
0.2504234
50
304.0600275
51
2.0468005
0
ARC
8
DEFAULT_255_2_778
10
17.4835388
20
137.568488
40
0.2758592
50
0.4442832
51
66.1293704
0
ARC
8
DEFAULT_255_2_778
10
17.5193244
20
137.633436
40
0.202088
50
67.956084
51
75.8901834
0
ARC
8
DEFAULT_255_2_778
10
17.5042026
20
138.040722
40
0.2208874
50
286.9473417
51
358.0074963
0
ARC
8
DEFAULT_255_2_778
10
17.4710866
20
138.0495045
40
0.2544031
50
356.2897886
51
0.0050857
0
ARC
8
DEFAULT_255_2_778
10
17.497262
20
138.0545946
40
0.2282839
50
358.7280137
51
81.8073164
0
ARC
8
DEFAULT_255_2_778
10
17.4216369
20
137.8031283
40
0.4895182
50
77.2355086
51
90.5088275
0
ARC
8
DEFAULT_255_2_778
10
17.5842747
20
136.8385989
40
0.1302704
50
89.9972707
51
92.6773048
0
ARC
8
DEFAULT_255_2_778
10
17.5844071
20
136.83937
40
0.1294993
50
45.0546048
51
90.0558451
0
ARC
8
DEFAULT_255_2_778
10
17.5844118
20
136.839219
40
0.1296029
50
0.001866
51
45.1031959
0
ARC
8
DEFAULT_255_2_778
10
17.5845123
20
136.8392202
40
0.1295026
50
357.4803735
51
0.0013544
0
ARC
8
DEFAULT_255_2_778
10
17.5901979
20
136.8353512
40
0.1237052
50
339.8672523
51
359.1550732
0
ARC
8
DEFAULT_255_2_778
10
17.5794513
20
136.8325079
40
0.1329691
50
272.0853006
51
342.6124646
0
ARC
8
DEFAULT_255_2_778
10
17.6596145
20
136.8707661
40
0.2575135
50
286.787355
51
290.6121696
0
ARC
8
DEFAULT_255_2_778
10
17.6689461
20
136.8564533
40
0.24086
50
289.7330405
51
342.3216972
0
ARC
8
DEFAULT_255_2_778
10
17.641261
20
136.8612954
40
0.268735
50
343.130572
51
0.3905272
0
ARC
8
DEFAULT_255_2_778
10
17.6578783
20
136.8786767
40
0.2525904
50
356.4706028
51
80.1788963
0
ARC
8
DEFAULT_255_2_778
10
17.5921649
20
136.6517163
40
0.4881286
50
77.1212301
51
90.4900821
0
ARC
8
DEFAULT_255_2_778
10
17.5166337
20
136.354036
40
0.1865405
50
50.1507009
51
92.9634648
0
ARC
8
DEFAULT_255_2_778
10
17.5301354
20
136.3823678
40
0.1563319
50
12.621233
51
47.2950617
0
ARC
8
DEFAULT_255_2_778
10
16.8485884
20
136.2494726
40
0.8506657
50
2.8173892
51
11.3253986
0
ARC
8
DEFAULT_255_2_778
10
-29.2295733
20
132.7531175
40
47.060992
50
4.3048394
51
4.3117143
0
ARC
8
DEFAULT_255_2_778
10
18.5500859
20
136.325584
40
0.8523717
50
182.6850102
51
191.2954256
0
ARC
8
DEFAULT_255_2_778
10
17.9656837
20
136.2192399
40
0.2586603
50
193.5512904
51
195.3825538
0
ARC
8
DEFAULT_255_2_778
10
19.3507425
20
136.4781408
40
1.4700994
50
182.6283124
51
192.8725697
0
ARC
8
DEFAULT_255_2_778
10
17.6207606
20
136.4052215
40
0.261487
50
1.2064311
51
30.4123358
0
ARC
8
DEFAULT_255_2_778
10
17.6663626
20
136.420276
40
0.2147766
50
33.1081154
51
71.7312197
0
LINE
8
DEFAULT_255_2_778
10
13.4657897
20
136.5848271
11
13.9385897
21
136.5848271
0
LINE
8
DEFAULT_255_2_778
10
13.9385897
20
136.5848271
11
13.9385897
21
136.7562271
0
LINE
8
DEFAULT_255_2_778
10
13.9385897
20
136.7562271
11
13.4657897
21
136.7562271
0
LINE
8
DEFAULT_255_2_778
10
13.4657897
20
136.7562271
11
13.4657897
21
136.9671271
0
LINE
8
DEFAULT_255_2_778
10
13.4657897
20
136.9671271
11
13.9977897
21
136.9671271
0
LINE
8
DEFAULT_255_2_778
10
13.9977897
20
136.9671271
11
13.9977897
21
137.1385271
0
LINE
8
DEFAULT_255_2_778
10
13.9977897
20
137.1385271
11
13.4657897
21
137.1385271
0
LINE
8
DEFAULT_255_2_778
10
13.4657897
20
137.1385271
11
13.2651897
21
137.1385271
0
LINE
8
DEFAULT_255_2_778
10
13.2651897
20
137.1385271
11
13.2651897
21
136.9671271
0
LINE
8
DEFAULT_255_2_778
10
13.2651897
20
136.9671271
11
13.2651897
21
136.3207271
0
LINE
8
DEFAULT_255_2_778
10
13.2651897
20
136.3207271
11
13.2651897
21
136.1492271
0
LINE
8
DEFAULT_255_2_778
10
13.2651897
20
136.1492271
11
13.4657897
21
136.1492271
0
LINE
8
DEFAULT_255_2_778
10
13.4657897
20
136.1492271
11
14.0118897
21
136.1492271
0
LINE
8
DEFAULT_255_2_778
10
14.0118897
20
136.1492271
11
14.0118897
21
136.3207271
0
LINE
8
DEFAULT_255_2_778
10
14.0118897
20
136.3207271
11
13.4657897
21
136.3207271
0
LINE
8
DEFAULT_255_2_778
10
13.4657897
20
136.3207271
11
13.4657897
21
136.5845271
0
LINE
8
DEFAULT_255_2_778
10
13.4657897
20
136.5845271
11
13.4657897
21
136.5848271
0
LINE
8
DEFAULT_255_2_778
10
13.4519897
20
138.0389271
11
13.6620897
21
137.3036271
0
LINE
8
DEFAULT_255_2_778
10
13.6620897
20
137.3036271
11
13.6704897
21
137.3036271
0
LINE
8
DEFAULT_255_2_778
10
13.6704897
20
137.3036271
11
13.8464897
21
137.3036271
0
LINE
8
DEFAULT_255_2_778
10
13.8464897
20
137.3036271
11
13.8546897
21
137.3036271
0
LINE
8
DEFAULT_255_2_778
10
13.8546897
20
137.3036271
11
14.0647897
21
138.0389271
0
LINE
8
DEFAULT_255_2_778
10
14.0647897
20
138.0389271
11
14.0647897
21
137.3036271
0
LINE
8
DEFAULT_255_2_778
10
14.0647897
20
137.3036271
11
14.2515897
21
137.3036271
0
LINE
8
DEFAULT_255_2_778
10
14.2515897
20
137.3036271
11
14.2515897
21
138.2929271
0
LINE
8
DEFAULT_255_2_778
10
14.2515897
20
138.2929271
11
14.1496897
21
138.2929271
0
LINE
8
DEFAULT_255_2_778
10
14.1496897
20
138.2929271
11
14.0615897
21
138.2929271
0
LINE
8
DEFAULT_255_2_778
10
14.0615897
20
138.2929271
11
13.9655897
21
138.2929271
0
LINE
8
DEFAULT_255_2_778
10
13.9655897
20
138.2929271
11
13.7583897
21
137.5986271
0
LINE
8
DEFAULT_255_2_778
10
13.7583897
20
137.5986271
11
13.5511897
21
138.2929271
0
LINE
8
DEFAULT_255_2_778
10
13.5511897
20
138.2929271
11
13.4551897
21
138.2929271
0
LINE
8
DEFAULT_255_2_778
10
13.4551897
20
138.2929271
11
13.3670897
21
138.2929271
0
LINE
8
DEFAULT_255_2_778
10
13.3670897
20
138.2929271
11
13.2651897
21
138.2929271
0
LINE
8
DEFAULT_255_2_778
10
13.2651897
20
138.2929271
11
13.2651897
21
137.3036271
0
LINE
8
DEFAULT_255_2_778
10
13.2651897
20
137.3036271
11
13.4519897
21
137.3036271
0
LINE
8
DEFAULT_255_2_778
10
13.4519897
20
137.3036271
11
13.4519897
21
138.0389271
0
LINE
8
DEFAULT_255_2_778
10
13.4519897
20
138.0389271
11
13.4519897
21
138.0389271
0
LINE
8
DEFAULT_255_2_778
10
18.0057897
20
138.2929271
11
17.8064897
21
138.2929271
0
LINE
8
DEFAULT_255_2_778
10
17.8064897
20
138.2929271
11
17.8064897
21
137.3036271
0
LINE
8
DEFAULT_255_2_778
10
17.8064897
20
137.3036271
11
18.0057897
21
137.3036271
0
LINE
8
DEFAULT_255_2_778
10
18.0057897
20
137.3036271
11
18.0057897
21
138.2929271
0
LINE
8
DEFAULT_255_2_778
10
18.0057897
20
138.2929271
11
18.0057897
21
138.2929271
0
LINE
8
DEFAULT_255_2_778
10
18.1681897
20
137.1388271
11
17.9689897
21
137.1388271
0
LINE
8
DEFAULT_255_2_778
10
17.9689897
20
137.1388271
11
17.9689897
21
136.1495271
0
LINE
8
DEFAULT_255_2_778
10
17.9689897
20
136.1495271
11
18.1681897
21
136.1495271
0
LINE
8
DEFAULT_255_2_778
10
18.1681897
20
136.1495271
11
18.1681897
21
137.1388271
0
LINE
8
DEFAULT_255_2_778
10
18.1681897
20
137.1388271
11
18.1681897
21
137.1388271
0
LINE
8
DEFAULT_255_2_778
10
19.9765897
20
138.2929271
11
19.7773897
21
138.2929271
0
LINE
8
DEFAULT_255_2_778
10
19.7773897
20
138.2929271
11
19.7773897
21
137.3036271
0
LINE
8
DEFAULT_255_2_778
10
19.7773897
20
137.3036271
11
19.9765897
21
137.3036271
0
LINE
8
DEFAULT_255_2_778
10
19.9765897
20
137.3036271
11
19.9765897
21
138.2929271
0
LINE
8
DEFAULT_255_2_778
10
19.9765897
20
138.2929271
11
19.9765897
21
138.2929271
0
LINE
8
DEFAULT_255_2_778
10
14.5298897
20
138.2929271
11
14.3306897
21
138.2929271
0
LINE
8
DEFAULT_255_2_778
10
14.3306897
20
138.2929271
11
14.3306897
21
137.3036271
0
LINE
8
DEFAULT_255_2_778
10
14.3306897
20
137.3036271
11
14.5298897
21
137.3036271
0
LINE
8
DEFAULT_255_2_778
10
14.5298897
20
137.3036271
11
14.5298897
21
138.2929271
0
LINE
8
DEFAULT_255_2_778
10
14.5298897
20
138.2929271
11
14.5298897
21
138.2929271
0
LINE
8
DEFAULT_255_2_778
10
19.4989897
20
137.9069271
11
19.1029897
21
137.9069271
0
LINE
8
DEFAULT_255_2_778
10
19.1029897
20
137.9069271
11
19.1029897
21
138.2926271
0
LINE
8
DEFAULT_255_2_778
10
19.1029897
20
138.2926271
11
18.9068897
21
138.2926271
0
LINE
8
DEFAULT_255_2_778
10
18.9068897
20
138.2926271
11
18.9068897
21
137.3036271
0
LINE
8
DEFAULT_255_2_778
10
18.9068897
20
137.3036271
11
19.1029897
21
137.3036271
0
LINE
8
DEFAULT_255_2_778
10
19.1029897
20
137.3036271
11
19.1029897
21
137.7354271
0
LINE
8
DEFAULT_255_2_778
10
19.1029897
20
137.7354271
11
19.4989897
21
137.7354271
0
LINE
8
DEFAULT_255_2_778
10
19.4989897
20
137.7354271
11
19.4989897
21
137.3036271
0
LINE
8
DEFAULT_255_2_778
10
19.4989897
20
137.3036271
11
19.6950897
21
137.3036271
0
LINE
8
DEFAULT_255_2_778
10
19.6950897
20
137.3036271
11
19.6950897
21
138.2926271
0
LINE
8
DEFAULT_255_2_778
10
19.6950897
20
138.2926271
11
19.4989897
21
138.2926271
0
LINE
8
DEFAULT_255_2_778
10
19.4989897
20
138.2926271
11
19.4989897
21
137.9069271
0
LINE
8
DEFAULT_255_2_778
10
19.4989897
20
137.9069271
11
19.4989897
21
137.9069271
0
LINE
8
DEFAULT_255_2_778
10
14.8246897
20
137.3036271
11
15.0280897
21
137.3036271
0
LINE
8
DEFAULT_255_2_778
10
15.0280897
20
137.3036271
11
15.0280897
21
138.1215271
0
LINE
8
DEFAULT_255_2_778
10
15.0280897
20
138.1215271
11
15.2696897
21
138.1215271
0
LINE
8
DEFAULT_255_2_778
10
15.2696897
20
138.1215271
11
15.2696897
21
138.2929271
0
LINE
8
DEFAULT_255_2_778
10
15.2696897
20
138.2929271
11
15.0280897
21
138.2929271
0
LINE
8
DEFAULT_255_2_778
10
15.0280897
20
138.2929271
11
14.8246897
21
138.2929271
0
LINE
8
DEFAULT_255_2_778
10
14.8246897
20
138.2929271
11
14.5830897
21
138.2929271
0
LINE
8
DEFAULT_255_2_778
10
14.5830897
20
138.2929271
11
14.5830897
21
138.1215271
0
LINE
8
DEFAULT_255_2_778
10
14.5830897
20
138.1215271
11
14.8246897
21
138.1215271
0
LINE
8
DEFAULT_255_2_778
10
14.8246897
20
138.1215271
11
14.8246897
21
137.3036271
0
LINE
8
DEFAULT_255_2_778
10
14.8246897
20
137.3036271
11
14.8246897
21
137.3036271
0
LINE
8
DEFAULT_255_2_778
10
16.6422897
20
136.1495271
11
16.8454897
21
136.1495271
0
LINE
8
DEFAULT_255_2_778
10
16.8454897
20
136.1495271
11
16.8454897
21
136.9673271
0
LINE
8
DEFAULT_255_2_778
10
16.8454897
20
136.9673271
11
17.0873897
21
136.9673271
0
LINE
8
DEFAULT_255_2_778
10
17.0873897
20
136.9673271
11
17.0873897
21
137.1391271
0
LINE
8
DEFAULT_255_2_778
10
17.0873897
20
137.1391271
11
16.8454897
21
137.1391271
0
LINE
8
DEFAULT_255_2_778
10
16.8454897
20
137.1391271
11
16.6422897
21
137.1391271
0
LINE
8
DEFAULT_255_2_778
10
16.6422897
20
137.1391271
11
16.4004897
21
137.1391271
0
LINE
8
DEFAULT_255_2_778
10
16.4004897
20
137.1391271
11
16.4004897
21
136.9673271
0
LINE
8
DEFAULT_255_2_778
10
16.4004897
20
136.9673271
11
16.6422897
21
136.9673271
0
LINE
8
DEFAULT_255_2_778
10
16.6422897
20
136.9673271
11
16.6422897
21
136.1495271
0
LINE
8
DEFAULT_255_2_778
10
16.6422897
20
136.1495271
11
16.6422897
21
136.1495271
0
LINE
8
DEFAULT_255_2_778
10
16.9007897
20
137.6121271
11
16.9007897
21
138.2926271
0
LINE
8
DEFAULT_255_2_778
10
16.9007897
20
138.2926271
11
16.7015897
21
138.2926271
0
LINE
8
DEFAULT_255_2_778
10
16.7015897
20
138.2926271
11
16.7015897
21
137.5941271
0
LINE
8
DEFAULT_255_2_778
10
16.3121897
20
137.5941271
11
16.3121897
21
138.2926271
0
LINE
8
DEFAULT_255_2_778
10
16.3121897
20
138.2926271
11
16.1162897
21
138.2926271
0
LINE
8
DEFAULT_255_2_778
10
16.1162897
20
138.2926271
11
16.1162897
21
137.6124271
0
LINE
8
DEFAULT_255_2_778
10
15.0000897
20
136.5848271
11
15.4730897
21
136.5848271
0
LINE
8
DEFAULT_255_2_778
10
15.4730897
20
136.5848271
11
15.4730897
21
136.7562271
0
LINE
8
DEFAULT_255_2_778
10
15.4730897
20
136.7562271
11
15.0000897
21
136.7562271
0
LINE
8
DEFAULT_255_2_778
10
15.0000897
20
136.7562271
11
15.0000897
21
136.9671271
0
LINE
8
DEFAULT_255_2_778
10
15.0000897
20
136.9671271
11
15.5321897
21
136.9671271
0
LINE
8
DEFAULT_255_2_778
10
15.5321897
20
136.9671271
11
15.5321897
21
137.1385271
0
LINE
8
DEFAULT_255_2_778
10
15.5321897
20
137.1385271
11
15.0000897
21
137.1385271
0
LINE
8
DEFAULT_255_2_778
10
15.0000897
20
137.1385271
11
14.7997897
21
137.1385271
0
LINE
8
DEFAULT_255_2_778
10
14.7997897
20
137.1385271
11
14.7997897
21
136.9671271
0
LINE
8
DEFAULT_255_2_778
10
14.7997897
20
136.9671271
11
14.7997897
21
136.3207271
0
LINE
8
DEFAULT_255_2_778
10
14.7997897
20
136.3207271
11
14.7997897
21
136.1492271
0
LINE
8
DEFAULT_255_2_778
10
14.7997897
20
136.1492271
11
15.0000897
21
136.1492271
0
LINE
8
DEFAULT_255_2_778
10
15.0000897
20
136.1492271
11
15.5461897
21
136.1492271
0
LINE
8
DEFAULT_255_2_778
10
15.5461897
20
136.1492271
11
15.5461897
21
136.3207271
0
LINE
8
DEFAULT_255_2_778
10
15.5461897
20
136.3207271
11
15.0000897
21
136.3207271
0
LINE
8
DEFAULT_255_2_778
10
15.0000897
20
136.3207271
11
15.0000897
21
136.5845271
0
LINE
8
DEFAULT_255_2_778
10
15.0000897
20
136.5845271
11
15.0000897
21
136.5848271
0
LINE
8
DEFAULT_255_2_778
10
17.4064897
20
137.8936271
11
17.1690897
21
137.8936271
0
LINE
8
DEFAULT_255_2_778
10
17.1690897
20
137.8936271
11
17.1690897
21
138.1352271
0
LINE
8
DEFAULT_255_2_778
10
17.1690897
20
138.1352271
11
17.4175897
21
138.1352271
0
LINE
8
DEFAULT_255_2_778
10
17.4175897
20
138.1352271
11
17.4175897
21
138.1355271
0
LINE
8
DEFAULT_255_2_778
10
17.4027897
20
137.4528271
11
17.1690897
21
137.4528271
0
LINE
8
DEFAULT_255_2_778
10
17.1690897
20
137.4528271
11
17.1690897
21
137.7399271
0
LINE
8
DEFAULT_255_2_778
10
17.1690897
20
137.7399271
11
17.4003897
21
137.7399271
0
LINE
8
DEFAULT_255_2_778
10
17.1767897
20
137.3036271
11
17.4622897
21
137.3036271
0
LINE
8
DEFAULT_255_2_778
10
17.4172897
20
138.2926271
11
17.1770897
21
138.2926271
0
LINE
8
DEFAULT_255_2_778
10
17.1770897
20
138.2926271
11
16.9722897
21
138.2926271
0
LINE
8
DEFAULT_255_2_778
10
16.9722897
20
138.2926271
11
16.9711897
21
138.2926271
0
LINE
8
DEFAULT_255_2_778
10
16.9711897
20
138.2926271
11
16.9711897
21
137.3036271
0
LINE
8
DEFAULT_255_2_778
10
16.9711897
20
137.3036271
11
16.9722897
21
137.3036271
0
LINE
8
DEFAULT_255_2_778
10
16.9722897
20
137.3036271
11
17.1770897
21
137.3036271
0
LINE
8
DEFAULT_255_2_778
10
17.1770897
20
137.3036271
11
17.1767897
21
137.3036271
0
LINE
8
DEFAULT_255_2_778
10
17.3368897
20
136.6993271
11
17.3368897
21
136.9687271
0
LINE
8
DEFAULT_255_2_778
10
17.3368897
20
136.9687271
11
17.5781897
21
136.9687271
0
LINE
8
DEFAULT_255_2_778
10
17.5842897
20
136.6996271
11
17.3370897
21
136.6996271
0
LINE
8
DEFAULT_255_2_778
10
17.3370897
20
136.6996271
11
17.3368897
21
136.6993271
0
LINE
8
DEFAULT_255_2_778
10
17.5879897
20
137.1398271
11
17.3368897
21
137.1398271
0
LINE
8
DEFAULT_255_2_778
10
17.3368897
20
137.1398271
11
17.1383897
21
137.1398271
0
LINE
8
DEFAULT_255_2_778
10
17.1383897
20
137.1398271
11
17.1362897
21
137.1398271
0
LINE
8
DEFAULT_255_2_778
10
17.1362897
20
137.1398271
11
17.1362897
21
136.1506271
0
LINE
8
DEFAULT_255_2_778
10
17.1362897
20
136.1506271
11
17.3368897
21
136.1506271
0
LINE
8
DEFAULT_255_2_778
10
17.3368897
20
136.1506271
11
17.3368897
21
136.5403271
0
LINE
8
DEFAULT_255_2_778
10
17.3368897
20
136.5403271
11
17.5069897
21
136.5403271
0
LINE
8
DEFAULT_255_2_778
10
17.7162897
20
136.1506271
11
17.9175897
21
136.1506271
0
LINE
8
DEFAULT_255_2_778
10
14.2763897
20
137.1388271
11
14.0760897
21
137.1388271
0
LINE
8
DEFAULT_255_2_778
10
14.0760897
20
137.1388271
11
14.0760897
21
136.3210271
0
LINE
8
DEFAULT_255_2_778
10
14.0760897
20
136.3210271
11
14.0760897
21
136.1495271
0
LINE
8
DEFAULT_255_2_778
10
14.0760897
20
136.1495271
11
14.2763897
21
136.1495271
0
LINE
8
DEFAULT_255_2_778
10
14.2763897
20
136.1495271
11
14.7428897
21
136.1495271
0
LINE
8
DEFAULT_255_2_778
10
14.7428897
20
136.1495271
11
14.7428897
21
136.3210271
0
LINE
8
DEFAULT_255_2_778
10
14.7428897
20
136.3210271
11
14.2763897
21
136.3210271
0
LINE
8
DEFAULT_255_2_778
10
14.2763897
20
136.3210271
11
14.2763897
21
137.1388271
0
LINE
8
DEFAULT_255_2_778
10
14.2763897
20
137.1388271
11
14.2763897
21
137.1388271
0
ARC
8
DEFAULT_255_2_778
10
15.4584271
20
136.7646969
40
0.9681224
50
72.4822103
51
81.3184214
0
ARC
8
DEFAULT_255_2_778
10
15.7160297
20
137.5413918
40
0.1503783
50
28.8883513
51
77.0092434
0
ARC
8
DEFAULT_255_2_778
10
15.7432379
20
137.5703196
40
0.113238
50
358.9917455
51
22.7117017
0
ARC
8
DEFAULT_255_2_778
10
15.7394861
20
137.5744918
40
0.1171346
50
289.2958104
51
356.9831562
0
ARC
8
DEFAULT_255_2_778
10
15.6668261
20
137.7319882
40
0.2902651
50
268.4665462
51
292.5613311
0
ARC
8
DEFAULT_255_2_778
10
15.6496856
20
137.6729179
40
0.2312808
50
236.4956947
51
272.3225735
0
ARC
8
DEFAULT_255_2_778
10
15.6106646
20
137.6046839
40
0.1529307
50
178.9722202
51
234.5742435
0
ARC
8
DEFAULT_255_2_778
10
15.5656113
20
137.5951079
40
0.3002058
50
177.6481608
51
245.5596397
0
ARC
8
DEFAULT_255_2_778
10
15.6409971
20
137.7673561
40
0.488217
50
245.8690375
51
267.169035
0
ARC
8
DEFAULT_255_2_778
10
15.6671503
20
138.0183916
40
0.7403648
50
266.1069867
51
270.0547972
0
ARC
8
DEFAULT_255_2_778
10
15.6772894
20
137.8496135
40
0.5716642
50
269.0547216
51
287.7147747
0
ARC
8
DEFAULT_255_2_778
10
15.7598889
20
137.6039091
40
0.3125017
50
286.995984
51
325.1221533
0
ARC
8
DEFAULT_255_2_778
10
15.7678294
20
137.587361
40
0.2966627
50
326.8673922
51
0.8625726
0
ARC
8
DEFAULT_255_2_778
10
15.7898286
20
137.5959409
40
0.2746606
50
359.1417932
51
76.9739731
0
ARC
8
DEFAULT_255_2_778
10
15.6705461
20
137.3150719
40
0.577616
50
71.7185727
51
79.1315439
0
ARC
8
DEFAULT_255_2_778
10
14.2492968
20
129.961467
40
8.0673056
50
79.0662148
51
79.6216572
0
ARC
8
DEFAULT_255_2_778
10
16.4356585
20
141.8391581
40
4.0099443
50
259.1227669
51
259.4665204
0
ARC
8
DEFAULT_255_2_778
10
15.7836732
20
138.5441142
40
0.6513291
50
249.9945768
51
260.7485895
0
ARC
8
DEFAULT_255_2_778
10
15.5880401
20
138.0330999
40
0.1046098
50
178.6705173
51
254.9333545
0
ARC
8
DEFAULT_255_2_778
10
15.6049957
20
138.0296688
40
0.1216785
50
93.288632
51
177.2403935
0
ARC
8
DEFAULT_255_2_778
10
15.6585677
20
137.8426752
40
0.3143588
50
89.6189463
51
101.1057977
0
ARC
8
DEFAULT_255_2_778
10
15.6722733
20
137.954516
40
0.2028439
50
53.5634072
51
93.2825843
0
ARC
8
DEFAULT_255_2_778
10
15.7018505
20
138.0127144
40
0.1388739
50
357.1985816
51
49.1152298
0
ARC
8
DEFAULT_255_2_778
10
15.7254907
20
138.0059274
40
0.3087677
50
359.9999335
51
2.3703878
0
ARC
8
DEFAULT_255_2_778
10
15.7353555
20
138.0074337
40
0.298851
50
2.1600756
51
60.1092229
0
ARC
8
DEFAULT_255_2_778
10
15.6766212
20
137.9008133
40
0.4205645
50
60.4106856
51
86.1444419
0
ARC
8
DEFAULT_255_2_778
10
15.6536151
20
137.7241228
40
0.5985046
50
85.0843314
51
90.0628677
0
ARC
8
DEFAULT_255_2_778
10
15.6529718
20
137.8475466
40
0.4750804
50
90.001616
51
92.2300394
0
ARC
8
DEFAULT_255_2_778
10
15.6281193
20
137.952687
40
0.3696351
50
89.0131319
51
149.6364996
0
ARC
8
DEFAULT_255_2_778
10
15.5505461
20
138.0249055
40
0.2671974
50
154.5962367
51
180.4885883
0
ARC
8
DEFAULT_255_2_778
10
15.5651524
20
138.023384
40
0.281795
50
180.1539064
51
255.1120325
0
ARC
8
DEFAULT_255_2_778
10
15.7094242
20
138.346232
40
0.6333958
50
249.9962237
51
260.4976723
0
ARC
8
DEFAULT_255_2_778
10
18.2470963
20
136.7658351
40
0.967002
50
72.4685023
51
81.3064395
0
ARC
8
DEFAULT_255_2_778
10
18.5045397
20
137.541427
40
0.1503535
50
28.8782248
51
76.9904304
0
ARC
8
DEFAULT_255_2_778
10
18.5317197
20
137.5703189
40
0.1132561
50
358.9922779
51
22.7082666
0
ARC
8
DEFAULT_255_2_778
10
18.5280402
20
137.5744088
40
0.1170763
50
289.2761556
51
357.0223042
0
ARC
8
DEFAULT_255_2_778
10
18.4553612
20
137.7322836
40
0.2905613
50
268.4611814
51
292.5289055
0
ARC
8
DEFAULT_255_2_778
10
18.4381801
20
137.6738175
40
0.2321799
50
236.6698634
51
272.3149402
0
ARC
8
DEFAULT_255_2_778
10
18.39878
20
137.6046762
40
0.1528464
50
178.9687581
51
234.7686008
0
ARC
8
DEFAULT_255_2_778
10
18.3540113
20
137.5951079
40
0.3002058
50
177.6481608
51
245.5596397
0
ARC
8
DEFAULT_255_2_778
10
18.4293971
20
137.7673561
40
0.488217
50
245.8690375
51
267.169035
0
ARC
8
DEFAULT_255_2_778
10
18.4555503
20
138.0183916
40
0.7403648
50
266.1069867
51
270.0547972
0
ARC
8
DEFAULT_255_2_778
10
18.4656836
20
137.8502451
40
0.5722957
50
269.0563423
51
287.7048702
0
ARC
8
DEFAULT_255_2_778
10
18.548344
20
137.6042682
40
0.312856
50
286.9832601
51
325.0871916
0
ARC
8
DEFAULT_255_2_778
10
18.5567708
20
137.5873856
40
0.2964208
50
326.8311942
51
0.8585267
0
ARC
8
DEFAULT_255_2_778
10
18.5785756
20
137.5960282
40
0.2746149
50
359.1234265
51
76.9343785
0
ARC
8
DEFAULT_255_2_778
10
18.4596421
20
137.3161965
40
0.5764934
50
71.6999697
51
79.1198353
0
ARC
8
DEFAULT_255_2_778
10
17.0173657
20
129.8394392
40
8.1910887
50
79.0843627
51
79.6321368
0
ARC
8
DEFAULT_255_2_778
10
19.2200266
20
141.8189177
40
3.9892176
50
259.1314419
51
259.4772924
0
ARC
8
DEFAULT_255_2_778
10
18.5723251
20
138.5435131
40
0.6507003
50
249.9919323
51
260.7592458
0
ARC
8
DEFAULT_255_2_778
10
18.376901
20
138.0330546
40
0.1045718
50
178.6452075
51
254.9151907
0
ARC
8
DEFAULT_255_2_778
10
18.3939581
20
138.0296016
40
0.121744
50
93.2745253
51
177.21023
0
ARC
8
DEFAULT_255_2_778
10
18.4475726
20
137.8425052
40
0.3145287
50
89.6200387
51
101.1027534
0
ARC
8
DEFAULT_255_2_778
10
18.4613489
20
137.9558453
40
0.2015212
50
53.1490002
51
93.3256649
0
ARC
8
DEFAULT_255_2_778
10
18.4902753
20
138.0126519
40
0.1391457
50
357.2298288
51
48.6469881
0
ARC
8
DEFAULT_255_2_778
10
18.5137232
20
138.0059226
40
0.3092351
50
0.0008291
51
2.3676985
0
ARC
8
DEFAULT_255_2_778
10
18.5240744
20
138.0074868
40
0.2988304
50
2.1500394
51
60.0956838
0
ARC
8
DEFAULT_255_2_778
10
18.4654399
20
137.9009909
40
0.4203859
50
60.40452
51
86.1455285
0
ARC
8
DEFAULT_255_2_778
10
18.4424157
20
137.7241686
40
0.5984588
50
85.0841409
51
90.0629301
0
ARC
8
DEFAULT_255_2_778
10
18.4417778
20
137.8471392
40
0.4754878
50
90.0023409
51
92.3231329
0
ARC
8
DEFAULT_255_2_778
10
18.4167555
20
137.9524604
40
0.3698206
50
89.1093915
51
149.6400816
0
ARC
8
DEFAULT_255_2_778
10
18.338761
20
138.0248917
40
0.2669122
50
154.6001925
51
180.486137
0
ARC
8
DEFAULT_255_2_778
10
18.3537607
20
138.0235152
40
0.2819037
50
180.1805176
51
255.132702
0
ARC
8
DEFAULT_255_2_778
10
18.4982264
20
138.3467784
40
0.6339516
50
250.0026216
51
260.4967164
0
ARC
8
DEFAULT_255_2_778
10
16.008917
20
136.5539283
40
0.2519711
50
190.2626864
51
267.3480013
0
ARC
8
DEFAULT_255_2_778
10
16.2443543
20
136.6452548
40
0.5022041
50
179.6723028
51
195.7380858
0
ARC
8
DEFAULT_255_2_778
10
16.1790511
20
136.6607671
40
0.4370755
50
148.7005643
51
181.6572045
0
ARC
8
DEFAULT_255_2_778
10
15.9957576
20
136.7708723
40
0.2232598
50
89.6148479
51
148.4074796
0
ARC
8
DEFAULT_255_2_778
10
16.0060936
20
136.792949
40
0.201372
50
41.9769772
51
92.5146611
0
ARC
8
DEFAULT_255_2_778
10
15.9522078
20
136.7552523
40
0.2667646
50
15.1848537
51
40.2549591
0
ARC
8
DEFAULT_255_2_778
10
16.028123
20
136.7655326
40
0.3935735
50
8.7091682
51
82.0550801
0
ARC
8
DEFAULT_255_2_778
10
15.9931241
20
136.6190871
40
0.543642
50
80.5350289
51
90.1544743
0
ARC
8
DEFAULT_255_2_778
10
15.9818804
20
136.7077192
40
0.4551129
50
88.7689246
51
119.6437418
0
ARC
8
DEFAULT_255_2_778
10
16.0077717
20
136.7114647
40
0.4653013
50
122.644121
51
173.3997839
0
ARC
8
DEFAULT_255_2_778
10
16.2711934
20
136.6471568
40
0.7351371
50
170.7798304
51
180.1348114
0
ARC
8
DEFAULT_255_2_778
10
16.1377257
20
136.6317615
40
0.6018225
50
178.6988735
51
210.5289552
0
ARC
8
DEFAULT_255_2_778
10
15.970325
20
136.5409953
40
0.4115783
50
211.4828222
51
265.8686737
0
ARC
8
DEFAULT_255_2_778
10
15.9909864
20
136.6657011
40
0.5375742
50
264.6297133
51
270.0503073
0
ARC
8
DEFAULT_255_2_778
10
16.0020995
20
136.5975749
40
0.4695684
50
268.7014824
51
300.1403067
0
ARC
8
DEFAULT_255_2_778
10
16.0350333
20
136.5191852
40
0.385394
50
301.7580058
51
353.77968
0
ARC
8
DEFAULT_255_2_778
10
16.0012256
20
136.5135219
40
0.2113379
50
268.8430278
51
350.1661143
0
ARC
8
DEFAULT_255_2_778
10
18.6896799
20
136.5538824
40
0.2519281
50
190.2538303
51
267.3332171
0
ARC
8
DEFAULT_255_2_778
10
18.9252249
20
136.6452581
40
0.5022746
50
179.672724
51
195.7362088
0
ARC
8
DEFAULT_255_2_778
10
18.8600432
20
136.6607917
40
0.4372682
50
148.7196987
51
181.6596982
0
ARC
8
DEFAULT_255_2_778
10
18.676443
20
136.7709906
40
0.2231415
50
89.6108896
51
148.4244661
0
ARC
8
DEFAULT_255_2_778
10
18.686876
20
136.792967
40
0.2013576
50
42.5913083
51
92.5383066
0
ARC
8
DEFAULT_255_2_778
10
18.6345542
20
136.7565973
40
0.2646316
50
15.0085433
51
40.7215892
0
ARC
8
DEFAULT_255_2_778
10
18.708623
20
136.7655326
40
0.3935735
50
8.7091682
51
82.0550801
0
ARC
8
DEFAULT_255_2_778
10
18.6736241
20
136.6190871
40
0.543642
50
80.5350289
51
90.1544743
0
ARC
8
DEFAULT_255_2_778
10
18.6623804
20
136.7077192
40
0.4551129
50
88.7689246
51
119.6437418
0
ARC
8
DEFAULT_255_2_778
10
18.6882717
20
136.7114647
40
0.4653013
50
122.644121
51
173.3997839
0
ARC
8
DEFAULT_255_2_778
10
18.9516934
20
136.6471568
40
0.7351371
50
170.7798304
51
180.1348114
0
ARC
8
DEFAULT_255_2_778
10
18.8177822
20
136.63182
40
0.6013778
50
178.7034849
51
210.5604279
0
ARC
8
DEFAULT_255_2_778
10
18.6511312
20
136.5413377
40
0.4119265
50
211.5090145
51
265.8592607
0
ARC
8
DEFAULT_255_2_778
10
18.6716883
20
136.6654521
40
0.5373252
50
264.628472
51
270.0501277
0
ARC
8
DEFAULT_255_2_778
10
18.682837
20
136.5973685
40
0.4693629
50
268.6963312
51
300.2191972
0
ARC
8
DEFAULT_255_2_778
10
18.7155684
20
136.5194124
40
0.3856821
50
301.8465101
51
353.7503927
0
ARC
8
DEFAULT_255_2_778
10
18.6820648
20
136.5133604
40
0.2111733
50
268.8857714
51
350.2028431
0
LINE
8
DEFAULT_255_2_778
10
15.4577584
20
137.6074271
11
15.2656584
21
137.6074271
0
LINE
8
DEFAULT_255_2_778
10
15.8405584
20
138.0059271
11
16.0342584
21
138.0059271
0
LINE
8
DEFAULT_255_2_778
10
18.2459584
20
137.6074271
11
18.0540584
21
137.6074271
0
LINE
8
DEFAULT_255_2_778
10
18.6292584
20
138.0059271
11
18.8229584
21
138.0059271
0
LINE
8
DEFAULT_255_2_778
10
16.2096584
20
136.8251271
11
16.4171584
21
136.8251271
0
LINE
8
DEFAULT_255_2_778
10
16.4181584
20
136.4774271
11
16.2094584
21
136.4774271
0
LINE
8
DEFAULT_255_2_778
10
18.8901584
20
136.8251271
11
19.0976584
21
136.8251271
0
LINE
8
DEFAULT_255_2_778
10
19.0989584
20
136.4774271
11
18.8901584
21
136.4774271
0
LINE
8
DEFAULT_255_1_388
10
11.4236661
20
134.3356589
11
11.4236661
21
134.2516274
0
LINE
8
DEFAULT_255_1_388
10
11.1932571
20
133.7076816
11
11.4281839
21
133.5233544
0
LINE
8
DEFAULT_255_1_388
10
11.4281839
20
133.5233544
11
11.3098169
21
133.4140231
0
LINE
8
DEFAULT_255_1_388
10
11.3098169
20
133.4140231
11
11.0324227
21
133.6344929
0
LINE
8
DEFAULT_255_1_388
10
10.3646885
20
134.2398811
11
10.3646885
21
134.3347553
0
LINE
8
DEFAULT_255_1_388
10
11.2501817
20
134.2389775
11
11.2501817
21
134.3365625
0
LINE
8
DEFAULT_255_1_388
10
10.5381729
20
134.3483088
11
10.5381729
21
134.2516274
0
ARC
8
DEFAULT_255_1_388
10
10.416354
20
134.2472529
40
1.0073215
50
351.4530536
51
0.2488167
0
ARC
8
DEFAULT_255_1_388
10
10.7071709
20
134.2022749
40
0.7130509
50
338.6860608
51
351.554089
0
ARC
8
DEFAULT_255_1_388
10
10.8124166
20
134.1650573
40
0.6014866
50
336.2886209
51
338.3448103
0
ARC
8
DEFAULT_255_1_388
10
10.850441
20
134.1441952
40
0.5582958
50
321.1168943
51
336.6796496
0
ARC
8
DEFAULT_255_1_388
10
10.9215183
20
134.0894644
40
0.4686152
50
305.4418419
51
320.8706891
0
ARC
8
DEFAULT_255_1_388
10
10.8994048
20
134.1735492
40
0.5552257
50
271.6372169
51
283.8614231
0
ARC
8
DEFAULT_255_1_388
10
10.8951501
20
134.2476271
40
0.6293984
50
269.993693
51
271.8317035
0
ARC
8
DEFAULT_255_1_388
10
10.8909326
20
134.156468
40
0.5382553
50
252.5221437
51
270.441579
0
ARC
8
DEFAULT_255_1_388
10
10.8747576
20
134.0958046
40
0.4755426
50
237.5349961
51
252.1858334
0
ARC
8
DEFAULT_255_1_388
10
10.8847952
20
134.108612
40
0.4917393
50
209.0632754
51
237.3492577
0
ARC
8
DEFAULT_255_1_388
10
10.9827278
20
134.1701104
40
0.6072464
50
205.118533
51
209.6465345
0
ARC
8
DEFAULT_255_1_388
10
11.072328
20
134.2081174
40
0.7045164
50
188.7216633
51
204.8239753
0
ARC
8
DEFAULT_255_1_388
10
11.2970056
20
134.2459387
40
0.9323368
50
180.3722704
51
188.9253909
0
ARC
8
DEFAULT_255_1_388
10
11.2939617
20
134.3392416
40
0.929284
50
169.5253055
51
180.2766048
0
ARC
8
DEFAULT_255_1_388
10
11.0799416
20
134.3786024
40
0.7116745
50
155.8314601
51
169.5088611
0
ARC
8
DEFAULT_255_1_388
10
10.9358879
20
134.4454312
40
0.5528904
50
139.6259579
51
156.0379072
0
ARC
8
DEFAULT_255_1_388
10
10.8695413
20
134.4988143
40
0.4677708
50
122.6414784
51
139.3431662
0
ARC
8
DEFAULT_255_1_388
10
10.8808668
20
134.4781787
40
0.4912586
50
93.0224537
51
122.4556091
0
ARC
8
DEFAULT_255_1_388
10
10.8930189
20
134.3695776
40
0.6003837
50
89.9756766
51
93.6340839
0
ARC
8
DEFAULT_255_1_388
10
10.8973886
20
134.4123547
40
0.5576216
50
73.9666049
51
90.4228101
0
ARC
8
DEFAULT_255_1_388
10
10.9180535
20
134.4928139
40
0.4745905
50
57.5177173
51
73.6814962
0
ARC
8
DEFAULT_255_1_388
10
10.9130759
20
134.4887592
40
0.4806881
50
28.7260666
51
57.2767723
0
ARC
8
DEFAULT_255_1_388
10
10.8106166
20
134.4254397
40
0.6010032
50
24.2451459
51
29.3250018
0
ARC
8
DEFAULT_255_1_388
10
10.7064631
20
134.3823744
40
0.713663
50
9.0643887
51
23.9639114
0
ARC
8
DEFAULT_255_1_388
10
10.4527068
20
134.3397505
40
0.9709678
50
359.7585581
51
9.1891216
0
ARC
8
DEFAULT_255_1_388
10
10.3115656
20
134.3412562
40
0.9386278
50
359.7134836
51
7.9655743
0
ARC
8
DEFAULT_255_1_388
10
10.6448355
20
134.3893391
40
0.6019121
50
7.8289718
51
20.0423308
0
ARC
8
DEFAULT_255_1_388
10
10.8275823
20
134.4558145
40
0.4074504
50
20.0676743
51
35.9162425
0
ARC
8
DEFAULT_255_1_388
10
10.9147702
20
134.5206196
40
0.2988273
50
35.659429
51
85.1578517
0
ARC
8
DEFAULT_255_1_388
10
10.8939864
20
134.3951214
40
0.4257521
50
83.7963246
51
90.0959039
0
ARC
8
DEFAULT_255_1_388
10
10.8891408
20
134.4776384
40
0.3432594
50
89.3101324
51
109.9889786
0
ARC
8
DEFAULT_255_1_388
10
10.8798598
20
134.5176665
40
0.3025108
50
110.9286914
51
143.9411475
0
ARC
8
DEFAULT_255_1_388
10
10.98459
20
134.4375455
40
0.434348
50
143.5289166
51
163.2980252
0
ARC
8
DEFAULT_255_1_388
10
11.1992187
20
134.3700685
40
0.659321
50
163.0418884
51
174.3139873
0
ARC
8
DEFAULT_255_1_388
10
11.4697152
20
134.3388378
40
0.9315905
50
174.050934
51
179.4174954
0
ARC
8
DEFAULT_255_1_388
10
11.4118866
20
134.2467922
40
0.8737271
50
179.6829249
51
188.9631837
0
ARC
8
DEFAULT_255_1_388
10
11.1114597
20
134.1978648
40
0.569348
50
188.8098723
51
202.9300437
0
ARC
8
DEFAULT_255_1_388
10
10.9746329
20
134.1421968
40
0.4216493
50
203.2071737
51
215.7877161
0
ARC
8
DEFAULT_255_1_388
10
10.8791612
20
134.066685
40
0.3000949
50
214.7520738
51
264.283405
0
ARC
8
DEFAULT_255_1_388
10
10.8944203
20
134.1628645
40
0.3973553
50
263.4754673
51
270.0952411
0
ARC
8
DEFAULT_255_1_388
10
10.8991596
20
134.1334808
40
0.3679937
50
269.3649295
51
287.5149684
0
ARC
8
DEFAULT_255_1_388
10
10.9192037
20
134.0606714
40
0.2925408
50
288.0629019
51
323.8115617
0
ARC
8
DEFAULT_255_1_388
10
10.8212013
20
134.1337754
40
0.4148018
50
323.6546541
51
342.6591359
0
ARC
8
DEFAULT_255_1_388
10
10.5926671
20
134.208128
40
0.6551163
50
342.4092446
51
353.6451501
0
ARC
8
DEFAULT_255_1_388
10
10.2741465
20
134.2477565
40
0.9760748
50
353.4027553
51
359.4846611
0
LINE
8
DEFAULT_255_1_388
10
12.4708973
20
134.2633737
11
12.4708973
21
134.1269355
0
LINE
8
DEFAULT_255_1_388
10
12.4708973
20
134.1269355
11
12.0299578
21
134.1269355
0
LINE
8
DEFAULT_255_1_388
10
12.0299578
20
134.1269355
11
12.0299578
21
134.2633737
0
LINE
8
DEFAULT_255_1_388
10
12.0299578
20
134.2633737
11
12.4708973
21
134.2633737
0
LINE
8
DEFAULT_255_1_388
10
13.9906927
20
134.5714892
11
13.8163047
21
134.5714892
0
LINE
8
DEFAULT_255_1_388
10
13.0374322
20
134.0176042
11
13.2118201
21
134.0176042
0
ARC
8
DEFAULT_255_1_388
10
13.8903774
20
135.5778821
40
1.4087688
50
248.9196578
51
254.1442424
0
ARC
8
DEFAULT_255_1_388
10
13.7013655
20
135.0912805
40
0.8867498
50
241.6337352
51
249.0064643
0
ARC
8
DEFAULT_255_1_388
10
13.5293968
20
134.7761764
40
0.5277799
50
230.4982261
51
241.8087583
0
ARC
8
DEFAULT_255_1_388
10
13.4411739
20
134.6637686
40
0.3849419
50
227.4062979
51
229.9877433
0
ARC
8
DEFAULT_255_1_388
10
13.3863085
20
134.6102155
40
0.3084129
50
200.6782127
51
228.1765252
0
ARC
8
DEFAULT_255_1_388
10
13.3944454
20
134.6085277
40
0.315461
50
179.506278
51
199.8695278
0
ARC
8
DEFAULT_255_1_388
10
13.3934043
20
134.6168671
40
0.3144584
50
132.4834401
51
181.0242352
0
ARC
8
DEFAULT_255_1_388
10
13.4603247
20
134.5536788
40
0.4063094
50
129.2526113
51
133.4249077
0
ARC
8
DEFAULT_255_1_388
10
13.476884
20
134.5288619
40
0.436014
50
101.9878945
51
128.8741833
0
ARC
8
DEFAULT_255_1_388
10
13.5217255
20
134.335236
40
0.6347415
50
89.5906376
51
102.3170567
0
ARC
8
DEFAULT_255_1_388
10
13.5296567
20
134.3710586
40
0.5989122
50
77.2359491
51
90.3248968
0
ARC
8
DEFAULT_255_1_388
10
13.5529498
20
134.4798554
40
0.4876594
50
63.8379856
51
77.0808925
0
ARC
8
DEFAULT_255_1_388
10
13.5842031
20
134.5380882
40
0.4216191
50
45.9863127
51
64.1608798
0
ARC
8
DEFAULT_255_1_388
10
13.6135425
20
134.571599
40
0.3771394
50
32.2747934
51
45.6544796
0
ARC
8
DEFAULT_255_1_388
10
13.6210231
20
134.5737426
40
0.3696765
50
359.6507495
51
32.6129943
0
ARC
8
DEFAULT_255_1_388
10
13.5149414
20
134.5742788
40
0.3013762
50
359.469654
51
14.983205
0
ARC
8
DEFAULT_255_1_388
10
13.5942666
20
134.5955288
40
0.2192542
50
14.9781954
51
48.2004799
0
ARC
8
DEFAULT_255_1_388
10
13.5757777
20
134.5722937
40
0.2489048
50
48.5926661
51
74.1242559
0
ARC
8
DEFAULT_255_1_388
10
13.538258
20
134.4484607
40
0.3782845
50
73.7889321
51
86.6653996
0
ARC
8
DEFAULT_255_1_388
10
13.5267394
20
134.3126955
40
0.5145025
50
86.2642725
51
90.0533288
0
ARC
8
DEFAULT_255_1_388
10
13.5235487
20
134.3571376
40
0.4700681
50
89.669455
51
99.2313411
0
ARC
8
DEFAULT_255_1_388
10
13.4962647
20
134.5196401
40
0.3052945
50
99.0695987
51
113.7659242
0
ARC
8
DEFAULT_255_1_388
10
13.4654641
20
134.5922772
40
0.226407
50
114.0402885
51
127.9848946
0
ARC
8
DEFAULT_255_1_388
10
13.4384117
20
134.6255884
40
0.1835045
50
127.7287217
51
176.7106493
0
ARC
8
DEFAULT_255_1_388
10
13.5147782
20
134.614221
40
0.2604907
50
175.1780759
51
180.0581213
0
ARC
8
DEFAULT_255_1_388
10
13.4199126
20
134.6128411
40
0.1656287
50
179.6140658
51
228.124674
0
ARC
8
DEFAULT_255_1_388
10
13.4696483
20
134.658894
40
0.2332038
50
226.5785315
51
230.8792476
0
ARC
8
DEFAULT_255_1_388
10
13.522597
20
134.7291908
40
0.3211664
50
231.4636401
51
241.9261664
0
ARC
8
DEFAULT_255_1_388
10
13.6572753
20
134.9770349
40
0.6032345
50
241.7177136
51
248.3259138
0
ARC
8
DEFAULT_255_1_388
10
13.8131348
20
135.3631771
40
1.0196417
50
248.2007377
51
252.4527713
0
ARC
8
DEFAULT_255_1_388
10
13.9484875
20
135.7816092
40
1.4594143
50
252.3388938
51
254.347037
0
ARC
8
DEFAULT_255_1_388
10
13.1000175
20
132.7468095
40
1.6917621
50
71.0197462
51
74.4085467
0
ARC
8
DEFAULT_255_1_388
10
13.2907263
20
133.2973144
40
1.1091618
50
66.1845203
51
71.086519
0
ARC
8
DEFAULT_255_1_388
10
13.4657812
20
133.6914439
40
0.6779073
50
59.3537334
51
66.269255
0
ARC
8
DEFAULT_255_1_388
10
13.5657538
20
133.8605777
40
0.4814366
50
49.1021732
51
59.3294421
0
ARC
8
DEFAULT_255_1_388
10
13.6578526
20
133.9655575
40
0.3417875
50
32.7924183
51
49.2503526
0
ARC
8
DEFAULT_255_1_388
10
13.6928141
20
133.9905311
40
0.2988789
50
31.121225
51
32.3977355
0
ARC
8
DEFAULT_255_1_388
10
13.6840319
20
133.9872728
40
0.3080861
50
8.1116803
51
30.7958224
0
ARC
8
DEFAULT_255_1_388
10
13.5928664
20
133.9717437
40
0.4005385
50
359.8390945
51
8.4707348
0
ARC
8
DEFAULT_255_1_388
10
13.6632712
20
133.9662751
40
0.3301608
50
337.4732479
51
0.7538283
0
ARC
8
DEFAULT_255_1_388
10
13.6833737
20
133.9640554
40
0.3107929
50
307.5917028
51
336.4313755
0
ARC
8
DEFAULT_255_1_388
10
13.6322795
20
134.0208509
40
0.3870096
50
307.6560665
51
308.4561779
0
ARC
8
DEFAULT_255_1_388
10
13.6057011
20
134.0616832
40
0.435591
50
284.3733666
51
307.1426212
0
ARC
8
DEFAULT_255_1_388
10
13.5499906
20
134.2666391
40
0.6479685
50
272.4384566
51
284.6464689
0
ARC
8
DEFAULT_255_1_388
10
13.535729
20
134.4690434
40
0.8508149
50
269.9708517
51
272.8180721
0
ARC
8
DEFAULT_255_1_388
10
13.5308973
20
134.2398283
40
0.6216151
50
248.2707343
51
270.4054609
0
ARC
8
DEFAULT_255_1_388
10
13.5247844
20
134.2183673
40
0.5994203
50
246.1380358
51
248.054058
0
ARC
8
DEFAULT_255_1_388
10
13.4776987
20
134.1194705
40
0.4899388
50
233.1671897
51
246.4951656
0
ARC
8
DEFAULT_255_1_388
10
13.4153622
20
134.0353137
40
0.3852115
50
215.3403381
51
233.084328
0
ARC
8
DEFAULT_255_1_388
10
13.3846986
20
134.0130093
40
0.3472969
50
179.2419235
51
215.2648426
0
ARC
8
DEFAULT_255_1_388
10
13.4710537
20
134.0145979
40
0.259251
50
179.3355796
51
199.1045873
0
ARC
8
DEFAULT_255_1_388
10
13.4336679
20
134.0048223
40
0.2207454
50
199.8830064
51
232.7061328
0
ARC
8
DEFAULT_255_1_388
10
13.4867953
20
134.0716456
40
0.306101
50
232.3736206
51
255.5136621
0
ARC
8
DEFAULT_255_1_388
10
13.5251459
20
134.2116177
40
0.4512213
50
255.2447928
51
267.5318292
0
ARC
8
DEFAULT_255_1_388
10
13.5349926
20
134.3502709
40
0.5901825
50
267.1564563
51
270.0294721
0
ARC
8
DEFAULT_255_1_388
10
13.5381251
20
134.3003623
40
0.5402814
50
269.6999944
51
278.1662446
0
ARC
8
DEFAULT_255_1_388
10
13.5669279
20
134.1056974
40
0.3435003
50
278.0229022
51
290.6255326
0
ARC
8
DEFAULT_255_1_388
10
13.6060446
20
134.0013547
40
0.2320666
50
290.6616368
51
307.0374127
0
ARC
8
DEFAULT_255_1_388
10
13.6398345
20
133.959904
40
0.1786372
50
306.3942078
51
355.303191
0
ARC
8
DEFAULT_255_1_388
10
13.5822639
20
133.9685186
40
0.2367516
50
354.3662092
51
0.0709489
0
ARC
8
DEFAULT_255_1_388
10
13.5982507
20
133.9710561
40
0.2207761
50
359.4175379
51
16.1975911
0
ARC
8
DEFAULT_255_1_388
10
13.6494625
20
133.9850954
40
0.1676828
50
16.4721294
51
52.6261798
0
ARC
8
DEFAULT_255_1_388
10
13.5571133
20
133.8631606
40
0.3206412
50
52.7381828
51
62.4979144
0
ARC
8
DEFAULT_255_1_388
10
13.4012885
20
133.5699236
40
0.6527035
50
62.2517425
51
68.1219454
0
ARC
8
DEFAULT_255_1_388
10
13.2078373
20
133.0944951
40
1.1659797
50
68.006043
51
71.8055127
0
ARC
8
DEFAULT_255_1_388
10
13.0058281
20
132.4886723
40
1.8045908
50
71.718361
51
73.9260743
0
LINE
8
DEFAULT_255_1_388
10
14.1470093
20
134.0980214
11
14.1470093
21
134.1287426
0
LINE
8
DEFAULT_255_1_388
10
14.9764815
20
134.1468139
11
14.9764815
21
134.0772395
0
LINE
8
DEFAULT_255_1_388
10
14.9764815
20
134.0772395
11
14.3141688
21
134.0772395
0
LINE
8
DEFAULT_255_1_388
10
14.8617288
20
133.8865874
11
14.9638316
21
133.8070737
0
LINE
8
DEFAULT_255_1_388
10
14.3195901
20
134.2145813
11
14.8093221
21
134.2145813
0
LINE
8
DEFAULT_255_1_388
10
14.8093221
20
134.2145813
11
14.8093221
21
134.2272312
0
ARC
8
DEFAULT_255_1_388
10
14.5901854
20
134.110521
40
0.4923176
50
252.326534
51
270.5809615
0
ARC
8
DEFAULT_255_1_388
10
14.5671319
20
134.027194
40
0.4059384
50
223.3000488
51
251.8562489
0
ARC
8
DEFAULT_255_1_388
10
14.5909099
20
134.0502898
40
0.4390832
50
190.9374369
51
223.3654369
0
ARC
8
DEFAULT_255_1_388
10
14.7849777
20
134.0941598
40
0.63798
50
179.6531919
51
191.4988561
0
ARC
8
DEFAULT_255_1_388
10
14.7986804
20
134.1323571
40
0.6516811
50
167.4005523
51
180.3177836
0
ARC
8
DEFAULT_255_1_388
10
14.6803475
20
134.1573853
40
0.5307402
50
154.1835149
51
167.2508278
0
ARC
8
DEFAULT_255_1_388
10
14.6093066
20
134.1947925
40
0.4505076
50
134.3150225
51
154.5315008
0
ARC
8
DEFAULT_255_1_388
10
14.5848401
20
134.216255
40
0.4180662
50
122.8617482
51
133.9707159
0
ARC
8
DEFAULT_255_1_388
10
14.5732008
20
134.2412882
40
0.3907416
50
89.8248474
51
123.4199325
0
ARC
8
DEFAULT_255_1_388
10
14.5788306
20
134.1685352
40
0.4635141
50
74.7874349
51
90.5482648
0
ARC
8
DEFAULT_255_1_388
10
14.611877
20
134.2905987
40
0.3370565
50
39.8178888
51
74.7634383
0
ARC
8
DEFAULT_255_1_388
10
14.5542012
20
134.2456356
40
0.4101553
50
16.8990848
51
39.4830125
0
ARC
8
DEFAULT_255_1_388
10
14.3410627
20
134.1773711
40
0.6339427
50
4.9634768
51
17.2027767
0
ARC
8
DEFAULT_255_1_388
10
14.0690031
20
134.14866
40
0.9074803
50
359.8834402
51
5.2832409
0
ARC
8
DEFAULT_255_1_388
10
14.7482389
20
134.0846981
40
0.4341343
50
180.9844233
51
194.9402766
0
ARC
8
DEFAULT_255_1_388
10
14.6301555
20
134.052417
40
0.3117211
50
194.8030557
51
222.0412897
0
ARC
8
DEFAULT_255_1_388
10
14.5959427
20
134.0184715
40
0.2635903
50
221.541578
51
268.8616004
0
ARC
8
DEFAULT_255_1_388
10
14.6041548
20
134.094528
40
0.3398611
50
267.7321071
51
270.009808
0
ARC
8
DEFAULT_255_1_388
10
14.6061611
20
134.1172178
40
0.3625561
50
269.6921218
51
280.4122297
0
ARC
8
DEFAULT_255_1_388
10
14.6260023
20
134.0138767
40
0.2573323
50
280.2257165
51
298.633539
0
ARC
8
DEFAULT_255_1_388
10
14.6385436
20
133.9874578
40
0.2281403
50
299.0485543
51
300.4624141
0
ARC
8
DEFAULT_255_1_388
10
14.5626417
20
134.1139796
40
0.3756797
50
300.6578578
51
322.037749
0
ARC
8
DEFAULT_255_1_388
10
14.5255938
20
134.1463266
40
0.4247956
50
321.671786
51
322.3059078
0
ARC
8
DEFAULT_255_1_388
10
14.6279501
20
134.0169267
40
0.3960488
50
276.9729088
51
328.0035579
0
ARC
8
DEFAULT_255_1_388
10
14.5967972
20
134.1834609
40
0.5652345
50
269.8358003
51
278.0581296
0
ARC
8
DEFAULT_255_1_388
10
14.5712271
20
134.267282
40
0.2274263
50
89.2017936
51
117.2852353
0
ARC
8
DEFAULT_255_1_388
10
14.5772021
20
134.2625637
40
0.2343798
50
118.0546404
51
137.4544511
0
ARC
8
DEFAULT_255_1_388
10
14.6193665
20
134.2242556
40
0.2913471
50
137.5109688
51
158.8516701
0
ARC
8
DEFAULT_255_1_388
10
14.7473765
20
134.1725902
40
0.4293804
50
158.5845496
51
170.1719753
0
ARC
8
DEFAULT_255_1_388
10
14.8790101
20
134.1464519
40
0.5635533
50
169.8378964
51
173.0563877
0
ARC
8
DEFAULT_255_1_388
10
14.3505385
20
134.2039187
40
0.4593755
50
2.9089079
51
12.88469
0
ARC
8
DEFAULT_255_1_388
10
14.5047304
20
134.2402082
40
0.3009753
50
12.6957404
51
28.6405841
0
ARC
8
DEFAULT_255_1_388
10
14.5656801
20
134.2717577
40
0.232366
50
29.016559
51
41.1492981
0
ARC
8
DEFAULT_255_1_388
10
14.588478
20
134.291608
40
0.2021373
50
41.1646967
51
85.001362
0
ARC
8
DEFAULT_255_1_388
10
14.5748784
20
134.2089775
40
0.2857091
50
83.728216
51
90.0968824
0
LINE
8
DEFAULT_255_1_388
10
15.6424085
20
134.6193781
11
15.6424085
21
134.463965
0
LINE
8
DEFAULT_255_1_388
10
15.3370037
20
134.3302375
11
15.3370037
21
133.6363
0
LINE
8
DEFAULT_255_1_388
10
15.3370037
20
133.6363
11
15.1698443
21
133.6363
0
LINE
8
DEFAULT_255_1_388
10
15.1698443
20
133.6363
11
15.1698443
21
134.6139567
0
LINE
8
DEFAULT_255_1_388
10
15.1698443
20
134.6139567
11
15.3324859
21
134.6139567
0
LINE
8
DEFAULT_255_1_388
10
15.3324859
20
134.6139567
11
15.3351966
21
134.5010112
0
ARC
8
DEFAULT_255_1_388
10
15.5674245
20
134.0073068
40
0.4627735
50
80.6751522
51
86.893806
0
ARC
8
DEFAULT_255_1_388
10
15.5606075
20
133.8981103
40
0.5721798
50
86.8046851
51
90.0423898
0
ARC
8
DEFAULT_255_1_388
10
15.5564494
20
134.1748197
40
0.2954939
50
89.2758283
51
106.6212906
0
ARC
8
DEFAULT_255_1_388
10
15.5334519
20
134.2584009
40
0.2088351
50
107.1347109
51
157.6456887
0
ARC
8
DEFAULT_255_1_388
10
15.6102581
20
134.2156908
40
0.296292
50
155.6557383
51
157.256838
0
ARC
8
DEFAULT_255_1_388
10
15.5882195
20
134.3467472
40
0.296341
50
127.8167201
51
148.6300223
0
ARC
8
DEFAULT_255_1_388
10
15.5596942
20
134.3760066
40
0.2557782
50
91.3329934
51
126.7875218
0
ARC
8
DEFAULT_255_1_388
10
15.568233
20
134.2956718
40
0.3363561
50
89.9858247
51
92.4688453
0
ARC
8
DEFAULT_255_1_388
10
15.5691823
20
134.3265114
40
0.3055179
50
85.3587643
51
90.1624243
0
ARC
8
DEFAULT_255_1_388
10
15.5786888
20
134.4394458
40
0.1921848
50
78.4019195
51
85.4592653
0
ARC
8
DEFAULT_255_1_388
10
15.5949949
20
134.5172142
40
0.1127267
50
67.7849217
51
78.573798
0
ARC
8
DEFAULT_255_1_388
10
15.6071583
20
134.5487374
40
0.0789473
50
63.4805074
51
67.3074739
0
LINE
8
DEFAULT_255_1_388
10
15.9776309
20
134.6139567
11
15.9776309
21
133.6363
0
LINE
8
DEFAULT_255_1_388
10
15.9776309
20
133.6363
11
15.8104715
21
133.6363
0
LINE
8
DEFAULT_255_1_388
10
15.8104715
20
133.6363
11
15.8104715
21
134.6139567
0
LINE
8
DEFAULT_255_1_388
10
15.8104715
20
134.6139567
11
15.9776309
21
134.6139567
0
ARC
8
DEFAULT_255_1_388
10
15.9070077
20
134.8743428
40
0.1100948
50
161.4148232
51
180.5532607
0
ARC
8
DEFAULT_255_1_388
10
15.8930387
20
134.8781875
40
0.0956324
50
138.1830164
51
160.9307633
0
ARC
8
DEFAULT_255_1_388
10
15.8806574
20
134.8889313
40
0.0792417
50
104.6371663
51
138.0036136
0
ARC
8
DEFAULT_255_1_388
10
15.8927113
20
134.8476963
40
0.1221906
50
92.0601206
51
105.2198859
0
ARC
8
DEFAULT_255_1_388
10
15.8953477
20
134.8088583
40
0.161103
50
89.9790681
51
92.5006086
0
ARC
8
DEFAULT_255_1_388
10
15.8964653
20
134.8344998
40
0.1354654
50
78.0234649
51
90.4478111
0
ARC
8
DEFAULT_255_1_388
10
15.9068237
20
134.8810203
40
0.0878096
50
55.0521508
51
78.336297
0
ARC
8
DEFAULT_255_1_388
10
15.9124772
20
134.8905168
40
0.0767913
50
42.0506198
51
54.4508489
0
ARC
8
DEFAULT_255_1_388
10
15.8972805
20
134.8765821
40
0.0974091
50
1.7493657
51
42.1498724
0
ARC
8
DEFAULT_255_1_388
10
15.868671
20
134.8733166
40
0.1261276
50
359.9832635
51
2.8353994
0
ARC
8
DEFAULT_255_1_388
10
15.887312
20
134.8722412
40
0.1074916
50
342.1062453
51
0.5535864
0
ARC
8
DEFAULT_255_1_388
10
15.9033544
20
134.8678197
40
0.0908695
50
316.7110111
51
341.6513114
0
ARC
8
DEFAULT_255_1_388
10
15.9108976
20
134.8610607
40
0.0807447
50
285.4398289
51
316.5320129
0
ARC
8
DEFAULT_255_1_388
10
15.8985147
20
134.9022023
40
0.1237022
50
272.3543902
51
285.8951677
0
ARC
8
DEFAULT_255_1_388
10
15.8954857
20
134.9437742
40
0.1653687
50
269.9725761
51
272.8112722
0
ARC
8
DEFAULT_255_1_388
10
15.8943909
20
134.9186727
40
0.1402709
50
258.8433431
51
270.4148607
0
ARC
8
DEFAULT_255_1_388
10
15.8842689
20
134.8696739
40
0.0902407
50
238.54281
51
259.1289544
0
ARC
8
DEFAULT_255_1_388
10
15.876601
20
134.8557694
40
0.0743817
50
222.5056676
51
237.9918132
0
ARC
8
DEFAULT_255_1_388
10
15.8909604
20
134.8688295
40
0.0937918
50
184.1070774
51
222.4604165
0
ARC
8
DEFAULT_255_1_388
10
15.9212017
20
134.8731538
40
0.1242838
50
179.9419581
51
185.0970785
0
LINE
8
DEFAULT_255_1_388
10
16.2026185
20
134.0980214
11
16.2026185
21
134.1287426
0
LINE
8
DEFAULT_255_1_388
10
17.0320906
20
134.1468139
11
17.0320906
21
134.0772395
0
LINE
8
DEFAULT_255_1_388
10
17.0320906
20
134.0772395
11
16.3697779
21
134.0772395
0
LINE
8
DEFAULT_255_1_388
10
16.9173379
20
133.8865874
11
17.0194407
21
133.8070737
0
LINE
8
DEFAULT_255_1_388
10
16.3751993
20
134.2145813
11
16.8649312
21
134.2145813
0
LINE
8
DEFAULT_255_1_388
10
16.8649312
20
134.2145813
11
16.8649312
21
134.2272312
0
ARC
8
DEFAULT_255_1_388
10
16.6457946
20
134.110521
40
0.4923176
50
252.326534
51
270.5809615
0
ARC
8
DEFAULT_255_1_388
10
16.622741
20
134.027194
40
0.4059384
50
223.3000488
51
251.8562489
0
ARC
8
DEFAULT_255_1_388
10
16.646519
20
134.0502898
40
0.4390832
50
190.9374369
51
223.3654369
0
ARC
8
DEFAULT_255_1_388
10
16.8405868
20
134.0941598
40
0.63798
50
179.6531919
51
191.4988561
0
ARC
8
DEFAULT_255_1_388
10
16.8542895
20
134.1323571
40
0.6516811
50
167.4005523
51
180.3177836
0
ARC
8
DEFAULT_255_1_388
10
16.7359566
20
134.1573853
40
0.5307402
50
154.1835149
51
167.2508278
0
ARC
8
DEFAULT_255_1_388
10
16.6649157
20
134.1947925
40
0.4505076
50
134.3150225
51
154.5315008
0
ARC
8
DEFAULT_255_1_388
10
16.6404492
20
134.216255
40
0.4180662
50
122.8617482
51
133.9707159
0
ARC
8
DEFAULT_255_1_388
10
16.62881
20
134.2412882
40
0.3907416
50
89.8248474
51
123.4199325
0
ARC
8
DEFAULT_255_1_388
10
16.6344398
20
134.1685352
40
0.4635141
50
74.7874349
51
90.5482648
0
ARC
8
DEFAULT_255_1_388
10
16.6674861
20
134.2905987
40
0.3370565
50
39.8178888
51
74.7634383
0
ARC
8
DEFAULT_255_1_388
10
16.6098104
20
134.2456356
40
0.4101553
50
16.8990848
51
39.4830125
0
ARC
8
DEFAULT_255_1_388
10
16.3966718
20
134.1773711
40
0.6339427
50
4.9634768
51
17.2027767
0
ARC
8
DEFAULT_255_1_388
10
16.1246123
20
134.14866
40
0.9074803
50
359.8834402
51
5.2832409
0
ARC
8
DEFAULT_255_1_388
10
16.8038481
20
134.0846981
40
0.4341343
50
180.9844233
51
194.9402766
0
ARC
8
DEFAULT_255_1_388
10
16.6857646
20
134.052417
40
0.3117211
50
194.8030557
51
222.0412897
0
ARC
8
DEFAULT_255_1_388
10
16.6515518
20
134.0184715
40
0.2635903
50
221.541578
51
268.8616004
0
ARC
8
DEFAULT_255_1_388
10
16.6597639
20
134.094528
40
0.3398611
50
267.7321071
51
270.009808
0
ARC
8
DEFAULT_255_1_388
10
16.6617703
20
134.1172178
40
0.3625561
50
269.6921218
51
280.4122297
0
ARC
8
DEFAULT_255_1_388
10
16.6816114
20
134.0138767
40
0.2573323
50
280.2257165
51
298.633539
0
ARC
8
DEFAULT_255_1_388
10
16.6941528
20
133.9874578
40
0.2281403
50
299.0485543
51
300.4624141
0
ARC
8
DEFAULT_255_1_388
10
16.6182508
20
134.1139796
40
0.3756797
50
300.6578578
51
322.037749
0
ARC
8
DEFAULT_255_1_388
10
16.581203
20
134.1463266
40
0.4247956
50
321.671786
51
322.3059078
0
ARC
8
DEFAULT_255_1_388
10
16.6835592
20
134.0169267
40
0.3960488
50
276.9729088
51
328.0035579
0
ARC
8
DEFAULT_255_1_388
10
16.6524063
20
134.1834609
40
0.5652345
50
269.8358003
51
278.0581296
0
ARC
8
DEFAULT_255_1_388
10
16.6268362
20
134.267282
40
0.2274263
50
89.2017936
51
117.2852353
0
ARC
8
DEFAULT_255_1_388
10
16.6328113
20
134.2625637
40
0.2343798
50
118.0546404
51
137.4544511
0
ARC
8
DEFAULT_255_1_388
10
16.6749756
20
134.2242556
40
0.2913471
50
137.5109688
51
158.8516701
0
ARC
8
DEFAULT_255_1_388
10
16.8029857
20
134.1725902
40
0.4293804
50
158.5845496
51
170.1719753
0
ARC
8
DEFAULT_255_1_388
10
16.9346192
20
134.1464519
40
0.5635533
50
169.8378964
51
173.0563877
0
ARC
8
DEFAULT_255_1_388
10
16.4061476
20
134.2039187
40
0.4593755
50
2.9089079
51
12.88469
0
ARC
8
DEFAULT_255_1_388
10
16.5603396
20
134.2402082
40
0.3009753
50
12.6957404
51
28.6405841
0
ARC
8
DEFAULT_255_1_388
10
16.6212892
20
134.2717577
40
0.232366
50
29.016559
51
41.1492981
0
ARC
8
DEFAULT_255_1_388
10
16.6440871
20
134.291608
40
0.2021373
50
41.1646967
51
85.001362
0
ARC
8
DEFAULT_255_1_388
10
16.6304876
20
134.2089775
40
0.2857091
50
83.728216
51
90.0968824
0
LINE
8
DEFAULT_255_1_388
10
17.9528228
20
134.3266232
11
17.7847598
21
134.3266232
0
LINE
8
DEFAULT_255_1_388
10
17.184793
20
133.937187
11
17.3519524
21
133.937187
0
ARC
8
DEFAULT_255_1_388
10
17.6510889
20
133.8972935
40
0.1436198
50
359.3335374
51
18.5869869
0
ARC
8
DEFAULT_255_1_388
10
17.6745628
20
133.9035015
40
0.1194022
50
19.3538149
51
54.6486387
0
ARC
8
DEFAULT_255_1_388
10
17.6178616
20
133.8253077
40
0.2159877
50
54.3821575
51
65.0627557
0
ARC
8
DEFAULT_255_1_388
10
17.5313963
20
133.6434032
40
0.4173927
50
64.8282172
51
71.4204388
0
ARC
8
DEFAULT_255_1_388
10
17.4298859
20
133.3455782
40
0.7320403
50
71.3166092
51
75.8005927
0
ARC
8
DEFAULT_255_1_388
10
17.3352744
20
132.9810881
40
1.108605
50
75.6810806
51
78.0063886
0
ARC
8
DEFAULT_255_1_388
10
17.8357333
20
135.341253
40
1.3040363
50
254.69024
51
258.0465557
0
ARC
8
DEFAULT_255_1_388
10
17.7189202
20
134.9182742
40
0.8652254
50
249.9010634
51
254.7555005
0
ARC
8
DEFAULT_255_1_388
10
17.6060254
20
134.611668
40
0.5384962
50
243.3097375
51
249.970939
0
ARC
8
DEFAULT_255_1_388
10
17.5352668
20
134.4705721
40
0.380652
50
234.4047808
51
243.2861752
0
ARC
8
DEFAULT_255_1_388
10
17.4652304
20
134.3738645
40
0.2612502
50
220.8665526
51
234.5497192
0
ARC
8
DEFAULT_255_1_388
10
17.4267303
20
134.3388203
40
0.2092097
50
214.3063391
51
220.5075055
0
ARC
8
DEFAULT_255_1_388
10
17.4238417
20
134.3353577
40
0.2048755
50
186.9131438
51
213.9617385
0
ARC
8
DEFAULT_255_1_388
10
17.4836806
20
134.3450431
40
0.2654563
50
179.8802037
51
187.4338578
0
ARC
8
DEFAULT_255_1_388
10
17.4662771
20
134.3473049
40
0.2480581
50
132.0053393
51
180.3942351
0
ARC
8
DEFAULT_255_1_388
10
17.5401684
20
134.2790997
40
0.3483116
50
129.2317021
51
133.5294826
0
ARC
8
DEFAULT_255_1_388
10
17.5461653
20
134.2685383
40
0.360291
50
100.440976
51
128.9081567
0
ARC
8
DEFAULT_255_1_388
10
17.576977
20
134.1239357
40
0.5080996
50
89.6985063
51
100.9029043
0
ARC
8
DEFAULT_255_1_388
10
17.5833925
20
134.1058739
40
0.5261675
50
77.6967144
51
90.4074623
0
ARC
8
DEFAULT_255_1_388
10
17.6206278
20
134.2664503
40
0.3613511
50
50.7278431
51
78.0397473
0
ARC
8
DEFAULT_255_1_388
10
17.6706321
20
134.3247173
40
0.2845966
50
25.754382
51
51.0957456
0
ARC
8
DEFAULT_255_1_388
10
17.6707688
20
134.3303311
40
0.2820785
50
359.2468358
51
24.7393861
0
ARC
8
DEFAULT_255_1_388
10
17.6387575
20
134.3271204
40
0.1460032
50
359.8048924
51
45.1543866
0
ARC
8
DEFAULT_255_1_388
10
17.5929308
20
134.2879291
40
0.2061641
50
43.8053172
51
49.625485
0
ARC
8
DEFAULT_255_1_388
10
17.5938751
20
134.2880849
40
0.2054344
50
49.7979696
51
82.121802
0
ARC
8
DEFAULT_255_1_388
10
17.5804834
20
134.2153473
40
0.2793404
50
81.4458692
51
90.1707936
0
ARC
8
DEFAULT_255_1_388
10
17.5777411
20
134.1561478
40
0.3385438
50
89.6768097
51
99.1267111
0
ARC
8
DEFAULT_255_1_388
10
17.5584392
20
134.2724405
40
0.2206627
50
98.9679878
51
113.4573418
0
ARC
8
DEFAULT_255_1_388
10
17.5364073
20
134.3251193
40
0.1635691
50
113.7230234
51
127.4758155
0
ARC
8
DEFAULT_255_1_388
10
17.5174655
20
134.3476433
40
0.1341757
50
126.9086647
51
150.3160891
0
ARC
8
DEFAULT_255_1_388
10
17.5120986
20
134.353368
40
0.1266992
50
151.363328
51
180.0701537
0
ARC
8
DEFAULT_255_1_388
10
17.5431207
20
134.351023
40
0.1577364
50
179.2045432
51
180.0012892
0
ARC
8
DEFAULT_255_1_388
10
17.5062318
20
134.3495515
40
0.1208564
50
179.3040542
51
198.4225767
0
ARC
8
DEFAULT_255_1_388
10
17.484646
20
134.3439337
40
0.0986126
50
199.2893055
51
238.6036855
0
ARC
8
DEFAULT_255_1_388
10
17.5524553
20
134.4503752
40
0.2248082
50
237.9844191
51
246.8751643
0
ARC
8
DEFAULT_255_1_388
10
17.6489413
20
134.6710861
40
0.4656832
50
246.6226408
51
251.8174794
0
ARC
8
DEFAULT_255_1_388
10
17.764988
20
135.0195909
40
0.8329993
50
251.7140983
51
255.0775146
0
ARC
8
DEFAULT_255_1_388
10
17.8999404
20
135.5222708
40
1.3534786
50
255.0370864
51
257.4701577
0
ARC
8
DEFAULT_255_1_388
10
17.3251949
20
132.9328535
40
1.298957
50
73.6835762
51
77.5015749
0
ARC
8
DEFAULT_255_1_388
10
17.4476863
20
133.3490699
40
0.8650912
50
68.7042835
51
73.7249997
0
ARC
8
DEFAULT_255_1_388
10
17.5492428
20
133.6107853
40
0.584363
50
63.5907059
51
68.6622978
0
ARC
8
DEFAULT_255_1_388
10
17.6360169
20
133.7838157
40
0.3907955
50
54.7106507
51
63.7018033
0
ARC
8
DEFAULT_255_1_388
10
17.7062556
20
133.8819287
40
0.2701345
50
41.0624597
51
54.8488532
0
ARC
8
DEFAULT_255_1_388
10
17.7446335
20
133.9171439
40
0.2180695
50
34.4952722
51
40.7097584
0
ARC
8
DEFAULT_255_1_388
10
17.74993
20
133.9226204
40
0.2106083
50
9.3761233
51
34.0834046
0
ARC
8
DEFAULT_255_1_388
10
17.6764429
20
133.9085174
40
0.2854177
50
359.7695264
51
9.7660556
0
ARC
8
DEFAULT_255_1_388
10
17.6986722
20
133.9036841
40
0.2632121
50
335.8653103
51
0.8022272
0
ARC
8
DEFAULT_255_1_388
10
17.7071127
20
133.9051951
40
0.2561728
50
307.7357819
51
334.7849324
0
ARC
8
DEFAULT_255_1_388
10
17.6625768
20
133.9551553
40
0.3229737
50
307.0217048
51
308.5596894
0
ARC
8
DEFAULT_255_1_388
10
17.6330353
20
133.9993063
40
0.3760237
50
282.9361285
51
306.5649033
0
ARC
8
DEFAULT_255_1_388
10
17.5923414
20
134.1643871
40
0.5460314
50
271.1026197
51
283.2199962
0
ARC
8
DEFAULT_255_1_388
10
17.5851603
20
134.3044744
40
0.6862456
50
269.9926344
51
271.4770056
0
ARC
8
DEFAULT_255_1_388
10
17.5822173
20
134.1827633
40
0.5645418
50
259.0723633
51
270.2897324
0
ARC
8
DEFAULT_255_1_388
10
17.5583398
20
134.0570887
40
0.4366198
50
245.4965026
51
259.0225745
0
ARC
8
DEFAULT_255_1_388
10
17.5270614
20
133.9916491
40
0.3641037
50
228.9686619
51
245.7042678
0
ARC
8
DEFAULT_255_1_388
10
17.4971889
20
133.9548573
40
0.3167435
50
214.4015391
51
228.6759028
0
ARC
8
DEFAULT_255_1_388
10
17.4646386
20
133.9370429
40
0.2798456
50
179.9704983
51
215.1574389
0
ARC
8
DEFAULT_255_1_388
10
17.5434599
20
133.9453148
40
0.1916798
50
182.430239
51
203.0329751
0
ARC
8
DEFAULT_255_1_388
10
17.5227195
20
133.9389675
40
0.1701248
50
203.7987464
51
232.5483345
0
ARC
8
DEFAULT_255_1_388
10
17.5538279
20
133.9785049
40
0.2204299
50
232.3784541
51
256.3934343
0
ARC
8
DEFAULT_255_1_388
10
17.5797426
20
134.0786359
40
0.3238512
50
256.1048329
51
268.4627478
0
ARC
8
DEFAULT_255_1_388
10
17.5849846
20
134.1690297
40
0.4143627
50
268.0734924
51
270.0121004
0
ARC
8
DEFAULT_255_1_388
10
17.5870564
20
134.1376191
40
0.3829573
50
269.7031202
51
278.8338867
0
ARC
8
DEFAULT_255_1_388
10
17.6075428
20
134.0104553
40
0.2541568
50
278.6727378
51
292.82331
0
ARC
8
DEFAULT_255_1_388
10
17.6300975
20
133.9540546
40
0.1934264
50
293.1457581
51
303.6656964
0
ARC
8
DEFAULT_255_1_388
10
17.6599048
20
133.9117159
40
0.1416713
50
303.1245849
51
321.7434683
0
ARC
8
DEFAULT_255_1_388
10
17.6808129
20
133.893378
40
0.1139081
50
322.4747616
51
1.1293039
0
LINE
8
DEFAULT_255_1_388
10
4.8826318
20
131.7883382
11
4.8826318
21
131.6519
0
LINE
8
DEFAULT_255_1_388
10
4.8826318
20
131.6519
11
4.0206313
21
131.6519
0
LINE
8
DEFAULT_255_1_388
10
4.0206313
20
131.6519
11
4.0206313
21
131.7720741
0
LINE
8
DEFAULT_255_1_388
10
4.0206313
20
131.7720741
11
4.4760278
21
132.2780702
0
LINE
8
DEFAULT_255_1_388
10
4.1624909
20
132.5798607
11
3.9953315
21
132.5798607
0
LINE
8
DEFAULT_255_1_388
10
4.5745163
20
132.170546
11
4.2221262
21
131.7883382
0
LINE
8
DEFAULT_255_1_388
10
4.2221262
20
131.7883382
11
4.8826318
21
131.7883382
0
ARC
8
DEFAULT_255_1_388
10
2.9584337
20
133.6200983
40
2.0258655
50
318.5132526
51
320.7829045
0
ARC
8
DEFAULT_255_1_388
10
3.5532294
20
133.1359929
40
1.2589638
50
320.7372878
51
323.9739031
0
ARC
8
DEFAULT_255_1_388
10
3.9941226
20
132.8165554
40
0.7145141
50
323.8962701
51
328.64194
0
ARC
8
DEFAULT_255_1_388
10
4.2243484
20
132.6745545
40
0.4440242
50
328.8294576
51
331.7891185
0
ARC
8
DEFAULT_255_1_388
10
4.3365804
20
132.6166374
40
0.3177517
50
331.4254512
51
352.9365785
0
ARC
8
DEFAULT_255_1_388
10
4.3518804
20
132.613205
40
0.3021496
50
353.2257659
51
0.0166158
0
ARC
8
DEFAULT_255_1_388
10
4.3755564
20
132.6157894
40
0.2784847
50
359.486299
51
15.9343185
0
ARC
8
DEFAULT_255_1_388
10
4.4325831
20
132.6311269
40
0.2194403
50
16.1712913
51
43.5286088
0
ARC
8
DEFAULT_255_1_388
10
4.4412776
20
132.6398191
40
0.2071504
50
43.4417391
51
83.1661095
0
ARC
8
DEFAULT_255_1_388
10
4.4261937
20
132.5569316
40
0.2912888
50
82.160179
51
90.1505708
0
ARC
8
DEFAULT_255_1_388
10
4.4226418
20
132.4965279
40
0.3517025
50
89.5460741
51
102.5418361
0
ARC
8
DEFAULT_255_1_388
10
4.3953138
20
132.6124933
40
0.2325748
50
102.1738499
51
129.206123
0
ARC
8
DEFAULT_255_1_388
10
4.3864592
20
132.6264664
40
0.2161591
50
129.72865
51
135.753947
0
ARC
8
DEFAULT_255_1_388
10
4.4001074
20
132.6155728
40
0.2335433
50
136.1757367
51
166.3673339
0
ARC
8
DEFAULT_255_1_388
10
4.5133762
20
132.5852148
40
0.3507873
50
165.9090694
51
178.8684636
0
ARC
8
DEFAULT_255_1_388
10
4.6109534
20
132.5799263
40
0.4484624
50
178.4391136
51
180.0083808
0
ARC
8
DEFAULT_255_1_388
10
4.4530235
20
132.5843197
40
0.4577138
50
163.2878482
51
180.5581842
0
ARC
8
DEFAULT_255_1_388
10
4.3628276
20
132.6091393
40
0.3641968
50
133.4540601
51
162.947111
0
ARC
8
DEFAULT_255_1_388
10
4.3829158
20
132.5877789
40
0.3935189
50
100.7869829
51
133.4382499
0
ARC
8
DEFAULT_255_1_388
10
4.4220403
20
132.4135399
40
0.5720313
50
89.660664
51
101.3702276
0
ARC
8
DEFAULT_255_1_388
10
4.4295012
20
132.4204263
40
0.5651495
50
78.2172678
51
90.412935
0
ARC
8
DEFAULT_255_1_388
10
4.4694478
20
132.6031511
40
0.378122
50
55.9269121
51
78.4888449
0
ARC
8
DEFAULT_255_1_388
10
4.4915193
20
132.6412187
40
0.3342379
50
47.929771
51
55.4049217
0
ARC
8
DEFAULT_255_1_388
10
4.5029723
20
132.6528618
40
0.3179217
50
4.334829
51
48.0560205
0
ARC
8
DEFAULT_255_1_388
10
4.3797525
20
132.6337487
40
0.442341
50
359.9251713
51
5.5971671
0
ARC
8
DEFAULT_255_1_388
10
4.427968
20
132.6400728
40
0.3941854
50
337.8914027
51
358.9967534
0
ARC
8
DEFAULT_255_1_388
10
4.122725
20
132.7578295
40
0.7213271
50
326.9132501
51
338.3508308
0
ARC
8
DEFAULT_255_1_388
10
3.6743362
20
133.0452105
40
1.2538973
50
319.6471833
51
327.0959558
0
ARC
8
DEFAULT_255_1_388
10
3.243002
20
133.401005
40
1.8129975
50
317.2588228
51
319.9045804
0
LINE
8
DEFAULT_255_1_388
10
5.7654143
20
132.9674898
11
5.7654143
21
132.093743
0
LINE
8
DEFAULT_255_1_388
10
5.7654143
20
132.093743
11
5.9479343
21
132.093743
0
LINE
8
DEFAULT_255_1_388
10
5.9479343
20
132.093743
11
5.9479343
21
131.9573048
0
LINE
8
DEFAULT_255_1_388
10
5.9479343
20
131.9573048
11
5.7654143
21
131.9573048
0
LINE
8
DEFAULT_255_1_388
10
5.7654143
20
131.9573048
11
5.7654143
21
131.6519
0
LINE
8
DEFAULT_255_1_388
10
5.7654143
20
131.6519
11
5.5973513
21
131.6519
0
LINE
8
DEFAULT_255_1_388
10
5.5973513
20
131.6519
11
5.5973513
21
131.9573048
0
LINE
8
DEFAULT_255_1_388
10
5.5973513
20
131.9573048
11
4.998288
21
131.9573048
0
LINE
8
DEFAULT_255_1_388
10
4.998288
20
131.9573048
11
4.998288
21
132.0557933
0
LINE
8
DEFAULT_255_1_388
10
4.998288
20
132.0557933
11
5.5874121
21
132.9674898
0
LINE
8
DEFAULT_255_1_388
10
5.5874121
20
132.9674898
11
5.7654143
21
132.9674898
0
LINE
8
DEFAULT_255_1_388
10
5.5774729
20
132.7027455
11
5.1880366
21
132.093743
0
LINE
8
DEFAULT_255_1_388
10
5.1880366
20
132.093743
11
5.5973513
21
132.093743
0
LINE
8
DEFAULT_255_1_388
10
5.5973513
20
132.093743
11
5.5973513
21
132.738888
0
LINE
8
DEFAULT_255_1_388
10
5.5973513
20
132.738888
11
5.5774729
21
132.7027455
0
LINE
8
DEFAULT_255_1_388
10
6.203643
20
132.9674898
11
6.5777187
21
131.8823089
0
LINE
8
DEFAULT_255_1_388
10
6.5777187
20
131.8823089
11
6.9536015
21
132.9674898
0
LINE
8
DEFAULT_255_1_388
10
6.9536015
20
132.9674898
11
7.14335
21
132.9674898
0
LINE
8
DEFAULT_255_1_388
10
7.14335
20
132.9674898
11
6.6554252
21
131.6519
0
LINE
8
DEFAULT_255_1_388
10
6.6554252
20
131.6519
11
6.5018193
21
131.6519
0
LINE
8
DEFAULT_255_1_388
10
6.5018193
20
131.6519
11
6.014798
21
132.9674898
0
LINE
8
DEFAULT_255_1_388
10
6.014798
20
132.9674898
11
6.203643
21
132.9674898
0
LINE
8
DEFAULT_255_1_388
10
4.2435444
20
5.9674898
11
4.5606955
21
5.4633009
0
LINE
8
DEFAULT_255_1_388
10
4.5606955
20
5.4633009
11
4.8760395
21
5.9674898
0
LINE
8
DEFAULT_255_1_388
10
4.8760395
20
5.9674898
11
5.0802451
21
5.9674898
0
LINE
8
DEFAULT_255_1_388
10
5.0802451
20
5.9674898
11
4.6646054
21
5.3151163
0
LINE
8
DEFAULT_255_1_388
10
4.6646054
20
5.3151163
11
5.0901843
21
4.6519
0
LINE
8
DEFAULT_255_1_388
10
5.0901843
20
4.6519
11
4.8841716
21
4.6519
0
LINE
8
DEFAULT_255_1_388
10
4.8841716
20
4.6519
11
4.5606955
21
5.1651246
0
LINE
8
DEFAULT_255_1_388
10
4.5606955
20
5.1651246
11
4.2354123
21
4.6519
0
LINE
8
DEFAULT_255_1_388
10
4.2354123
20
4.6519
11
4.0303032
21
4.6519
0
LINE
8
DEFAULT_255_1_388
10
4.0303032
20
4.6519
11
4.4567856
21
5.3151163
0
LINE
8
DEFAULT_255_1_388
10
4.4567856
20
5.3151163
11
4.0402424
21
5.9674898
0
LINE
8
DEFAULT_255_1_388
10
4.0402424
20
5.9674898
11
4.2435444
21
5.9674898
0
LINE
8
DEFAULT_255_1_388
10
5.7976752
20
5.9738148
11
5.7976752
21
4.6519
0
LINE
8
DEFAULT_255_1_388
10
5.7976752
20
4.6519
11
5.6296123
21
4.6519
0
LINE
8
DEFAULT_255_1_388
10
5.6296123
20
4.6519
11
5.6296123
21
5.765995
0
LINE
8
DEFAULT_255_1_388
10
5.6296123
20
5.765995
11
5.2925827
21
5.6422066
0
LINE
8
DEFAULT_255_1_388
10
5.2925827
20
5.6422066
11
5.2925827
21
5.7940055
0
LINE
8
DEFAULT_255_1_388
10
5.2925827
20
5.7940055
11
5.7714719
21
5.9738148
0
LINE
8
DEFAULT_255_1_388
10
5.7714719
20
5.9738148
11
5.7976752
21
5.9738148
0
LINE
8
DEFAULT_255_1_388
10
6.4979377
20
5.2771666
11
6.3642102
21
5.3115021
0
LINE
8
DEFAULT_255_1_388
10
6.3642102
20
5.3115021
11
6.4310739
21
5.9674898
0
LINE
8
DEFAULT_255_1_388
10
6.4310739
20
5.9674898
11
7.105133
21
5.9674898
0
LINE
8
DEFAULT_255_1_388
10
7.105133
20
5.9674898
11
7.105133
21
5.8129803
0
LINE
8
DEFAULT_255_1_388
10
7.105133
20
5.8129803
11
6.5729335
21
5.8129803
0
LINE
8
DEFAULT_255_1_388
10
6.5729335
20
5.8129803
11
6.5331767
21
5.4542652
0
LINE
8
DEFAULT_255_1_388
10
6.3172248
20
4.9979652
11
6.4753486
21
4.9979652
0
LINE
8
DEFAULT_255_1_388
10
6.5422124
20
5.3133092
11
6.4979377
21
5.2771666
0
ARC
8
DEFAULT_255_1_388
10
6.7418381
20
5.0965241
40
0.4141476
50
93.7181681
51
120.253934
0
ARC
8
DEFAULT_255_1_388
10
6.7524433
20
5.0056284
40
0.5055616
50
89.9660471
51
94.2495185
0
ARC
8
DEFAULT_255_1_388
10
6.7570255
20
5.0719154
40
0.4392953
50
73.8045384
51
90.5585736
0
ARC
8
DEFAULT_255_1_388
10
6.7834512
20
5.168452
40
0.3392225
50
41.3071072
51
73.543002
0
ARC
8
DEFAULT_255_1_388
10
6.7366332
20
5.1281461
40
0.4009977
50
13.5075837
51
41.2174839
0
ARC
8
DEFAULT_255_1_388
10
6.551943
20
5.0797907
40
0.5918864
50
1.1330171
51
13.8830737
0
ARC
8
DEFAULT_255_1_388
10
6.3923076
20
5.0712522
40
0.7516787
50
359.9925091
51
1.5431298
0
ARC
8
DEFAULT_255_1_388
10
6.536769
20
5.0666027
40
0.6072343
50
347.8572712
51
0.4294349
0
ARC
8
DEFAULT_255_1_388
10
6.7336825
20
5.0219898
40
0.4053482
50
323.6727442
51
348.1674594
0
ARC
8
DEFAULT_255_1_388
10
6.766779
20
5.0018175
40
0.3667495
50
316.8171818
51
323.1486802
0
ARC
8
DEFAULT_255_1_388
10
6.7736913
20
4.9976612
40
0.358869
50
281.839603
51
316.5458142
0
ARC
8
DEFAULT_255_1_388
10
6.7314201
20
5.1726363
40
0.5388223
50
269.5770964
51
282.4214641
0
ARC
8
DEFAULT_255_1_388
10
6.7234122
20
5.148593
40
0.5147801
50
256.2425863
51
270.4486481
0
ARC
8
DEFAULT_255_1_388
10
6.6897649
20
5.0136124
40
0.3756708
50
228.9024379
51
256.33135
0
ARC
8
DEFAULT_255_1_388
10
6.681463
20
5.0005054
40
0.360344
50
193.7536029
51
228.5272638
0
ARC
8
DEFAULT_255_1_388
10
6.8207195
20
5.0413463
40
0.5053599
50
184.9244437
51
194.4976052
0
ARC
8
DEFAULT_255_1_388
10
6.8423836
20
5.0453722
40
0.3700839
50
187.3596909
51
198.6733728
0
ARC
8
DEFAULT_255_1_388
10
6.7243079
20
5.0044373
40
0.2451195
50
198.4453795
51
217.7945479
0
ARC
8
DEFAULT_255_1_388
10
6.6910252
20
4.9808563
40
0.2043754
50
218.2887146
51
228.5613203
0
ARC
8
DEFAULT_255_1_388
10
6.7020259
20
4.9956902
40
0.2227819
50
228.9652423
51
258.1237049
0
ARC
8
DEFAULT_255_1_388
10
6.7251696
20
5.0947964
40
0.3245374
50
257.7260585
51
270.4013717
0
ARC
8
DEFAULT_255_1_388
10
6.7302194
20
5.0447255
40
0.2744726
50
269.4204315
51
286.420998
0
ARC
8
DEFAULT_255_1_388
10
6.746925
20
4.9840705
40
0.2115721
50
286.7250065
51
320.6004665
0
ARC
8
DEFAULT_255_1_388
10
6.7038165
20
5.0190527
40
0.2670878
50
320.6712228
51
344.5440474
0
ARC
8
DEFAULT_255_1_388
10
6.5736879
20
5.0572394
40
0.4026927
50
344.241448
51
356.735803
0
ARC
8
DEFAULT_255_1_388
10
6.4333186
20
5.0688656
40
0.5435085
50
356.3547471
51
0.0507222
0
ARC
8
DEFAULT_255_1_388
10
6.5835452
20
5.0723812
40
0.3932934
50
359.5579289
51
12.9534322
0
ARC
8
DEFAULT_255_1_388
10
6.7022291
20
5.1011586
40
0.2711827
50
12.6489751
51
41.608121
0
ARC
8
DEFAULT_255_1_388
10
6.7281451
20
5.1231946
40
0.2371737
50
41.7851122
51
85.9892156
0
ARC
8
DEFAULT_255_1_388
10
6.7142762
20
5.0316738
40
0.3295244
50
84.6965848
51
90.0672125
0
ARC
8
DEFAULT_255_1_388
10
6.7116329
20
4.9565118
40
0.4046926
50
89.6804991
51
99.161352
0
ARC
8
DEFAULT_255_1_388
10
6.6885338
20
5.0945848
40
0.2647044
50
98.9836248
51
113.8905702
0
ARC
8
DEFAULT_255_1_388
10
6.6627013
20
5.1555118
40
0.1985386
50
114.195234
51
127.3641866
0
LINE
8
DEFAULT_255_1_388
10
4.3758444
20
13.9049898
11
4.6929955
21
13.4008009
0
LINE
8
DEFAULT_255_1_388
10
4.6929955
20
13.4008009
11
5.0083395
21
13.9049898
0
LINE
8
DEFAULT_255_1_388
10
5.0083395
20
13.9049898
11
5.2125451
21
13.9049898
0
LINE
8
DEFAULT_255_1_388
10
5.2125451
20
13.9049898
11
4.7969054
21
13.2526163
0
LINE
8
DEFAULT_255_1_388
10
4.7969054
20
13.2526163
11
5.2224843
21
12.5894
0
LINE
8
DEFAULT_255_1_388
10
5.2224843
20
12.5894
11
5.0164716
21
12.5894
0
LINE
8
DEFAULT_255_1_388
10
5.0164716
20
12.5894
11
4.6929955
21
13.1026246
0
LINE
8
DEFAULT_255_1_388
10
4.6929955
20
13.1026246
11
4.3677123
21
12.5894
0
LINE
8
DEFAULT_255_1_388
10
4.3677123
20
12.5894
11
4.1626032
21
12.5894
0
LINE
8
DEFAULT_255_1_388
10
4.1626032
20
12.5894
11
4.5890856
21
13.2526163
0
LINE
8
DEFAULT_255_1_388
10
4.5890856
20
13.2526163
11
4.1725424
21
13.9049898
0
LINE
8
DEFAULT_255_1_388
10
4.1725424
20
13.9049898
11
4.3758444
21
13.9049898
0
LINE
8
DEFAULT_255_1_388
10
5.9299752
20
13.9113148
11
5.9299752
21
12.5894
0
LINE
8
DEFAULT_255_1_388
10
5.9299752
20
12.5894
11
5.7619123
21
12.5894
0
LINE
8
DEFAULT_255_1_388
10
5.7619123
20
12.5894
11
5.7619123
21
13.703495
0
LINE
8
DEFAULT_255_1_388
10
5.7619123
20
13.703495
11
5.4248827
21
13.5797066
0
LINE
8
DEFAULT_255_1_388
10
5.4248827
20
13.5797066
11
5.4248827
21
13.7315055
0
LINE
8
DEFAULT_255_1_388
10
5.4248827
20
13.7315055
11
5.9037719
21
13.9113148
0
LINE
8
DEFAULT_255_1_388
10
5.9037719
20
13.9113148
11
5.9299752
21
13.9113148
0
LINE
8
DEFAULT_255_1_388
10
7.125391
20
13.9049898
11
7.125391
21
13.031243
0
LINE
8
DEFAULT_255_1_388
10
7.125391
20
13.031243
11
7.307911
21
13.031243
0
LINE
8
DEFAULT_255_1_388
10
7.307911
20
13.031243
11
7.307911
21
12.8948048
0
LINE
8
DEFAULT_255_1_388
10
7.307911
20
12.8948048
11
7.125391
21
12.8948048
0
LINE
8
DEFAULT_255_1_388
10
7.125391
20
12.8948048
11
7.125391
21
12.5894
0
LINE
8
DEFAULT_255_1_388
10
7.125391
20
12.5894
11
6.957328
21
12.5894
0
LINE
8
DEFAULT_255_1_388
10
6.957328
20
12.5894
11
6.957328
21
12.8948048
0
LINE
8
DEFAULT_255_1_388
10
6.957328
20
12.8948048
11
6.3582648
21
12.8948048
0
LINE
8
DEFAULT_255_1_388
10
6.3582648
20
12.8948048
11
6.3582648
21
12.9932933
0
LINE
8
DEFAULT_255_1_388
10
6.3582648
20
12.9932933
11
6.9473888
21
13.9049898
0
LINE
8
DEFAULT_255_1_388
10
6.9473888
20
13.9049898
11
7.125391
21
13.9049898
0
LINE
8
DEFAULT_255_1_388
10
6.9374496
20
13.6402455
11
6.5480133
21
13.031243
0
LINE
8
DEFAULT_255_1_388
10
6.5480133
20
13.031243
11
6.957328
21
13.031243
0
LINE
8
DEFAULT_255_1_388
10
6.957328
20
13.031243
11
6.957328
21
13.676388
0
LINE
8
DEFAULT_255_1_388
10
6.957328
20
13.676388
11
6.9374496
21
13.6402455
0
LINE
8
DEFAULT_255_1_388
10
4.2435444
20
21.8424898
11
4.5606955
21
21.3383009
0
LINE
8
DEFAULT_255_1_388
10
4.5606955
20
21.3383009
11
4.8760395
21
21.8424898
0
LINE
8
DEFAULT_255_1_388
10
4.8760395
20
21.8424898
11
5.0802451
21
21.8424898
0
LINE
8
DEFAULT_255_1_388
10
5.0802451
20
21.8424898
11
4.6646054
21
21.1901163
0
LINE
8
DEFAULT_255_1_388
10
4.6646054
20
21.1901163
11
5.0901843
21
20.5269
0
LINE
8
DEFAULT_255_1_388
10
5.0901843
20
20.5269
11
4.8841716
21
20.5269
0
LINE
8
DEFAULT_255_1_388
10
4.8841716
20
20.5269
11
4.5606955
21
21.0401246
0
LINE
8
DEFAULT_255_1_388
10
4.5606955
20
21.0401246
11
4.2354123
21
20.5269
0
LINE
8
DEFAULT_255_1_388
10
4.2354123
20
20.5269
11
4.0303032
21
20.5269
0
LINE
8
DEFAULT_255_1_388
10
4.0303032
20
20.5269
11
4.4567856
21
21.1901163
0
LINE
8
DEFAULT_255_1_388
10
4.4567856
20
21.1901163
11
4.0402424
21
21.8424898
0
LINE
8
DEFAULT_255_1_388
10
4.0402424
20
21.8424898
11
4.2435444
21
21.8424898
0
LINE
8
DEFAULT_255_1_388
10
5.7976752
20
21.8488148
11
5.7976752
21
20.5269
0
LINE
8
DEFAULT_255_1_388
10
5.7976752
20
20.5269
11
5.6296123
21
20.5269
0
LINE
8
DEFAULT_255_1_388
10
5.6296123
20
20.5269
11
5.6296123
21
21.640995
0
LINE
8
DEFAULT_255_1_388
10
5.6296123
20
21.640995
11
5.2925827
21
21.5172066
0
LINE
8
DEFAULT_255_1_388
10
5.2925827
20
21.5172066
11
5.2925827
21
21.6690055
0
LINE
8
DEFAULT_255_1_388
10
5.2925827
20
21.6690055
11
5.7714719
21
21.8488148
0
LINE
8
DEFAULT_255_1_388
10
5.7714719
20
21.8488148
11
5.7976752
21
21.8488148
0
LINE
8
DEFAULT_255_1_388
10
6.530466
20
21.1295775
11
6.530466
21
21.2660157
0
LINE
8
DEFAULT_255_1_388
10
6.530466
20
21.2660157
11
6.6560615
21
21.2660157
0
LINE
8
DEFAULT_255_1_388
10
6.4419167
20
21.4973282
11
6.2747573
21
21.4973282
0
LINE
8
DEFAULT_255_1_388
10
6.2630109
20
20.8738687
11
6.4310739
21
20.8738687
0
LINE
8
DEFAULT_255_1_388
10
6.6560615
20
21.1295775
11
6.530466
21
21.1295775
0
ARC
8
DEFAULT_255_1_388
10
6.6527841
20
21.6476922
40
0.3816905
50
270.491971
51
281.8953028
0
ARC
8
DEFAULT_255_1_388
10
6.6799268
20
21.5237199
40
0.2547877
50
281.6690378
51
301.2943765
0
ARC
8
DEFAULT_255_1_388
10
6.6990719
20
21.4886926
40
0.2149197
50
301.7834992
51
311.754567
0
ARC
8
DEFAULT_255_1_388
10
6.7093761
20
21.477265
40
0.1995326
50
311.7325027
51
354.2803031
0
ARC
8
DEFAULT_255_1_388
10
6.6276177
20
21.491328
40
0.2823461
50
353.0941646
51
0.1174696
0
ARC
8
DEFAULT_255_1_388
10
6.5757735
20
21.4966874
40
0.3342238
50
359.1804452
51
15.0452323
0
ARC
8
DEFAULT_255_1_388
10
6.7271793
20
21.5408546
40
0.1765747
50
13.957816
51
77.6713812
0
ARC
8
DEFAULT_255_1_388
10
6.6837029
20
21.3850464
40
0.3381982
50
76.111571
51
90.7028736
0
ARC
8
DEFAULT_255_1_388
10
6.6770441
20
21.415825
40
0.3074046
50
89.5321574
51
103.5319393
0
ARC
8
DEFAULT_255_1_388
10
6.6544825
20
21.5057443
40
0.2147041
50
103.2930114
51
133.5619756
0
ARC
8
DEFAULT_255_1_388
10
6.6494766
20
21.5124351
40
0.2064084
50
133.8349761
51
173.5343225
0
ARC
8
DEFAULT_255_1_388
10
6.7308424
20
21.4980144
40
0.2889266
50
172.5097183
51
180.1360699
0
ARC
8
DEFAULT_255_1_388
10
6.6238188
20
21.501888
40
0.3490913
50
155.3483706
51
180.7484035
0
ARC
8
DEFAULT_255_1_388
10
6.6183163
20
21.4986519
40
0.3454798
50
131.5745177
51
154.4799474
0
ARC
8
DEFAULT_255_1_388
10
6.6535446
20
21.4630422
40
0.3955058
50
96.9874487
51
131.9690874
0
ARC
8
DEFAULT_255_1_388
10
6.6782338
20
21.3229407
40
0.537622
50
89.8592909
51
97.7827481
0
ARC
8
DEFAULT_255_1_388
10
6.6836447
20
21.293436
40
0.5671399
50
78.3654493
51
90.4132586
0
ARC
8
DEFAULT_255_1_388
10
6.7239089
20
21.4800918
40
0.3762034
50
56.6229818
51
78.6387103
0
ARC
8
DEFAULT_255_1_388
10
6.7480918
20
21.5223846
40
0.3275964
50
47.0254604
51
56.085558
0
ARC
8
DEFAULT_255_1_388
10
6.7503169
20
21.5268189
40
0.3228382
50
10.9207523
51
46.777927
0
ARC
8
DEFAULT_255_1_388
10
6.5968763
20
21.4913401
40
0.4802559
50
359.6364235
51
11.6087615
0
ARC
8
DEFAULT_255_1_388
10
6.8032928
20
21.4896404
40
0.273833
50
332.3549969
51
359.7179765
0
ARC
8
DEFAULT_255_1_388
10
6.7301329
20
21.5243285
40
0.3547505
50
325.2332381
51
332.8746682
0
ARC
8
DEFAULT_255_1_388
10
6.7472912
20
21.5123763
40
0.3338396
50
292.9803892
51
325.2391113
0
ARC
8
DEFAULT_255_1_388
10
6.7162108
20
21.5728679
40
0.4016959
50
292.542178
51
293.6931461
0
ARC
8
DEFAULT_255_1_388
10
6.760568
20
20.8463036
40
0.372079
50
57.643292
51
72.8626085
0
ARC
8
DEFAULT_255_1_388
10
6.8004514
20
20.9109273
40
0.2961455
50
36.7246661
51
57.4701329
0
ARC
8
DEFAULT_255_1_388
10
6.7991671
20
20.912347
40
0.2963321
50
8.054535
51
36.3561529
0
ARC
8
DEFAULT_255_1_388
10
6.7021344
20
20.8949073
40
0.3948682
50
359.8316595
51
8.5873361
0
ARC
8
DEFAULT_255_1_388
10
6.6598818
20
20.889497
40
0.4371398
50
343.9831631
51
0.557075
0
ARC
8
DEFAULT_255_1_388
10
6.7595867
20
20.8621963
40
0.3337749
50
311.6358204
51
343.7652116
0
ARC
8
DEFAULT_255_1_388
10
6.7170121
20
20.9101955
40
0.3979351
50
279.7829743
51
311.625622
0
ARC
8
DEFAULT_255_1_388
10
6.6831256
20
21.0718642
40
0.5630417
50
269.7285092
51
280.3857694
0
ARC
8
DEFAULT_255_1_388
10
6.6761569
20
21.0672241
40
0.5584119
50
256.6827433
51
270.4412869
0
ARC
8
DEFAULT_255_1_388
10
6.6380556
20
20.9114698
40
0.3980715
50
229.4223821
51
256.8554507
0
ARC
8
DEFAULT_255_1_388
10
6.5914109
20
20.8589683
40
0.3278564
50
181.8183354
51
229.6455015
0
ARC
8
DEFAULT_255_1_388
10
6.7083719
20
20.8736825
40
0.4453611
50
179.9760419
51
183.2330638
0
ARC
8
DEFAULT_255_1_388
10
6.6890271
20
20.8713781
40
0.2579652
50
179.4467996
51
196.2871626
0
ARC
8
DEFAULT_255_1_388
10
6.6341725
20
20.8563709
40
0.2011057
50
196.5661293
51
227.7059371
0
ARC
8
DEFAULT_255_1_388
10
6.6526332
20
20.8770155
40
0.2287994
50
227.7653015
51
257.8763321
0
ARC
8
DEFAULT_255_1_388
10
6.6779415
20
20.9830961
40
0.3378385
50
257.4583525
51
270.4267406
0
ARC
8
DEFAULT_255_1_388
10
6.6830665
20
21.015723
40
0.3704652
50
269.5965319
51
280.8788143
0
ARC
8
DEFAULT_255_1_388
10
6.7088893
20
20.8867529
40
0.2389415
50
280.6347277
51
299.8594068
0
ARC
8
DEFAULT_255_1_388
10
6.7303662
20
20.8459736
40
0.19289
50
300.3575552
51
314.5515667
0
ARC
8
DEFAULT_255_1_388
10
6.7210338
20
20.8528025
40
0.204312
50
315.0730962
51
345.0429362
0
ARC
8
DEFAULT_255_1_388
10
6.6171845
20
20.8830539
40
0.31246
50
344.598526
51
357.9270698
0
ARC
8
DEFAULT_255_1_388
10
6.516215
20
20.8899705
40
0.4136265
50
357.4755098
51
0.0224936
0
ARC
8
DEFAULT_255_1_388
10
6.6315028
20
20.8927099
40
0.2983498
50
359.5051035
51
13.4236939
0
ARC
8
DEFAULT_255_1_388
10
6.7290118
20
20.9176637
40
0.1977186
50
12.9497905
51
48.7550905
0
ARC
8
DEFAULT_255_1_388
10
6.708504
20
20.8896373
40
0.2323321
50
49.509109
51
72.1832965
0
ARC
8
DEFAULT_255_1_388
10
6.6682508
20
20.7701632
40
0.358397
50
71.9008458
51
84.3555134
0
ARC
8
DEFAULT_255_1_388
10
6.6500903
20
20.6169712
40
0.512641
50
84.019632
51
89.3326067
0
LINE
8
DEFAULT_255_1_388
10
4.2435444
20
29.7799898
11
4.5606955
21
29.2758009
0
LINE
8
DEFAULT_255_1_388
10
4.5606955
20
29.2758009
11
4.8760395
21
29.7799898
0
LINE
8
DEFAULT_255_1_388
10
4.8760395
20
29.7799898
11
5.0802451
21
29.7799898
0
LINE
8
DEFAULT_255_1_388
10
5.0802451
20
29.7799898
11
4.6646054
21
29.1276163
0
LINE
8
DEFAULT_255_1_388
10
4.6646054
20
29.1276163
11
5.0901843
21
28.4644
0
LINE
8
DEFAULT_255_1_388
10
5.0901843
20
28.4644
11
4.8841716
21
28.4644
0
LINE
8
DEFAULT_255_1_388
10
4.8841716
20
28.4644
11
4.5606955
21
28.9776246
0
LINE
8
DEFAULT_255_1_388
10
4.5606955
20
28.9776246
11
4.2354123
21
28.4644
0
LINE
8
DEFAULT_255_1_388
10
4.2354123
20
28.4644
11
4.0303032
21
28.4644
0
LINE
8
DEFAULT_255_1_388
10
4.0303032
20
28.4644
11
4.4567856
21
29.1276163
0
LINE
8
DEFAULT_255_1_388
10
4.4567856
20
29.1276163
11
4.0402424
21
29.7799898
0
LINE
8
DEFAULT_255_1_388
10
4.0402424
20
29.7799898
11
4.2435444
21
29.7799898
0
LINE
8
DEFAULT_255_1_388
10
5.7976752
20
29.7863148
11
5.7976752
21
28.4644
0
LINE
8
DEFAULT_255_1_388
10
5.7976752
20
28.4644
11
5.6296123
21
28.4644
0
LINE
8
DEFAULT_255_1_388
10
5.6296123
20
28.4644
11
5.6296123
21
29.578495
0
LINE
8
DEFAULT_255_1_388
10
5.6296123
20
29.578495
11
5.2925827
21
29.4547066
0
LINE
8
DEFAULT_255_1_388
10
5.2925827
20
29.4547066
11
5.2925827
21
29.6065055
0
LINE
8
DEFAULT_255_1_388
10
5.2925827
20
29.6065055
11
5.7714719
21
29.7863148
0
LINE
8
DEFAULT_255_1_388
10
5.7714719
20
29.7863148
11
5.7976752
21
29.7863148
0
LINE
8
DEFAULT_255_1_388
10
7.1494077
20
28.6008382
11
7.1494077
21
28.4644
0
LINE
8
DEFAULT_255_1_388
10
7.1494077
20
28.4644
11
6.2874072
21
28.4644
0
LINE
8
DEFAULT_255_1_388
10
6.2874072
20
28.4644
11
6.2874072
21
28.5845741
0
LINE
8
DEFAULT_255_1_388
10
6.2874072
20
28.5845741
11
6.7428037
21
29.0905702
0
LINE
8
DEFAULT_255_1_388
10
6.4292668
20
29.3923607
11
6.2621074
21
29.3923607
0
LINE
8
DEFAULT_255_1_388
10
6.8412922
20
28.983046
11
6.4889021
21
28.6008382
0
LINE
8
DEFAULT_255_1_388
10
6.4889021
20
28.6008382
11
7.1494077
21
28.6008382
0
ARC
8
DEFAULT_255_1_388
10
5.2252096
20
30.4325983
40
2.0258655
50
318.5132526
51
320.7829045
0
ARC
8
DEFAULT_255_1_388
10
5.8200053
20
29.9484929
40
1.2589638
50
320.7372878
51
323.9739031
0
ARC
8
DEFAULT_255_1_388
10
6.2608985
20
29.6290554
40
0.7145141
50
323.8962701
51
328.64194
0
ARC
8
DEFAULT_255_1_388
10
6.4911242
20
29.4870545
40
0.4440242
50
328.8294576
51
331.7891185
0
ARC
8
DEFAULT_255_1_388
10
6.6033562
20
29.4291374
40
0.3177517
50
331.4254512
51
352.9365785
0
ARC
8
DEFAULT_255_1_388
10
6.6186562
20
29.425705
40
0.3021496
50
353.2257659
51
0.0166158
0
ARC
8
DEFAULT_255_1_388
10
6.6423323
20
29.4282894
40
0.2784847
50
359.486299
51
15.9343185
0
ARC
8
DEFAULT_255_1_388
10
6.699359
20
29.4436269
40
0.2194403
50
16.1712913
51
43.5286088
0
ARC
8
DEFAULT_255_1_388
10
6.7080534
20
29.4523191
40
0.2071504
50
43.4417391
51
83.1661095
0
ARC
8
DEFAULT_255_1_388
10
6.6929695
20
29.3694316
40
0.2912888
50
82.160179
51
90.1505708
0
ARC
8
DEFAULT_255_1_388
10
6.6894177
20
29.3090279
40
0.3517025
50
89.5460741
51
102.5418361
0
ARC
8
DEFAULT_255_1_388
10
6.6620897
20
29.4249933
40
0.2325748
50
102.1738499
51
129.206123
0
ARC
8
DEFAULT_255_1_388
10
6.653235
20
29.4389664
40
0.2161591
50
129.72865
51
135.753947
0
ARC
8
DEFAULT_255_1_388
10
6.6668833
20
29.4280728
40
0.2335433
50
136.1757367
51
166.3673339
0
ARC
8
DEFAULT_255_1_388
10
6.7801521
20
29.3977148
40
0.3507873
50
165.9090694
51
178.8684636
0
ARC
8
DEFAULT_255_1_388
10
6.8777293
20
29.3924263
40
0.4484624
50
178.4391136
51
180.0083808
0
ARC
8
DEFAULT_255_1_388
10
6.7197994
20
29.3968197
40
0.4577138
50
163.2878482
51
180.5581842
0
ARC
8
DEFAULT_255_1_388
10
6.6296035
20
29.4216393
40
0.3641968
50
133.4540601
51
162.947111
0
ARC
8
DEFAULT_255_1_388
10
6.6496917
20
29.4002789
40
0.3935189
50
100.7869829
51
133.4382499
0
ARC
8
DEFAULT_255_1_388
10
6.6888162
20
29.2260399
40
0.5720313
50
89.660664
51
101.3702276
0
ARC
8
DEFAULT_255_1_388
10
6.6962771
20
29.2329263
40
0.5651495
50
78.2172678
51
90.412935
0
ARC
8
DEFAULT_255_1_388
10
6.7362237
20
29.4156511
40
0.378122
50
55.9269121
51
78.4888449
0
ARC
8
DEFAULT_255_1_388
10
6.7582952
20
29.4537187
40
0.3342379
50
47.929771
51
55.4049217
0
ARC
8
DEFAULT_255_1_388
10
6.7697482
20
29.4653618
40
0.3179217
50
4.334829
51
48.0560205
0
ARC
8
DEFAULT_255_1_388
10
6.6465284
20
29.4462487
40
0.442341
50
359.9251713
51
5.5971671
0
ARC
8
DEFAULT_255_1_388
10
6.6947438
20
29.4525728
40
0.3941854
50
337.8914027
51
358.9967534
0
ARC
8
DEFAULT_255_1_388
10
6.3895009
20
29.5703295
40
0.7213271
50
326.9132501
51
338.3508308
0
ARC
8
DEFAULT_255_1_388
10
5.941112
20
29.8577105
40
1.2538973
50
319.6471833
51
327.0959558
0
ARC
8
DEFAULT_255_1_388
10
5.5097779
20
30.213505
40
1.8129975
50
317.2588228
51
319.9045804
0
LINE
8
DEFAULT_255_1_388
10
4.2343444
20
37.7174898
11
4.5514955
21
37.2133009
0
LINE
8
DEFAULT_255_1_388
10
4.5514955
20
37.2133009
11
4.8668395
21
37.7174898
0
LINE
8
DEFAULT_255_1_388
10
4.8668395
20
37.7174898
11
5.0710451
21
37.7174898
0
LINE
8
DEFAULT_255_1_388
10
5.0710451
20
37.7174898
11
4.6554054
21
37.0651163
0
LINE
8
DEFAULT_255_1_388
10
4.6554054
20
37.0651163
11
5.0809843
21
36.4019
0
LINE
8
DEFAULT_255_1_388
10
5.0809843
20
36.4019
11
4.8749716
21
36.4019
0
LINE
8
DEFAULT_255_1_388
10
4.8749716
20
36.4019
11
4.5514955
21
36.9151246
0
LINE
8
DEFAULT_255_1_388
10
4.5514955
20
36.9151246
11
4.2262123
21
36.4019
0
LINE
8
DEFAULT_255_1_388
10
4.2262123
20
36.4019
11
4.0211032
21
36.4019
0
LINE
8
DEFAULT_255_1_388
10
4.0211032
20
36.4019
11
4.4475856
21
37.0651163
0
LINE
8
DEFAULT_255_1_388
10
4.4475856
20
37.0651163
11
4.0310424
21
37.7174898
0
LINE
8
DEFAULT_255_1_388
10
4.0310424
20
37.7174898
11
4.2343444
21
37.7174898
0
LINE
8
DEFAULT_255_1_388
10
5.7884752
20
37.7238148
11
5.7884752
21
36.4019
0
LINE
8
DEFAULT_255_1_388
10
5.7884752
20
36.4019
11
5.6204123
21
36.4019
0
LINE
8
DEFAULT_255_1_388
10
5.6204123
20
36.4019
11
5.6204123
21
37.515995
0
LINE
8
DEFAULT_255_1_388
10
5.6204123
20
37.515995
11
5.2833827
21
37.3922066
0
LINE
8
DEFAULT_255_1_388
10
5.2833827
20
37.3922066
11
5.2833827
21
37.5440055
0
LINE
8
DEFAULT_255_1_388
10
5.2833827
20
37.5440055
11
5.7622719
21
37.7238148
0
LINE
8
DEFAULT_255_1_388
10
5.7622719
20
37.7238148
11
5.7884752
21
37.7238148
0
LINE
8
DEFAULT_255_1_388
10
6.8275744
20
37.7238148
11
6.8275744
21
36.4019
0
LINE
8
DEFAULT_255_1_388
10
6.8275744
20
36.4019
11
6.6595114
21
36.4019
0
LINE
8
DEFAULT_255_1_388
10
6.6595114
20
36.4019
11
6.6595114
21
37.515995
0
LINE
8
DEFAULT_255_1_388
10
6.6595114
20
37.515995
11
6.3224818
21
37.3922066
0
LINE
8
DEFAULT_255_1_388
10
6.3224818
20
37.3922066
11
6.3224818
21
37.5440055
0
LINE
8
DEFAULT_255_1_388
10
6.3224818
20
37.5440055
11
6.801371
21
37.7238148
0
LINE
8
DEFAULT_255_1_388
10
6.801371
20
37.7238148
11
6.8275744
21
37.7238148
0
LINE
8
DEFAULT_255_1_388
10
4.2435444
20
45.6549898
11
4.5606955
21
45.1508009
0
LINE
8
DEFAULT_255_1_388
10
4.5606955
20
45.1508009
11
4.8760395
21
45.6549898
0
LINE
8
DEFAULT_255_1_388
10
4.8760395
20
45.6549898
11
5.0802451
21
45.6549898
0
LINE
8
DEFAULT_255_1_388
10
5.0802451
20
45.6549898
11
4.6646054
21
45.0026163
0
LINE
8
DEFAULT_255_1_388
10
4.6646054
20
45.0026163
11
5.0901843
21
44.3394
0
LINE
8
DEFAULT_255_1_388
10
5.0901843
20
44.3394
11
4.8841716
21
44.3394
0
LINE
8
DEFAULT_255_1_388
10
4.8841716
20
44.3394
11
4.5606955
21
44.8526246
0
LINE
8
DEFAULT_255_1_388
10
4.5606955
20
44.8526246
11
4.2354123
21
44.3394
0
LINE
8
DEFAULT_255_1_388
10
4.2354123
20
44.3394
11
4.0303032
21
44.3394
0
LINE
8
DEFAULT_255_1_388
10
4.0303032
20
44.3394
11
4.4567856
21
45.0026163
0
LINE
8
DEFAULT_255_1_388
10
4.4567856
20
45.0026163
11
4.0402424
21
45.6549898
0
LINE
8
DEFAULT_255_1_388
10
4.0402424
20
45.6549898
11
4.2435444
21
45.6549898
0
LINE
8
DEFAULT_255_1_388
10
5.7976752
20
45.6613148
11
5.7976752
21
44.3394
0
LINE
8
DEFAULT_255_1_388
10
5.7976752
20
44.3394
11
5.6296123
21
44.3394
0
LINE
8
DEFAULT_255_1_388
10
5.6296123
20
44.3394
11
5.6296123
21
45.453495
0
LINE
8
DEFAULT_255_1_388
10
5.6296123
20
45.453495
11
5.2925827
21
45.3297066
0
LINE
8
DEFAULT_255_1_388
10
5.2925827
20
45.3297066
11
5.2925827
21
45.4815055
0
LINE
8
DEFAULT_255_1_388
10
5.2925827
20
45.4815055
11
5.7714719
21
45.6613148
0
LINE
8
DEFAULT_255_1_388
10
5.7714719
20
45.6613148
11
5.7976752
21
45.6613148
0
LINE
8
DEFAULT_255_1_388
10
7.1123615
20
45.117369
11
7.1123615
21
44.9005135
0
LINE
8
DEFAULT_255_1_388
10
6.2819858
20
44.8779244
11
6.2819858
21
45.1011048
0
LINE
8
DEFAULT_255_1_388
10
6.9452021
20
44.8553353
11
6.9452021
21
45.1291153
0
LINE
8
DEFAULT_255_1_388
10
6.4491452
20
45.1417652
11
6.4491452
21
44.8743102
0
ARC
8
DEFAULT_255_1_388
10
5.7345949
20
44.8950118
40
1.3777776
50
353.8440855
51
0.2287917
0
ARC
8
DEFAULT_255_1_388
10
6.2564967
20
44.8367414
40
0.852639
50
344.4934746
51
353.9763743
0
ARC
8
DEFAULT_255_1_388
10
6.5931774
20
44.7410191
40
0.5026273
50
329.2803599
51
344.7473406
0
ARC
8
DEFAULT_255_1_388
10
6.704727
20
44.6798038
40
0.3754848
50
324.9361395
51
328.6153007
0
ARC
8
DEFAULT_255_1_388
10
6.7472919
20
44.6500586
40
0.3235566
50
280.5801797
51
324.9173226
0
ARC
8
DEFAULT_255_1_388
10
6.7021548
20
44.8380236
40
0.5167077
50
269.5979457
51
281.6732777
0
ARC
8
DEFAULT_255_1_388
10
6.6940451
20
44.8245113
40
0.5032026
50
256.6228565
51
270.5105488
0
ARC
8
DEFAULT_255_1_388
10
6.6488194
20
44.6503345
40
0.3233092
50
215.8618351
51
257.2787793
0
ARC
8
DEFAULT_255_1_388
10
6.7636901
20
44.7274106
40
0.4615831
50
197.9695203
51
215.2622745
0
ARC
8
DEFAULT_255_1_388
10
7.0432577
20
44.8217641
40
0.7566307
50
187.8816486
51
198.2346584
0
ARC
8
DEFAULT_255_1_388
10
7.4885815
20
44.8860453
40
1.2065653
50
180.8977266
51
188.0054894
0
ARC
8
DEFAULT_255_1_388
10
7.7936029
20
44.89754
40
1.5117443
50
180.7434591
51
181.152202
0
ARC
8
DEFAULT_255_1_388
10
7.6261025
20
45.1065371
40
1.3441277
50
173.7674302
51
180.2315596
0
ARC
8
DEFAULT_255_1_388
10
7.1178894
20
45.1639779
40
0.8326847
50
164.3058537
51
173.9000553
0
ARC
8
DEFAULT_255_1_388
10
6.7902894
20
45.2583652
40
0.4917711
50
148.7922028
51
164.5682288
0
ARC
8
DEFAULT_255_1_388
10
6.6833631
20
45.3180457
40
0.3694204
50
144.5883979
51
148.1161588
0
ARC
8
DEFAULT_255_1_388
10
6.6446376
20
45.3450667
40
0.322202
50
101.6440149
51
144.5142619
0
ARC
8
DEFAULT_255_1_388
10
6.6924569
20
45.1550337
40
0.5180451
50
89.528284
51
102.5820197
0
ARC
8
DEFAULT_255_1_388
10
6.7013561
20
45.1506376
40
0.5224441
50
77.0437914
51
90.508231
0
ARC
8
DEFAULT_255_1_388
10
6.7465814
20
45.3354272
40
0.3322297
50
48.2777708
51
77.4996087
0
ARC
8
DEFAULT_255_1_388
10
6.7547554
20
45.3499557
40
0.315966
50
36.3141586
51
47.6307332
0
ARC
8
DEFAULT_255_1_388
10
6.6570276
20
45.2841159
40
0.4337313
50
18.2931065
51
35.6770203
0
ARC
8
DEFAULT_255_1_388
10
6.3709117
20
45.1859107
40
0.7362203
50
8.0246996
51
18.5605636
0
ARC
8
DEFAULT_255_1_388
10
5.9025473
20
45.1167432
40
1.2096583
50
1.127539
51
8.1718423
0
ARC
8
DEFAULT_255_1_388
10
5.5376606
20
45.1024374
40
1.5747719
50
0.5432713
51
1.38669
0
ARC
8
DEFAULT_255_1_388
10
5.7433985
20
45.1331163
40
1.2018103
50
359.8092569
51
4.9408001
0
ARC
8
DEFAULT_255_1_388
10
6.2170566
20
45.17539
40
0.7262727
50
4.8364937
51
12.2906017
0
ARC
8
DEFAULT_255_1_388
10
6.5270031
20
45.2444485
40
0.4087324
50
12.0806994
51
23.8171225
0
ARC
8
DEFAULT_255_1_388
10
6.6590427
20
45.3003508
40
0.2653719
50
24.2874621
51
31.3934353
0
ARC
8
DEFAULT_255_1_388
10
6.7180863
20
45.3389822
40
0.1948607
50
30.7407708
51
82.4658033
0
ARC
8
DEFAULT_255_1_388
10
6.6978524
20
45.2396017
40
0.2961198
50
81.1057101
51
90.2187368
0
ARC
8
DEFAULT_255_1_388
10
6.6938335
20
45.2686421
40
0.2670929
50
89.380395
51
105.6763916
0
ARC
8
DEFAULT_255_1_388
10
6.6732057
20
45.343632
40
0.1893189
50
105.7980655
51
149.7387869
0
ARC
8
DEFAULT_255_1_388
10
6.7929198
20
45.2716719
40
0.3289892
50
149.4208441
51
163.628295
0
ARC
8
DEFAULT_255_1_388
10
7.0281427
20
45.1999345
40
0.5749004
50
163.3764549
51
172.141138
0
ARC
8
DEFAULT_255_1_388
10
7.3994149
20
45.1467582
40
0.9499585
50
172.0258462
51
178.0705453
0
ARC
8
DEFAULT_255_1_388
10
7.7415701
20
45.1305682
40
1.2924734
50
177.8639301
51
179.5036263
0
ARC
8
DEFAULT_255_1_388
10
7.619672
20
44.8702151
40
1.170534
50
179.7995545
51
185.246089
0
ARC
8
DEFAULT_255_1_388
10
7.1648313
20
44.8271404
40
0.7136613
50
185.1411911
51
193.0082205
0
ARC
8
DEFAULT_255_1_388
10
6.8674574
20
44.7568441
40
0.4080987
50
192.7897338
51
205.2507384
0
ARC
8
DEFAULT_255_1_388
10
6.7496784
20
44.7042538
40
0.2791522
50
205.8001921
51
211.2545876
0
ARC
8
DEFAULT_255_1_388
10
6.6908323
20
44.6648132
40
0.2084074
50
210.3789935
51
238.4007996
0
ARC
8
DEFAULT_255_1_388
10
6.6886409
20
44.6700786
40
0.2117943
50
239.6521916
51
265.9793852
0
ARC
8
DEFAULT_255_1_388
10
6.6982258
20
44.7457358
40
0.2879689
50
265.1324455
51
270.0603288
0
ARC
8
DEFAULT_255_1_388
10
6.7014635
20
44.7092418
40
0.2514919
50
269.3314378
51
287.2180039
0
ARC
8
DEFAULT_255_1_388
10
6.7169717
20
44.6526291
40
0.1928357
50
287.7957942
51
329.0808983
0
ARC
8
DEFAULT_255_1_388
10
6.6092474
20
44.7198651
40
0.319808
50
328.6635261
51
343.3325043
0
ARC
8
DEFAULT_255_1_388
10
6.3647933
20
44.7960195
40
0.5758408
50
343.0498092
51
351.9392499
0
ARC
8
DEFAULT_255_1_388
10
5.9747254
20
44.8535205
40
0.9701202
50
351.8071632
51
357.7957897
0
ARC
8
DEFAULT_255_1_388
10
5.6112731
20
44.8723724
40
1.3340376
50
357.5870923
51
359.2682493
0
LINE
8
DEFAULT_255_1_388
10
4.2437444
20
53.5924898
11
4.5608955
21
53.0883009
0
LINE
8
DEFAULT_255_1_388
10
4.5608955
20
53.0883009
11
4.8762395
21
53.5924898
0
LINE
8
DEFAULT_255_1_388
10
4.8762395
20
53.5924898
11
5.0804451
21
53.5924898
0
LINE
8
DEFAULT_255_1_388
10
5.0804451
20
53.5924898
11
4.6648054
21
52.9401163
0
LINE
8
DEFAULT_255_1_388
10
4.6648054
20
52.9401163
11
5.0903843
21
52.2769
0
LINE
8
DEFAULT_255_1_388
10
5.0903843
20
52.2769
11
4.8843716
21
52.2769
0
LINE
8
DEFAULT_255_1_388
10
4.8843716
20
52.2769
11
4.5608955
21
52.7901246
0
LINE
8
DEFAULT_255_1_388
10
4.5608955
20
52.7901246
11
4.2356123
21
52.2769
0
LINE
8
DEFAULT_255_1_388
10
4.2356123
20
52.2769
11
4.0305032
21
52.2769
0
LINE
8
DEFAULT_255_1_388
10
4.0305032
20
52.2769
11
4.4569856
21
52.9401163
0
LINE
8
DEFAULT_255_1_388
10
4.4569856
20
52.9401163
11
4.0404424
21
53.5924898
0
LINE
8
DEFAULT_255_1_388
10
4.0404424
20
53.5924898
11
4.2437444
21
53.5924898
0
LINE
8
DEFAULT_255_1_388
10
6.0571982
20
53.0666153
11
6.0571982
21
53.0178229
0
LINE
8
DEFAULT_255_1_388
10
5.4472922
20
52.2759964
11
5.4147639
21
52.2759964
0
LINE
8
DEFAULT_255_1_388
10
5.4147639
20
52.2759964
11
5.4147639
21
52.4169525
0
LINE
8
DEFAULT_255_1_388
10
5.4147639
20
52.4169525
11
5.4500029
21
52.4169525
0
LINE
8
DEFAULT_255_1_388
10
5.8900388
20
53.034087
11
5.8900388
21
53.1009508
0
ARC
8
DEFAULT_255_1_388
10
5.575748
20
53.1179877
40
0.4089973
50
297.4036461
51
320.0168133
0
ARC
8
DEFAULT_255_1_388
10
5.608366
20
53.0553072
40
0.3383378
50
270.2631886
51
297.3852322
0
ARC
8
DEFAULT_255_1_388
10
5.6045336
20
53.1090343
40
0.3920983
50
269.9969069
51
270.7871389
0
ARC
8
DEFAULT_255_1_388
10
5.601666
20
53.1072737
40
0.3903482
50
254.5997295
51
270.4178147
0
ARC
8
DEFAULT_255_1_388
10
5.5856191
20
53.0437693
40
0.3248657
50
236.4717231
51
254.3539376
0
ARC
8
DEFAULT_255_1_388
10
5.6031923
20
53.0673999
40
0.3542746
50
208.4727261
51
236.2134628
0
ARC
8
DEFAULT_255_1_388
10
5.6750686
20
53.1113676
40
0.4384402
50
204.3450776
51
209.0455365
0
ARC
8
DEFAULT_255_1_388
10
5.7515062
20
53.14378
40
0.5214459
50
183.9375459
51
204.1275509
0
ARC
8
DEFAULT_255_1_388
10
5.8537368
20
53.1547863
40
0.6242037
50
179.9652726
51
184.3010611
0
ARC
8
DEFAULT_255_1_388
10
5.8266914
20
53.1585004
40
0.5971675
50
166.7585952
51
180.3200491
0
ARC
8
DEFAULT_255_1_388
10
5.7314722
20
53.1791979
40
0.4997418
50
154.6954866
51
166.5679151
0
ARC
8
DEFAULT_255_1_388
10
5.6354962
20
53.2275411
40
0.3923208
50
136.3325251
51
155.0871367
0
ARC
8
DEFAULT_255_1_388
10
5.6038881
20
53.2546271
40
0.3507618
50
121.2365985
51
135.9680081
0
ARC
8
DEFAULT_255_1_388
10
5.6196946
20
53.2253541
40
0.3839917
50
96.8454764
51
120.9881329
0
ARC
8
DEFAULT_255_1_388
10
5.6360752
20
53.1200942
40
0.4904679
50
89.887204
51
97.2797758
0
ARC
8
DEFAULT_255_1_388
10
5.6419725
20
53.1918652
40
0.418725
50
70.6505767
51
90.6748382
0
ARC
8
DEFAULT_255_1_388
10
5.6567422
20
53.2496091
40
0.3593866
50
36.7493297
51
69.8220487
0
ARC
8
DEFAULT_255_1_388
10
5.5443769
20
53.1620446
40
0.5018201
50
15.3958155
51
37.0841102
0
ARC
8
DEFAULT_255_1_388
10
5.3048053
20
53.0922111
40
0.7513436
50
3.9487796
51
15.6798517
0
ARC
8
DEFAULT_255_1_388
10
5.0346696
20
53.067881
40
1.0225293
50
359.9290791
51
4.266464
0
ARC
8
DEFAULT_255_1_388
10
4.5165613
20
53.0103372
40
1.5406551
50
352.8365702
51
0.2783851
0
ARC
8
DEFAULT_255_1_388
10
5.1113844
20
52.9330664
40
0.9408425
50
341.8359339
51
352.9884057
0
ARC
8
DEFAULT_255_1_388
10
5.4734831
20
52.8110144
40
0.5587481
50
322.8579243
51
342.1527461
0
ARC
8
DEFAULT_255_1_388
10
5.5706523
20
52.744735
40
0.4413099
50
319.3348471
51
322.100194
0
ARC
8
DEFAULT_255_1_388
10
5.5358454
20
52.7796814
40
0.4904992
50
285.954114
51
318.8878716
0
ARC
8
DEFAULT_255_1_388
10
5.4540891
20
53.0395865
40
0.7628991
50
272.9280841
51
286.4924389
0
ARC
8
DEFAULT_255_1_388
10
5.4327196
20
53.293024
40
1.017132
50
270.8209173
51
273.4010121
0
ARC
8
DEFAULT_255_1_388
10
5.4427219
20
53.0882073
40
0.6712943
50
270.6214576
51
281.4062333
0
ARC
8
DEFAULT_255_1_388
10
5.4910943
20
52.856925
40
0.4350167
50
281.1852583
51
299.0622058
0
ARC
8
DEFAULT_255_1_388
10
5.5331188
20
52.7758138
40
0.3437146
50
299.5068171
51
313.1200142
0
ARC
8
DEFAULT_255_1_388
10
5.5355926
20
52.7668959
40
0.3355418
50
313.8525725
51
338.5989631
0
ARC
8
DEFAULT_255_1_388
10
5.3529054
20
52.8419576
40
0.5330317
50
338.2523315
51
351.2431701
0
ARC
8
DEFAULT_255_1_388
10
5.0816805
20
52.8880494
40
0.8081235
50
350.940933
51
357.6690137
0
ARC
8
DEFAULT_255_1_388
10
5.6318685
20
53.1133048
40
0.2581236
50
269.9447107
51
306.8249644
0
ARC
8
DEFAULT_255_1_388
10
5.6051987
20
53.160906
40
0.3122948
50
305.5071046
51
327.0773808
0
ARC
8
DEFAULT_255_1_388
10
5.6185038
20
53.1502445
40
0.2953369
50
327.4106457
51
336.8396801
0
ARC
8
DEFAULT_255_1_388
10
5.2704752
20
53.1045932
40
0.6195743
50
359.663158
51
10.1176387
0
ARC
8
DEFAULT_255_1_388
10
5.4677515
20
53.1410922
40
0.4189561
50
9.9431549
51
26.7699242
0
ARC
8
DEFAULT_255_1_388
10
5.5349501
20
53.1720796
40
0.3450125
50
27.2018067
51
34.6833639
0
ARC
8
DEFAULT_255_1_388
10
5.5900114
20
53.213456
40
0.2762035
50
34.124913
51
50.30709
0
ARC
8
DEFAULT_255_1_388
10
5.6402596
20
53.2735741
40
0.1978518
50
50.3850304
51
90.6705051
0
ARC
8
DEFAULT_255_1_388
10
5.634999
20
53.2393074
40
0.2321235
50
89.2729817
51
111.9140267
0
ARC
8
DEFAULT_255_1_388
10
5.6328078
20
53.2551308
40
0.2166604
50
112.9381864
51
142.5320936
0
ARC
8
DEFAULT_255_1_388
10
5.6942567
20
53.2052392
40
0.2957902
50
142.1024021
51
166.3835244
0
ARC
8
DEFAULT_255_1_388
10
5.8271536
20
53.1709213
40
0.4330361
50
166.1100968
51
178.6653563
0
ARC
8
DEFAULT_255_1_388
10
5.9453462
20
53.1643061
40
0.5513642
50
178.2641888
51
180.010994
0
ARC
8
DEFAULT_255_1_388
10
5.8547964
20
53.1611136
40
0.4608248
50
179.6162225
51
191.8786013
0
ARC
8
DEFAULT_255_1_388
10
5.7175274
20
53.130759
40
0.3202502
50
191.6192934
51
215.2970746
0
ARC
8
DEFAULT_255_1_388
10
5.6935929
20
53.1164963
40
0.2924827
50
215.7258926
51
216.5355437
0
ARC
8
DEFAULT_255_1_388
10
5.6347549
20
53.0691919
40
0.2170661
50
215.7486606
51
239.9728403
0
ARC
8
DEFAULT_255_1_388
10
5.6268715
20
53.0634838
40
0.208217
50
241.065081
51
269.280972
0
ARC
8
DEFAULT_255_1_388
10
5.6315873
20
53.1190327
40
0.2638514
50
268.4083352
51
270.0069622
0
LINE
8
DEFAULT_255_1_388
10
4.2437444
20
61.5299898
11
4.5608955
21
61.0258009
0
LINE
8
DEFAULT_255_1_388
10
4.5608955
20
61.0258009
11
4.8762395
21
61.5299898
0
LINE
8
DEFAULT_255_1_388
10
4.8762395
20
61.5299898
11
5.0804451
21
61.5299898
0
LINE
8
DEFAULT_255_1_388
10
5.0804451
20
61.5299898
11
4.6648054
21
60.8776163
0
LINE
8
DEFAULT_255_1_388
10
4.6648054
20
60.8776163
11
5.0903843
21
60.2144
0
LINE
8
DEFAULT_255_1_388
10
5.0903843
20
60.2144
11
4.8843716
21
60.2144
0
LINE
8
DEFAULT_255_1_388
10
4.8843716
20
60.2144
11
4.5608955
21
60.7276246
0
LINE
8
DEFAULT_255_1_388
10
4.5608955
20
60.7276246
11
4.2356123
21
60.2144
0
LINE
8
DEFAULT_255_1_388
10
4.2356123
20
60.2144
11
4.0305032
21
60.2144
0
LINE
8
DEFAULT_255_1_388
10
4.0305032
20
60.2144
11
4.4569856
21
60.8776163
0
LINE
8
DEFAULT_255_1_388
10
4.4569856
20
60.8776163
11
4.0404424
21
61.5299898
0
LINE
8
DEFAULT_255_1_388
10
4.0404424
20
61.5299898
11
4.2437444
21
61.5299898
0
ARC
8
DEFAULT_255_1_388
10
5.7288586
20
61.183772
40
0.3175098
50
338.8762533
51
0.5167111
0
ARC
8
DEFAULT_255_1_388
10
5.747818
20
61.17866
40
0.2979894
50
325.8415285
51
338.4793574
0
ARC
8
DEFAULT_255_1_388
10
5.7038813
20
61.2091242
40
0.351452
50
296.7587686
51
325.7536481
0
ARC
8
DEFAULT_255_1_388
10
5.6710441
20
61.2645363
40
0.4157374
50
296.0927901
51
297.3613472
0
ARC
8
DEFAULT_255_1_388
10
5.7004636
20
60.5262593
40
0.395855
50
47.9007294
51
67.1948823
0
ARC
8
DEFAULT_255_1_388
10
5.7225279
20
60.5539599
40
0.360516
50
35.2363914
51
47.551141
0
ARC
8
DEFAULT_255_1_388
10
5.7519682
20
60.5736093
40
0.3251343
50
359.2759765
51
35.4014143
0
ARC
8
DEFAULT_255_1_388
10
5.6681609
20
60.5653787
40
0.4089365
50
343.1293083
51
0.5775513
0
ARC
8
DEFAULT_255_1_388
10
5.7496722
20
60.5429336
40
0.3244269
50
310.8496669
51
342.7449331
0
ARC
8
DEFAULT_255_1_388
10
5.7026597
20
60.5965913
40
0.3957651
50
281.5472888
51
310.9170406
0
ARC
8
DEFAULT_255_1_388
10
5.6625472
20
60.7712814
40
0.5749654
50
269.619248
51
281.9789564
0
ARC
8
DEFAULT_255_1_388
10
5.6544249
20
60.7713776
40
0.5750649
50
257.4585678
51
270.4285689
0
ARC
8
DEFAULT_255_1_388
10
5.6115769
20
60.5909741
40
0.389671
50
228.7554326
51
257.8484789
0
ARC
8
DEFAULT_255_1_388
10
5.5767255
20
60.5490228
40
0.335154
50
184.0104975
51
228.5071184
0
ARC
8
DEFAULT_255_1_388
10
5.7075647
20
60.568943
40
0.4671891
50
179.9315832
51
185.3253753
0
ARC
8
DEFAULT_255_1_388
10
5.575216
20
60.5731592
40
0.33486
50
145.6796023
51
180.6259786
0
ARC
8
DEFAULT_255_1_388
10
5.5935926
20
60.5603271
40
0.3572723
50
115.5537685
51
145.6415986
0
ARC
8
DEFAULT_255_1_388
10
5.631897
20
60.4917087
40
0.4357296
50
113.243307
51
116.2057839
0
ARC
8
DEFAULT_255_1_388
10
5.6147621
20
61.2114379
40
0.3549126
50
222.9549744
51
244.1370481
0
ARC
8
DEFAULT_255_1_388
10
5.6010265
20
61.1960378
40
0.3343711
50
213.3436887
51
222.6274467
0
ARC
8
DEFAULT_255_1_388
10
5.5794334
20
61.1813653
40
0.3082678
50
180.431584
51
213.271499
0
ARC
8
DEFAULT_255_1_388
10
5.6429333
20
61.1866296
40
0.3718363
50
179.9991191
51
181.1690594
0
ARC
8
DEFAULT_255_1_388
10
5.6901789
20
61.1905072
40
0.4190996
50
164.6186169
51
180.529336
0
ARC
8
DEFAULT_255_1_388
10
5.5891438
20
61.217678
40
0.3144772
50
132.2455553
51
164.5090724
0
ARC
8
DEFAULT_255_1_388
10
5.6214416
20
61.181107
40
0.3632644
50
100.7053914
51
132.1386381
0
ARC
8
DEFAULT_255_1_388
10
5.6557477
20
61.0261118
40
0.5219578
50
89.6730358
51
101.2451698
0
ARC
8
DEFAULT_255_1_388
10
5.6627468
20
61.0457648
40
0.5023124
50
76.287748
51
90.4586006
0
ARC
8
DEFAULT_255_1_388
10
5.697197
20
61.1832671
40
0.3605639
50
47.8240511
51
76.4266241
0
ARC
8
DEFAULT_255_1_388
10
5.7222355
20
61.2125599
40
0.3220463
50
6.9168387
51
47.6262497
0
ARC
8
DEFAULT_255_1_388
10
5.5887808
20
61.1879004
40
0.4575765
50
359.8415968
51
7.9697453
0
ARC
8
DEFAULT_255_1_388
10
5.6272077
20
60.5758519
40
0.2827228
50
359.445363
51
16.9256873
0
ARC
8
DEFAULT_255_1_388
10
5.6799511
20
60.5903781
40
0.2280396
50
17.2920767
51
45.4630727
0
ARC
8
DEFAULT_255_1_388
10
5.6738647
20
60.5851324
40
0.2360485
50
45.30305
51
83.1920945
0
ARC
8
DEFAULT_255_1_388
10
5.6577391
20
60.4949473
40
0.3275527
50
82.2612665
51
90.1434275
0
ARC
8
DEFAULT_255_1_388
10
5.6542668
20
60.5211869
40
0.3013237
50
89.4956434
51
104.8580688
0
ARC
8
DEFAULT_255_1_388
10
5.6343857
20
60.5965455
40
0.2233867
50
104.8856641
51
135.244616
0
ARC
8
DEFAULT_255_1_388
10
5.6399846
20
60.5915352
40
0.2308906
50
135.3399546
51
172.1044062
0
ARC
8
DEFAULT_255_1_388
10
5.7307371
20
60.5741667
40
0.3232034
50
171.2645637
51
180.186429
0
ARC
8
DEFAULT_255_1_388
10
5.7117375
20
60.5705426
40
0.304213
50
179.5154935
51
193.6464289
0
ARC
8
DEFAULT_255_1_388
10
5.6199051
20
60.5471473
40
0.209456
50
193.3540274
51
225.8258581
0
ARC
8
DEFAULT_255_1_388
10
5.6244924
20
60.5551076
40
0.2183738
50
226.4180634
51
255.8552336
0
ARC
8
DEFAULT_255_1_388
10
5.653339
20
60.6604521
40
0.3275812
50
255.4654104
51
268.7987425
0
ARC
8
DEFAULT_255_1_388
10
5.6586567
20
60.7546545
40
0.4218877
50
268.3449238
51
270.0094605
0
ARC
8
DEFAULT_255_1_388
10
5.66128
20
60.6778094
40
0.3450519
50
269.5759586
51
282.0820163
0
ARC
8
DEFAULT_255_1_388
10
5.6865836
20
60.5659363
40
0.2303642
50
281.752014
51
306.6056188
0
ARC
8
DEFAULT_255_1_388
10
5.6976644
20
60.5477802
40
0.2091906
50
307.1346085
51
314.027845
0
ARC
8
DEFAULT_255_1_388
10
5.6936156
20
60.5507459
40
0.2141385
50
314.2552483
51
350.1694025
0
ARC
8
DEFAULT_255_1_388
10
5.5978393
20
60.5715175
40
0.312082
50
349.4140529
51
0.2933014
0
ARC
8
DEFAULT_255_1_388
10
5.656367
20
61.1518924
40
0.2588377
50
89.477747
51
105.729729
0
ARC
8
DEFAULT_255_1_388
10
5.641059
20
61.2087367
40
0.1999733
50
105.9233417
51
135.1660906
0
ARC
8
DEFAULT_255_1_388
10
5.6433621
20
61.2071412
40
0.2027322
50
135.3052302
51
168.9883645
0
ARC
8
DEFAULT_255_1_388
10
5.7364638
20
61.1857996
40
0.2982129
50
168.3801673
51
180.3602268
0
ARC
8
DEFAULT_255_1_388
10
5.7107754
20
61.1815622
40
0.2725291
50
179.5033122
51
194.9125571
0
ARC
8
DEFAULT_255_1_388
10
5.6449161
20
61.1642427
40
0.204431
50
194.9720816
51
224.194444
0
ARC
8
DEFAULT_255_1_388
10
5.6417527
20
61.1616635
40
0.2003651
50
224.2962453
51
262.015664
0
ARC
8
DEFAULT_255_1_388
10
5.657753
20
61.2439315
40
0.2840925
50
261.1245923
51
270.1962896
0
ARC
8
DEFAULT_255_1_388
10
5.6611012
20
61.2228859
40
0.2630559
50
269.4827276
51
285.0987215
0
ARC
8
DEFAULT_255_1_388
10
5.6784448
20
61.1578175
40
0.1957162
50
285.1585357
51
315.9484501
0
ARC
8
DEFAULT_255_1_388
10
5.6684322
20
61.1670315
40
0.2093195
50
316.0413965
51
351.916092
0
ARC
8
DEFAULT_255_1_388
10
5.5859696
20
61.1829323
40
0.2932279
50
351.105835
51
0.1939062
0
ARC
8
DEFAULT_255_1_388
10
5.615533
20
61.1863224
40
0.2636739
50
359.4789618
51
16.0678224
0
ARC
8
DEFAULT_255_1_388
10
5.6690802
20
61.2007721
40
0.2082215
50
16.3252067
51
44.7913869
0
ARC
8
DEFAULT_255_1_388
10
5.6670864
20
61.200832
40
0.2095992
50
44.3957814
51
88.2499162
0
ARC
8
DEFAULT_255_1_388
10
5.6588198
20
61.1320006
40
0.2787189
50
86.9833854
51
90.0192215
0
LINE
8
DEFAULT_255_1_388
10
4.2437444
20
69.4674898
11
4.5608955
21
68.9633009
0
LINE
8
DEFAULT_255_1_388
10
4.5608955
20
68.9633009
11
4.8762395
21
69.4674898
0
LINE
8
DEFAULT_255_1_388
10
4.8762395
20
69.4674898
11
5.0804451
21
69.4674898
0
LINE
8
DEFAULT_255_1_388
10
5.0804451
20
69.4674898
11
4.6648054
21
68.8151163
0
LINE
8
DEFAULT_255_1_388
10
4.6648054
20
68.8151163
11
5.0903843
21
68.1519
0
LINE
8
DEFAULT_255_1_388
10
5.0903843
20
68.1519
11
4.8843716
21
68.1519
0
LINE
8
DEFAULT_255_1_388
10
4.8843716
20
68.1519
11
4.5608955
21
68.6651246
0
LINE
8
DEFAULT_255_1_388
10
4.5608955
20
68.6651246
11
4.2356123
21
68.1519
0
LINE
8
DEFAULT_255_1_388
10
4.2356123
20
68.1519
11
4.0305032
21
68.1519
0
LINE
8
DEFAULT_255_1_388
10
4.0305032
20
68.1519
11
4.4569856
21
68.8151163
0
LINE
8
DEFAULT_255_1_388
10
4.4569856
20
68.8151163
11
4.0404424
21
69.4674898
0
LINE
8
DEFAULT_255_1_388
10
4.0404424
20
69.4674898
11
4.2437444
21
69.4674898
0
LINE
8
DEFAULT_255_1_388
10
6.0978586
20
69.4674898
11
6.0978586
21
69.3735191
0
LINE
8
DEFAULT_255_1_388
10
6.0978586
20
69.3735191
11
5.5530093
21
68.1519
0
LINE
8
DEFAULT_255_1_388
10
5.5530093
20
68.1519
11
5.3777178
21
68.1519
0
LINE
8
DEFAULT_255_1_388
10
5.3777178
20
68.1519
11
5.92076
21
69.330148
0
LINE
8
DEFAULT_255_1_388
10
5.92076
20
69.330148
11
5.2087512
21
69.330148
0
LINE
8
DEFAULT_255_1_388
10
5.2087512
20
69.330148
11
5.2087512
21
69.4674898
0
LINE
8
DEFAULT_255_1_388
10
5.2087512
20
69.4674898
11
6.0978586
21
69.4674898
0
LINE
8
DEFAULT_255_1_388
10
4.2437444
20
77.4049898
11
4.5608955
21
76.9008009
0
LINE
8
DEFAULT_255_1_388
10
4.5608955
20
76.9008009
11
4.8762395
21
77.4049898
0
LINE
8
DEFAULT_255_1_388
10
4.8762395
20
77.4049898
11
5.0804451
21
77.4049898
0
LINE
8
DEFAULT_255_1_388
10
5.0804451
20
77.4049898
11
4.6648054
21
76.7526163
0
LINE
8
DEFAULT_255_1_388
10
4.6648054
20
76.7526163
11
5.0903843
21
76.0894
0
LINE
8
DEFAULT_255_1_388
10
5.0903843
20
76.0894
11
4.8843716
21
76.0894
0
LINE
8
DEFAULT_255_1_388
10
4.8843716
20
76.0894
11
4.5608955
21
76.6026246
0
LINE
8
DEFAULT_255_1_388
10
4.5608955
20
76.6026246
11
4.2356123
21
76.0894
0
LINE
8
DEFAULT_255_1_388
10
4.2356123
20
76.0894
11
4.0305032
21
76.0894
0
LINE
8
DEFAULT_255_1_388
10
4.0305032
20
76.0894
11
4.4569856
21
76.7526163
0
LINE
8
DEFAULT_255_1_388
10
4.4569856
20
76.7526163
11
4.0404424
21
77.4049898
0
LINE
8
DEFAULT_255_1_388
10
4.0404424
20
77.4049898
11
4.2437444
21
77.4049898
0
LINE
8
DEFAULT_255_1_388
10
5.8746782
20
77.4058934
11
5.9044958
21
77.4058934
0
LINE
8
DEFAULT_255_1_388
10
5.9044958
20
77.4058934
11
5.9044958
21
77.2640338
0
LINE
8
DEFAULT_255_1_388
10
5.9044958
20
77.2640338
11
5.8737747
21
77.2640338
0
LINE
8
DEFAULT_255_1_388
10
5.2584473
20
76.5899747
11
5.2584473
21
76.6541278
0
LINE
8
DEFAULT_255_1_388
10
5.4265103
20
76.6324422
11
5.4265103
21
76.5709999
0
ARC
8
DEFAULT_255_1_388
10
5.8796638
20
76.7017826
40
0.562282
50
90.6001079
51
104.5146616
0
ARC
8
DEFAULT_255_1_388
10
5.8359598
20
76.86431
40
0.3939917
50
104.2855758
51
133.8630124
0
ARC
8
DEFAULT_255_1_388
10
5.854385
20
76.8521243
40
0.4155734
50
134.5304124
51
161.6210222
0
ARC
8
DEFAULT_255_1_388
10
6.0403782
20
76.7865421
40
0.6127682
50
161.2850533
51
174.2074364
0
ARC
8
DEFAULT_255_1_388
10
6.1993349
20
76.7646437
40
0.7731446
50
173.7817938
51
174.9251711
0
ARC
8
DEFAULT_255_1_388
10
5.6867543
20
76.609127
40
0.3412588
50
95.8332067
51
138.995412
0
ARC
8
DEFAULT_255_1_388
10
5.7118823
20
76.4652695
40
0.4870358
50
89.8755506
51
97.0540979
0
ARC
8
DEFAULT_255_1_388
10
5.7172212
20
76.5592841
40
0.3930432
50
71.6407016
51
90.6240821
0
ARC
8
DEFAULT_255_1_388
10
5.7341606
20
76.6216433
40
0.3285421
50
39.6368051
51
71.0190743
0
ARC
8
DEFAULT_255_1_388
10
5.6625513
20
76.5597586
40
0.4231706
50
10.6588054
51
39.9044509
0
ARC
8
DEFAULT_255_1_388
10
5.4884059
20
76.5219223
40
0.60133
50
359.6827842
51
11.1326896
0
ARC
8
DEFAULT_255_1_388
10
5.4839395
20
76.5139715
40
0.6058047
50
347.2485908
51
0.4371098
0
ARC
8
DEFAULT_255_1_388
10
5.671518
20
76.4688379
40
0.4128987
50
318.1408565
51
347.6118497
0
ARC
8
DEFAULT_255_1_388
10
5.7080777
20
76.4387903
40
0.3656244
50
275.6342406
51
317.824739
0
ARC
8
DEFAULT_255_1_388
10
5.6832298
20
76.5849827
40
0.513655
50
269.8872513
51
276.7916069
0
ARC
8
DEFAULT_255_1_388
10
5.677049
20
76.4696181
40
0.398323
50
246.9139443
51
270.7436787
0
ARC
8
DEFAULT_255_1_388
10
5.6777686
20
76.4536044
40
0.3839368
50
218.1665534
51
245.8780431
0
ARC
8
DEFAULT_255_1_388
10
5.7767059
20
76.5363903
40
0.5128958
50
191.4115343
51
218.6077624
0
ARC
8
DEFAULT_255_1_388
10
5.9947375
20
76.5852777
40
0.7363054
50
179.6344971
51
191.7836758
0
ARC
8
DEFAULT_255_1_388
10
6.6227249
20
76.6616495
40
1.3642984
50
171.4523743
51
180.3158856
0
ARC
8
DEFAULT_255_1_388
10
6.1282976
20
76.7385895
40
0.8639311
50
157.9802296
51
171.6246761
0
ARC
8
DEFAULT_255_1_388
10
5.8792327
20
76.8379038
40
0.5958004
50
141.4299236
51
157.8541251
0
ARC
8
DEFAULT_255_1_388
10
5.807041
20
76.8889746
40
0.5075416
50
102.871586
51
140.8564533
0
ARC
8
DEFAULT_255_1_388
10
5.8798963
20
76.6144943
40
0.7914163
50
90.377773
51
103.5868422
0
ARC
8
DEFAULT_255_1_388
10
5.6843484
20
76.5464543
40
0.2667015
50
89.8751238
51
126.2072139
0
ARC
8
DEFAULT_255_1_388
10
5.6894955
20
76.5290847
40
0.2838229
50
124.9742447
51
144.8960197
0
ARC
8
DEFAULT_255_1_388
10
5.66972
20
76.5451981
40
0.2583845
50
145.2974778
51
160.2660922
0
ARC
8
DEFAULT_255_1_388
10
6.0153689
20
76.5674151
40
0.5888695
50
179.6512124
51
190.285571
0
ARC
8
DEFAULT_255_1_388
10
5.8248168
20
76.5314968
40
0.3949683
50
190.0944895
51
207.5099647
0
ARC
8
DEFAULT_255_1_388
10
5.761175
20
76.5012177
40
0.3245464
50
207.9585471
51
216.325377
0
ARC
8
DEFAULT_255_1_388
10
5.7229387
20
76.4697712
40
0.2751259
50
215.7661336
51
232.5457193
0
ARC
8
DEFAULT_255_1_388
10
5.6798503
20
76.4150273
40
0.2054668
50
232.8005815
51
270.6605497
0
ARC
8
DEFAULT_255_1_388
10
5.6849927
20
76.4559853
40
0.2464268
50
269.3550767
51
288.474612
0
ARC
8
DEFAULT_255_1_388
10
5.6954434
20
76.4166721
40
0.2058436
50
289.1831976
51
322.9685307
0
ARC
8
DEFAULT_255_1_388
10
5.6266536
20
76.4709279
40
0.2934408
50
322.6007085
51
346.5183319
0
ARC
8
DEFAULT_255_1_388
10
5.4964292
20
76.5041434
40
0.4278249
50
346.2584622
51
358.7739592
0
ARC
8
DEFAULT_255_1_388
10
5.3812867
20
76.5103829
40
0.5430876
50
358.3757628
51
0.0082477
0
ARC
8
DEFAULT_255_1_388
10
5.4669686
20
76.5134856
40
0.4574157
50
359.6211417
51
11.28403
0
ARC
8
DEFAULT_255_1_388
10
5.6106292
20
76.5434535
40
0.3106708
50
11.0483152
51
31.8145585
0
ARC
8
DEFAULT_255_1_388
10
5.6453997
20
76.5623045
40
0.2711963
50
32.3028554
51
38.0820598
0
ARC
8
DEFAULT_255_1_388
10
5.692723
20
76.6051717
40
0.2075566
50
36.8249851
51
85.741667
0
ARC
8
DEFAULT_255_1_388
10
5.6851643
20
76.5488065
40
0.2643487
50
85.0150021
51
90.050843
0
LINE
8
DEFAULT_255_1_388
10
4.2437444
20
85.3424898
11
4.5608955
21
84.8383009
0
LINE
8
DEFAULT_255_1_388
10
4.5608955
20
84.8383009
11
4.8762395
21
85.3424898
0
LINE
8
DEFAULT_255_1_388
10
4.8762395
20
85.3424898
11
5.0804451
21
85.3424898
0
LINE
8
DEFAULT_255_1_388
10
5.0804451
20
85.3424898
11
4.6648054
21
84.6901163
0
LINE
8
DEFAULT_255_1_388
10
4.6648054
20
84.6901163
11
5.0903843
21
84.0269
0
LINE
8
DEFAULT_255_1_388
10
5.0903843
20
84.0269
11
4.8843716
21
84.0269
0
LINE
8
DEFAULT_255_1_388
10
4.8843716
20
84.0269
11
4.5608955
21
84.5401246
0
LINE
8
DEFAULT_255_1_388
10
4.5608955
20
84.5401246
11
4.2356123
21
84.0269
0
LINE
8
DEFAULT_255_1_388
10
4.2356123
20
84.0269
11
4.0305032
21
84.0269
0
LINE
8
DEFAULT_255_1_388
10
4.0305032
20
84.0269
11
4.4569856
21
84.6901163
0
LINE
8
DEFAULT_255_1_388
10
4.4569856
20
84.6901163
11
4.0404424
21
85.3424898
0
LINE
8
DEFAULT_255_1_388
10
4.0404424
20
85.3424898
11
4.2437444
21
85.3424898
0
LINE
8
DEFAULT_255_1_388
10
5.4590386
20
84.6521666
11
5.325311
21
84.6865021
0
LINE
8
DEFAULT_255_1_388
10
5.325311
20
84.6865021
11
5.3921748
21
85.3424898
0
LINE
8
DEFAULT_255_1_388
10
5.3921748
20
85.3424898
11
6.0662339
21
85.3424898
0
LINE
8
DEFAULT_255_1_388
10
6.0662339
20
85.3424898
11
6.0662339
21
85.1879803
0
LINE
8
DEFAULT_255_1_388
10
6.0662339
20
85.1879803
11
5.5340344
21
85.1879803
0
LINE
8
DEFAULT_255_1_388
10
5.5340344
20
85.1879803
11
5.4942776
21
84.8292652
0
LINE
8
DEFAULT_255_1_388
10
5.2783257
20
84.3729652
11
5.4364495
21
84.3729652
0
LINE
8
DEFAULT_255_1_388
10
5.5033132
20
84.6883092
11
5.4590386
21
84.6521666
0
ARC
8
DEFAULT_255_1_388
10
5.7029389
20
84.4715241
40
0.4141476
50
93.7181681
51
120.253934
0
ARC
8
DEFAULT_255_1_388
10
5.7135442
20
84.3806284
40
0.5055616
50
89.9660471
51
94.2495185
0
ARC
8
DEFAULT_255_1_388
10
5.7181263
20
84.4469154
40
0.4392953
50
73.8045384
51
90.5585736
0
ARC
8
DEFAULT_255_1_388
10
5.7445521
20
84.543452
40
0.3392225
50
41.3071072
51
73.543002
0
ARC
8
DEFAULT_255_1_388
10
5.6977341
20
84.5031461
40
0.4009977
50
13.5075837
51
41.2174839
0
ARC
8
DEFAULT_255_1_388
10
5.5130439
20
84.4547907
40
0.5918864
50
1.1330171
51
13.8830737
0
ARC
8
DEFAULT_255_1_388
10
5.3534084
20
84.4462522
40
0.7516787
50
359.9925091
51
1.5431298
0
ARC
8
DEFAULT_255_1_388
10
5.4978699
20
84.4416027
40
0.6072343
50
347.8572712
51
0.4294349
0
ARC
8
DEFAULT_255_1_388
10
5.6947834
20
84.3969898
40
0.4053482
50
323.6727442
51
348.1674594
0
ARC
8
DEFAULT_255_1_388
10
5.7278799
20
84.3768175
40
0.3667495
50
316.8171818
51
323.1486802
0
ARC
8
DEFAULT_255_1_388
10
5.7347922
20
84.3726612
40
0.358869
50
281.839603
51
316.5458142
0
ARC
8
DEFAULT_255_1_388
10
5.692521
20
84.5476363
40
0.5388223
50
269.5770964
51
282.4214641
0
ARC
8
DEFAULT_255_1_388
10
5.6845131
20
84.523593
40
0.5147801
50
256.2425863
51
270.4486481
0
ARC
8
DEFAULT_255_1_388
10
5.6508658
20
84.3886124
40
0.3756708
50
228.9024379
51
256.33135
0
ARC
8
DEFAULT_255_1_388
10
5.6425639
20
84.3755054
40
0.360344
50
193.7536029
51
228.5272638
0
ARC
8
DEFAULT_255_1_388
10
5.7818204
20
84.4163463
40
0.5053599
50
184.9244437
51
194.4976052
0
ARC
8
DEFAULT_255_1_388
10
5.8034845
20
84.4203722
40
0.3700839
50
187.3596909
51
198.6733728
0
ARC
8
DEFAULT_255_1_388
10
5.6854088
20
84.3794373
40
0.2451195
50
198.4453795
51
217.7945479
0
ARC
8
DEFAULT_255_1_388
10
5.6521261
20
84.3558563
40
0.2043754
50
218.2887146
51
228.5613203
0
ARC
8
DEFAULT_255_1_388
10
5.6631268
20
84.3706902
40
0.2227819
50
228.9652423
51
258.1237049
0
ARC
8
DEFAULT_255_1_388
10
5.6862705
20
84.4697964
40
0.3245374
50
257.7260585
51
270.4013717
0
ARC
8
DEFAULT_255_1_388
10
5.6913203
20
84.4197255
40
0.2744726
50
269.4204315
51
286.420998
0
ARC
8
DEFAULT_255_1_388
10
5.7080259
20
84.3590705
40
0.2115721
50
286.7250065
51
320.6004665
0
ARC
8
DEFAULT_255_1_388
10
5.6649174
20
84.3940527
40
0.2670878
50
320.6712228
51
344.5440474
0
ARC
8
DEFAULT_255_1_388
10
5.5347888
20
84.4322394
40
0.4026927
50
344.241448
51
356.735803
0
ARC
8
DEFAULT_255_1_388
10
5.3944195
20
84.4438656
40
0.5435085
50
356.3547471
51
0.0507222
0
ARC
8
DEFAULT_255_1_388
10
5.544646
20
84.4473812
40
0.3932934
50
359.5579289
51
12.9534322
0
ARC
8
DEFAULT_255_1_388
10
5.66333
20
84.4761586
40
0.2711827
50
12.6489751
51
41.608121
0
ARC
8
DEFAULT_255_1_388
10
5.689246
20
84.4981946
40
0.2371737
50
41.7851122
51
85.9892156
0
ARC
8
DEFAULT_255_1_388
10
5.675377
20
84.4066738
40
0.3295244
50
84.6965848
51
90.0672125
0
ARC
8
DEFAULT_255_1_388
10
5.6727338
20
84.3315118
40
0.4046926
50
89.6804991
51
99.161352
0
ARC
8
DEFAULT_255_1_388
10
5.6496347
20
84.4695848
40
0.2647044
50
98.9836248
51
113.8905702
0
ARC
8
DEFAULT_255_1_388
10
5.6238022
20
84.5305118
40
0.1985386
50
114.195234
51
127.3641866
0
LINE
8
DEFAULT_255_1_388
10
4.3760444
20
93.2799898
11
4.6931955
21
92.7758009
0
LINE
8
DEFAULT_255_1_388
10
4.6931955
20
92.7758009
11
5.0085395
21
93.2799898
0
LINE
8
DEFAULT_255_1_388
10
5.0085395
20
93.2799898
11
5.2127451
21
93.2799898
0
LINE
8
DEFAULT_255_1_388
10
5.2127451
20
93.2799898
11
4.7971054
21
92.6276163
0
LINE
8
DEFAULT_255_1_388
10
4.7971054
20
92.6276163
11
5.2226843
21
91.9644
0
LINE
8
DEFAULT_255_1_388
10
5.2226843
20
91.9644
11
5.0166716
21
91.9644
0
LINE
8
DEFAULT_255_1_388
10
5.0166716
20
91.9644
11
4.6931955
21
92.4776246
0
LINE
8
DEFAULT_255_1_388
10
4.6931955
20
92.4776246
11
4.3679123
21
91.9644
0
LINE
8
DEFAULT_255_1_388
10
4.3679123
20
91.9644
11
4.1628032
21
91.9644
0
LINE
8
DEFAULT_255_1_388
10
4.1628032
20
91.9644
11
4.5892856
21
92.6276163
0
LINE
8
DEFAULT_255_1_388
10
4.5892856
20
92.6276163
11
4.1727424
21
93.2799898
0
LINE
8
DEFAULT_255_1_388
10
4.1727424
20
93.2799898
11
4.3760444
21
93.2799898
0
LINE
8
DEFAULT_255_1_388
10
6.0864919
20
93.2799898
11
6.0864919
21
92.406243
0
LINE
8
DEFAULT_255_1_388
10
6.0864919
20
92.406243
11
6.2690119
21
92.406243
0
LINE
8
DEFAULT_255_1_388
10
6.2690119
20
92.406243
11
6.2690119
21
92.2698048
0
LINE
8
DEFAULT_255_1_388
10
6.2690119
20
92.2698048
11
6.0864919
21
92.2698048
0
LINE
8
DEFAULT_255_1_388
10
6.0864919
20
92.2698048
11
6.0864919
21
91.9644
0
LINE
8
DEFAULT_255_1_388
10
6.0864919
20
91.9644
11
5.9184289
21
91.9644
0
LINE
8
DEFAULT_255_1_388
10
5.9184289
20
91.9644
11
5.9184289
21
92.2698048
0
LINE
8
DEFAULT_255_1_388
10
5.9184289
20
92.2698048
11
5.3193657
21
92.2698048
0
LINE
8
DEFAULT_255_1_388
10
5.3193657
20
92.2698048
11
5.3193657
21
92.3682933
0
LINE
8
DEFAULT_255_1_388
10
5.3193657
20
92.3682933
11
5.9084897
21
93.2799898
0
LINE
8
DEFAULT_255_1_388
10
5.9084897
20
93.2799898
11
6.0864919
21
93.2799898
0
LINE
8
DEFAULT_255_1_388
10
5.8985505
20
93.0152455
11
5.5091142
21
92.406243
0
LINE
8
DEFAULT_255_1_388
10
5.5091142
20
92.406243
11
5.9184289
21
92.406243
0
LINE
8
DEFAULT_255_1_388
10
5.9184289
20
92.406243
11
5.9184289
21
93.051388
0
LINE
8
DEFAULT_255_1_388
10
5.9184289
20
93.051388
11
5.8985505
21
93.0152455
0
LINE
8
DEFAULT_255_1_388
10
4.2437444
20
101.2174898
11
4.5608955
21
100.7133009
0
LINE
8
DEFAULT_255_1_388
10
4.5608955
20
100.7133009
11
4.8762395
21
101.2174898
0
LINE
8
DEFAULT_255_1_388
10
4.8762395
20
101.2174898
11
5.0804451
21
101.2174898
0
LINE
8
DEFAULT_255_1_388
10
5.0804451
20
101.2174898
11
4.6648054
21
100.5651163
0
LINE
8
DEFAULT_255_1_388
10
4.6648054
20
100.5651163
11
5.0903843
21
99.9019
0
LINE
8
DEFAULT_255_1_388
10
5.0903843
20
99.9019
11
4.8843716
21
99.9019
0
LINE
8
DEFAULT_255_1_388
10
4.8843716
20
99.9019
11
4.5608955
21
100.4151246
0
LINE
8
DEFAULT_255_1_388
10
4.5608955
20
100.4151246
11
4.2356123
21
99.9019
0
LINE
8
DEFAULT_255_1_388
10
4.2356123
20
99.9019
11
4.0305032
21
99.9019
0
LINE
8
DEFAULT_255_1_388
10
4.0305032
20
99.9019
11
4.4569856
21
100.5651163
0
LINE
8
DEFAULT_255_1_388
10
4.4569856
20
100.5651163
11
4.0404424
21
101.2174898
0
LINE
8
DEFAULT_255_1_388
10
4.0404424
20
101.2174898
11
4.2437444
21
101.2174898
0
LINE
8
DEFAULT_255_1_388
10
5.4915669
20
100.5045775
11
5.4915669
21
100.6410157
0
LINE
8
DEFAULT_255_1_388
10
5.4915669
20
100.6410157
11
5.6171624
21
100.6410157
0
LINE
8
DEFAULT_255_1_388
10
5.4030176
20
100.8723282
11
5.2358582
21
100.8723282
0
LINE
8
DEFAULT_255_1_388
10
5.2241118
20
100.2488688
11
5.3921748
21
100.2488688
0
LINE
8
DEFAULT_255_1_388
10
5.6171624
20
100.5045775
11
5.4915669
21
100.5045775
0
ARC
8
DEFAULT_255_1_388
10
5.613885
20
101.0226922
40
0.3816905
50
270.491971
51
281.8953028
0
ARC
8
DEFAULT_255_1_388
10
5.6410277
20
100.8987199
40
0.2547877
50
281.6690378
51
301.2943765
0
ARC
8
DEFAULT_255_1_388
10
5.6601728
20
100.8636926
40
0.2149197
50
301.7834992
51
311.754567
0
ARC
8
DEFAULT_255_1_388
10
5.670477
20
100.852265
40
0.1995326
50
311.7325027
51
354.2803031
0
ARC
8
DEFAULT_255_1_388
10
5.5887186
20
100.866328
40
0.2823461
50
353.0941646
51
0.1174696
0
ARC
8
DEFAULT_255_1_388
10
5.5368744
20
100.8716874
40
0.3342238
50
359.1804452
51
15.0452323
0
ARC
8
DEFAULT_255_1_388
10
5.6882802
20
100.9158546
40
0.1765747
50
13.957816
51
77.6713812
0
ARC
8
DEFAULT_255_1_388
10
5.6448038
20
100.7600464
40
0.3381982
50
76.111571
51
90.7028736
0
ARC
8
DEFAULT_255_1_388
10
5.638145
20
100.790825
40
0.3074046
50
89.5321574
51
103.5319393
0
ARC
8
DEFAULT_255_1_388
10
5.6155833
20
100.8807443
40
0.2147041
50
103.2930114
51
133.5619756
0
ARC
8
DEFAULT_255_1_388
10
5.6105775
20
100.8874351
40
0.2064084
50
133.8349761
51
173.5343225
0
ARC
8
DEFAULT_255_1_388
10
5.6919432
20
100.8730144
40
0.2889266
50
172.5097183
51
180.1360699
0
ARC
8
DEFAULT_255_1_388
10
5.5849196
20
100.876888
40
0.3490913
50
155.3483706
51
180.7484035
0
ARC
8
DEFAULT_255_1_388
10
5.5794172
20
100.8736519
40
0.3454798
50
131.5745177
51
154.4799474
0
ARC
8
DEFAULT_255_1_388
10
5.6146455
20
100.8380422
40
0.3955058
50
96.9874487
51
131.9690874
0
ARC
8
DEFAULT_255_1_388
10
5.6393347
20
100.6979407
40
0.537622
50
89.8592909
51
97.7827481
0
ARC
8
DEFAULT_255_1_388
10
5.6447456
20
100.668436
40
0.5671399
50
78.3654493
51
90.4132586
0
ARC
8
DEFAULT_255_1_388
10
5.6850097
20
100.8550918
40
0.3762034
50
56.6229818
51
78.6387103
0
ARC
8
DEFAULT_255_1_388
10
5.7091927
20
100.8973846
40
0.3275964
50
47.0254604
51
56.085558
0
ARC
8
DEFAULT_255_1_388
10
5.7114178
20
100.9018189
40
0.3228382
50
10.9207523
51
46.777927
0
ARC
8
DEFAULT_255_1_388
10
5.5579772
20
100.8663401
40
0.4802559
50
359.6364235
51
11.6087615
0
ARC
8
DEFAULT_255_1_388
10
5.7643937
20
100.8646404
40
0.273833
50
332.3549969
51
359.7179765
0
ARC
8
DEFAULT_255_1_388
10
5.6912338
20
100.8993285
40
0.3547505
50
325.2332381
51
332.8746682
0
ARC
8
DEFAULT_255_1_388
10
5.7083921
20
100.8873763
40
0.3338396
50
292.9803892
51
325.2391113
0
ARC
8
DEFAULT_255_1_388
10
5.6773117
20
100.9478679
40
0.4016959
50
292.542178
51
293.6931461
0
ARC
8
DEFAULT_255_1_388
10
5.7216688
20
100.2213036
40
0.372079
50
57.643292
51
72.8626085
0
ARC
8
DEFAULT_255_1_388
10
5.7615523
20
100.2859273
40
0.2961455
50
36.7246661
51
57.4701329
0
ARC
8
DEFAULT_255_1_388
10
5.760268
20
100.287347
40
0.2963321
50
8.054535
51
36.3561529
0
ARC
8
DEFAULT_255_1_388
10
5.6632352
20
100.2699073
40
0.3948682
50
359.8316595
51
8.5873361
0
ARC
8
DEFAULT_255_1_388
10
5.6209827
20
100.264497
40
0.4371398
50
343.9831631
51
0.557075
0
ARC
8
DEFAULT_255_1_388
10
5.7206876
20
100.2371963
40
0.3337749
50
311.6358204
51
343.7652116
0
ARC
8
DEFAULT_255_1_388
10
5.678113
20
100.2851955
40
0.3979351
50
279.7829743
51
311.625622
0
ARC
8
DEFAULT_255_1_388
10
5.6442265
20
100.4468642
40
0.5630417
50
269.7285092
51
280.3857694
0
ARC
8
DEFAULT_255_1_388
10
5.6372578
20
100.4422241
40
0.5584119
50
256.6827433
51
270.4412869
0
ARC
8
DEFAULT_255_1_388
10
5.5991565
20
100.2864698
40
0.3980715
50
229.4223821
51
256.8554507
0
ARC
8
DEFAULT_255_1_388
10
5.5525118
20
100.2339683
40
0.3278564
50
181.8183354
51
229.6455015
0
ARC
8
DEFAULT_255_1_388
10
5.6694727
20
100.2486825
40
0.4453611
50
179.9760419
51
183.2330638
0
ARC
8
DEFAULT_255_1_388
10
5.650128
20
100.2463781
40
0.2579652
50
179.4467996
51
196.2871626
0
ARC
8
DEFAULT_255_1_388
10
5.5952733
20
100.2313709
40
0.2011057
50
196.5661293
51
227.7059371
0
ARC
8
DEFAULT_255_1_388
10
5.6137341
20
100.2520155
40
0.2287994
50
227.7653015
51
257.8763321
0
ARC
8
DEFAULT_255_1_388
10
5.6390424
20
100.3580961
40
0.3378385
50
257.4583525
51
270.4267406
0
ARC
8
DEFAULT_255_1_388
10
5.6441673
20
100.390723
40
0.3704652
50
269.5965319
51
280.8788143
0
ARC
8
DEFAULT_255_1_388
10
5.6699901
20
100.2617529
40
0.2389415
50
280.6347277
51
299.8594068
0
ARC
8
DEFAULT_255_1_388
10
5.6914671
20
100.2209736
40
0.19289
50
300.3575552
51
314.5515667
0
ARC
8
DEFAULT_255_1_388
10
5.6821347
20
100.2278025
40
0.204312
50
315.0730962
51
345.0429362
0
ARC
8
DEFAULT_255_1_388
10
5.5782854
20
100.2580539
40
0.31246
50
344.598526
51
357.9270698
0
ARC
8
DEFAULT_255_1_388
10
5.4773159
20
100.2649705
40
0.4136265
50
357.4755098
51
0.0224936
0
ARC
8
DEFAULT_255_1_388
10
5.5926037
20
100.2677099
40
0.2983498
50
359.5051035
51
13.4236939
0
ARC
8
DEFAULT_255_1_388
10
5.6901127
20
100.2926637
40
0.1977186
50
12.9497905
51
48.7550905
0
ARC
8
DEFAULT_255_1_388
10
5.6696048
20
100.2646373
40
0.2323321
50
49.509109
51
72.1832965
0
ARC
8
DEFAULT_255_1_388
10
5.6293517
20
100.1451632
40
0.358397
50
71.9008458
51
84.3555134
0
ARC
8
DEFAULT_255_1_388
10
5.6111911
20
99.9919712
40
0.512641
50
84.019632
51
89.3326067
0
LINE
8
DEFAULT_255_1_388
10
4.2437444
20
109.1549898
11
4.5608955
21
108.6508009
0
LINE
8
DEFAULT_255_1_388
10
4.5608955
20
108.6508009
11
4.8762395
21
109.1549898
0
LINE
8
DEFAULT_255_1_388
10
4.8762395
20
109.1549898
11
5.0804451
21
109.1549898
0
LINE
8
DEFAULT_255_1_388
10
5.0804451
20
109.1549898
11
4.6648054
21
108.5026163
0
LINE
8
DEFAULT_255_1_388
10
4.6648054
20
108.5026163
11
5.0903843
21
107.8394
0
LINE
8
DEFAULT_255_1_388
10
5.0903843
20
107.8394
11
4.8843716
21
107.8394
0
LINE
8
DEFAULT_255_1_388
10
4.8843716
20
107.8394
11
4.5608955
21
108.3526246
0
LINE
8
DEFAULT_255_1_388
10
4.5608955
20
108.3526246
11
4.2356123
21
107.8394
0
LINE
8
DEFAULT_255_1_388
10
4.2356123
20
107.8394
11
4.0305032
21
107.8394
0
LINE
8
DEFAULT_255_1_388
10
4.0305032
20
107.8394
11
4.4569856
21
108.5026163
0
LINE
8
DEFAULT_255_1_388
10
4.4569856
20
108.5026163
11
4.0404424
21
109.1549898
0
LINE
8
DEFAULT_255_1_388
10
4.0404424
20
109.1549898
11
4.2437444
21
109.1549898
0
LINE
8
DEFAULT_255_1_388
10
6.1105085
20
107.9758382
11
6.1105085
21
107.8394
0
LINE
8
DEFAULT_255_1_388
10
6.1105085
20
107.8394
11
5.2485081
21
107.8394
0
LINE
8
DEFAULT_255_1_388
10
5.2485081
20
107.8394
11
5.2485081
21
107.9595741
0
LINE
8
DEFAULT_255_1_388
10
5.2485081
20
107.9595741
11
5.7039045
21
108.4655702
0
LINE
8
DEFAULT_255_1_388
10
5.3903677
20
108.7673607
11
5.2232083
21
108.7673607
0
LINE
8
DEFAULT_255_1_388
10
5.8023931
20
108.358046
11
5.4500029
21
107.9758382
0
LINE
8
DEFAULT_255_1_388
10
5.4500029
20
107.9758382
11
6.1105085
21
107.9758382
0
ARC
8
DEFAULT_255_1_388
10
4.1863105
20
109.8075983
40
2.0258655
50
318.5132526
51
320.7829045
0
ARC
8
DEFAULT_255_1_388
10
4.7811062
20
109.3234929
40
1.2589638
50
320.7372878
51
323.9739031
0
ARC
8
DEFAULT_255_1_388
10
5.2219994
20
109.0040554
40
0.7145141
50
323.8962701
51
328.64194
0
ARC
8
DEFAULT_255_1_388
10
5.4522251
20
108.8620545
40
0.4440242
50
328.8294576
51
331.7891185
0
ARC
8
DEFAULT_255_1_388
10
5.5644571
20
108.8041374
40
0.3177517
50
331.4254512
51
352.9365785
0
ARC
8
DEFAULT_255_1_388
10
5.5797571
20
108.800705
40
0.3021496
50
353.2257659
51
0.0166158
0
ARC
8
DEFAULT_255_1_388
10
5.6034332
20
108.8032894
40
0.2784847
50
359.486299
51
15.9343185
0
ARC
8
DEFAULT_255_1_388
10
5.6604599
20
108.8186269
40
0.2194403
50
16.1712913
51
43.5286088
0
ARC
8
DEFAULT_255_1_388
10
5.6691543
20
108.8273191
40
0.2071504
50
43.4417391
51
83.1661095
0
ARC
8
DEFAULT_255_1_388
10
5.6540704
20
108.7444316
40
0.2912888
50
82.160179
51
90.1505708
0
ARC
8
DEFAULT_255_1_388
10
5.6505186
20
108.6840279
40
0.3517025
50
89.5460741
51
102.5418361
0
ARC
8
DEFAULT_255_1_388
10
5.6231906
20
108.7999933
40
0.2325748
50
102.1738499
51
129.206123
0
ARC
8
DEFAULT_255_1_388
10
5.6143359
20
108.8139664
40
0.2161591
50
129.72865
51
135.753947
0
ARC
8
DEFAULT_255_1_388
10
5.6279841
20
108.8030728
40
0.2335433
50
136.1757367
51
166.3673339
0
ARC
8
DEFAULT_255_1_388
10
5.741253
20
108.7727148
40
0.3507873
50
165.9090694
51
178.8684636
0
ARC
8
DEFAULT_255_1_388
10
5.8388301
20
108.7674263
40
0.4484624
50
178.4391136
51
180.0083808
0
ARC
8
DEFAULT_255_1_388
10
5.6809003
20
108.7718197
40
0.4577138
50
163.2878482
51
180.5581842
0
ARC
8
DEFAULT_255_1_388
10
5.5907044
20
108.7966393
40
0.3641968
50
133.4540601
51
162.947111
0
ARC
8
DEFAULT_255_1_388
10
5.6107926
20
108.7752789
40
0.3935189
50
100.7869829
51
133.4382499
0
ARC
8
DEFAULT_255_1_388
10
5.6499171
20
108.6010399
40
0.5720313
50
89.660664
51
101.3702276
0
ARC
8
DEFAULT_255_1_388
10
5.657378
20
108.6079263
40
0.5651495
50
78.2172678
51
90.412935
0
ARC
8
DEFAULT_255_1_388
10
5.6973245
20
108.7906511
40
0.378122
50
55.9269121
51
78.4888449
0
ARC
8
DEFAULT_255_1_388
10
5.7193961
20
108.8287187
40
0.3342379
50
47.929771
51
55.4049217
0
ARC
8
DEFAULT_255_1_388
10
5.7308491
20
108.8403618
40
0.3179217
50
4.334829
51
48.0560205
0
ARC
8
DEFAULT_255_1_388
10
5.6076293
20
108.8212487
40
0.442341
50
359.9251713
51
5.5971671
0
ARC
8
DEFAULT_255_1_388
10
5.6558447
20
108.8275728
40
0.3941854
50
337.8914027
51
358.9967534
0
ARC
8
DEFAULT_255_1_388
10
5.3506017
20
108.9453295
40
0.7213271
50
326.9132501
51
338.3508308
0
ARC
8
DEFAULT_255_1_388
10
4.9022129
20
109.2327105
40
1.2538973
50
319.6471833
51
327.0959558
0
ARC
8
DEFAULT_255_1_388
10
4.4708787
20
109.588505
40
1.8129975
50
317.2588228
51
319.9045804
0
LINE
8
DEFAULT_255_1_388
10
4.2357444
20
117.0924898
11
4.5528955
21
116.5883009
0
LINE
8
DEFAULT_255_1_388
10
4.5528955
20
116.5883009
11
4.8682395
21
117.0924898
0
LINE
8
DEFAULT_255_1_388
10
4.8682395
20
117.0924898
11
5.0724451
21
117.0924898
0
LINE
8
DEFAULT_255_1_388
10
5.0724451
20
117.0924898
11
4.6568054
21
116.4401163
0
LINE
8
DEFAULT_255_1_388
10
4.6568054
20
116.4401163
11
5.0823843
21
115.7769
0
LINE
8
DEFAULT_255_1_388
10
5.0823843
20
115.7769
11
4.8763716
21
115.7769
0
LINE
8
DEFAULT_255_1_388
10
4.8763716
20
115.7769
11
4.5528955
21
116.2901246
0
LINE
8
DEFAULT_255_1_388
10
4.5528955
20
116.2901246
11
4.2276123
21
115.7769
0
LINE
8
DEFAULT_255_1_388
10
4.2276123
20
115.7769
11
4.0225032
21
115.7769
0
LINE
8
DEFAULT_255_1_388
10
4.0225032
20
115.7769
11
4.4489856
21
116.4401163
0
LINE
8
DEFAULT_255_1_388
10
4.4489856
20
116.4401163
11
4.0324424
21
117.0924898
0
LINE
8
DEFAULT_255_1_388
10
4.0324424
20
117.0924898
11
4.2357444
21
117.0924898
0
LINE
8
DEFAULT_255_1_388
10
5.7898752
20
117.0988148
11
5.7898752
21
115.7769
0
LINE
8
DEFAULT_255_1_388
10
5.7898752
20
115.7769
11
5.6218123
21
115.7769
0
LINE
8
DEFAULT_255_1_388
10
5.6218123
20
115.7769
11
5.6218123
21
116.890995
0
LINE
8
DEFAULT_255_1_388
10
5.6218123
20
116.890995
11
5.2847827
21
116.7672066
0
LINE
8
DEFAULT_255_1_388
10
5.2847827
20
116.7672066
11
5.2847827
21
116.9190055
0
LINE
8
DEFAULT_255_1_388
10
5.2847827
20
116.9190055
11
5.7636719
21
117.0988148
0
LINE
8
DEFAULT_255_1_388
10
5.7636719
20
117.0988148
11
5.7898752
21
117.0988148
0
LINE
8
DEFAULT_255_1_388
10
4.2437444
20
125.0299898
11
4.5608955
21
124.5258009
0
LINE
8
DEFAULT_255_1_388
10
4.5608955
20
124.5258009
11
4.8762395
21
125.0299898
0
LINE
8
DEFAULT_255_1_388
10
4.8762395
20
125.0299898
11
5.0804451
21
125.0299898
0
LINE
8
DEFAULT_255_1_388
10
5.0804451
20
125.0299898
11
4.6648054
21
124.3776163
0
LINE
8
DEFAULT_255_1_388
10
4.6648054
20
124.3776163
11
5.0903843
21
123.7144
0
LINE
8
DEFAULT_255_1_388
10
5.0903843
20
123.7144
11
4.8843716
21
123.7144
0
LINE
8
DEFAULT_255_1_388
10
4.8843716
20
123.7144
11
4.5608955
21
124.2276246
0
LINE
8
DEFAULT_255_1_388
10
4.5608955
20
124.2276246
11
4.2356123
21
123.7144
0
LINE
8
DEFAULT_255_1_388
10
4.2356123
20
123.7144
11
4.0305032
21
123.7144
0
LINE
8
DEFAULT_255_1_388
10
4.0305032
20
123.7144
11
4.4569856
21
124.3776163
0
LINE
8
DEFAULT_255_1_388
10
4.4569856
20
124.3776163
11
4.0404424
21
125.0299898
0
LINE
8
DEFAULT_255_1_388
10
4.0404424
20
125.0299898
11
4.2437444
21
125.0299898
0
LINE
8
DEFAULT_255_1_388
10
6.0734624
20
124.492369
11
6.0734624
21
124.2755135
0
LINE
8
DEFAULT_255_1_388
10
5.2430867
20
124.2529244
11
5.2430867
21
124.4761048
0
LINE
8
DEFAULT_255_1_388
10
5.906303
20
124.2303353
11
5.906303
21
124.5041153
0
LINE
8
DEFAULT_255_1_388
10
5.4102461
20
124.5167652
11
5.4102461
21
124.2493102
0
ARC
8
DEFAULT_255_1_388
10
4.6956958
20
124.2700118
40
1.3777776
50
353.8440855
51
0.2287917
0
ARC
8
DEFAULT_255_1_388
10
5.2175975
20
124.2117414
40
0.852639
50
344.4934746
51
353.9763743
0
ARC
8
DEFAULT_255_1_388
10
5.5542783
20
124.1160191
40
0.5026273
50
329.2803599
51
344.7473406
0
ARC
8
DEFAULT_255_1_388
10
5.6658278
20
124.0548038
40
0.3754848
50
324.9361395
51
328.6153007
0
ARC
8
DEFAULT_255_1_388
10
5.7083928
20
124.0250586
40
0.3235566
50
280.5801797
51
324.9173226
0
ARC
8
DEFAULT_255_1_388
10
5.6632557
20
124.2130236
40
0.5167077
50
269.5979457
51
281.6732777
0
ARC
8
DEFAULT_255_1_388
10
5.655146
20
124.1995113
40
0.5032026
50
256.6228565
51
270.5105488
0
ARC
8
DEFAULT_255_1_388
10
5.6099203
20
124.0253345
40
0.3233092
50
215.8618351
51
257.2787793
0
ARC
8
DEFAULT_255_1_388
10
5.724791
20
124.1024106
40
0.4615831
50
197.9695203
51
215.2622745
0
ARC
8
DEFAULT_255_1_388
10
6.0043586
20
124.1967641
40
0.7566307
50
187.8816486
51
198.2346584
0
ARC
8
DEFAULT_255_1_388
10
6.4496824
20
124.2610453
40
1.2065653
50
180.8977266
51
188.0054894
0
ARC
8
DEFAULT_255_1_388
10
6.7547038
20
124.27254
40
1.5117443
50
180.7434591
51
181.152202
0
ARC
8
DEFAULT_255_1_388
10
6.5872034
20
124.4815371
40
1.3441277
50
173.7674302
51
180.2315596
0
ARC
8
DEFAULT_255_1_388
10
6.0789902
20
124.5389779
40
0.8326847
50
164.3058537
51
173.9000553
0
ARC
8
DEFAULT_255_1_388
10
5.7513902
20
124.6333652
40
0.4917711
50
148.7922028
51
164.5682288
0
ARC
8
DEFAULT_255_1_388
10
5.644464
20
124.6930457
40
0.3694204
50
144.5883979
51
148.1161588
0
ARC
8
DEFAULT_255_1_388
10
5.6057385
20
124.7200667
40
0.322202
50
101.6440149
51
144.5142619
0
ARC
8
DEFAULT_255_1_388
10
5.6535577
20
124.5300337
40
0.5180451
50
89.528284
51
102.5820197
0
ARC
8
DEFAULT_255_1_388
10
5.6624569
20
124.5256376
40
0.5224441
50
77.0437914
51
90.508231
0
ARC
8
DEFAULT_255_1_388
10
5.7076823
20
124.7104272
40
0.3322297
50
48.2777708
51
77.4996087
0
ARC
8
DEFAULT_255_1_388
10
5.7158563
20
124.7249557
40
0.315966
50
36.3141586
51
47.6307332
0
ARC
8
DEFAULT_255_1_388
10
5.6181285
20
124.6591159
40
0.4337313
50
18.2931065
51
35.6770203
0
ARC
8
DEFAULT_255_1_388
10
5.3320126
20
124.5609107
40
0.7362203
50
8.0246996
51
18.5605636
0
ARC
8
DEFAULT_255_1_388
10
4.8636481
20
124.4917432
40
1.2096583
50
1.127539
51
8.1718423
0
ARC
8
DEFAULT_255_1_388
10
4.4987615
20
124.4774374
40
1.5747719
50
0.5432713
51
1.38669
0
ARC
8
DEFAULT_255_1_388
10
4.7044994
20
124.5081163
40
1.2018103
50
359.8092569
51
4.9408001
0
ARC
8
DEFAULT_255_1_388
10
5.1781575
20
124.55039
40
0.7262727
50
4.8364937
51
12.2906017
0
ARC
8
DEFAULT_255_1_388
10
5.488104
20
124.6194485
40
0.4087324
50
12.0806994
51
23.8171225
0
ARC
8
DEFAULT_255_1_388
10
5.6201436
20
124.6753508
40
0.2653719
50
24.2874621
51
31.3934353
0
ARC
8
DEFAULT_255_1_388
10
5.6791872
20
124.7139822
40
0.1948607
50
30.7407708
51
82.4658033
0
ARC
8
DEFAULT_255_1_388
10
5.6589532
20
124.6146017
40
0.2961198
50
81.1057101
51
90.2187368
0
ARC
8
DEFAULT_255_1_388
10
5.6549344
20
124.6436421
40
0.2670929
50
89.380395
51
105.6763916
0
ARC
8
DEFAULT_255_1_388
10
5.6343066
20
124.718632
40
0.1893189
50
105.7980655
51
149.7387869
0
ARC
8
DEFAULT_255_1_388
10
5.7540206
20
124.6466719
40
0.3289892
50
149.4208441
51
163.628295
0
ARC
8
DEFAULT_255_1_388
10
5.9892436
20
124.5749345
40
0.5749004
50
163.3764549
51
172.141138
0
ARC
8
DEFAULT_255_1_388
10
6.3605157
20
124.5217582
40
0.9499585
50
172.0258462
51
178.0705453
0
ARC
8
DEFAULT_255_1_388
10
6.702671
20
124.5055682
40
1.2924734
50
177.8639301
51
179.5036263
0
ARC
8
DEFAULT_255_1_388
10
6.5807729
20
124.2452151
40
1.170534
50
179.7995545
51
185.246089
0
ARC
8
DEFAULT_255_1_388
10
6.1259322
20
124.2021404
40
0.7136613
50
185.1411911
51
193.0082205
0
ARC
8
DEFAULT_255_1_388
10
5.8285583
20
124.1318441
40
0.4080987
50
192.7897338
51
205.2507384
0
ARC
8
DEFAULT_255_1_388
10
5.7107793
20
124.0792538
40
0.2791522
50
205.8001921
51
211.2545876
0
ARC
8
DEFAULT_255_1_388
10
5.6519332
20
124.0398132
40
0.2084074
50
210.3789935
51
238.4007996
0
ARC
8
DEFAULT_255_1_388
10
5.6497418
20
124.0450786
40
0.2117943
50
239.6521916
51
265.9793852
0
ARC
8
DEFAULT_255_1_388
10
5.6593267
20
124.1207358
40
0.2879689
50
265.1324455
51
270.0603288
0
ARC
8
DEFAULT_255_1_388
10
5.6625644
20
124.0842418
40
0.2514919
50
269.3314378
51
287.2180039
0
ARC
8
DEFAULT_255_1_388
10
5.6780726
20
124.0276291
40
0.1928357
50
287.7957942
51
329.0808983
0
ARC
8
DEFAULT_255_1_388
10
5.5703483
20
124.0948651
40
0.319808
50
328.6635261
51
343.3325043
0
ARC
8
DEFAULT_255_1_388
10
5.3258942
20
124.1710195
40
0.5758408
50
343.0498092
51
351.9392499
0
ARC
8
DEFAULT_255_1_388
10
4.9358263
20
124.2285205
40
0.9701202
50
351.8071632
51
357.7957897
0
ARC
8
DEFAULT_255_1_388
10
4.572374
20
124.2473724
40
1.3340376
50
357.5870923
51
359.2682493
0
LINE
8
DEFAULT_255_1_388
10
23.1190856
20
132.429869
11
23.1190856
21
132.2130135
0
LINE
8
DEFAULT_255_1_388
10
22.2887099
20
132.1904244
11
22.2887099
21
132.4136048
0
LINE
8
DEFAULT_255_1_388
10
22.9519262
20
132.1678353
11
22.9519262
21
132.4416153
0
LINE
8
DEFAULT_255_1_388
10
22.4558693
20
132.4542652
11
22.4558693
21
132.1868102
0
ARC
8
DEFAULT_255_1_388
10
21.741319
20
132.2075118
40
1.3777776
50
353.8440855
51
0.2287917
0
ARC
8
DEFAULT_255_1_388
10
22.2632208
20
132.1492414
40
0.852639
50
344.4934746
51
353.9763743
0
ARC
8
DEFAULT_255_1_388
10
22.5999015
20
132.0535191
40
0.5026273
50
329.2803599
51
344.7473406
0
ARC
8
DEFAULT_255_1_388
10
22.7114511
20
131.9923038
40
0.3754848
50
324.9361395
51
328.6153007
0
ARC
8
DEFAULT_255_1_388
10
22.7540161
20
131.9625586
40
0.3235566
50
280.5801797
51
324.9173226
0
ARC
8
DEFAULT_255_1_388
10
22.7088789
20
132.1505236
40
0.5167077
50
269.5979457
51
281.6732777
0
ARC
8
DEFAULT_255_1_388
10
22.7007693
20
132.1370113
40
0.5032026
50
256.6228565
51
270.5105488
0
ARC
8
DEFAULT_255_1_388
10
22.6555435
20
131.9628345
40
0.3233092
50
215.8618351
51
257.2787793
0
ARC
8
DEFAULT_255_1_388
10
22.7704142
20
132.0399106
40
0.4615831
50
197.9695203
51
215.2622745
0
ARC
8
DEFAULT_255_1_388
10
23.0499818
20
132.1342641
40
0.7566307
50
187.8816486
51
198.2346584
0
ARC
8
DEFAULT_255_1_388
10
23.4953056
20
132.1985453
40
1.2065653
50
180.8977266
51
188.0054894
0
ARC
8
DEFAULT_255_1_388
10
23.800327
20
132.21004
40
1.5117443
50
180.7434591
51
181.152202
0
ARC
8
DEFAULT_255_1_388
10
23.6328266
20
132.4190371
40
1.3441277
50
173.7674302
51
180.2315596
0
ARC
8
DEFAULT_255_1_388
10
23.1246135
20
132.4764779
40
0.8326847
50
164.3058537
51
173.9000553
0
ARC
8
DEFAULT_255_1_388
10
22.7970135
20
132.5708652
40
0.4917711
50
148.7922028
51
164.5682288
0
ARC
8
DEFAULT_255_1_388
10
22.6900872
20
132.6305457
40
0.3694204
50
144.5883979
51
148.1161588
0
ARC
8
DEFAULT_255_1_388
10
22.6513618
20
132.6575667
40
0.322202
50
101.6440149
51
144.5142619
0
ARC
8
DEFAULT_255_1_388
10
22.699181
20
132.4675337
40
0.5180451
50
89.528284
51
102.5820197
0
ARC
8
DEFAULT_255_1_388
10
22.7080802
20
132.4631376
40
0.5224441
50
77.0437914
51
90.508231
0
ARC
8
DEFAULT_255_1_388
10
22.7533055
20
132.6479272
40
0.3322297
50
48.2777708
51
77.4996087
0
ARC
8
DEFAULT_255_1_388
10
22.7614795
20
132.6624557
40
0.315966
50
36.3141586
51
47.6307332
0
ARC
8
DEFAULT_255_1_388
10
22.6637518
20
132.5966159
40
0.4337313
50
18.2931065
51
35.6770203
0
ARC
8
DEFAULT_255_1_388
10
22.3776358
20
132.4984107
40
0.7362203
50
8.0246996
51
18.5605636
0
ARC
8
DEFAULT_255_1_388
10
21.9092714
20
132.4292432
40
1.2096583
50
1.127539
51
8.1718423
0
ARC
8
DEFAULT_255_1_388
10
21.5443847
20
132.4149374
40
1.5747719
50
0.5432713
51
1.38669
0
ARC
8
DEFAULT_255_1_388
10
21.7501226
20
132.4456163
40
1.2018103
50
359.8092569
51
4.9408001
0
ARC
8
DEFAULT_255_1_388
10
22.2237807
20
132.48789
40
0.7262727
50
4.8364937
51
12.2906017
0
ARC
8
DEFAULT_255_1_388
10
22.5337272
20
132.5569485
40
0.4087324
50
12.0806994
51
23.8171225
0
ARC
8
DEFAULT_255_1_388
10
22.6657668
20
132.6128508
40
0.2653719
50
24.2874621
51
31.3934353
0
ARC
8
DEFAULT_255_1_388
10
22.7248104
20
132.6514822
40
0.1948607
50
30.7407708
51
82.4658033
0
ARC
8
DEFAULT_255_1_388
10
22.7045765
20
132.5521017
40
0.2961198
50
81.1057101
51
90.2187368
0
ARC
8
DEFAULT_255_1_388
10
22.7005577
20
132.5811421
40
0.2670929
50
89.380395
51
105.6763916
0
ARC
8
DEFAULT_255_1_388
10
22.6799299
20
132.656132
40
0.1893189
50
105.7980655
51
149.7387869
0
ARC
8
DEFAULT_255_1_388
10
22.7996439
20
132.5841719
40
0.3289892
50
149.4208441
51
163.628295
0
ARC
8
DEFAULT_255_1_388
10
23.0348668
20
132.5124345
40
0.5749004
50
163.3764549
51
172.141138
0
ARC
8
DEFAULT_255_1_388
10
23.406139
20
132.4592582
40
0.9499585
50
172.0258462
51
178.0705453
0
ARC
8
DEFAULT_255_1_388
10
23.7482943
20
132.4430682
40
1.2924734
50
177.8639301
51
179.5036263
0
ARC
8
DEFAULT_255_1_388
10
23.6263961
20
132.1827151
40
1.170534
50
179.7995545
51
185.246089
0
ARC
8
DEFAULT_255_1_388
10
23.1715554
20
132.1396404
40
0.7136613
50
185.1411911
51
193.0082205
0
ARC
8
DEFAULT_255_1_388
10
22.8741815
20
132.0693441
40
0.4080987
50
192.7897338
51
205.2507384
0
ARC
8
DEFAULT_255_1_388
10
22.7564025
20
132.0167538
40
0.2791522
50
205.8001921
51
211.2545876
0
ARC
8
DEFAULT_255_1_388
10
22.6975564
20
131.9773132
40
0.2084074
50
210.3789935
51
238.4007996
0
ARC
8
DEFAULT_255_1_388
10
22.695365
20
131.9825786
40
0.2117943
50
239.6521916
51
265.9793852
0
ARC
8
DEFAULT_255_1_388
10
22.7049499
20
132.0582358
40
0.2879689
50
265.1324455
51
270.0603288
0
ARC
8
DEFAULT_255_1_388
10
22.7081876
20
132.0217418
40
0.2514919
50
269.3314378
51
287.2180039
0
ARC
8
DEFAULT_255_1_388
10
22.7236958
20
131.9651291
40
0.1928357
50
287.7957942
51
329.0808983
0
ARC
8
DEFAULT_255_1_388
10
22.6159715
20
132.0323651
40
0.319808
50
328.6635261
51
343.3325043
0
ARC
8
DEFAULT_255_1_388
10
22.3715174
20
132.1085195
40
0.5758408
50
343.0498092
51
351.9392499
0
ARC
8
DEFAULT_255_1_388
10
21.9814496
20
132.1660205
40
0.9701202
50
351.8071632
51
357.7957897
0
ARC
8
DEFAULT_255_1_388
10
21.6179973
20
132.1848724
40
1.3340376
50
357.5870923
51
359.2682493
0
LINE
8
DEFAULT_255_1_388
10
23.4380439
20
132.9674898
11
23.8121196
21
131.8823089
0
LINE
8
DEFAULT_255_1_388
10
23.8121196
20
131.8823089
11
24.1880024
21
132.9674898
0
LINE
8
DEFAULT_255_1_388
10
24.1880024
20
132.9674898
11
24.3777509
21
132.9674898
0
LINE
8
DEFAULT_255_1_388
10
24.3777509
20
132.9674898
11
23.8898261
21
131.6519
0
LINE
8
DEFAULT_255_1_388
10
23.8898261
20
131.6519
11
23.7362202
21
131.6519
0
LINE
8
DEFAULT_255_1_388
10
23.7362202
20
131.6519
11
23.2491989
21
132.9674898
0
LINE
8
DEFAULT_255_1_388
10
23.2491989
20
132.9674898
11
23.4380439
21
132.9674898
0
LINE
8
DEFAULT_255_1_388
10
21.3551376
20
5.9674898
11
21.696685
21
5.3069842
0
LINE
8
DEFAULT_255_1_388
10
21.696685
20
5.3069842
11
22.0400395
21
5.9674898
0
LINE
8
DEFAULT_255_1_388
10
22.0400395
20
5.9674898
11
22.2370166
21
5.9674898
0
LINE
8
DEFAULT_255_1_388
10
22.2370166
20
5.9674898
11
21.7834272
21
5.1425355
0
LINE
8
DEFAULT_255_1_388
10
21.7834272
20
5.1425355
11
21.7834272
21
4.6519
0
LINE
8
DEFAULT_255_1_388
10
21.7834272
20
4.6519
11
21.6099428
21
4.6519
0
LINE
8
DEFAULT_255_1_388
10
21.6099428
20
4.6519
11
21.6099428
21
5.1425355
0
LINE
8
DEFAULT_255_1_388
10
21.6099428
20
5.1425355
11
21.1563535
21
5.9674898
0
LINE
8
DEFAULT_255_1_388
10
21.1563535
20
5.9674898
11
21.3551376
21
5.9674898
0
LINE
8
DEFAULT_255_1_388
10
22.9128828
20
5.9738148
11
22.9128828
21
4.6519
0
LINE
8
DEFAULT_255_1_388
10
22.9128828
20
4.6519
11
22.7448198
21
4.6519
0
LINE
8
DEFAULT_255_1_388
10
22.7448198
20
4.6519
11
22.7448198
21
5.765995
0
LINE
8
DEFAULT_255_1_388
10
22.7448198
20
5.765995
11
22.4077902
21
5.6422066
0
LINE
8
DEFAULT_255_1_388
10
22.4077902
20
5.6422066
11
22.4077902
21
5.7940055
0
LINE
8
DEFAULT_255_1_388
10
22.4077902
20
5.7940055
11
22.8866794
21
5.9738148
0
LINE
8
DEFAULT_255_1_388
10
22.8866794
20
5.9738148
11
22.9128828
21
5.9738148
0
LINE
8
DEFAULT_255_1_388
10
23.6131452
20
5.2771666
11
23.4794177
21
5.3115021
0
LINE
8
DEFAULT_255_1_388
10
23.4794177
20
5.3115021
11
23.5462814
21
5.9674898
0
LINE
8
DEFAULT_255_1_388
10
23.5462814
20
5.9674898
11
24.2203405
21
5.9674898
0
LINE
8
DEFAULT_255_1_388
10
24.2203405
20
5.9674898
11
24.2203405
21
5.8129803
0
LINE
8
DEFAULT_255_1_388
10
24.2203405
20
5.8129803
11
23.6881411
21
5.8129803
0
LINE
8
DEFAULT_255_1_388
10
23.6881411
20
5.8129803
11
23.6483842
21
5.4542652
0
LINE
8
DEFAULT_255_1_388
10
23.4324323
20
4.9979652
11
23.5905561
21
4.9979652
0
LINE
8
DEFAULT_255_1_388
10
23.6574199
20
5.3133092
11
23.6131452
21
5.2771666
0
ARC
8
DEFAULT_255_1_388
10
23.8570456
20
5.0965241
40
0.4141476
50
93.7181681
51
120.253934
0
ARC
8
DEFAULT_255_1_388
10
23.8676508
20
5.0056284
40
0.5055616
50
89.9660471
51
94.2495185
0
ARC
8
DEFAULT_255_1_388
10
23.872233
20
5.0719154
40
0.4392953
50
73.8045384
51
90.5585736
0
ARC
8
DEFAULT_255_1_388
10
23.8986588
20
5.168452
40
0.3392225
50
41.3071072
51
73.543002
0
ARC
8
DEFAULT_255_1_388
10
23.8518408
20
5.1281461
40
0.4009977
50
13.5075837
51
41.2174839
0
ARC
8
DEFAULT_255_1_388
10
23.6671505
20
5.0797907
40
0.5918864
50
1.1330171
51
13.8830737
0
ARC
8
DEFAULT_255_1_388
10
23.5075151
20
5.0712522
40
0.7516787
50
359.9925091
51
1.5431298
0
ARC
8
DEFAULT_255_1_388
10
23.6519766
20
5.0666027
40
0.6072343
50
347.8572712
51
0.4294349
0
ARC
8
DEFAULT_255_1_388
10
23.84889
20
5.0219898
40
0.4053482
50
323.6727442
51
348.1674594
0
ARC
8
DEFAULT_255_1_388
10
23.8819865
20
5.0018175
40
0.3667495
50
316.8171818
51
323.1486802
0
ARC
8
DEFAULT_255_1_388
10
23.8888989
20
4.9976612
40
0.358869
50
281.839603
51
316.5458142
0
ARC
8
DEFAULT_255_1_388
10
23.8466276
20
5.1726363
40
0.5388223
50
269.5770964
51
282.4214641
0
ARC
8
DEFAULT_255_1_388
10
23.8386197
20
5.148593
40
0.5147801
50
256.2425863
51
270.4486481
0
ARC
8
DEFAULT_255_1_388
10
23.8049725
20
5.0136124
40
0.3756708
50
228.9024379
51
256.33135
0
ARC
8
DEFAULT_255_1_388
10
23.7966705
20
5.0005054
40
0.360344
50
193.7536029
51
228.5272638
0
ARC
8
DEFAULT_255_1_388
10
23.935927
20
5.0413463
40
0.5053599
50
184.9244437
51
194.4976052
0
ARC
8
DEFAULT_255_1_388
10
23.9575911
20
5.0453722
40
0.3700839
50
187.3596909
51
198.6733728
0
ARC
8
DEFAULT_255_1_388
10
23.8395155
20
5.0044373
40
0.2451195
50
198.4453795
51
217.7945479
0
ARC
8
DEFAULT_255_1_388
10
23.8062327
20
4.9808563
40
0.2043754
50
218.2887146
51
228.5613203
0
ARC
8
DEFAULT_255_1_388
10
23.8172334
20
4.9956902
40
0.2227819
50
228.9652423
51
258.1237049
0
ARC
8
DEFAULT_255_1_388
10
23.8403771
20
5.0947964
40
0.3245374
50
257.7260585
51
270.4013717
0
ARC
8
DEFAULT_255_1_388
10
23.8454269
20
5.0447255
40
0.2744726
50
269.4204315
51
286.420998
0
ARC
8
DEFAULT_255_1_388
10
23.8621325
20
4.9840705
40
0.2115721
50
286.7250065
51
320.6004665
0
ARC
8
DEFAULT_255_1_388
10
23.8190241
20
5.0190527
40
0.2670878
50
320.6712228
51
344.5440474
0
ARC
8
DEFAULT_255_1_388
10
23.6888954
20
5.0572394
40
0.4026927
50
344.241448
51
356.735803
0
ARC
8
DEFAULT_255_1_388
10
23.5485262
20
5.0688656
40
0.5435085
50
356.3547471
51
0.0507222
0
ARC
8
DEFAULT_255_1_388
10
23.6987527
20
5.0723812
40
0.3932934
50
359.5579289
51
12.9534322
0
ARC
8
DEFAULT_255_1_388
10
23.8174367
20
5.1011586
40
0.2711827
50
12.6489751
51
41.608121
0
ARC
8
DEFAULT_255_1_388
10
23.8433527
20
5.1231946
40
0.2371737
50
41.7851122
51
85.9892156
0
ARC
8
DEFAULT_255_1_388
10
23.8294837
20
5.0316738
40
0.3295244
50
84.6965848
51
90.0672125
0
ARC
8
DEFAULT_255_1_388
10
23.8268404
20
4.9565118
40
0.4046926
50
89.6804991
51
99.161352
0
ARC
8
DEFAULT_255_1_388
10
23.8037413
20
5.0945848
40
0.2647044
50
98.9836248
51
113.8905702
0
ARC
8
DEFAULT_255_1_388
10
23.7779088
20
5.1555118
40
0.1985386
50
114.195234
51
127.3641866
0
LINE
8
DEFAULT_255_1_388
10
21.2228376
20
13.9049898
11
21.564385
21
13.2444842
0
LINE
8
DEFAULT_255_1_388
10
21.564385
20
13.2444842
11
21.9077395
21
13.9049898
0
LINE
8
DEFAULT_255_1_388
10
21.9077395
20
13.9049898
11
22.1047166
21
13.9049898
0
LINE
8
DEFAULT_255_1_388
10
22.1047166
20
13.9049898
11
21.6511272
21
13.0800355
0
LINE
8
DEFAULT_255_1_388
10
21.6511272
20
13.0800355
11
21.6511272
21
12.5894
0
LINE
8
DEFAULT_255_1_388
10
21.6511272
20
12.5894
11
21.4776428
21
12.5894
0
LINE
8
DEFAULT_255_1_388
10
21.4776428
20
12.5894
11
21.4776428
21
13.0800355
0
LINE
8
DEFAULT_255_1_388
10
21.4776428
20
13.0800355
11
21.0240535
21
13.9049898
0
LINE
8
DEFAULT_255_1_388
10
21.0240535
20
13.9049898
11
21.2228376
21
13.9049898
0
LINE
8
DEFAULT_255_1_388
10
22.7805828
20
13.9113148
11
22.7805828
21
12.5894
0
LINE
8
DEFAULT_255_1_388
10
22.7805828
20
12.5894
11
22.6125198
21
12.5894
0
LINE
8
DEFAULT_255_1_388
10
22.6125198
20
12.5894
11
22.6125198
21
13.703495
0
LINE
8
DEFAULT_255_1_388
10
22.6125198
20
13.703495
11
22.2754902
21
13.5797066
0
LINE
8
DEFAULT_255_1_388
10
22.2754902
20
13.5797066
11
22.2754902
21
13.7315055
0
LINE
8
DEFAULT_255_1_388
10
22.2754902
20
13.7315055
11
22.7543794
21
13.9113148
0
LINE
8
DEFAULT_255_1_388
10
22.7543794
20
13.9113148
11
22.7805828
21
13.9113148
0
LINE
8
DEFAULT_255_1_388
10
23.9759985
20
13.9049898
11
23.9759985
21
13.031243
0
LINE
8
DEFAULT_255_1_388
10
23.9759985
20
13.031243
11
24.1585186
21
13.031243
0
LINE
8
DEFAULT_255_1_388
10
24.1585186
20
13.031243
11
24.1585186
21
12.8948048
0
LINE
8
DEFAULT_255_1_388
10
24.1585186
20
12.8948048
11
23.9759985
21
12.8948048
0
LINE
8
DEFAULT_255_1_388
10
23.9759985
20
12.8948048
11
23.9759985
21
12.5894
0
LINE
8
DEFAULT_255_1_388
10
23.9759985
20
12.5894
11
23.8079355
21
12.5894
0
LINE
8
DEFAULT_255_1_388
10
23.8079355
20
12.5894
11
23.8079355
21
12.8948048
0
LINE
8
DEFAULT_255_1_388
10
23.8079355
20
12.8948048
11
23.2088723
21
12.8948048
0
LINE
8
DEFAULT_255_1_388
10
23.2088723
20
12.8948048
11
23.2088723
21
12.9932933
0
LINE
8
DEFAULT_255_1_388
10
23.2088723
20
12.9932933
11
23.7979963
21
13.9049898
0
LINE
8
DEFAULT_255_1_388
10
23.7979963
20
13.9049898
11
23.9759985
21
13.9049898
0
LINE
8
DEFAULT_255_1_388
10
23.7880571
20
13.6402455
11
23.3986208
21
13.031243
0
LINE
8
DEFAULT_255_1_388
10
23.3986208
20
13.031243
11
23.8079355
21
13.031243
0
LINE
8
DEFAULT_255_1_388
10
23.8079355
20
13.031243
11
23.8079355
21
13.676388
0
LINE
8
DEFAULT_255_1_388
10
23.8079355
20
13.676388
11
23.7880571
21
13.6402455
0
LINE
8
DEFAULT_255_1_388
10
21.3551376
20
21.8424898
11
21.696685
21
21.1819842
0
LINE
8
DEFAULT_255_1_388
10
21.696685
20
21.1819842
11
22.0400395
21
21.8424898
0
LINE
8
DEFAULT_255_1_388
10
22.0400395
20
21.8424898
11
22.2370166
21
21.8424898
0
LINE
8
DEFAULT_255_1_388
10
22.2370166
20
21.8424898
11
21.7834272
21
21.0175355
0
LINE
8
DEFAULT_255_1_388
10
21.7834272
20
21.0175355
11
21.7834272
21
20.5269
0
LINE
8
DEFAULT_255_1_388
10
21.7834272
20
20.5269
11
21.6099428
21
20.5269
0
LINE
8
DEFAULT_255_1_388
10
21.6099428
20
20.5269
11
21.6099428
21
21.0175355
0
LINE
8
DEFAULT_255_1_388
10
21.6099428
20
21.0175355
11
21.1563535
21
21.8424898
0
LINE
8
DEFAULT_255_1_388
10
21.1563535
20
21.8424898
11
21.3551376
21
21.8424898
0
LINE
8
DEFAULT_255_1_388
10
22.9128828
20
21.8488148
11
22.9128828
21
20.5269
0
LINE
8
DEFAULT_255_1_388
10
22.9128828
20
20.5269
11
22.7448198
21
20.5269
0
LINE
8
DEFAULT_255_1_388
10
22.7448198
20
20.5269
11
22.7448198
21
21.640995
0
LINE
8
DEFAULT_255_1_388
10
22.7448198
20
21.640995
11
22.4077902
21
21.5172066
0
LINE
8
DEFAULT_255_1_388
10
22.4077902
20
21.5172066
11
22.4077902
21
21.6690055
0
LINE
8
DEFAULT_255_1_388
10
22.4077902
20
21.6690055
11
22.8866794
21
21.8488148
0
LINE
8
DEFAULT_255_1_388
10
22.8866794
20
21.8488148
11
22.9128828
21
21.8488148
0
LINE
8
DEFAULT_255_1_388
10
23.6456735
20
21.1295775
11
23.6456735
21
21.2660157
0
LINE
8
DEFAULT_255_1_388
10
23.6456735
20
21.2660157
11
23.771269
21
21.2660157
0
LINE
8
DEFAULT_255_1_388
10
23.5571242
20
21.4973282
11
23.3899648
21
21.4973282
0
LINE
8
DEFAULT_255_1_388
10
23.3782185
20
20.8738687
11
23.5462814
21
20.8738687
0
LINE
8
DEFAULT_255_1_388
10
23.771269
20
21.1295775
11
23.6456735
21
21.1295775
0
ARC
8
DEFAULT_255_1_388
10
23.7679916
20
21.6476922
40
0.3816905
50
270.491971
51
281.8953028
0
ARC
8
DEFAULT_255_1_388
10
23.7951343
20
21.5237199
40
0.2547877
50
281.6690378
51
301.2943765
0
ARC
8
DEFAULT_255_1_388
10
23.8142795
20
21.4886926
40
0.2149197
50
301.7834992
51
311.754567
0
ARC
8
DEFAULT_255_1_388
10
23.8245836
20
21.477265
40
0.1995326
50
311.7325027
51
354.2803031
0
ARC
8
DEFAULT_255_1_388
10
23.7428252
20
21.491328
40
0.2823461
50
353.0941646
51
0.1174696
0
ARC
8
DEFAULT_255_1_388
10
23.690981
20
21.4966874
40
0.3342238
50
359.1804452
51
15.0452323
0
ARC
8
DEFAULT_255_1_388
10
23.8423868
20
21.5408546
40
0.1765747
50
13.957816
51
77.6713812
0
ARC
8
DEFAULT_255_1_388
10
23.7989104
20
21.3850464
40
0.3381982
50
76.111571
51
90.7028736
0
ARC
8
DEFAULT_255_1_388
10
23.7922516
20
21.415825
40
0.3074046
50
89.5321574
51
103.5319393
0
ARC
8
DEFAULT_255_1_388
10
23.76969
20
21.5057443
40
0.2147041
50
103.2930114
51
133.5619756
0
ARC
8
DEFAULT_255_1_388
10
23.7646841
20
21.5124351
40
0.2064084
50
133.8349761
51
173.5343225
0
ARC
8
DEFAULT_255_1_388
10
23.8460499
20
21.4980144
40
0.2889266
50
172.5097183
51
180.1360699
0
ARC
8
DEFAULT_255_1_388
10
23.7390263
20
21.501888
40
0.3490913
50
155.3483706
51
180.7484035
0
ARC
8
DEFAULT_255_1_388
10
23.7335238
20
21.4986519
40
0.3454798
50
131.5745177
51
154.4799474
0
ARC
8
DEFAULT_255_1_388
10
23.7687521
20
21.4630422
40
0.3955058
50
96.9874487
51
131.9690874
0
ARC
8
DEFAULT_255_1_388
10
23.7934414
20
21.3229407
40
0.537622
50
89.8592909
51
97.7827481
0
ARC
8
DEFAULT_255_1_388
10
23.7988523
20
21.293436
40
0.5671399
50
78.3654493
51
90.4132586
0
ARC
8
DEFAULT_255_1_388
10
23.8391164
20
21.4800918
40
0.3762034
50
56.6229818
51
78.6387103
0
ARC
8
DEFAULT_255_1_388
10
23.8632993
20
21.5223846
40
0.3275964
50
47.0254604
51
56.085558
0
ARC
8
DEFAULT_255_1_388
10
23.8655244
20
21.5268189
40
0.3228382
50
10.9207523
51
46.777927
0
ARC
8
DEFAULT_255_1_388
10
23.7120838
20
21.4913401
40
0.4802559
50
359.6364235
51
11.6087615
0
ARC
8
DEFAULT_255_1_388
10
23.9185004
20
21.4896404
40
0.273833
50
332.3549969
51
359.7179765
0
ARC
8
DEFAULT_255_1_388
10
23.8453404
20
21.5243285
40
0.3547505
50
325.2332381
51
332.8746682
0
ARC
8
DEFAULT_255_1_388
10
23.8624987
20
21.5123763
40
0.3338396
50
292.9803892
51
325.2391113
0
ARC
8
DEFAULT_255_1_388
10
23.8314183
20
21.5728679
40
0.4016959
50
292.542178
51
293.6931461
0
ARC
8
DEFAULT_255_1_388
10
23.8757755
20
20.8463036
40
0.372079
50
57.643292
51
72.8626085
0
ARC
8
DEFAULT_255_1_388
10
23.9156589
20
20.9109273
40
0.2961455
50
36.7246661
51
57.4701329
0
ARC
8
DEFAULT_255_1_388
10
23.9143746
20
20.912347
40
0.2963321
50
8.054535
51
36.3561529
0
ARC
8
DEFAULT_255_1_388
10
23.8173419
20
20.8949073
40
0.3948682
50
359.8316595
51
8.5873361
0
ARC
8
DEFAULT_255_1_388
10
23.7750893
20
20.889497
40
0.4371398
50
343.9831631
51
0.557075
0
ARC
8
DEFAULT_255_1_388
10
23.8747942
20
20.8621963
40
0.3337749
50
311.6358204
51
343.7652116
0
ARC
8
DEFAULT_255_1_388
10
23.8322196
20
20.9101955
40
0.3979351
50
279.7829743
51
311.625622
0
ARC
8
DEFAULT_255_1_388
10
23.7983331
20
21.0718642
40
0.5630417
50
269.7285092
51
280.3857694
0
ARC
8
DEFAULT_255_1_388
10
23.7913644
20
21.0672241
40
0.5584119
50
256.6827433
51
270.4412869
0
ARC
8
DEFAULT_255_1_388
10
23.7532631
20
20.9114698
40
0.3980715
50
229.4223821
51
256.8554507
0
ARC
8
DEFAULT_255_1_388
10
23.7066184
20
20.8589683
40
0.3278564
50
181.8183354
51
229.6455015
0
ARC
8
DEFAULT_255_1_388
10
23.8235794
20
20.8736825
40
0.4453611
50
179.9760419
51
183.2330638
0
ARC
8
DEFAULT_255_1_388
10
23.8042346
20
20.8713781
40
0.2579652
50
179.4467996
51
196.2871626
0
ARC
8
DEFAULT_255_1_388
10
23.74938
20
20.8563709
40
0.2011057
50
196.5661293
51
227.7059371
0
ARC
8
DEFAULT_255_1_388
10
23.7678407
20
20.8770155
40
0.2287994
50
227.7653015
51
257.8763321
0
ARC
8
DEFAULT_255_1_388
10
23.793149
20
20.9830961
40
0.3378385
50
257.4583525
51
270.4267406
0
ARC
8
DEFAULT_255_1_388
10
23.798274
20
21.015723
40
0.3704652
50
269.5965319
51
280.8788143
0
ARC
8
DEFAULT_255_1_388
10
23.8240968
20
20.8867529
40
0.2389415
50
280.6347277
51
299.8594068
0
ARC
8
DEFAULT_255_1_388
10
23.8455737
20
20.8459736
40
0.19289
50
300.3575552
51
314.5515667
0
ARC
8
DEFAULT_255_1_388
10
23.8362413
20
20.8528025
40
0.204312
50
315.0730962
51
345.0429362
0
ARC
8
DEFAULT_255_1_388
10
23.732392
20
20.8830539
40
0.31246
50
344.598526
51
357.9270698
0
ARC
8
DEFAULT_255_1_388
10
23.6314225
20
20.8899705
40
0.4136265
50
357.4755098
51
0.0224936
0
ARC
8
DEFAULT_255_1_388
10
23.7467103
20
20.8927099
40
0.2983498
50
359.5051035
51
13.4236939
0
ARC
8
DEFAULT_255_1_388
10
23.8442193
20
20.9176637
40
0.1977186
50
12.9497905
51
48.7550905
0
ARC
8
DEFAULT_255_1_388
10
23.8237115
20
20.8896373
40
0.2323321
50
49.509109
51
72.1832965
0
ARC
8
DEFAULT_255_1_388
10
23.7834583
20
20.7701632
40
0.358397
50
71.9008458
51
84.3555134
0
ARC
8
DEFAULT_255_1_388
10
23.7652978
20
20.6169712
40
0.512641
50
84.019632
51
89.3326067
0
LINE
8
DEFAULT_255_1_388
10
21.3551376
20
29.7799898
11
21.696685
21
29.1194842
0
LINE
8
DEFAULT_255_1_388
10
21.696685
20
29.1194842
11
22.0400395
21
29.7799898
0
LINE
8
DEFAULT_255_1_388
10
22.0400395
20
29.7799898
11
22.2370166
21
29.7799898
0
LINE
8
DEFAULT_255_1_388
10
22.2370166
20
29.7799898
11
21.7834272
21
28.9550355
0
LINE
8
DEFAULT_255_1_388
10
21.7834272
20
28.9550355
11
21.7834272
21
28.4644
0
LINE
8
DEFAULT_255_1_388
10
21.7834272
20
28.4644
11
21.6099428
21
28.4644
0
LINE
8
DEFAULT_255_1_388
10
21.6099428
20
28.4644
11
21.6099428
21
28.9550355
0
LINE
8
DEFAULT_255_1_388
10
21.6099428
20
28.9550355
11
21.1563535
21
29.7799898
0
LINE
8
DEFAULT_255_1_388
10
21.1563535
20
29.7799898
11
21.3551376
21
29.7799898
0
LINE
8
DEFAULT_255_1_388
10
22.9128828
20
29.7863148
11
22.9128828
21
28.4644
0
LINE
8
DEFAULT_255_1_388
10
22.9128828
20
28.4644
11
22.7448198
21
28.4644
0
LINE
8
DEFAULT_255_1_388
10
22.7448198
20
28.4644
11
22.7448198
21
29.578495
0
LINE
8
DEFAULT_255_1_388
10
22.7448198
20
29.578495
11
22.4077902
21
29.4547066
0
LINE
8
DEFAULT_255_1_388
10
22.4077902
20
29.4547066
11
22.4077902
21
29.6065055
0
LINE
8
DEFAULT_255_1_388
10
22.4077902
20
29.6065055
11
22.8866794
21
29.7863148
0
LINE
8
DEFAULT_255_1_388
10
22.8866794
20
29.7863148
11
22.9128828
21
29.7863148
0
LINE
8
DEFAULT_255_1_388
10
24.2646152
20
28.6008382
11
24.2646152
21
28.4644
0
LINE
8
DEFAULT_255_1_388
10
24.2646152
20
28.4644
11
23.4026147
21
28.4644
0
LINE
8
DEFAULT_255_1_388
10
23.4026147
20
28.4644
11
23.4026147
21
28.5845741
0
LINE
8
DEFAULT_255_1_388
10
23.4026147
20
28.5845741
11
23.8580112
21
29.0905702
0
LINE
8
DEFAULT_255_1_388
10
23.5444743
20
29.3923607
11
23.3773149
21
29.3923607
0
LINE
8
DEFAULT_255_1_388
10
23.9564997
20
28.983046
11
23.6041096
21
28.6008382
0
LINE
8
DEFAULT_255_1_388
10
23.6041096
20
28.6008382
11
24.2646152
21
28.6008382
0
ARC
8
DEFAULT_255_1_388
10
22.3404171
20
30.4325983
40
2.0258655
50
318.5132526
51
320.7829045
0
ARC
8
DEFAULT_255_1_388
10
22.9352128
20
29.9484929
40
1.2589638
50
320.7372878
51
323.9739031
0
ARC
8
DEFAULT_255_1_388
10
23.376106
20
29.6290554
40
0.7145141
50
323.8962701
51
328.64194
0
ARC
8
DEFAULT_255_1_388
10
23.6063318
20
29.4870545
40
0.4440242
50
328.8294576
51
331.7891185
0
ARC
8
DEFAULT_255_1_388
10
23.7185638
20
29.4291374
40
0.3177517
50
331.4254512
51
352.9365785
0
ARC
8
DEFAULT_255_1_388
10
23.7338638
20
29.425705
40
0.3021496
50
353.2257659
51
0.0166158
0
ARC
8
DEFAULT_255_1_388
10
23.7575398
20
29.4282894
40
0.2784847
50
359.486299
51
15.9343185
0
ARC
8
DEFAULT_255_1_388
10
23.8145665
20
29.4436269
40
0.2194403
50
16.1712913
51
43.5286088
0
ARC
8
DEFAULT_255_1_388
10
23.823261
20
29.4523191
40
0.2071504
50
43.4417391
51
83.1661095
0
ARC
8
DEFAULT_255_1_388
10
23.8081771
20
29.3694316
40
0.2912888
50
82.160179
51
90.1505708
0
ARC
8
DEFAULT_255_1_388
10
23.8046252
20
29.3090279
40
0.3517025
50
89.5460741
51
102.5418361
0
ARC
8
DEFAULT_255_1_388
10
23.7772972
20
29.4249933
40
0.2325748
50
102.1738499
51
129.206123
0
ARC
8
DEFAULT_255_1_388
10
23.7684426
20
29.4389664
40
0.2161591
50
129.72865
51
135.753947
0
ARC
8
DEFAULT_255_1_388
10
23.7820908
20
29.4280728
40
0.2335433
50
136.1757367
51
166.3673339
0
ARC
8
DEFAULT_255_1_388
10
23.8953596
20
29.3977148
40
0.3507873
50
165.9090694
51
178.8684636
0
ARC
8
DEFAULT_255_1_388
10
23.9929368
20
29.3924263
40
0.4484624
50
178.4391136
51
180.0083808
0
ARC
8
DEFAULT_255_1_388
10
23.8350069
20
29.3968197
40
0.4577138
50
163.2878482
51
180.5581842
0
ARC
8
DEFAULT_255_1_388
10
23.744811
20
29.4216393
40
0.3641968
50
133.4540601
51
162.947111
0
ARC
8
DEFAULT_255_1_388
10
23.7648992
20
29.4002789
40
0.3935189
50
100.7869829
51
133.4382499
0
ARC
8
DEFAULT_255_1_388
10
23.8040237
20
29.2260399
40
0.5720313
50
89.660664
51
101.3702276
0
ARC
8
DEFAULT_255_1_388
10
23.8114846
20
29.2329263
40
0.5651495
50
78.2172678
51
90.412935
0
ARC
8
DEFAULT_255_1_388
10
23.8514312
20
29.4156511
40
0.378122
50
55.9269121
51
78.4888449
0
ARC
8
DEFAULT_255_1_388
10
23.8735027
20
29.4537187
40
0.3342379
50
47.929771
51
55.4049217
0
ARC
8
DEFAULT_255_1_388
10
23.8849557
20
29.4653618
40
0.3179217
50
4.334829
51
48.0560205
0
ARC
8
DEFAULT_255_1_388
10
23.7617359
20
29.4462487
40
0.442341
50
359.9251713
51
5.5971671
0
ARC
8
DEFAULT_255_1_388
10
23.8099514
20
29.4525728
40
0.3941854
50
337.8914027
51
358.9967534
0
ARC
8
DEFAULT_255_1_388
10
23.5047084
20
29.5703295
40
0.7213271
50
326.9132501
51
338.3508308
0
ARC
8
DEFAULT_255_1_388
10
23.0563196
20
29.8577105
40
1.2538973
50
319.6471833
51
327.0959558
0
ARC
8
DEFAULT_255_1_388
10
22.6249854
20
30.213505
40
1.8129975
50
317.2588228
51
319.9045804
0
LINE
8
DEFAULT_255_1_388
10
21.3627376
20
37.7174898
11
21.704285
21
37.0569842
0
LINE
8
DEFAULT_255_1_388
10
21.704285
20
37.0569842
11
22.0476395
21
37.7174898
0
LINE
8
DEFAULT_255_1_388
10
22.0476395
20
37.7174898
11
22.2446166
21
37.7174898
0
LINE
8
DEFAULT_255_1_388
10
22.2446166
20
37.7174898
11
21.7910272
21
36.8925355
0
LINE
8
DEFAULT_255_1_388
10
21.7910272
20
36.8925355
11
21.7910272
21
36.4019
0
LINE
8
DEFAULT_255_1_388
10
21.7910272
20
36.4019
11
21.6175428
21
36.4019
0
LINE
8
DEFAULT_255_1_388
10
21.6175428
20
36.4019
11
21.6175428
21
36.8925355
0
LINE
8
DEFAULT_255_1_388
10
21.6175428
20
36.8925355
11
21.1639535
21
37.7174898
0
LINE
8
DEFAULT_255_1_388
10
21.1639535
20
37.7174898
11
21.3627376
21
37.7174898
0
LINE
8
DEFAULT_255_1_388
10
22.9204828
20
37.7238148
11
22.9204828
21
36.4019
0
LINE
8
DEFAULT_255_1_388
10
22.9204828
20
36.4019
11
22.7524198
21
36.4019
0
LINE
8
DEFAULT_255_1_388
10
22.7524198
20
36.4019
11
22.7524198
21
37.515995
0
LINE
8
DEFAULT_255_1_388
10
22.7524198
20
37.515995
11
22.4153902
21
37.3922066
0
LINE
8
DEFAULT_255_1_388
10
22.4153902
20
37.3922066
11
22.4153902
21
37.5440055
0
LINE
8
DEFAULT_255_1_388
10
22.4153902
20
37.5440055
11
22.8942794
21
37.7238148
0
LINE
8
DEFAULT_255_1_388
10
22.8942794
20
37.7238148
11
22.9204828
21
37.7238148
0
LINE
8
DEFAULT_255_1_388
10
23.9595819
20
37.7238148
11
23.9595819
21
36.4019
0
LINE
8
DEFAULT_255_1_388
10
23.9595819
20
36.4019
11
23.7915189
21
36.4019
0
LINE
8
DEFAULT_255_1_388
10
23.7915189
20
36.4019
11
23.7915189
21
37.515995
0
LINE
8
DEFAULT_255_1_388
10
23.7915189
20
37.515995
11
23.4544894
21
37.3922066
0
LINE
8
DEFAULT_255_1_388
10
23.4544894
20
37.3922066
11
23.4544894
21
37.5440055
0
LINE
8
DEFAULT_255_1_388
10
23.4544894
20
37.5440055
11
23.9333785
21
37.7238148
0
LINE
8
DEFAULT_255_1_388
10
23.9333785
20
37.7238148
11
23.9595819
21
37.7238148
0
LINE
8
DEFAULT_255_1_388
10
21.3551376
20
45.6549898
11
21.696685
21
44.9944842
0
LINE
8
DEFAULT_255_1_388
10
21.696685
20
44.9944842
11
22.0400395
21
45.6549898
0
LINE
8
DEFAULT_255_1_388
10
22.0400395
20
45.6549898
11
22.2370166
21
45.6549898
0
LINE
8
DEFAULT_255_1_388
10
22.2370166
20
45.6549898
11
21.7834272
21
44.8300355
0
LINE
8
DEFAULT_255_1_388
10
21.7834272
20
44.8300355
11
21.7834272
21
44.3394
0
LINE
8
DEFAULT_255_1_388
10
21.7834272
20
44.3394
11
21.6099428
21
44.3394
0
LINE
8
DEFAULT_255_1_388
10
21.6099428
20
44.3394
11
21.6099428
21
44.8300355
0
LINE
8
DEFAULT_255_1_388
10
21.6099428
20
44.8300355
11
21.1563535
21
45.6549898
0
LINE
8
DEFAULT_255_1_388
10
21.1563535
20
45.6549898
11
21.3551376
21
45.6549898
0
LINE
8
DEFAULT_255_1_388
10
22.9128828
20
45.6613148
11
22.9128828
21
44.3394
0
LINE
8
DEFAULT_255_1_388
10
22.9128828
20
44.3394
11
22.7448198
21
44.3394
0
LINE
8
DEFAULT_255_1_388
10
22.7448198
20
44.3394
11
22.7448198
21
45.453495
0
LINE
8
DEFAULT_255_1_388
10
22.7448198
20
45.453495
11
22.4077902
21
45.3297066
0
LINE
8
DEFAULT_255_1_388
10
22.4077902
20
45.3297066
11
22.4077902
21
45.4815055
0
LINE
8
DEFAULT_255_1_388
10
22.4077902
20
45.4815055
11
22.8866794
21
45.6613148
0
LINE
8
DEFAULT_255_1_388
10
22.8866794
20
45.6613148
11
22.9128828
21
45.6613148
0
LINE
8
DEFAULT_255_1_388
10
24.227569
20
45.117369
11
24.227569
21
44.9005135
0
LINE
8
DEFAULT_255_1_388
10
23.3971933
20
44.8779244
11
23.3971933
21
45.1011048
0
LINE
8
DEFAULT_255_1_388
10
24.0604096
20
44.8553353
11
24.0604096
21
45.1291153
0
LINE
8
DEFAULT_255_1_388
10
23.5643527
20
45.1417652
11
23.5643527
21
44.8743102
0
ARC
8
DEFAULT_255_1_388
10
22.8498024
20
44.8950118
40
1.3777776
50
353.8440855
51
0.2287917
0
ARC
8
DEFAULT_255_1_388
10
23.3717042
20
44.8367414
40
0.852639
50
344.4934746
51
353.9763743
0
ARC
8
DEFAULT_255_1_388
10
23.7083849
20
44.7410191
40
0.5026273
50
329.2803599
51
344.7473406
0
ARC
8
DEFAULT_255_1_388
10
23.8199345
20
44.6798038
40
0.3754848
50
324.9361395
51
328.6153007
0
ARC
8
DEFAULT_255_1_388
10
23.8624994
20
44.6500586
40
0.3235566
50
280.5801797
51
324.9173226
0
ARC
8
DEFAULT_255_1_388
10
23.8173623
20
44.8380236
40
0.5167077
50
269.5979457
51
281.6732777
0
ARC
8
DEFAULT_255_1_388
10
23.8092527
20
44.8245113
40
0.5032026
50
256.6228565
51
270.5105488
0
ARC
8
DEFAULT_255_1_388
10
23.7640269
20
44.6503345
40
0.3233092
50
215.8618351
51
257.2787793
0
ARC
8
DEFAULT_255_1_388
10
23.8788976
20
44.7274106
40
0.4615831
50
197.9695203
51
215.2622745
0
ARC
8
DEFAULT_255_1_388
10
24.1584652
20
44.8217641
40
0.7566307
50
187.8816486
51
198.2346584
0
ARC
8
DEFAULT_255_1_388
10
24.603789
20
44.8860453
40
1.2065653
50
180.8977266
51
188.0054894
0
ARC
8
DEFAULT_255_1_388
10
24.9088104
20
44.89754
40
1.5117443
50
180.7434591
51
181.152202
0
ARC
8
DEFAULT_255_1_388
10
24.74131
20
45.1065371
40
1.3441277
50
173.7674302
51
180.2315596
0
ARC
8
DEFAULT_255_1_388
10
24.2330969
20
45.1639779
40
0.8326847
50
164.3058537
51
173.9000553
0
ARC
8
DEFAULT_255_1_388
10
23.9054969
20
45.2583652
40
0.4917711
50
148.7922028
51
164.5682288
0
ARC
8
DEFAULT_255_1_388
10
23.7985706
20
45.3180457
40
0.3694204
50
144.5883979
51
148.1161588
0
ARC
8
DEFAULT_255_1_388
10
23.7598452
20
45.3450667
40
0.322202
50
101.6440149
51
144.5142619
0
ARC
8
DEFAULT_255_1_388
10
23.8076644
20
45.1550337
40
0.5180451
50
89.528284
51
102.5820197
0
ARC
8
DEFAULT_255_1_388
10
23.8165636
20
45.1506376
40
0.5224441
50
77.0437914
51
90.508231
0
ARC
8
DEFAULT_255_1_388
10
23.8617889
20
45.3354272
40
0.3322297
50
48.2777708
51
77.4996087
0
ARC
8
DEFAULT_255_1_388
10
23.8699629
20
45.3499557
40
0.315966
50
36.3141586
51
47.6307332
0
ARC
8
DEFAULT_255_1_388
10
23.7722352
20
45.2841159
40
0.4337313
50
18.2931065
51
35.6770203
0
ARC
8
DEFAULT_255_1_388
10
23.4861192
20
45.1859107
40
0.7362203
50
8.0246996
51
18.5605636
0
ARC
8
DEFAULT_255_1_388
10
23.0177548
20
45.1167432
40
1.2096583
50
1.127539
51
8.1718423
0
ARC
8
DEFAULT_255_1_388
10
22.6528681
20
45.1024374
40
1.5747719
50
0.5432713
51
1.38669
0
ARC
8
DEFAULT_255_1_388
10
22.858606
20
45.1331163
40
1.2018103
50
359.8092569
51
4.9408001
0
ARC
8
DEFAULT_255_1_388
10
23.3322641
20
45.17539
40
0.7262727
50
4.8364937
51
12.2906017
0
ARC
8
DEFAULT_255_1_388
10
23.6422106
20
45.2444485
40
0.4087324
50
12.0806994
51
23.8171225
0
ARC
8
DEFAULT_255_1_388
10
23.7742502
20
45.3003508
40
0.2653719
50
24.2874621
51
31.3934353
0
ARC
8
DEFAULT_255_1_388
10
23.8332938
20
45.3389822
40
0.1948607
50
30.7407708
51
82.4658033
0
ARC
8
DEFAULT_255_1_388
10
23.8130599
20
45.2396017
40
0.2961198
50
81.1057101
51
90.2187368
0
ARC
8
DEFAULT_255_1_388
10
23.8090411
20
45.2686421
40
0.2670929
50
89.380395
51
105.6763916
0
ARC
8
DEFAULT_255_1_388
10
23.7884133
20
45.343632
40
0.1893189
50
105.7980655
51
149.7387869
0
ARC
8
DEFAULT_255_1_388
10
23.9081273
20
45.2716719
40
0.3289892
50
149.4208441
51
163.628295
0
ARC
8
DEFAULT_255_1_388
10
24.1433502
20
45.1999345
40
0.5749004
50
163.3764549
51
172.141138
0
ARC
8
DEFAULT_255_1_388
10
24.5146224
20
45.1467582
40
0.9499585
50
172.0258462
51
178.0705453
0
ARC
8
DEFAULT_255_1_388
10
24.8567777
20
45.1305682
40
1.2924734
50
177.8639301
51
179.5036263
0
ARC
8
DEFAULT_255_1_388
10
24.7348795
20
44.8702151
40
1.170534
50
179.7995545
51
185.246089
0
ARC
8
DEFAULT_255_1_388
10
24.2800388
20
44.8271404
40
0.7136613
50
185.1411911
51
193.0082205
0
ARC
8
DEFAULT_255_1_388
10
23.9826649
20
44.7568441
40
0.4080987
50
192.7897338
51
205.2507384
0
ARC
8
DEFAULT_255_1_388
10
23.8648859
20
44.7042538
40
0.2791522
50
205.8001921
51
211.2545876
0
ARC
8
DEFAULT_255_1_388
10
23.8060398
20
44.6648132
40
0.2084074
50
210.3789935
51
238.4007996
0
ARC
8
DEFAULT_255_1_388
10
23.8038484
20
44.6700786
40
0.2117943
50
239.6521916
51
265.9793852
0
ARC
8
DEFAULT_255_1_388
10
23.8134333
20
44.7457358
40
0.2879689
50
265.1324455
51
270.0603288
0
ARC
8
DEFAULT_255_1_388
10
23.816671
20
44.7092418
40
0.2514919
50
269.3314378
51
287.2180039
0
ARC
8
DEFAULT_255_1_388
10
23.8321792
20
44.6526291
40
0.1928357
50
287.7957942
51
329.0808983
0
ARC
8
DEFAULT_255_1_388
10
23.7244549
20
44.7198651
40
0.319808
50
328.6635261
51
343.3325043
0
ARC
8
DEFAULT_255_1_388
10
23.4800008
20
44.7960195
40
0.5758408
50
343.0498092
51
351.9392499
0
ARC
8
DEFAULT_255_1_388
10
23.089933
20
44.8535205
40
0.9701202
50
351.8071632
51
357.7957897
0
ARC
8
DEFAULT_255_1_388
10
22.7264807
20
44.8723724
40
1.3340376
50
357.5870923
51
359.2682493
0
LINE
8
DEFAULT_255_1_388
10
22.3954376
20
53.5924898
11
22.736985
21
52.9319842
0
LINE
8
DEFAULT_255_1_388
10
22.736985
20
52.9319842
11
23.0803395
21
53.5924898
0
LINE
8
DEFAULT_255_1_388
10
23.0803395
20
53.5924898
11
23.2773166
21
53.5924898
0
LINE
8
DEFAULT_255_1_388
10
23.2773166
20
53.5924898
11
22.8237272
21
52.7675355
0
LINE
8
DEFAULT_255_1_388
10
22.8237272
20
52.7675355
11
22.8237272
21
52.2769
0
LINE
8
DEFAULT_255_1_388
10
22.8237272
20
52.2769
11
22.6502428
21
52.2769
0
LINE
8
DEFAULT_255_1_388
10
22.6502428
20
52.2769
11
22.6502428
21
52.7675355
0
LINE
8
DEFAULT_255_1_388
10
22.6502428
20
52.7675355
11
22.1966535
21
53.5924898
0
LINE
8
DEFAULT_255_1_388
10
22.1966535
20
53.5924898
11
22.3954376
21
53.5924898
0
LINE
8
DEFAULT_255_1_388
10
24.2125058
20
53.0666153
11
24.2125058
21
53.0178229
0
LINE
8
DEFAULT_255_1_388
10
23.6025998
20
52.2759964
11
23.5700714
21
52.2759964
0
LINE
8
DEFAULT_255_1_388
10
23.5700714
20
52.2759964
11
23.5700714
21
52.4169525
0
LINE
8
DEFAULT_255_1_388
10
23.5700714
20
52.4169525
11
23.6053104
21
52.4169525
0
LINE
8
DEFAULT_255_1_388
10
24.0453463
20
53.034087
11
24.0453463
21
53.1009508
0
ARC
8
DEFAULT_255_1_388
10
23.7310555
20
53.1179877
40
0.4089973
50
297.4036461
51
320.0168133
0
ARC
8
DEFAULT_255_1_388
10
23.7636735
20
53.0553072
40
0.3383378
50
270.2631886
51
297.3852322
0
ARC
8
DEFAULT_255_1_388
10
23.7598411
20
53.1090343
40
0.3920983
50
269.9969069
51
270.7871389
0
ARC
8
DEFAULT_255_1_388
10
23.7569735
20
53.1072737
40
0.3903482
50
254.5997295
51
270.4178147
0
ARC
8
DEFAULT_255_1_388
10
23.7409267
20
53.0437693
40
0.3248657
50
236.4717231
51
254.3539376
0
ARC
8
DEFAULT_255_1_388
10
23.7584998
20
53.0673999
40
0.3542746
50
208.4727261
51
236.2134628
0
ARC
8
DEFAULT_255_1_388
10
23.8303761
20
53.1113676
40
0.4384402
50
204.3450776
51
209.0455365
0
ARC
8
DEFAULT_255_1_388
10
23.9068137
20
53.14378
40
0.5214459
50
183.9375459
51
204.1275509
0
ARC
8
DEFAULT_255_1_388
10
24.0090443
20
53.1547863
40
0.6242037
50
179.9652726
51
184.3010611
0
ARC
8
DEFAULT_255_1_388
10
23.9819989
20
53.1585004
40
0.5971675
50
166.7585952
51
180.3200491
0
ARC
8
DEFAULT_255_1_388
10
23.8867797
20
53.1791979
40
0.4997418
50
154.6954866
51
166.5679151
0
ARC
8
DEFAULT_255_1_388
10
23.7908037
20
53.2275411
40
0.3923208
50
136.3325251
51
155.0871367
0
ARC
8
DEFAULT_255_1_388
10
23.7591957
20
53.2546271
40
0.3507618
50
121.2365985
51
135.9680081
0
ARC
8
DEFAULT_255_1_388
10
23.7750021
20
53.2253541
40
0.3839917
50
96.8454764
51
120.9881329
0
ARC
8
DEFAULT_255_1_388
10
23.7913827
20
53.1200942
40
0.4904679
50
89.887204
51
97.2797758
0
ARC
8
DEFAULT_255_1_388
10
23.79728
20
53.1918652
40
0.418725
50
70.6505767
51
90.6748382
0
ARC
8
DEFAULT_255_1_388
10
23.8120497
20
53.2496091
40
0.3593866
50
36.7493297
51
69.8220487
0
ARC
8
DEFAULT_255_1_388
10
23.6996844
20
53.1620446
40
0.5018201
50
15.3958155
51
37.0841102
0
ARC
8
DEFAULT_255_1_388
10
23.4601129
20
53.0922111
40
0.7513436
50
3.9487796
51
15.6798517
0
ARC
8
DEFAULT_255_1_388
10
23.1899771
20
53.067881
40
1.0225293
50
359.9290791
51
4.266464
0
ARC
8
DEFAULT_255_1_388
10
22.6718688
20
53.0103372
40
1.5406551
50
352.8365702
51
0.2783851
0
ARC
8
DEFAULT_255_1_388
10
23.2666919
20
52.9330664
40
0.9408425
50
341.8359339
51
352.9884057
0
ARC
8
DEFAULT_255_1_388
10
23.6287906
20
52.8110144
40
0.5587481
50
322.8579243
51
342.1527461
0
ARC
8
DEFAULT_255_1_388
10
23.7259598
20
52.744735
40
0.4413099
50
319.3348471
51
322.100194
0
ARC
8
DEFAULT_255_1_388
10
23.6911529
20
52.7796814
40
0.4904992
50
285.954114
51
318.8878716
0
ARC
8
DEFAULT_255_1_388
10
23.6093967
20
53.0395865
40
0.7628991
50
272.9280841
51
286.4924389
0
ARC
8
DEFAULT_255_1_388
10
23.5880271
20
53.293024
40
1.017132
50
270.8209173
51
273.4010121
0
ARC
8
DEFAULT_255_1_388
10
23.5980294
20
53.0882073
40
0.6712943
50
270.6214576
51
281.4062333
0
ARC
8
DEFAULT_255_1_388
10
23.6464018
20
52.856925
40
0.4350167
50
281.1852583
51
299.0622058
0
ARC
8
DEFAULT_255_1_388
10
23.6884264
20
52.7758138
40
0.3437146
50
299.5068171
51
313.1200142
0
ARC
8
DEFAULT_255_1_388
10
23.6909001
20
52.7668959
40
0.3355418
50
313.8525725
51
338.5989631
0
ARC
8
DEFAULT_255_1_388
10
23.5082129
20
52.8419576
40
0.5330317
50
338.2523315
51
351.2431701
0
ARC
8
DEFAULT_255_1_388
10
23.236988
20
52.8880494
40
0.8081235
50
350.940933
51
357.6690137
0
ARC
8
DEFAULT_255_1_388
10
23.787176
20
53.1133048
40
0.2581236
50
269.9447107
51
306.8249644
0
ARC
8
DEFAULT_255_1_388
10
23.7605062
20
53.160906
40
0.3122948
50
305.5071046
51
327.0773808
0
ARC
8
DEFAULT_255_1_388
10
23.7738113
20
53.1502445
40
0.2953369
50
327.4106457
51
336.8396801
0
ARC
8
DEFAULT_255_1_388
10
23.4257827
20
53.1045932
40
0.6195743
50
359.663158
51
10.1176387
0
ARC
8
DEFAULT_255_1_388
10
23.623059
20
53.1410922
40
0.4189561
50
9.9431549
51
26.7699242
0
ARC
8
DEFAULT_255_1_388
10
23.6902576
20
53.1720796
40
0.3450125
50
27.2018067
51
34.6833639
0
ARC
8
DEFAULT_255_1_388
10
23.7453189
20
53.213456
40
0.2762035
50
34.124913
51
50.30709
0
ARC
8
DEFAULT_255_1_388
10
23.7955672
20
53.2735741
40
0.1978518
50
50.3850304
51
90.6705051
0
ARC
8
DEFAULT_255_1_388
10
23.7903066
20
53.2393074
40
0.2321235
50
89.2729817
51
111.9140267
0
ARC
8
DEFAULT_255_1_388
10
23.7881153
20
53.2551308
40
0.2166604
50
112.9381864
51
142.5320936
0
ARC
8
DEFAULT_255_1_388
10
23.8495642
20
53.2052392
40
0.2957902
50
142.1024021
51
166.3835244
0
ARC
8
DEFAULT_255_1_388
10
23.9824612
20
53.1709213
40
0.4330361
50
166.1100968
51
178.6653563
0
ARC
8
DEFAULT_255_1_388
10
24.1006538
20
53.1643061
40
0.5513642
50
178.2641888
51
180.010994
0
ARC
8
DEFAULT_255_1_388
10
24.0101039
20
53.1611136
40
0.4608248
50
179.6162225
51
191.8786013
0
ARC
8
DEFAULT_255_1_388
10
23.8728349
20
53.130759
40
0.3202502
50
191.6192934
51
215.2970746
0
ARC
8
DEFAULT_255_1_388
10
23.8489004
20
53.1164963
40
0.2924827
50
215.7258926
51
216.5355437
0
ARC
8
DEFAULT_255_1_388
10
23.7900624
20
53.0691919
40
0.2170661
50
215.7486606
51
239.9728403
0
ARC
8
DEFAULT_255_1_388
10
23.782179
20
53.0634838
40
0.208217
50
241.065081
51
269.280972
0
ARC
8
DEFAULT_255_1_388
10
23.7868948
20
53.1190327
40
0.2638514
50
268.4083352
51
270.0069622
0
LINE
8
DEFAULT_255_1_388
10
22.3954376
20
61.5299898
11
22.736985
21
60.8694842
0
LINE
8
DEFAULT_255_1_388
10
22.736985
20
60.8694842
11
23.0803395
21
61.5299898
0
LINE
8
DEFAULT_255_1_388
10
23.0803395
20
61.5299898
11
23.2773166
21
61.5299898
0
LINE
8
DEFAULT_255_1_388
10
23.2773166
20
61.5299898
11
22.8237272
21
60.7050355
0
LINE
8
DEFAULT_255_1_388
10
22.8237272
20
60.7050355
11
22.8237272
21
60.2144
0
LINE
8
DEFAULT_255_1_388
10
22.8237272
20
60.2144
11
22.6502428
21
60.2144
0
LINE
8
DEFAULT_255_1_388
10
22.6502428
20
60.2144
11
22.6502428
21
60.7050355
0
LINE
8
DEFAULT_255_1_388
10
22.6502428
20
60.7050355
11
22.1966535
21
61.5299898
0
LINE
8
DEFAULT_255_1_388
10
22.1966535
20
61.5299898
11
22.3954376
21
61.5299898
0
ARC
8
DEFAULT_255_1_388
10
23.8841661
20
61.183772
40
0.3175098
50
338.8762533
51
0.5167111
0
ARC
8
DEFAULT_255_1_388
10
23.9031255
20
61.17866
40
0.2979894
50
325.8415285
51
338.4793574
0
ARC
8
DEFAULT_255_1_388
10
23.8591889
20
61.2091242
40
0.351452
50
296.7587686
51
325.7536481
0
ARC
8
DEFAULT_255_1_388
10
23.8263516
20
61.2645363
40
0.4157374
50
296.0927901
51
297.3613472
0
ARC
8
DEFAULT_255_1_388
10
23.8557712
20
60.5262593
40
0.395855
50
47.9007294
51
67.1948823
0
ARC
8
DEFAULT_255_1_388
10
23.8778354
20
60.5539599
40
0.360516
50
35.2363914
51
47.551141
0
ARC
8
DEFAULT_255_1_388
10
23.9072758
20
60.5736093
40
0.3251343
50
359.2759765
51
35.4014143
0
ARC
8
DEFAULT_255_1_388
10
23.8234684
20
60.5653787
40
0.4089365
50
343.1293083
51
0.5775513
0
ARC
8
DEFAULT_255_1_388
10
23.9049797
20
60.5429336
40
0.3244269
50
310.8496669
51
342.7449331
0
ARC
8
DEFAULT_255_1_388
10
23.8579672
20
60.5965913
40
0.3957651
50
281.5472888
51
310.9170406
0
ARC
8
DEFAULT_255_1_388
10
23.8178547
20
60.7712814
40
0.5749654
50
269.619248
51
281.9789564
0
ARC
8
DEFAULT_255_1_388
10
23.8097324
20
60.7713776
40
0.5750649
50
257.4585678
51
270.4285689
0
ARC
8
DEFAULT_255_1_388
10
23.7668845
20
60.5909741
40
0.389671
50
228.7554326
51
257.8484789
0
ARC
8
DEFAULT_255_1_388
10
23.732033
20
60.5490228
40
0.335154
50
184.0104975
51
228.5071184
0
ARC
8
DEFAULT_255_1_388
10
23.8628722
20
60.568943
40
0.4671891
50
179.9315832
51
185.3253753
0
ARC
8
DEFAULT_255_1_388
10
23.7305235
20
60.5731592
40
0.33486
50
145.6796023
51
180.6259786
0
ARC
8
DEFAULT_255_1_388
10
23.7489001
20
60.5603271
40
0.3572723
50
115.5537685
51
145.6415986
0
ARC
8
DEFAULT_255_1_388
10
23.7872045
20
60.4917087
40
0.4357296
50
113.243307
51
116.2057839
0
ARC
8
DEFAULT_255_1_388
10
23.7700696
20
61.2114379
40
0.3549126
50
222.9549744
51
244.1370481
0
ARC
8
DEFAULT_255_1_388
10
23.756334
20
61.1960378
40
0.3343711
50
213.3436887
51
222.6274467
0
ARC
8
DEFAULT_255_1_388
10
23.7347409
20
61.1813653
40
0.3082678
50
180.431584
51
213.271499
0
ARC
8
DEFAULT_255_1_388
10
23.7982408
20
61.1866296
40
0.3718363
50
179.9991191
51
181.1690594
0
ARC
8
DEFAULT_255_1_388
10
23.8454864
20
61.1905072
40
0.4190996
50
164.6186169
51
180.529336
0
ARC
8
DEFAULT_255_1_388
10
23.7444513
20
61.217678
40
0.3144772
50
132.2455553
51
164.5090724
0
ARC
8
DEFAULT_255_1_388
10
23.7767492
20
61.181107
40
0.3632644
50
100.7053914
51
132.1386381
0
ARC
8
DEFAULT_255_1_388
10
23.8110552
20
61.0261118
40
0.5219578
50
89.6730358
51
101.2451698
0
ARC
8
DEFAULT_255_1_388
10
23.8180543
20
61.0457648
40
0.5023124
50
76.287748
51
90.4586006
0
ARC
8
DEFAULT_255_1_388
10
23.8525045
20
61.1832671
40
0.3605639
50
47.8240511
51
76.4266241
0
ARC
8
DEFAULT_255_1_388
10
23.877543
20
61.2125599
40
0.3220463
50
6.9168387
51
47.6262497
0
ARC
8
DEFAULT_255_1_388
10
23.7440883
20
61.1879004
40
0.4575765
50
359.8415968
51
7.9697453
0
ARC
8
DEFAULT_255_1_388
10
23.7825152
20
60.5758519
40
0.2827228
50
359.445363
51
16.9256873
0
ARC
8
DEFAULT_255_1_388
10
23.8352586
20
60.5903781
40
0.2280396
50
17.2920767
51
45.4630727
0
ARC
8
DEFAULT_255_1_388
10
23.8291722
20
60.5851324
40
0.2360485
50
45.30305
51
83.1920945
0
ARC
8
DEFAULT_255_1_388
10
23.8130467
20
60.4949473
40
0.3275527
50
82.2612665
51
90.1434275
0
ARC
8
DEFAULT_255_1_388
10
23.8095743
20
60.5211869
40
0.3013237
50
89.4956434
51
104.8580688
0
ARC
8
DEFAULT_255_1_388
10
23.7896933
20
60.5965455
40
0.2233867
50
104.8856641
51
135.244616
0
ARC
8
DEFAULT_255_1_388
10
23.7952922
20
60.5915352
40
0.2308906
50
135.3399546
51
172.1044062
0
ARC
8
DEFAULT_255_1_388
10
23.8860446
20
60.5741667
40
0.3232034
50
171.2645637
51
180.186429
0
ARC
8
DEFAULT_255_1_388
10
23.8670451
20
60.5705426
40
0.304213
50
179.5154935
51
193.6464289
0
ARC
8
DEFAULT_255_1_388
10
23.7752127
20
60.5471473
40
0.209456
50
193.3540274
51
225.8258581
0
ARC
8
DEFAULT_255_1_388
10
23.7797999
20
60.5551076
40
0.2183738
50
226.4180634
51
255.8552336
0
ARC
8
DEFAULT_255_1_388
10
23.8086465
20
60.6604521
40
0.3275812
50
255.4654104
51
268.7987425
0
ARC
8
DEFAULT_255_1_388
10
23.8139642
20
60.7546545
40
0.4218877
50
268.3449238
51
270.0094605
0
ARC
8
DEFAULT_255_1_388
10
23.8165875
20
60.6778094
40
0.3450519
50
269.5759586
51
282.0820163
0
ARC
8
DEFAULT_255_1_388
10
23.8418912
20
60.5659363
40
0.2303642
50
281.752014
51
306.6056188
0
ARC
8
DEFAULT_255_1_388
10
23.852972
20
60.5477802
40
0.2091906
50
307.1346085
51
314.027845
0
ARC
8
DEFAULT_255_1_388
10
23.8489231
20
60.5507459
40
0.2141385
50
314.2552483
51
350.1694025
0
ARC
8
DEFAULT_255_1_388
10
23.7531469
20
60.5715175
40
0.312082
50
349.4140529
51
0.2933014
0
ARC
8
DEFAULT_255_1_388
10
23.8116746
20
61.1518924
40
0.2588377
50
89.477747
51
105.729729
0
ARC
8
DEFAULT_255_1_388
10
23.7963666
20
61.2087367
40
0.1999733
50
105.9233417
51
135.1660906
0
ARC
8
DEFAULT_255_1_388
10
23.7986696
20
61.2071412
40
0.2027322
50
135.3052302
51
168.9883645
0
ARC
8
DEFAULT_255_1_388
10
23.8917713
20
61.1857996
40
0.2982129
50
168.3801673
51
180.3602268
0
ARC
8
DEFAULT_255_1_388
10
23.8660829
20
61.1815622
40
0.2725291
50
179.5033122
51
194.9125571
0
ARC
8
DEFAULT_255_1_388
10
23.8002236
20
61.1642427
40
0.204431
50
194.9720816
51
224.194444
0
ARC
8
DEFAULT_255_1_388
10
23.7970602
20
61.1616635
40
0.2003651
50
224.2962453
51
262.015664
0
ARC
8
DEFAULT_255_1_388
10
23.8130606
20
61.2439315
40
0.2840925
50
261.1245923
51
270.1962896
0
ARC
8
DEFAULT_255_1_388
10
23.8164087
20
61.2228859
40
0.2630559
50
269.4827276
51
285.0987215
0
ARC
8
DEFAULT_255_1_388
10
23.8337523
20
61.1578175
40
0.1957162
50
285.1585357
51
315.9484501
0
ARC
8
DEFAULT_255_1_388
10
23.8237397
20
61.1670315
40
0.2093195
50
316.0413965
51
351.916092
0
ARC
8
DEFAULT_255_1_388
10
23.7412771
20
61.1829323
40
0.2932279
50
351.105835
51
0.1939062
0
ARC
8
DEFAULT_255_1_388
10
23.7708405
20
61.1863224
40
0.2636739
50
359.4789618
51
16.0678224
0
ARC
8
DEFAULT_255_1_388
10
23.8243877
20
61.2007721
40
0.2082215
50
16.3252067
51
44.7913869
0
ARC
8
DEFAULT_255_1_388
10
23.8223939
20
61.200832
40
0.2095992
50
44.3957814
51
88.2499162
0
ARC
8
DEFAULT_255_1_388
10
23.8141273
20
61.1320006
40
0.2787189
50
86.9833854
51
90.0192215
0
LINE
8
DEFAULT_255_1_388
10
22.3954376
20
69.4674898
11
22.736985
21
68.8069842
0
LINE
8
DEFAULT_255_1_388
10
22.736985
20
68.8069842
11
23.0803395
21
69.4674898
0
LINE
8
DEFAULT_255_1_388
10
23.0803395
20
69.4674898
11
23.2773166
21
69.4674898
0
LINE
8
DEFAULT_255_1_388
10
23.2773166
20
69.4674898
11
22.8237272
21
68.6425355
0
LINE
8
DEFAULT_255_1_388
10
22.8237272
20
68.6425355
11
22.8237272
21
68.1519
0
LINE
8
DEFAULT_255_1_388
10
22.8237272
20
68.1519
11
22.6502428
21
68.1519
0
LINE
8
DEFAULT_255_1_388
10
22.6502428
20
68.1519
11
22.6502428
21
68.6425355
0
LINE
8
DEFAULT_255_1_388
10
22.6502428
20
68.6425355
11
22.1966535
21
69.4674898
0
LINE
8
DEFAULT_255_1_388
10
22.1966535
20
69.4674898
11
22.3954376
21
69.4674898
0
LINE
8
DEFAULT_255_1_388
10
24.2531662
20
69.4674898
11
24.2531662
21
69.3735191
0
LINE
8
DEFAULT_255_1_388
10
24.2531662
20
69.3735191
11
23.7083168
21
68.1519
0
LINE
8
DEFAULT_255_1_388
10
23.7083168
20
68.1519
11
23.5330253
21
68.1519
0
LINE
8
DEFAULT_255_1_388
10
23.5330253
20
68.1519
11
24.0760675
21
69.330148
0
LINE
8
DEFAULT_255_1_388
10
24.0760675
20
69.330148
11
23.3640587
21
69.330148
0
LINE
8
DEFAULT_255_1_388
10
23.3640587
20
69.330148
11
23.3640587
21
69.4674898
0
LINE
8
DEFAULT_255_1_388
10
23.3640587
20
69.4674898
11
24.2531662
21
69.4674898
0
LINE
8
DEFAULT_255_1_388
10
22.3954376
20
77.4049898
11
22.736985
21
76.7444842
0
LINE
8
DEFAULT_255_1_388
10
22.736985
20
76.7444842
11
23.0803395
21
77.4049898
0
LINE
8
DEFAULT_255_1_388
10
23.0803395
20
77.4049898
11
23.2773166
21
77.4049898
0
LINE
8
DEFAULT_255_1_388
10
23.2773166
20
77.4049898
11
22.8237272
21
76.5800355
0
LINE
8
DEFAULT_255_1_388
10
22.8237272
20
76.5800355
11
22.8237272
21
76.0894
0
LINE
8
DEFAULT_255_1_388
10
22.8237272
20
76.0894
11
22.6502428
21
76.0894
0
LINE
8
DEFAULT_255_1_388
10
22.6502428
20
76.0894
11
22.6502428
21
76.5800355
0
LINE
8
DEFAULT_255_1_388
10
22.6502428
20
76.5800355
11
22.1966535
21
77.4049898
0
LINE
8
DEFAULT_255_1_388
10
22.1966535
20
77.4049898
11
22.3954376
21
77.4049898
0
LINE
8
DEFAULT_255_1_388
10
24.0299857
20
77.4058934
11
24.0598034
21
77.4058934
0
LINE
8
DEFAULT_255_1_388
10
24.0598034
20
77.4058934
11
24.0598034
21
77.2640338
0
LINE
8
DEFAULT_255_1_388
10
24.0598034
20
77.2640338
11
24.0290822
21
77.2640338
0
LINE
8
DEFAULT_255_1_388
10
23.4137548
20
76.5899747
11
23.4137548
21
76.6541278
0
LINE
8
DEFAULT_255_1_388
10
23.5818178
20
76.6324422
11
23.5818178
21
76.5709999
0
ARC
8
DEFAULT_255_1_388
10
24.0349713
20
76.7017826
40
0.562282
50
90.6001079
51
104.5146616
0
ARC
8
DEFAULT_255_1_388
10
23.9912673
20
76.86431
40
0.3939917
50
104.2855758
51
133.8630124
0
ARC
8
DEFAULT_255_1_388
10
24.0096926
20
76.8521243
40
0.4155734
50
134.5304124
51
161.6210222
0
ARC
8
DEFAULT_255_1_388
10
24.1956858
20
76.7865421
40
0.6127682
50
161.2850533
51
174.2074364
0
ARC
8
DEFAULT_255_1_388
10
24.3546425
20
76.7646437
40
0.7731446
50
173.7817938
51
174.9251711
0
ARC
8
DEFAULT_255_1_388
10
23.8420618
20
76.609127
40
0.3412588
50
95.8332067
51
138.995412
0
ARC
8
DEFAULT_255_1_388
10
23.8671898
20
76.4652695
40
0.4870358
50
89.8755506
51
97.0540979
0
ARC
8
DEFAULT_255_1_388
10
23.8725288
20
76.5592841
40
0.3930432
50
71.6407016
51
90.6240821
0
ARC
8
DEFAULT_255_1_388
10
23.8894681
20
76.6216433
40
0.3285421
50
39.6368051
51
71.0190743
0
ARC
8
DEFAULT_255_1_388
10
23.8178589
20
76.5597586
40
0.4231706
50
10.6588054
51
39.9044509
0
ARC
8
DEFAULT_255_1_388
10
23.6437134
20
76.5219223
40
0.60133
50
359.6827842
51
11.1326896
0
ARC
8
DEFAULT_255_1_388
10
23.639247
20
76.5139715
40
0.6058047
50
347.2485908
51
0.4371098
0
ARC
8
DEFAULT_255_1_388
10
23.8268255
20
76.4688379
40
0.4128987
50
318.1408565
51
347.6118497
0
ARC
8
DEFAULT_255_1_388
10
23.8633852
20
76.4387903
40
0.3656244
50
275.6342406
51
317.824739
0
ARC
8
DEFAULT_255_1_388
10
23.8385373
20
76.5849827
40
0.513655
50
269.8872513
51
276.7916069
0
ARC
8
DEFAULT_255_1_388
10
23.8323566
20
76.4696181
40
0.398323
50
246.9139443
51
270.7436787
0
ARC
8
DEFAULT_255_1_388
10
23.8330762
20
76.4536044
40
0.3839368
50
218.1665534
51
245.8780431
0
ARC
8
DEFAULT_255_1_388
10
23.9320134
20
76.5363903
40
0.5128958
50
191.4115343
51
218.6077624
0
ARC
8
DEFAULT_255_1_388
10
24.150045
20
76.5852777
40
0.7363054
50
179.6344971
51
191.7836758
0
ARC
8
DEFAULT_255_1_388
10
24.7780324
20
76.6616495
40
1.3642984
50
171.4523743
51
180.3158856
0
ARC
8
DEFAULT_255_1_388
10
24.2836052
20
76.7385895
40
0.8639311
50
157.9802296
51
171.6246761
0
ARC
8
DEFAULT_255_1_388
10
24.0345402
20
76.8379038
40
0.5958004
50
141.4299236
51
157.8541251
0
ARC
8
DEFAULT_255_1_388
10
23.9623486
20
76.8889746
40
0.5075416
50
102.871586
51
140.8564533
0
ARC
8
DEFAULT_255_1_388
10
24.0352038
20
76.6144943
40
0.7914163
50
90.377773
51
103.5868422
0
ARC
8
DEFAULT_255_1_388
10
23.8396559
20
76.5464543
40
0.2667015
50
89.8751238
51
126.2072139
0
ARC
8
DEFAULT_255_1_388
10
23.844803
20
76.5290847
40
0.2838229
50
124.9742447
51
144.8960197
0
ARC
8
DEFAULT_255_1_388
10
23.8250275
20
76.5451981
40
0.2583845
50
145.2974778
51
160.2660922
0
ARC
8
DEFAULT_255_1_388
10
24.1706764
20
76.5674151
40
0.5888695
50
179.6512124
51
190.285571
0
ARC
8
DEFAULT_255_1_388
10
23.9801243
20
76.5314968
40
0.3949683
50
190.0944895
51
207.5099647
0
ARC
8
DEFAULT_255_1_388
10
23.9164825
20
76.5012177
40
0.3245464
50
207.9585471
51
216.325377
0
ARC
8
DEFAULT_255_1_388
10
23.8782462
20
76.4697712
40
0.2751259
50
215.7661336
51
232.5457193
0
ARC
8
DEFAULT_255_1_388
10
23.8351578
20
76.4150273
40
0.2054668
50
232.8005815
51
270.6605497
0
ARC
8
DEFAULT_255_1_388
10
23.8403002
20
76.4559853
40
0.2464268
50
269.3550767
51
288.474612
0
ARC
8
DEFAULT_255_1_388
10
23.8507509
20
76.4166721
40
0.2058436
50
289.1831976
51
322.9685307
0
ARC
8
DEFAULT_255_1_388
10
23.7819611
20
76.4709279
40
0.2934408
50
322.6007085
51
346.5183319
0
ARC
8
DEFAULT_255_1_388
10
23.6517367
20
76.5041434
40
0.4278249
50
346.2584622
51
358.7739592
0
ARC
8
DEFAULT_255_1_388
10
23.5365942
20
76.5103829
40
0.5430876
50
358.3757628
51
0.0082477
0
ARC
8
DEFAULT_255_1_388
10
23.6222761
20
76.5134856
40
0.4574157
50
359.6211417
51
11.28403
0
ARC
8
DEFAULT_255_1_388
10
23.7659367
20
76.5434535
40
0.3106708
50
11.0483152
51
31.8145585
0
ARC
8
DEFAULT_255_1_388
10
23.8007072
20
76.5623045
40
0.2711963
50
32.3028554
51
38.0820598
0
ARC
8
DEFAULT_255_1_388
10
23.8480305
20
76.6051717
40
0.2075566
50
36.8249851
51
85.741667
0
ARC
8
DEFAULT_255_1_388
10
23.8404718
20
76.5488065
40
0.2643487
50
85.0150021
51
90.050843
0
LINE
8
DEFAULT_255_1_388
10
22.3954376
20
85.3424898
11
22.736985
21
84.6819842
0
LINE
8
DEFAULT_255_1_388
10
22.736985
20
84.6819842
11
23.0803395
21
85.3424898
0
LINE
8
DEFAULT_255_1_388
10
23.0803395
20
85.3424898
11
23.2773166
21
85.3424898
0
LINE
8
DEFAULT_255_1_388
10
23.2773166
20
85.3424898
11
22.8237272
21
84.5175355
0
LINE
8
DEFAULT_255_1_388
10
22.8237272
20
84.5175355
11
22.8237272
21
84.0269
0
LINE
8
DEFAULT_255_1_388
10
22.8237272
20
84.0269
11
22.6502428
21
84.0269
0
LINE
8
DEFAULT_255_1_388
10
22.6502428
20
84.0269
11
22.6502428
21
84.5175355
0
LINE
8
DEFAULT_255_1_388
10
22.6502428
20
84.5175355
11
22.1966535
21
85.3424898
0
LINE
8
DEFAULT_255_1_388
10
22.1966535
20
85.3424898
11
22.3954376
21
85.3424898
0
LINE
8
DEFAULT_255_1_388
10
23.6143461
20
84.6521666
11
23.4806186
21
84.6865021
0
LINE
8
DEFAULT_255_1_388
10
23.4806186
20
84.6865021
11
23.5474823
21
85.3424898
0
LINE
8
DEFAULT_255_1_388
10
23.5474823
20
85.3424898
11
24.2215414
21
85.3424898
0
LINE
8
DEFAULT_255_1_388
10
24.2215414
20
85.3424898
11
24.2215414
21
85.1879803
0
LINE
8
DEFAULT_255_1_388
10
24.2215414
20
85.1879803
11
23.6893419
21
85.1879803
0
LINE
8
DEFAULT_255_1_388
10
23.6893419
20
85.1879803
11
23.6495851
21
84.8292652
0
LINE
8
DEFAULT_255_1_388
10
23.4336332
20
84.3729652
11
23.591757
21
84.3729652
0
LINE
8
DEFAULT_255_1_388
10
23.6586208
20
84.6883092
11
23.6143461
21
84.6521666
0
ARC
8
DEFAULT_255_1_388
10
23.8582465
20
84.4715241
40
0.4141476
50
93.7181681
51
120.253934
0
ARC
8
DEFAULT_255_1_388
10
23.8688517
20
84.3806284
40
0.5055616
50
89.9660471
51
94.2495185
0
ARC
8
DEFAULT_255_1_388
10
23.8734339
20
84.4469154
40
0.4392953
50
73.8045384
51
90.5585736
0
ARC
8
DEFAULT_255_1_388
10
23.8998596
20
84.543452
40
0.3392225
50
41.3071072
51
73.543002
0
ARC
8
DEFAULT_255_1_388
10
23.8530416
20
84.5031461
40
0.4009977
50
13.5075837
51
41.2174839
0
ARC
8
DEFAULT_255_1_388
10
23.6683514
20
84.4547907
40
0.5918864
50
1.1330171
51
13.8830737
0
ARC
8
DEFAULT_255_1_388
10
23.508716
20
84.4462522
40
0.7516787
50
359.9925091
51
1.5431298
0
ARC
8
DEFAULT_255_1_388
10
23.6531774
20
84.4416027
40
0.6072343
50
347.8572712
51
0.4294349
0
ARC
8
DEFAULT_255_1_388
10
23.8500909
20
84.3969898
40
0.4053482
50
323.6727442
51
348.1674594
0
ARC
8
DEFAULT_255_1_388
10
23.8831874
20
84.3768175
40
0.3667495
50
316.8171818
51
323.1486802
0
ARC
8
DEFAULT_255_1_388
10
23.8900997
20
84.3726612
40
0.358869
50
281.839603
51
316.5458142
0
ARC
8
DEFAULT_255_1_388
10
23.8478285
20
84.5476363
40
0.5388223
50
269.5770964
51
282.4214641
0
ARC
8
DEFAULT_255_1_388
10
23.8398206
20
84.523593
40
0.5147801
50
256.2425863
51
270.4486481
0
ARC
8
DEFAULT_255_1_388
10
23.8061733
20
84.3886124
40
0.3756708
50
228.9024379
51
256.33135
0
ARC
8
DEFAULT_255_1_388
10
23.7978714
20
84.3755054
40
0.360344
50
193.7536029
51
228.5272638
0
ARC
8
DEFAULT_255_1_388
10
23.9371279
20
84.4163463
40
0.5053599
50
184.9244437
51
194.4976052
0
ARC
8
DEFAULT_255_1_388
10
23.958792
20
84.4203722
40
0.3700839
50
187.3596909
51
198.6733728
0
ARC
8
DEFAULT_255_1_388
10
23.8407163
20
84.3794373
40
0.2451195
50
198.4453795
51
217.7945479
0
ARC
8
DEFAULT_255_1_388
10
23.8074336
20
84.3558563
40
0.2043754
50
218.2887146
51
228.5613203
0
ARC
8
DEFAULT_255_1_388
10
23.8184343
20
84.3706902
40
0.2227819
50
228.9652423
51
258.1237049
0
ARC
8
DEFAULT_255_1_388
10
23.841578
20
84.4697964
40
0.3245374
50
257.7260585
51
270.4013717
0
ARC
8
DEFAULT_255_1_388
10
23.8466278
20
84.4197255
40
0.2744726
50
269.4204315
51
286.420998
0
ARC
8
DEFAULT_255_1_388
10
23.8633334
20
84.3590705
40
0.2115721
50
286.7250065
51
320.6004665
0
ARC
8
DEFAULT_255_1_388
10
23.8202249
20
84.3940527
40
0.2670878
50
320.6712228
51
344.5440474
0
ARC
8
DEFAULT_255_1_388
10
23.6900963
20
84.4322394
40
0.4026927
50
344.241448
51
356.735803
0
ARC
8
DEFAULT_255_1_388
10
23.549727
20
84.4438656
40
0.5435085
50
356.3547471
51
0.0507222
0
ARC
8
DEFAULT_255_1_388
10
23.6999536
20
84.4473812
40
0.3932934
50
359.5579289
51
12.9534322
0
ARC
8
DEFAULT_255_1_388
10
23.8186375
20
84.4761586
40
0.2711827
50
12.6489751
51
41.608121
0
ARC
8
DEFAULT_255_1_388
10
23.8445535
20
84.4981946
40
0.2371737
50
41.7851122
51
85.9892156
0
ARC
8
DEFAULT_255_1_388
10
23.8306846
20
84.4066738
40
0.3295244
50
84.6965848
51
90.0672125
0
ARC
8
DEFAULT_255_1_388
10
23.8280413
20
84.3315118
40
0.4046926
50
89.6804991
51
99.161352
0
ARC
8
DEFAULT_255_1_388
10
23.8049422
20
84.4695848
40
0.2647044
50
98.9836248
51
113.8905702
0
ARC
8
DEFAULT_255_1_388
10
23.7791097
20
84.5305118
40
0.1985386
50
114.195234
51
127.3641866
0
LINE
8
DEFAULT_255_1_388
10
22.2631376
20
93.2799898
11
22.604685
21
92.6194842
0
LINE
8
DEFAULT_255_1_388
10
22.604685
20
92.6194842
11
22.9480395
21
93.2799898
0
LINE
8
DEFAULT_255_1_388
10
22.9480395
20
93.2799898
11
23.1450166
21
93.2799898
0
LINE
8
DEFAULT_255_1_388
10
23.1450166
20
93.2799898
11
22.6914272
21
92.4550355
0
LINE
8
DEFAULT_255_1_388
10
22.6914272
20
92.4550355
11
22.6914272
21
91.9644
0
LINE
8
DEFAULT_255_1_388
10
22.6914272
20
91.9644
11
22.5179428
21
91.9644
0
LINE
8
DEFAULT_255_1_388
10
22.5179428
20
91.9644
11
22.5179428
21
92.4550355
0
LINE
8
DEFAULT_255_1_388
10
22.5179428
20
92.4550355
11
22.0643535
21
93.2799898
0
LINE
8
DEFAULT_255_1_388
10
22.0643535
20
93.2799898
11
22.2631376
21
93.2799898
0
LINE
8
DEFAULT_255_1_388
10
23.9771994
20
93.2799898
11
23.9771994
21
92.406243
0
LINE
8
DEFAULT_255_1_388
10
23.9771994
20
92.406243
11
24.1597194
21
92.406243
0
LINE
8
DEFAULT_255_1_388
10
24.1597194
20
92.406243
11
24.1597194
21
92.2698048
0
LINE
8
DEFAULT_255_1_388
10
24.1597194
20
92.2698048
11
23.9771994
21
92.2698048
0
LINE
8
DEFAULT_255_1_388
10
23.9771994
20
92.2698048
11
23.9771994
21
91.9644
0
LINE
8
DEFAULT_255_1_388
10
23.9771994
20
91.9644
11
23.8091364
21
91.9644
0
LINE
8
DEFAULT_255_1_388
10
23.8091364
20
91.9644
11
23.8091364
21
92.2698048
0
LINE
8
DEFAULT_255_1_388
10
23.8091364
20
92.2698048
11
23.2100732
21
92.2698048
0
LINE
8
DEFAULT_255_1_388
10
23.2100732
20
92.2698048
11
23.2100732
21
92.3682933
0
LINE
8
DEFAULT_255_1_388
10
23.2100732
20
92.3682933
11
23.7991972
21
93.2799898
0
LINE
8
DEFAULT_255_1_388
10
23.7991972
20
93.2799898
11
23.9771994
21
93.2799898
0
LINE
8
DEFAULT_255_1_388
10
23.789258
20
93.0152455
11
23.3998217
21
92.406243
0
LINE
8
DEFAULT_255_1_388
10
23.3998217
20
92.406243
11
23.8091364
21
92.406243
0
LINE
8
DEFAULT_255_1_388
10
23.8091364
20
92.406243
11
23.8091364
21
93.051388
0
LINE
8
DEFAULT_255_1_388
10
23.8091364
20
93.051388
11
23.789258
21
93.0152455
0
LINE
8
DEFAULT_255_1_388
10
22.3954376
20
101.2174898
11
22.736985
21
100.5569842
0
LINE
8
DEFAULT_255_1_388
10
22.736985
20
100.5569842
11
23.0803395
21
101.2174898
0
LINE
8
DEFAULT_255_1_388
10
23.0803395
20
101.2174898
11
23.2773166
21
101.2174898
0
LINE
8
DEFAULT_255_1_388
10
23.2773166
20
101.2174898
11
22.8237272
21
100.3925355
0
LINE
8
DEFAULT_255_1_388
10
22.8237272
20
100.3925355
11
22.8237272
21
99.9019
0
LINE
8
DEFAULT_255_1_388
10
22.8237272
20
99.9019
11
22.6502428
21
99.9019
0
LINE
8
DEFAULT_255_1_388
10
22.6502428
20
99.9019
11
22.6502428
21
100.3925355
0
LINE
8
DEFAULT_255_1_388
10
22.6502428
20
100.3925355
11
22.1966535
21
101.2174898
0
LINE
8
DEFAULT_255_1_388
10
22.1966535
20
101.2174898
11
22.3954376
21
101.2174898
0
LINE
8
DEFAULT_255_1_388
10
23.6468744
20
100.5045775
11
23.6468744
21
100.6410157
0
LINE
8
DEFAULT_255_1_388
10
23.6468744
20
100.6410157
11
23.7724699
21
100.6410157
0
LINE
8
DEFAULT_255_1_388
10
23.5583251
20
100.8723282
11
23.3911657
21
100.8723282
0
LINE
8
DEFAULT_255_1_388
10
23.3794193
20
100.2488688
11
23.5474823
21
100.2488688
0
LINE
8
DEFAULT_255_1_388
10
23.7724699
20
100.5045775
11
23.6468744
21
100.5045775
0
ARC
8
DEFAULT_255_1_388
10
23.7691925
20
101.0226922
40
0.3816905
50
270.491971
51
281.8953028
0
ARC
8
DEFAULT_255_1_388
10
23.7963352
20
100.8987199
40
0.2547877
50
281.6690378
51
301.2943765
0
ARC
8
DEFAULT_255_1_388
10
23.8154803
20
100.8636926
40
0.2149197
50
301.7834992
51
311.754567
0
ARC
8
DEFAULT_255_1_388
10
23.8257845
20
100.852265
40
0.1995326
50
311.7325027
51
354.2803031
0
ARC
8
DEFAULT_255_1_388
10
23.7440261
20
100.866328
40
0.2823461
50
353.0941646
51
0.1174696
0
ARC
8
DEFAULT_255_1_388
10
23.6921819
20
100.8716874
40
0.3342238
50
359.1804452
51
15.0452323
0
ARC
8
DEFAULT_255_1_388
10
23.8435877
20
100.9158546
40
0.1765747
50
13.957816
51
77.6713812
0
ARC
8
DEFAULT_255_1_388
10
23.8001113
20
100.7600464
40
0.3381982
50
76.111571
51
90.7028736
0
ARC
8
DEFAULT_255_1_388
10
23.7934525
20
100.790825
40
0.3074046
50
89.5321574
51
103.5319393
0
ARC
8
DEFAULT_255_1_388
10
23.7708909
20
100.8807443
40
0.2147041
50
103.2930114
51
133.5619756
0
ARC
8
DEFAULT_255_1_388
10
23.765885
20
100.8874351
40
0.2064084
50
133.8349761
51
173.5343225
0
ARC
8
DEFAULT_255_1_388
10
23.8472508
20
100.8730144
40
0.2889266
50
172.5097183
51
180.1360699
0
ARC
8
DEFAULT_255_1_388
10
23.7402272
20
100.876888
40
0.3490913
50
155.3483706
51
180.7484035
0
ARC
8
DEFAULT_255_1_388
10
23.7347247
20
100.8736519
40
0.3454798
50
131.5745177
51
154.4799474
0
ARC
8
DEFAULT_255_1_388
10
23.769953
20
100.8380422
40
0.3955058
50
96.9874487
51
131.9690874
0
ARC
8
DEFAULT_255_1_388
10
23.7946422
20
100.6979407
40
0.537622
50
89.8592909
51
97.7827481
0
ARC
8
DEFAULT_255_1_388
10
23.8000531
20
100.668436
40
0.5671399
50
78.3654493
51
90.4132586
0
ARC
8
DEFAULT_255_1_388
10
23.8403173
20
100.8550918
40
0.3762034
50
56.6229818
51
78.6387103
0
ARC
8
DEFAULT_255_1_388
10
23.8645002
20
100.8973846
40
0.3275964
50
47.0254604
51
56.085558
0
ARC
8
DEFAULT_255_1_388
10
23.8667253
20
100.9018189
40
0.3228382
50
10.9207523
51
46.777927
0
ARC
8
DEFAULT_255_1_388
10
23.7132847
20
100.8663401
40
0.4802559
50
359.6364235
51
11.6087615
0
ARC
8
DEFAULT_255_1_388
10
23.9197012
20
100.8646404
40
0.273833
50
332.3549969
51
359.7179765
0
ARC
8
DEFAULT_255_1_388
10
23.8465413
20
100.8993285
40
0.3547505
50
325.2332381
51
332.8746682
0
ARC
8
DEFAULT_255_1_388
10
23.8636996
20
100.8873763
40
0.3338396
50
292.9803892
51
325.2391113
0
ARC
8
DEFAULT_255_1_388
10
23.8326192
20
100.9478679
40
0.4016959
50
292.542178
51
293.6931461
0
ARC
8
DEFAULT_255_1_388
10
23.8769764
20
100.2213036
40
0.372079
50
57.643292
51
72.8626085
0
ARC
8
DEFAULT_255_1_388
10
23.9168598
20
100.2859273
40
0.2961455
50
36.7246661
51
57.4701329
0
ARC
8
DEFAULT_255_1_388
10
23.9155755
20
100.287347
40
0.2963321
50
8.054535
51
36.3561529
0
ARC
8
DEFAULT_255_1_388
10
23.8185428
20
100.2699073
40
0.3948682
50
359.8316595
51
8.5873361
0
ARC
8
DEFAULT_255_1_388
10
23.7762902
20
100.264497
40
0.4371398
50
343.9831631
51
0.557075
0
ARC
8
DEFAULT_255_1_388
10
23.8759951
20
100.2371963
40
0.3337749
50
311.6358204
51
343.7652116
0
ARC
8
DEFAULT_255_1_388
10
23.8334205
20
100.2851955
40
0.3979351
50
279.7829743
51
311.625622
0
ARC
8
DEFAULT_255_1_388
10
23.799534
20
100.4468642
40
0.5630417
50
269.7285092
51
280.3857694
0
ARC
8
DEFAULT_255_1_388
10
23.7925653
20
100.4422241
40
0.5584119
50
256.6827433
51
270.4412869
0
ARC
8
DEFAULT_255_1_388
10
23.754464
20
100.2864698
40
0.3980715
50
229.4223821
51
256.8554507
0
ARC
8
DEFAULT_255_1_388
10
23.7078193
20
100.2339683
40
0.3278564
50
181.8183354
51
229.6455015
0
ARC
8
DEFAULT_255_1_388
10
23.8247803
20
100.2486825
40
0.4453611
50
179.9760419
51
183.2330638
0
ARC
8
DEFAULT_255_1_388
10
23.8054355
20
100.2463781
40
0.2579652
50
179.4467996
51
196.2871626
0
ARC
8
DEFAULT_255_1_388
10
23.7505809
20
100.2313709
40
0.2011057
50
196.5661293
51
227.7059371
0
ARC
8
DEFAULT_255_1_388
10
23.7690416
20
100.2520155
40
0.2287994
50
227.7653015
51
257.8763321
0
ARC
8
DEFAULT_255_1_388
10
23.7943499
20
100.3580961
40
0.3378385
50
257.4583525
51
270.4267406
0
ARC
8
DEFAULT_255_1_388
10
23.7994749
20
100.390723
40
0.3704652
50
269.5965319
51
280.8788143
0
ARC
8
DEFAULT_255_1_388
10
23.8252977
20
100.2617529
40
0.2389415
50
280.6347277
51
299.8594068
0
ARC
8
DEFAULT_255_1_388
10
23.8467746
20
100.2209736
40
0.19289
50
300.3575552
51
314.5515667
0
ARC
8
DEFAULT_255_1_388
10
23.8374422
20
100.2278025
40
0.204312
50
315.0730962
51
345.0429362
0
ARC
8
DEFAULT_255_1_388
10
23.7335929
20
100.2580539
40
0.31246
50
344.598526
51
357.9270698
0
ARC
8
DEFAULT_255_1_388
10
23.6326234
20
100.2649705
40
0.4136265
50
357.4755098
51
0.0224936
0
ARC
8
DEFAULT_255_1_388
10
23.7479112
20
100.2677099
40
0.2983498
50
359.5051035
51
13.4236939
0
ARC
8
DEFAULT_255_1_388
10
23.8454202
20
100.2926637
40
0.1977186
50
12.9497905
51
48.7550905
0
ARC
8
DEFAULT_255_1_388
10
23.8249124
20
100.2646373
40
0.2323321
50
49.509109
51
72.1832965
0
ARC
8
DEFAULT_255_1_388
10
23.7846592
20
100.1451632
40
0.358397
50
71.9008458
51
84.3555134
0
ARC
8
DEFAULT_255_1_388
10
23.7664987
20
99.9919712
40
0.512641
50
84.019632
51
89.3326067
0
LINE
8
DEFAULT_255_1_388
10
22.3954376
20
109.1549898
11
22.736985
21
108.4944842
0
LINE
8
DEFAULT_255_1_388
10
22.736985
20
108.4944842
11
23.0803395
21
109.1549898
0
LINE
8
DEFAULT_255_1_388
10
23.0803395
20
109.1549898
11
23.2773166
21
109.1549898
0
LINE
8
DEFAULT_255_1_388
10
23.2773166
20
109.1549898
11
22.8237272
21
108.3300355
0
LINE
8
DEFAULT_255_1_388
10
22.8237272
20
108.3300355
11
22.8237272
21
107.8394
0
LINE
8
DEFAULT_255_1_388
10
22.8237272
20
107.8394
11
22.6502428
21
107.8394
0
LINE
8
DEFAULT_255_1_388
10
22.6502428
20
107.8394
11
22.6502428
21
108.3300355
0
LINE
8
DEFAULT_255_1_388
10
22.6502428
20
108.3300355
11
22.1966535
21
109.1549898
0
LINE
8
DEFAULT_255_1_388
10
22.1966535
20
109.1549898
11
22.3954376
21
109.1549898
0
LINE
8
DEFAULT_255_1_388
10
24.2658161
20
107.9758382
11
24.2658161
21
107.8394
0
LINE
8
DEFAULT_255_1_388
10
24.2658161
20
107.8394
11
23.4038156
21
107.8394
0
LINE
8
DEFAULT_255_1_388
10
23.4038156
20
107.8394
11
23.4038156
21
107.9595741
0
LINE
8
DEFAULT_255_1_388
10
23.4038156
20
107.9595741
11
23.8592121
21
108.4655702
0
LINE
8
DEFAULT_255_1_388
10
23.5456752
20
108.7673607
11
23.3785158
21
108.7673607
0
LINE
8
DEFAULT_255_1_388
10
23.9577006
20
108.358046
11
23.6053104
21
107.9758382
0
LINE
8
DEFAULT_255_1_388
10
23.6053104
20
107.9758382
11
24.2658161
21
107.9758382
0
ARC
8
DEFAULT_255_1_388
10
22.341618
20
109.8075983
40
2.0258655
50
318.5132526
51
320.7829045
0
ARC
8
DEFAULT_255_1_388
10
22.9364137
20
109.3234929
40
1.2589638
50
320.7372878
51
323.9739031
0
ARC
8
DEFAULT_255_1_388
10
23.3773069
20
109.0040554
40
0.7145141
50
323.8962701
51
328.64194
0
ARC
8
DEFAULT_255_1_388
10
23.6075326
20
108.8620545
40
0.4440242
50
328.8294576
51
331.7891185
0
ARC
8
DEFAULT_255_1_388
10
23.7197646
20
108.8041374
40
0.3177517
50
331.4254512
51
352.9365785
0
ARC
8
DEFAULT_255_1_388
10
23.7350646
20
108.800705
40
0.3021496
50
353.2257659
51
0.0166158
0
ARC
8
DEFAULT_255_1_388
10
23.7587407
20
108.8032894
40
0.2784847
50
359.486299
51
15.9343185
0
ARC
8
DEFAULT_255_1_388
10
23.8157674
20
108.8186269
40
0.2194403
50
16.1712913
51
43.5286088
0
ARC
8
DEFAULT_255_1_388
10
23.8244618
20
108.8273191
40
0.2071504
50
43.4417391
51
83.1661095
0
ARC
8
DEFAULT_255_1_388
10
23.8093779
20
108.7444316
40
0.2912888
50
82.160179
51
90.1505708
0
ARC
8
DEFAULT_255_1_388
10
23.8058261
20
108.6840279
40
0.3517025
50
89.5460741
51
102.5418361
0
ARC
8
DEFAULT_255_1_388
10
23.7784981
20
108.7999933
40
0.2325748
50
102.1738499
51
129.206123
0
ARC
8
DEFAULT_255_1_388
10
23.7696434
20
108.8139664
40
0.2161591
50
129.72865
51
135.753947
0
ARC
8
DEFAULT_255_1_388
10
23.7832917
20
108.8030728
40
0.2335433
50
136.1757367
51
166.3673339
0
ARC
8
DEFAULT_255_1_388
10
23.8965605
20
108.7727148
40
0.3507873
50
165.9090694
51
178.8684636
0
ARC
8
DEFAULT_255_1_388
10
23.9941377
20
108.7674263
40
0.4484624
50
178.4391136
51
180.0083808
0
ARC
8
DEFAULT_255_1_388
10
23.8362078
20
108.7718197
40
0.4577138
50
163.2878482
51
180.5581842
0
ARC
8
DEFAULT_255_1_388
10
23.7460119
20
108.7966393
40
0.3641968
50
133.4540601
51
162.947111
0
ARC
8
DEFAULT_255_1_388
10
23.7661001
20
108.7752789
40
0.3935189
50
100.7869829
51
133.4382499
0
ARC
8
DEFAULT_255_1_388
10
23.8052246
20
108.6010399
40
0.5720313
50
89.660664
51
101.3702276
0
ARC
8
DEFAULT_255_1_388
10
23.8126855
20
108.6079263
40
0.5651495
50
78.2172678
51
90.412935
0
ARC
8
DEFAULT_255_1_388
10
23.8526321
20
108.7906511
40
0.378122
50
55.9269121
51
78.4888449
0
ARC
8
DEFAULT_255_1_388
10
23.8747036
20
108.8287187
40
0.3342379
50
47.929771
51
55.4049217
0
ARC
8
DEFAULT_255_1_388
10
23.8861566
20
108.8403618
40
0.3179217
50
4.334829
51
48.0560205
0
ARC
8
DEFAULT_255_1_388
10
23.7629368
20
108.8212487
40
0.442341
50
359.9251713
51
5.5971671
0
ARC
8
DEFAULT_255_1_388
10
23.8111522
20
108.8275728
40
0.3941854
50
337.8914027
51
358.9967534
0
ARC
8
DEFAULT_255_1_388
10
23.5059093
20
108.9453295
40
0.7213271
50
326.9132501
51
338.3508308
0
ARC
8
DEFAULT_255_1_388
10
23.0575204
20
109.2327105
40
1.2538973
50
319.6471833
51
327.0959558
0
ARC
8
DEFAULT_255_1_388
10
22.6261863
20
109.588505
40
1.8129975
50
317.2588228
51
319.9045804
0
LINE
8
DEFAULT_255_1_388
10
22.4038376
20
117.0924898
11
22.745385
21
116.4319842
0
LINE
8
DEFAULT_255_1_388
10
22.745385
20
116.4319842
11
23.0887395
21
117.0924898
0
LINE
8
DEFAULT_255_1_388
10
23.0887395
20
117.0924898
11
23.2857166
21
117.0924898
0
LINE
8
DEFAULT_255_1_388
10
23.2857166
20
117.0924898
11
22.8321272
21
116.2675355
0
LINE
8
DEFAULT_255_1_388
10
22.8321272
20
116.2675355
11
22.8321272
21
115.7769
0
LINE
8
DEFAULT_255_1_388
10
22.8321272
20
115.7769
11
22.6586428
21
115.7769
0
LINE
8
DEFAULT_255_1_388
10
22.6586428
20
115.7769
11
22.6586428
21
116.2675355
0
LINE
8
DEFAULT_255_1_388
10
22.6586428
20
116.2675355
11
22.2050535
21
117.0924898
0
LINE
8
DEFAULT_255_1_388
10
22.2050535
20
117.0924898
11
22.4038376
21
117.0924898
0
LINE
8
DEFAULT_255_1_388
10
23.9615828
20
117.0988148
11
23.9615828
21
115.7769
0
LINE
8
DEFAULT_255_1_388
10
23.9615828
20
115.7769
11
23.7935198
21
115.7769
0
LINE
8
DEFAULT_255_1_388
10
23.7935198
20
115.7769
11
23.7935198
21
116.890995
0
LINE
8
DEFAULT_255_1_388
10
23.7935198
20
116.890995
11
23.4564902
21
116.7672066
0
LINE
8
DEFAULT_255_1_388
10
23.4564902
20
116.7672066
11
23.4564902
21
116.9190055
0
LINE
8
DEFAULT_255_1_388
10
23.4564902
20
116.9190055
11
23.9353794
21
117.0988148
0
LINE
8
DEFAULT_255_1_388
10
23.9353794
20
117.0988148
11
23.9615828
21
117.0988148
0
LINE
8
DEFAULT_255_1_388
10
22.3954376
20
125.0299898
11
22.736985
21
124.3694842
0
LINE
8
DEFAULT_255_1_388
10
22.736985
20
124.3694842
11
23.0803395
21
125.0299898
0
LINE
8
DEFAULT_255_1_388
10
23.0803395
20
125.0299898
11
23.2773166
21
125.0299898
0
LINE
8
DEFAULT_255_1_388
10
23.2773166
20
125.0299898
11
22.8237272
21
124.2050355
0
LINE
8
DEFAULT_255_1_388
10
22.8237272
20
124.2050355
11
22.8237272
21
123.7144
0
LINE
8
DEFAULT_255_1_388
10
22.8237272
20
123.7144
11
22.6502428
21
123.7144
0
LINE
8
DEFAULT_255_1_388
10
22.6502428
20
123.7144
11
22.6502428
21
124.2050355
0
LINE
8
DEFAULT_255_1_388
10
22.6502428
20
124.2050355
11
22.1966535
21
125.0299898
0
LINE
8
DEFAULT_255_1_388
10
22.1966535
20
125.0299898
11
22.3954376
21
125.0299898
0
LINE
8
DEFAULT_255_1_388
10
24.2287699
20
124.492369
11
24.2287699
21
124.2755135
0
LINE
8
DEFAULT_255_1_388
10
23.3983942
20
124.2529244
11
23.3983942
21
124.4761048
0
LINE
8
DEFAULT_255_1_388
10
24.0616105
20
124.2303353
11
24.0616105
21
124.5041153
0
LINE
8
DEFAULT_255_1_388
10
23.5655536
20
124.5167652
11
23.5655536
21
124.2493102
0
ARC
8
DEFAULT_255_1_388
10
22.8510033
20
124.2700118
40
1.3777776
50
353.8440855
51
0.2287917
0
ARC
8
DEFAULT_255_1_388
10
23.3729051
20
124.2117414
40
0.852639
50
344.4934746
51
353.9763743
0
ARC
8
DEFAULT_255_1_388
10
23.7095858
20
124.1160191
40
0.5026273
50
329.2803599
51
344.7473406
0
ARC
8
DEFAULT_255_1_388
10
23.8211354
20
124.0548038
40
0.3754848
50
324.9361395
51
328.6153007
0
ARC
8
DEFAULT_255_1_388
10
23.8637003
20
124.0250586
40
0.3235566
50
280.5801797
51
324.9173226
0
ARC
8
DEFAULT_255_1_388
10
23.8185632
20
124.2130236
40
0.5167077
50
269.5979457
51
281.6732777
0
ARC
8
DEFAULT_255_1_388
10
23.8104535
20
124.1995113
40
0.5032026
50
256.6228565
51
270.5105488
0
ARC
8
DEFAULT_255_1_388
10
23.7652278
20
124.0253345
40
0.3233092
50
215.8618351
51
257.2787793
0
ARC
8
DEFAULT_255_1_388
10
23.8800985
20
124.1024106
40
0.4615831
50
197.9695203
51
215.2622745
0
ARC
8
DEFAULT_255_1_388
10
24.1596661
20
124.1967641
40
0.7566307
50
187.8816486
51
198.2346584
0
ARC
8
DEFAULT_255_1_388
10
24.6049899
20
124.2610453
40
1.2065653
50
180.8977266
51
188.0054894
0
ARC
8
DEFAULT_255_1_388
10
24.9100113
20
124.27254
40
1.5117443
50
180.7434591
51
181.152202
0
ARC
8
DEFAULT_255_1_388
10
24.7425109
20
124.4815371
40
1.3441277
50
173.7674302
51
180.2315596
0
ARC
8
DEFAULT_255_1_388
10
24.2342978
20
124.5389779
40
0.8326847
50
164.3058537
51
173.9000553
0
ARC
8
DEFAULT_255_1_388
10
23.9066978
20
124.6333652
40
0.4917711
50
148.7922028
51
164.5682288
0
ARC
8
DEFAULT_255_1_388
10
23.7997715
20
124.6930457
40
0.3694204
50
144.5883979
51
148.1161588
0
ARC
8
DEFAULT_255_1_388
10
23.761046
20
124.7200667
40
0.322202
50
101.6440149
51
144.5142619
0
ARC
8
DEFAULT_255_1_388
10
23.8088653
20
124.5300337
40
0.5180451
50
89.528284
51
102.5820197
0
ARC
8
DEFAULT_255_1_388
10
23.8177645
20
124.5256376
40
0.5224441
50
77.0437914
51
90.508231
0
ARC
8
DEFAULT_255_1_388
10
23.8629898
20
124.7104272
40
0.3322297
50
48.2777708
51
77.4996087
0
ARC
8
DEFAULT_255_1_388
10
23.8711638
20
124.7249557
40
0.315966
50
36.3141586
51
47.6307332
0
ARC
8
DEFAULT_255_1_388
10
23.773436
20
124.6591159
40
0.4337313
50
18.2931065
51
35.6770203
0
ARC
8
DEFAULT_255_1_388
10
23.4873201
20
124.5609107
40
0.7362203
50
8.0246996
51
18.5605636
0
ARC
8
DEFAULT_255_1_388
10
23.0189557
20
124.4917432
40
1.2096583
50
1.127539
51
8.1718423
0
ARC
8
DEFAULT_255_1_388
10
22.654069
20
124.4774374
40
1.5747719
50
0.5432713
51
1.38669
0
ARC
8
DEFAULT_255_1_388
10
22.8598069
20
124.5081163
40
1.2018103
50
359.8092569
51
4.9408001
0
ARC
8
DEFAULT_255_1_388
10
23.333465
20
124.55039
40
0.7262727
50
4.8364937
51
12.2906017
0
ARC
8
DEFAULT_255_1_388
10
23.6434115
20
124.6194485
40
0.4087324
50
12.0806994
51
23.8171225
0
ARC
8
DEFAULT_255_1_388
10
23.7754511
20
124.6753508
40
0.2653719
50
24.2874621
51
31.3934353
0
ARC
8
DEFAULT_255_1_388
10
23.8344947
20
124.7139822
40
0.1948607
50
30.7407708
51
82.4658033
0
ARC
8
DEFAULT_255_1_388
10
23.8142608
20
124.6146017
40
0.2961198
50
81.1057101
51
90.2187368
0
ARC
8
DEFAULT_255_1_388
10
23.8102419
20
124.6436421
40
0.2670929
50
89.380395
51
105.6763916
0
ARC
8
DEFAULT_255_1_388
10
23.7896141
20
124.718632
40
0.1893189
50
105.7980655
51
149.7387869
0
ARC
8
DEFAULT_255_1_388
10
23.9093282
20
124.6466719
40
0.3289892
50
149.4208441
51
163.628295
0
ARC
8
DEFAULT_255_1_388
10
24.1445511
20
124.5749345
40
0.5749004
50
163.3764549
51
172.141138
0
ARC
8
DEFAULT_255_1_388
10
24.5158233
20
124.5217582
40
0.9499585
50
172.0258462
51
178.0705453
0
ARC
8
DEFAULT_255_1_388
10
24.8579785
20
124.5055682
40
1.2924734
50
177.8639301
51
179.5036263
0
ARC
8
DEFAULT_255_1_388
10
24.7360804
20
124.2452151
40
1.170534
50
179.7995545
51
185.246089
0
ARC
8
DEFAULT_255_1_388
10
24.2812397
20
124.2021404
40
0.7136613
50
185.1411911
51
193.0082205
0
ARC
8
DEFAULT_255_1_388
10
23.9838658
20
124.1318441
40
0.4080987
50
192.7897338
51
205.2507384
0
ARC
8
DEFAULT_255_1_388
10
23.8660868
20
124.0792538
40
0.2791522
50
205.8001921
51
211.2545876
0
ARC
8
DEFAULT_255_1_388
10
23.8072407
20
124.0398132
40
0.2084074
50
210.3789935
51
238.4007996
0
ARC
8
DEFAULT_255_1_388
10
23.8050493
20
124.0450786
40
0.2117943
50
239.6521916
51
265.9793852
0
ARC
8
DEFAULT_255_1_388
10
23.8146342
20
124.1207358
40
0.2879689
50
265.1324455
51
270.0603288
0
ARC
8
DEFAULT_255_1_388
10
23.8178719
20
124.0842418
40
0.2514919
50
269.3314378
51
287.2180039
0
ARC
8
DEFAULT_255_1_388
10
23.8333801
20
124.0276291
40
0.1928357
50
287.7957942
51
329.0808983
0
ARC
8
DEFAULT_255_1_388
10
23.7256558
20
124.0948651
40
0.319808
50
328.6635261
51
343.3325043
0
ARC
8
DEFAULT_255_1_388
10
23.4812017
20
124.1710195
40
0.5758408
50
343.0498092
51
351.9392499
0
ARC
8
DEFAULT_255_1_388
10
23.0911338
20
124.2285205
40
0.9701202
50
351.8071632
51
357.7957897
0
ARC
8
DEFAULT_255_1_388
10
22.7276815
20
124.2473724
40
1.3340376
50
357.5870923
51
359.2682493
0
ENDSEC
0
EOF