0
SECTION
2
HEADER
9
$MEASUREMENT
70
1
0
ENDSEC
0
SECTION
2
TABLES
0
TABLE
2
LTYPE
0
LTYPE
72
65
70
64
2
CONTINUOUS
3
______
73
0
40
0
0
ENDTAB
0
TABLE
2
LAYER
0
LAYER
2
DEFAULT_255_2_778
70
0
62
255
6
CONTINUOUS
0
LAYER
2
DEFAULT_255_1_388
70
0
62
255
6
CONTINUOUS
0
ENDTAB
0
ENDSEC
0
SECTION
2
ENTITIES
0
ARC
8
DEFAULT_255_2_778
10
3.5700693
20
123.4302024
40
0.7914215
50
129.1312896
51
180.1450914
0
ARC
8
DEFAULT_255_2_778
10
3.5703345
20
123.4306895
40
0.7912112
50
89.854026
51
129.1684493
0
ARC
8
DEFAULT_255_2_778
10
25.7993937
20
123.430376
40
0.7915249
50
39.4792447
51
90.147911
0
ARC
8
DEFAULT_255_2_778
10
25.7999935
20
123.4302227
40
0.7911595
50
359.8533901
51
39.5154338
0
ARC
8
DEFAULT_255_2_778
10
25.7996693
20
-1.9863499
40
0.7914836
50
309.4761667
51
0.1482649
0
ARC
8
DEFAULT_255_2_778
10
25.799398
20
-1.986781
40
0.7913235
50
269.8517415
51
309.511178
0
ARC
8
DEFAULT_255_2_778
10
3.570342
20
-1.9867228
40
0.7913815
50
219.1282118
51
270.1454017
0
ARC
8
DEFAULT_255_2_778
10
3.5700247
20
-1.9863403
40
0.7913769
50
179.8524075
51
219.1641908
0
LINE
8
DEFAULT_255_2_778
10
3.5723503
20
124.2218982
11
25.7973503
21
124.2218982
0
LINE
8
DEFAULT_255_2_778
10
26.5911503
20
123.4281982
11
26.5911503
21
-1.9843018
0
LINE
8
DEFAULT_255_2_778
10
25.7973503
20
-2.7781018
11
3.5723503
21
-2.7781018
0
LINE
8
DEFAULT_255_2_778
10
2.7786503
20
-1.9843018
11
2.7786503
21
123.4281982
0
LINE
8
DEFAULT_255_1_388
10
10.1273646
20
0.0830516
11
10.1273646
21
-0.0588081
0
LINE
8
DEFAULT_255_1_388
10
10.1273646
20
-0.0588081
11
9.5752868
21
-0.0588081
0
LINE
8
DEFAULT_255_1_388
10
9.5752868
20
-0.0588081
11
9.5752868
21
-0.6398
0
LINE
8
DEFAULT_255_1_388
10
9.5752868
20
-0.6398
11
9.4018024
21
-0.6398
0
LINE
8
DEFAULT_255_1_388
10
9.4018024
20
-0.6398
11
9.4018024
21
0.6757898
0
LINE
8
DEFAULT_255_1_388
10
9.4018024
20
0.6757898
11
10.2168175
21
0.6757898
0
LINE
8
DEFAULT_255_1_388
10
10.2168175
20
0.6757898
11
10.2168175
21
0.5330267
0
LINE
8
DEFAULT_255_1_388
10
10.2168175
20
0.5330267
11
9.5752868
21
0.5330267
0
LINE
8
DEFAULT_255_1_388
10
9.5752868
20
0.5330267
11
9.5752868
21
0.0830516
0
LINE
8
DEFAULT_255_1_388
10
9.5752868
20
0.0830516
11
10.1273646
21
0.0830516
0
LINE
8
DEFAULT_255_1_388
10
10.5366793
20
0.6757898
11
10.8538305
21
0.1716009
0
LINE
8
DEFAULT_255_1_388
10
10.8538305
20
0.1716009
11
11.1691745
21
0.6757898
0
LINE
8
DEFAULT_255_1_388
10
11.1691745
20
0.6757898
11
11.37338
21
0.6757898
0
LINE
8
DEFAULT_255_1_388
10
11.37338
20
0.6757898
11
10.9577404
21
0.0234163
0
LINE
8
DEFAULT_255_1_388
10
10.9577404
20
0.0234163
11
11.3833192
21
-0.6398
0
LINE
8
DEFAULT_255_1_388
10
11.3833192
20
-0.6398
11
11.1773065
21
-0.6398
0
LINE
8
DEFAULT_255_1_388
10
11.1773065
20
-0.6398
11
10.8538305
21
-0.1265754
0
LINE
8
DEFAULT_255_1_388
10
10.8538305
20
-0.1265754
11
10.5285473
21
-0.6398
0
LINE
8
DEFAULT_255_1_388
10
10.5285473
20
-0.6398
11
10.3234381
21
-0.6398
0
LINE
8
DEFAULT_255_1_388
10
10.3234381
20
-0.6398
11
10.7499206
21
0.0234163
0
LINE
8
DEFAULT_255_1_388
10
10.7499206
20
0.0234163
11
10.3333773
21
0.6757898
0
LINE
8
DEFAULT_255_1_388
10
10.3333773
20
0.6757898
11
10.5366793
21
0.6757898
0
LINE
8
DEFAULT_255_1_388
10
12.4034435
20
-0.5033618
11
12.4034435
21
-0.6398
0
LINE
8
DEFAULT_255_1_388
10
12.4034435
20
-0.6398
11
11.541443
21
-0.6398
0
LINE
8
DEFAULT_255_1_388
10
11.541443
20
-0.6398
11
11.541443
21
-0.5196259
0
LINE
8
DEFAULT_255_1_388
10
11.541443
20
-0.5196259
11
11.9968395
21
-0.0136298
0
LINE
8
DEFAULT_255_1_388
10
11.6833026
20
0.2881607
11
11.5161432
21
0.2881607
0
LINE
8
DEFAULT_255_1_388
10
12.095328
20
-0.121154
11
11.7429379
21
-0.5033618
0
LINE
8
DEFAULT_255_1_388
10
11.7429379
20
-0.5033618
11
12.4034435
21
-0.5033618
0
ARC
8
DEFAULT_255_1_388
10
10.4792455
20
1.3283983
40
2.0258655
50
318.5132526
51
320.7829045
0
ARC
8
DEFAULT_255_1_388
10
11.0740411
20
0.8442929
40
1.2589638
50
320.7372878
51
323.9739031
0
ARC
8
DEFAULT_255_1_388
10
11.5149343
20
0.5248554
40
0.7145141
50
323.8962701
51
328.64194
0
ARC
8
DEFAULT_255_1_388
10
11.7451601
20
0.3828545
40
0.4440242
50
328.8294576
51
331.7891185
0
ARC
8
DEFAULT_255_1_388
10
11.8573921
20
0.3249374
40
0.3177517
50
331.4254512
51
352.9365785
0
ARC
8
DEFAULT_255_1_388
10
11.8726921
20
0.321505
40
0.3021496
50
353.2257659
51
0.0166158
0
ARC
8
DEFAULT_255_1_388
10
11.8963681
20
0.3240894
40
0.2784847
50
359.486299
51
15.9343185
0
ARC
8
DEFAULT_255_1_388
10
11.9533948
20
0.3394269
40
0.2194403
50
16.1712913
51
43.5286088
0
ARC
8
DEFAULT_255_1_388
10
11.9620893
20
0.3481191
40
0.2071504
50
43.4417391
51
83.1661095
0
ARC
8
DEFAULT_255_1_388
10
11.9470054
20
0.2652316
40
0.2912888
50
82.160179
51
90.1505708
0
ARC
8
DEFAULT_255_1_388
10
11.9434536
20
0.2048279
40
0.3517025
50
89.5460741
51
102.5418361
0
ARC
8
DEFAULT_255_1_388
10
11.9161256
20
0.3207933
40
0.2325748
50
102.1738499
51
129.206123
0
ARC
8
DEFAULT_255_1_388
10
11.9072709
20
0.3347664
40
0.2161591
50
129.72865
51
135.753947
0
ARC
8
DEFAULT_255_1_388
10
11.9209191
20
0.3238728
40
0.2335433
50
136.1757367
51
166.3673339
0
ARC
8
DEFAULT_255_1_388
10
12.034188
20
0.2935148
40
0.3507873
50
165.9090694
51
178.8684636
0
ARC
8
DEFAULT_255_1_388
10
12.1317651
20
0.2882263
40
0.4484624
50
178.4391136
51
180.0083808
0
ARC
8
DEFAULT_255_1_388
10
11.9738353
20
0.2926197
40
0.4577138
50
163.2878482
51
180.5581842
0
ARC
8
DEFAULT_255_1_388
10
11.8836394
20
0.3174393
40
0.3641968
50
133.4540601
51
162.947111
0
ARC
8
DEFAULT_255_1_388
10
11.9037275
20
0.2960789
40
0.3935189
50
100.7869829
51
133.4382499
0
ARC
8
DEFAULT_255_1_388
10
11.942852
20
0.1218399
40
0.5720313
50
89.660664
51
101.3702276
0
ARC
8
DEFAULT_255_1_388
10
11.9503129
20
0.1287263
40
0.5651495
50
78.2172678
51
90.412935
0
ARC
8
DEFAULT_255_1_388
10
11.9902595
20
0.3114511
40
0.378122
50
55.9269121
51
78.4888449
0
ARC
8
DEFAULT_255_1_388
10
12.012331
20
0.3495187
40
0.3342379
50
47.929771
51
55.4049217
0
ARC
8
DEFAULT_255_1_388
10
12.0237841
20
0.3611618
40
0.3179217
50
4.334829
51
48.0560205
0
ARC
8
DEFAULT_255_1_388
10
11.9005642
20
0.3420487
40
0.442341
50
359.9251713
51
5.5971671
0
ARC
8
DEFAULT_255_1_388
10
11.9487797
20
0.3483728
40
0.3941854
50
337.8914027
51
358.9967534
0
ARC
8
DEFAULT_255_1_388
10
11.6435367
20
0.4661295
40
0.7213271
50
326.9132501
51
338.3508308
0
ARC
8
DEFAULT_255_1_388
10
11.1951479
20
0.7535105
40
1.2538973
50
319.6471833
51
327.0959558
0
ARC
8
DEFAULT_255_1_388
10
10.7638137
20
1.109305
40
1.8129975
50
317.2588228
51
319.9045804
0
LINE
8
DEFAULT_255_1_388
10
13.6350019
20
0.6757898
11
13.6350019
21
-0.6398
0
LINE
8
DEFAULT_255_1_388
10
13.6350019
20
-0.6398
11
13.4606139
21
-0.6398
0
LINE
8
DEFAULT_255_1_388
10
13.4606139
20
-0.6398
11
12.7983012
21
0.3739993
0
LINE
8
DEFAULT_255_1_388
10
12.7983012
20
0.3739993
11
12.7983012
21
-0.6398
0
LINE
8
DEFAULT_255_1_388
10
12.7983012
20
-0.6398
11
12.6239132
21
-0.6398
0
LINE
8
DEFAULT_255_1_388
10
12.6239132
20
-0.6398
11
12.6239132
21
0.6757898
0
LINE
8
DEFAULT_255_1_388
10
12.6239132
20
0.6757898
11
12.7983012
21
0.6757898
0
LINE
8
DEFAULT_255_1_388
10
12.7983012
20
0.6757898
11
13.462421
21
-0.3425273
0
LINE
8
DEFAULT_255_1_388
10
13.462421
20
-0.3425273
11
13.462421
21
0.6757898
0
LINE
8
DEFAULT_255_1_388
10
13.462421
20
0.6757898
11
13.6350019
21
0.6757898
0
LINE
8
DEFAULT_255_1_388
10
14.7364469
20
-0.2223532
11
14.9108349
21
-0.2223532
0
LINE
8
DEFAULT_255_1_388
10
13.8979391
20
-0.0434475
11
13.8979391
21
0.0830516
0
LINE
8
DEFAULT_255_1_388
10
14.9108349
20
0.2529217
11
14.7364469
21
0.2529217
0
LINE
8
DEFAULT_255_1_388
10
14.0723271
20
0.0785337
11
14.0723271
21
-0.0488688
0
ARC
8
DEFAULT_255_1_388
10
14.2942583
20
-0.1551671
40
0.6202263
50
340.1774904
51
353.7812217
0
ARC
8
DEFAULT_255_1_388
10
14.4710435
20
-0.2210107
40
0.4315926
50
311.4560052
51
340.4420756
0
ARC
8
DEFAULT_255_1_388
10
14.4672975
20
-0.2085335
40
0.4434573
50
282.4332229
51
310.7514507
0
ARC
8
DEFAULT_255_1_388
10
14.4178793
20
-0.0043297
40
0.6535262
50
269.9358869
51
282.8096729
0
ARC
8
DEFAULT_255_1_388
10
14.4120733
20
0.1469329
40
0.8048043
50
269.9995752
51
270.3612856
0
ARC
8
DEFAULT_255_1_388
10
14.4061223
20
-0.1329219
40
0.5249831
50
250.7885263
51
270.6488451
0
ARC
8
DEFAULT_255_1_388
10
14.3872047
20
-0.2046147
40
0.4510942
50
219.3628377
51
250.0611024
0
ARC
8
DEFAULT_255_1_388
10
14.4804921
20
-0.1253347
40
0.5735046
50
193.5480293
51
219.5755675
0
ARC
8
DEFAULT_255_1_388
10
14.747313
20
-0.056048
40
0.849146
50
181.1220183
51
193.8754971
0
ARC
8
DEFAULT_255_1_388
10
14.9796364
20
-0.0436086
40
1.0816971
50
179.9914644
51
181.5398227
0
ARC
8
DEFAULT_255_1_388
10
14.7719674
20
0.0872586
40
0.8740384
50
169.5837606
51
180.275782
0
ARC
8
DEFAULT_255_1_388
10
14.5653022
20
0.1254439
40
0.6638751
50
155.0367033
51
169.6002779
0
ARC
8
DEFAULT_255_1_388
10
14.4375481
20
0.1870336
40
0.5220662
50
136.7831557
51
155.2472983
0
ARC
8
DEFAULT_255_1_388
10
14.3937271
20
0.2242577
40
0.4646502
50
121.7633063
51
136.4281161
0
ARC
8
DEFAULT_255_1_388
10
14.4089111
20
0.1962049
40
0.4964979
50
95.6460018
51
121.5489589
0
ARC
8
DEFAULT_255_1_388
10
14.4266085
20
0.0714704
40
0.6223912
50
89.9245727
51
96.1375919
0
ARC
8
DEFAULT_255_1_388
10
14.4322791
20
0.0848721
40
0.6090084
50
76.6779212
51
90.456405
0
ARC
8
DEFAULT_255_1_388
10
14.4765603
20
0.263806
40
0.42469
50
47.4858803
51
76.9287069
0
ARC
8
DEFAULT_255_1_388
10
14.4600217
20
0.2525623
40
0.4441778
50
16.5424081
51
46.8934505
0
ARC
8
DEFAULT_255_1_388
10
14.2791267
20
0.1931265
40
0.6345318
50
5.4072971
51
17.0363711
0
ARC
8
DEFAULT_255_1_388
10
14.1172992
20
0.1671304
40
0.6250632
50
7.8888693
51
15.9242022
0
ARC
8
DEFAULT_255_1_388
10
14.3407977
20
0.2320309
40
0.3923364
50
15.7650676
51
27.9410069
0
ARC
8
DEFAULT_255_1_388
10
14.4650147
20
0.2985317
40
0.2514401
50
27.8167196
51
46.4007942
0
ARC
8
DEFAULT_255_1_388
10
14.4705988
20
0.2978882
40
0.2480958
50
47.4372362
51
75.0695672
0
ARC
8
DEFAULT_255_1_388
10
14.4358824
20
0.1770277
40
0.3738281
50
74.7009379
51
87.8124314
0
ARC
8
DEFAULT_255_1_388
10
14.4276441
20
0.0586659
40
0.4924321
50
87.3802571
51
90.0251599
0
ARC
8
DEFAULT_255_1_388
10
14.4233088
20
0.1906997
40
0.3604218
50
89.3451886
51
108.5744412
0
ARC
8
DEFAULT_255_1_388
10
14.4079081
20
0.2484836
40
0.3007661
50
109.2998307
51
143.3037387
0
ARC
8
DEFAULT_255_1_388
10
14.493637
20
0.1825584
40
0.4089031
50
143.075267
51
163.1918576
0
ARC
8
DEFAULT_255_1_388
10
14.7132205
20
0.1132652
40
0.6391492
50
162.9375929
51
174.6208776
0
ARC
8
DEFAULT_255_1_388
10
15.0086587
20
0.0808711
40
0.9363344
50
174.342123
51
180.1430283
0
ARC
8
DEFAULT_255_1_388
10
14.9039128
20
-0.0534883
40
0.8315986
50
179.6817261
51
189.150555
0
ARC
8
DEFAULT_255_1_388
10
14.6225877
20
-0.1003441
40
0.5464044
50
188.9911061
51
203.5772363
0
ARC
8
DEFAULT_255_1_388
10
14.5011169
20
-0.1507461
40
0.4149206
50
203.9075402
51
215.1312435
0
ARC
8
DEFAULT_255_1_388
10
14.3972966
20
-0.2312093
40
0.2837747
50
213.9071511
51
263.8848919
0
ARC
8
DEFAULT_255_1_388
10
14.411396
20
-0.1429481
40
0.3730641
50
263.1757928
51
270.1031044
0
ARC
8
DEFAULT_255_1_388
10
14.4150039
20
-0.0026489
40
0.5133712
50
269.6722503
51
279.0606936
0
ARC
8
DEFAULT_255_1_388
10
14.4450194
20
-0.184085
40
0.3294739
50
278.8749101
51
293.6349581
0
ARC
8
DEFAULT_255_1_388
10
14.4810398
20
-0.2686749
40
0.2375405
50
293.8553806
51
310.0518171
0
ARC
8
DEFAULT_255_1_388
10
14.4815907
20
-0.2756979
40
0.2318463
50
311.0644687
51
332.0111037
0
ARC
8
DEFAULT_255_1_388
10
14.347458
20
-0.2017298
40
0.3850112
50
331.6586806
51
343.2877423
0
ARC
8
DEFAULT_255_1_388
10
14.1154046
20
-0.1304194
40
0.6277712
50
343.1446576
51
351.0103568
0
ARC
8
DEFAULT_255_1_388
10
13.9521369
20
-0.1004127
40
0.7937327
50
350.71248
51
351.1626997
0
LINE
8
DEFAULT_255_1_388
10
15.4692377
20
-0.0127263
11
15.4692377
21
-0.1491645
0
LINE
8
DEFAULT_255_1_388
10
15.4692377
20
-0.1491645
11
15.0282982
21
-0.1491645
0
LINE
8
DEFAULT_255_1_388
10
15.0282982
20
-0.1491645
11
15.0282982
21
-0.0127263
0
LINE
8
DEFAULT_255_1_388
10
15.0282982
20
-0.0127263
11
15.4692377
21
-0.0127263
0
LINE
8
DEFAULT_255_1_388
10
16.1640788
20
0.6821148
11
16.1640788
21
-0.6398
0
LINE
8
DEFAULT_255_1_388
10
16.1640788
20
-0.6398
11
15.9960158
21
-0.6398
0
LINE
8
DEFAULT_255_1_388
10
15.9960158
20
-0.6398
11
15.9960158
21
0.474295
0
LINE
8
DEFAULT_255_1_388
10
15.9960158
20
0.474295
11
15.6589862
21
0.3505066
0
LINE
8
DEFAULT_255_1_388
10
15.6589862
20
0.3505066
11
15.6589862
21
0.5023055
0
LINE
8
DEFAULT_255_1_388
10
15.6589862
20
0.5023055
11
16.1378754
21
0.6821148
0
LINE
8
DEFAULT_255_1_388
10
16.1378754
20
0.6821148
11
16.1640788
21
0.6821148
0
LINE
8
DEFAULT_255_1_388
10
17.7082704
20
0.6757898
11
17.7082704
21
-0.6398
0
LINE
8
DEFAULT_255_1_388
10
17.7082704
20
-0.6398
11
17.5338825
21
-0.6398
0
LINE
8
DEFAULT_255_1_388
10
17.5338825
20
-0.6398
11
17.5338825
21
-0.0317011
0
LINE
8
DEFAULT_255_1_388
10
17.5338825
20
-0.0317011
11
16.8706662
21
-0.0317011
0
LINE
8
DEFAULT_255_1_388
10
16.8706662
20
-0.0317011
11
16.8706662
21
-0.6398
0
LINE
8
DEFAULT_255_1_388
10
16.8706662
20
-0.6398
11
16.6971818
21
-0.6398
0
LINE
8
DEFAULT_255_1_388
10
16.6971818
20
-0.6398
11
16.6971818
21
0.6757898
0
LINE
8
DEFAULT_255_1_388
10
16.6971818
20
0.6757898
11
16.8706662
21
0.6757898
0
LINE
8
DEFAULT_255_1_388
10
16.8706662
20
0.6757898
11
16.8706662
21
0.1101585
0
LINE
8
DEFAULT_255_1_388
10
16.8706662
20
0.1101585
11
17.5338825
21
0.1101585
0
LINE
8
DEFAULT_255_1_388
10
17.5338825
20
0.1101585
11
17.5338825
21
0.6757898
0
LINE
8
DEFAULT_255_1_388
10
17.5338825
20
0.6757898
11
17.7082704
21
0.6757898
0
LINE
8
DEFAULT_255_1_388
10
18.8097155
20
-0.2223532
11
18.9841034
21
-0.2223532
0
LINE
8
DEFAULT_255_1_388
10
17.9712077
20
-0.0434475
11
17.9712077
21
0.0830516
0
LINE
8
DEFAULT_255_1_388
10
18.9841034
20
0.2529217
11
18.8097155
21
0.2529217
0
LINE
8
DEFAULT_255_1_388
10
18.1455956
20
0.0785337
11
18.1455956
21
-0.0488688
0
ARC
8
DEFAULT_255_1_388
10
18.3675268
20
-0.1551671
40
0.6202263
50
340.1774904
51
353.7812217
0
ARC
8
DEFAULT_255_1_388
10
18.5443121
20
-0.2210107
40
0.4315926
50
311.4560052
51
340.4420756
0
ARC
8
DEFAULT_255_1_388
10
18.5405661
20
-0.2085335
40
0.4434573
50
282.4332229
51
310.7514507
0
ARC
8
DEFAULT_255_1_388
10
18.4911479
20
-0.0043297
40
0.6535262
50
269.9358869
51
282.8096729
0
ARC
8
DEFAULT_255_1_388
10
18.4853418
20
0.1469329
40
0.8048043
50
269.9995752
51
270.3612856
0
ARC
8
DEFAULT_255_1_388
10
18.4793908
20
-0.1329219
40
0.5249831
50
250.7885263
51
270.6488451
0
ARC
8
DEFAULT_255_1_388
10
18.4604733
20
-0.2046147
40
0.4510942
50
219.3628377
51
250.0611024
0
ARC
8
DEFAULT_255_1_388
10
18.5537607
20
-0.1253347
40
0.5735046
50
193.5480293
51
219.5755675
0
ARC
8
DEFAULT_255_1_388
10
18.8205816
20
-0.056048
40
0.849146
50
181.1220183
51
193.8754971
0
ARC
8
DEFAULT_255_1_388
10
19.0529049
20
-0.0436086
40
1.0816971
50
179.9914644
51
181.5398227
0
ARC
8
DEFAULT_255_1_388
10
18.845236
20
0.0872586
40
0.8740384
50
169.5837606
51
180.275782
0
ARC
8
DEFAULT_255_1_388
10
18.6385708
20
0.1254439
40
0.6638751
50
155.0367033
51
169.6002779
0
ARC
8
DEFAULT_255_1_388
10
18.5108166
20
0.1870336
40
0.5220662
50
136.7831557
51
155.2472983
0
ARC
8
DEFAULT_255_1_388
10
18.4669957
20
0.2242577
40
0.4646502
50
121.7633063
51
136.4281161
0
ARC
8
DEFAULT_255_1_388
10
18.4821796
20
0.1962049
40
0.4964979
50
95.6460018
51
121.5489589
0
ARC
8
DEFAULT_255_1_388
10
18.4998771
20
0.0714704
40
0.6223912
50
89.9245727
51
96.1375919
0
ARC
8
DEFAULT_255_1_388
10
18.5055476
20
0.0848721
40
0.6090084
50
76.6779212
51
90.456405
0
ARC
8
DEFAULT_255_1_388
10
18.5498289
20
0.263806
40
0.42469
50
47.4858803
51
76.9287069
0
ARC
8
DEFAULT_255_1_388
10
18.5332903
20
0.2525623
40
0.4441778
50
16.5424081
51
46.8934505
0
ARC
8
DEFAULT_255_1_388
10
18.3523952
20
0.1931265
40
0.6345318
50
5.4072971
51
17.0363711
0
ARC
8
DEFAULT_255_1_388
10
18.1905678
20
0.1671304
40
0.6250632
50
7.8888693
51
15.9242022
0
ARC
8
DEFAULT_255_1_388
10
18.4140663
20
0.2320309
40
0.3923364
50
15.7650676
51
27.9410069
0
ARC
8
DEFAULT_255_1_388
10
18.5382832
20
0.2985317
40
0.2514401
50
27.8167196
51
46.4007942
0
ARC
8
DEFAULT_255_1_388
10
18.5438674
20
0.2978882
40
0.2480958
50
47.4372362
51
75.0695672
0
ARC
8
DEFAULT_255_1_388
10
18.509151
20
0.1770277
40
0.3738281
50
74.7009379
51
87.8124314
0
ARC
8
DEFAULT_255_1_388
10
18.5009127
20
0.0586659
40
0.4924321
50
87.3802571
51
90.0251599
0
ARC
8
DEFAULT_255_1_388
10
18.4965774
20
0.1906997
40
0.3604218
50
89.3451886
51
108.5744412
0
ARC
8
DEFAULT_255_1_388
10
18.4811766
20
0.2484836
40
0.3007661
50
109.2998307
51
143.3037387
0
ARC
8
DEFAULT_255_1_388
10
18.5669056
20
0.1825584
40
0.4089031
50
143.075267
51
163.1918576
0
ARC
8
DEFAULT_255_1_388
10
18.786489
20
0.1132652
40
0.6391492
50
162.9375929
51
174.6208776
0
ARC
8
DEFAULT_255_1_388
10
19.0819272
20
0.0808711
40
0.9363344
50
174.342123
51
180.1430283
0
ARC
8
DEFAULT_255_1_388
10
18.9771813
20
-0.0534883
40
0.8315986
50
179.6817261
51
189.150555
0
ARC
8
DEFAULT_255_1_388
10
18.6958562
20
-0.1003441
40
0.5464044
50
188.9911061
51
203.5772363
0
ARC
8
DEFAULT_255_1_388
10
18.5743854
20
-0.1507461
40
0.4149206
50
203.9075402
51
215.1312435
0
ARC
8
DEFAULT_255_1_388
10
18.4705652
20
-0.2312093
40
0.2837747
50
213.9071511
51
263.8848919
0
ARC
8
DEFAULT_255_1_388
10
18.4846645
20
-0.1429481
40
0.3730641
50
263.1757928
51
270.1031044
0
ARC
8
DEFAULT_255_1_388
10
18.4882725
20
-0.0026489
40
0.5133712
50
269.6722503
51
279.0606936
0
ARC
8
DEFAULT_255_1_388
10
18.518288
20
-0.184085
40
0.3294739
50
278.8749101
51
293.6349581
0
ARC
8
DEFAULT_255_1_388
10
18.5543084
20
-0.2686749
40
0.2375405
50
293.8553806
51
310.0518171
0
ARC
8
DEFAULT_255_1_388
10
18.5548593
20
-0.2756979
40
0.2318463
50
311.0644687
51
332.0111037
0
ARC
8
DEFAULT_255_1_388
10
18.4207266
20
-0.2017298
40
0.3850112
50
331.6586806
51
343.2877423
0
ARC
8
DEFAULT_255_1_388
10
18.1886731
20
-0.1304194
40
0.6277712
50
343.1446576
51
351.0103568
0
ARC
8
DEFAULT_255_1_388
10
18.0254055
20
-0.1004127
40
0.7937327
50
350.71248
51
351.1626997
0
LINE
8
DEFAULT_255_1_388
10
11.7525646
20
118.4841516
11
11.7525646
21
118.3422919
0
LINE
8
DEFAULT_255_1_388
10
11.7525646
20
118.3422919
11
11.2004868
21
118.3422919
0
LINE
8
DEFAULT_255_1_388
10
11.2004868
20
118.3422919
11
11.2004868
21
117.7613
0
LINE
8
DEFAULT_255_1_388
10
11.2004868
20
117.7613
11
11.0270024
21
117.7613
0
LINE
8
DEFAULT_255_1_388
10
11.0270024
20
117.7613
11
11.0270024
21
119.0768898
0
LINE
8
DEFAULT_255_1_388
10
11.0270024
20
119.0768898
11
11.8420175
21
119.0768898
0
LINE
8
DEFAULT_255_1_388
10
11.8420175
20
119.0768898
11
11.8420175
21
118.9341267
0
LINE
8
DEFAULT_255_1_388
10
11.8420175
20
118.9341267
11
11.2004868
21
118.9341267
0
LINE
8
DEFAULT_255_1_388
10
11.2004868
20
118.9341267
11
11.2004868
21
118.4841516
0
LINE
8
DEFAULT_255_1_388
10
11.2004868
20
118.4841516
11
11.7525646
21
118.4841516
0
LINE
8
DEFAULT_255_1_388
10
13.3807878
20
118.6964892
11
13.2063999
21
118.6964892
0
LINE
8
DEFAULT_255_1_388
10
12.4275273
20
118.1426042
11
12.6019152
21
118.1426042
0
ARC
8
DEFAULT_255_1_388
10
13.2804726
20
119.7028821
40
1.4087688
50
248.9196578
51
254.1442424
0
ARC
8
DEFAULT_255_1_388
10
13.0914606
20
119.2162805
40
0.8867498
50
241.6337352
51
249.0064643
0
ARC
8
DEFAULT_255_1_388
10
12.9194919
20
118.9011764
40
0.5277799
50
230.4982261
51
241.8087583
0
ARC
8
DEFAULT_255_1_388
10
12.831269
20
118.7887686
40
0.3849419
50
227.4062979
51
229.9877433
0
ARC
8
DEFAULT_255_1_388
10
12.7764037
20
118.7352155
40
0.3084129
50
200.6782127
51
228.1765252
0
ARC
8
DEFAULT_255_1_388
10
12.7845406
20
118.7335277
40
0.315461
50
179.506278
51
199.8695278
0
ARC
8
DEFAULT_255_1_388
10
12.7834994
20
118.7418671
40
0.3144584
50
132.4834401
51
181.0242352
0
ARC
8
DEFAULT_255_1_388
10
12.8504199
20
118.6786788
40
0.4063094
50
129.2526113
51
133.4249077
0
ARC
8
DEFAULT_255_1_388
10
12.8669791
20
118.6538619
40
0.436014
50
101.9878945
51
128.8741833
0
ARC
8
DEFAULT_255_1_388
10
12.9118207
20
118.460236
40
0.6347415
50
89.5906376
51
102.3170567
0
ARC
8
DEFAULT_255_1_388
10
12.9197518
20
118.4960586
40
0.5989122
50
77.2359491
51
90.3248968
0
ARC
8
DEFAULT_255_1_388
10
12.9430449
20
118.6048554
40
0.4876594
50
63.8379856
51
77.0808925
0
ARC
8
DEFAULT_255_1_388
10
12.9742983
20
118.6630882
40
0.4216191
50
45.9863127
51
64.1608798
0
ARC
8
DEFAULT_255_1_388
10
13.0036376
20
118.696599
40
0.3771394
50
32.2747934
51
45.6544796
0
ARC
8
DEFAULT_255_1_388
10
13.0111183
20
118.6987426
40
0.3696765
50
359.6507495
51
32.6129943
0
ARC
8
DEFAULT_255_1_388
10
12.9050365
20
118.6992788
40
0.3013762
50
359.469654
51
14.983205
0
ARC
8
DEFAULT_255_1_388
10
12.9843617
20
118.7205288
40
0.2192542
50
14.9781954
51
48.2004799
0
ARC
8
DEFAULT_255_1_388
10
12.9658728
20
118.6972937
40
0.2489048
50
48.5926661
51
74.1242559
0
ARC
8
DEFAULT_255_1_388
10
12.9283531
20
118.5734607
40
0.3782845
50
73.7889321
51
86.6653996
0
ARC
8
DEFAULT_255_1_388
10
12.9168345
20
118.4376955
40
0.5145025
50
86.2642725
51
90.0533288
0
ARC
8
DEFAULT_255_1_388
10
12.9136438
20
118.4821376
40
0.4700681
50
89.669455
51
99.2313411
0
ARC
8
DEFAULT_255_1_388
10
12.8863598
20
118.6446401
40
0.3052945
50
99.0695987
51
113.7659242
0
ARC
8
DEFAULT_255_1_388
10
12.8555592
20
118.7172772
40
0.226407
50
114.0402885
51
127.9848946
0
ARC
8
DEFAULT_255_1_388
10
12.8285068
20
118.7505884
40
0.1835045
50
127.7287217
51
176.7106493
0
ARC
8
DEFAULT_255_1_388
10
12.9048734
20
118.739221
40
0.2604907
50
175.1780759
51
180.0581213
0
ARC
8
DEFAULT_255_1_388
10
12.8100077
20
118.7378411
40
0.1656287
50
179.6140658
51
228.124674
0
ARC
8
DEFAULT_255_1_388
10
12.8597435
20
118.783894
40
0.2332038
50
226.5785315
51
230.8792476
0
ARC
8
DEFAULT_255_1_388
10
12.9126921
20
118.8541908
40
0.3211664
50
231.4636401
51
241.9261664
0
ARC
8
DEFAULT_255_1_388
10
13.0473705
20
119.1020349
40
0.6032345
50
241.7177136
51
248.3259138
0
ARC
8
DEFAULT_255_1_388
10
13.2032299
20
119.4881771
40
1.0196417
50
248.2007377
51
252.4527713
0
ARC
8
DEFAULT_255_1_388
10
13.3385826
20
119.9066092
40
1.4594143
50
252.3388938
51
254.347037
0
ARC
8
DEFAULT_255_1_388
10
12.4901127
20
116.8718095
40
1.6917621
50
71.0197462
51
74.4085467
0
ARC
8
DEFAULT_255_1_388
10
12.6808214
20
117.4223144
40
1.1091618
50
66.1845203
51
71.086519
0
ARC
8
DEFAULT_255_1_388
10
12.8558763
20
117.8164439
40
0.6779073
50
59.3537334
51
66.269255
0
ARC
8
DEFAULT_255_1_388
10
12.9558489
20
117.9855777
40
0.4814366
50
49.1021732
51
59.3294421
0
ARC
8
DEFAULT_255_1_388
10
13.0479478
20
118.0905575
40
0.3417875
50
32.7924183
51
49.2503526
0
ARC
8
DEFAULT_255_1_388
10
13.0829092
20
118.1155311
40
0.2988789
50
31.121225
51
32.3977355
0
ARC
8
DEFAULT_255_1_388
10
13.074127
20
118.1122728
40
0.3080861
50
8.1116803
51
30.7958224
0
ARC
8
DEFAULT_255_1_388
10
12.9829615
20
118.0967437
40
0.4005385
50
359.8390945
51
8.4707348
0
ARC
8
DEFAULT_255_1_388
10
13.0533663
20
118.0912751
40
0.3301608
50
337.4732479
51
0.7538283
0
ARC
8
DEFAULT_255_1_388
10
13.0734688
20
118.0890554
40
0.3107929
50
307.5917028
51
336.4313755
0
ARC
8
DEFAULT_255_1_388
10
13.0223746
20
118.1458509
40
0.3870096
50
307.6560665
51
308.4561779
0
ARC
8
DEFAULT_255_1_388
10
12.9957962
20
118.1866832
40
0.435591
50
284.3733666
51
307.1426212
0
ARC
8
DEFAULT_255_1_388
10
12.9400857
20
118.3916391
40
0.6479685
50
272.4384566
51
284.6464689
0
ARC
8
DEFAULT_255_1_388
10
12.9258241
20
118.5940434
40
0.8508149
50
269.9708517
51
272.8180721
0
ARC
8
DEFAULT_255_1_388
10
12.9209924
20
118.3648283
40
0.6216151
50
248.2707343
51
270.4054609
0
ARC
8
DEFAULT_255_1_388
10
12.9148796
20
118.3433673
40
0.5994203
50
246.1380358
51
248.054058
0
ARC
8
DEFAULT_255_1_388
10
12.8677938
20
118.2444705
40
0.4899388
50
233.1671897
51
246.4951656
0
ARC
8
DEFAULT_255_1_388
10
12.8054573
20
118.1603137
40
0.3852115
50
215.3403381
51
233.084328
0
ARC
8
DEFAULT_255_1_388
10
12.7747937
20
118.1380093
40
0.3472969
50
179.2419235
51
215.2648426
0
ARC
8
DEFAULT_255_1_388
10
12.8611488
20
118.1395979
40
0.259251
50
179.3355796
51
199.1045873
0
ARC
8
DEFAULT_255_1_388
10
12.823763
20
118.1298223
40
0.2207454
50
199.8830064
51
232.7061328
0
ARC
8
DEFAULT_255_1_388
10
12.8768904
20
118.1966456
40
0.306101
50
232.3736206
51
255.5136621
0
ARC
8
DEFAULT_255_1_388
10
12.915241
20
118.3366177
40
0.4512213
50
255.2447928
51
267.5318292
0
ARC
8
DEFAULT_255_1_388
10
12.9250877
20
118.4752709
40
0.5901825
50
267.1564563
51
270.0294721
0
ARC
8
DEFAULT_255_1_388
10
12.9282203
20
118.4253623
40
0.5402814
50
269.6999944
51
278.1662446
0
ARC
8
DEFAULT_255_1_388
10
12.957023
20
118.2306974
40
0.3435003
50
278.0229022
51
290.6255326
0
ARC
8
DEFAULT_255_1_388
10
12.9961397
20
118.1263547
40
0.2320666
50
290.6616368
51
307.0374127
0
ARC
8
DEFAULT_255_1_388
10
13.0299297
20
118.084904
40
0.1786372
50
306.3942078
51
355.303191
0
ARC
8
DEFAULT_255_1_388
10
12.972359
20
118.0935186
40
0.2367516
50
354.3662092
51
0.0709489
0
ARC
8
DEFAULT_255_1_388
10
12.9883458
20
118.0960561
40
0.2207761
50
359.4175379
51
16.1975911
0
ARC
8
DEFAULT_255_1_388
10
13.0395576
20
118.1100954
40
0.1676828
50
16.4721294
51
52.6261798
0
ARC
8
DEFAULT_255_1_388
10
12.9472084
20
117.9881606
40
0.3206412
50
52.7381828
51
62.4979144
0
ARC
8
DEFAULT_255_1_388
10
12.7913836
20
117.6949236
40
0.6527035
50
62.2517425
51
68.1219454
0
ARC
8
DEFAULT_255_1_388
10
12.5979324
20
117.2194951
40
1.1659797
50
68.006043
51
71.8055127
0
ARC
8
DEFAULT_255_1_388
10
12.3959232
20
116.6136723
40
1.8045908
50
71.718361
51
73.9260743
0
LINE
8
DEFAULT_255_1_388
10
13.5371044
20
118.2230214
11
13.5371044
21
118.2537426
0
LINE
8
DEFAULT_255_1_388
10
14.3665766
20
118.2718139
11
14.3665766
21
118.2022395
0
LINE
8
DEFAULT_255_1_388
10
14.3665766
20
118.2022395
11
13.7042639
21
118.2022395
0
LINE
8
DEFAULT_255_1_388
10
14.2518239
20
118.0115874
11
14.3539267
21
117.9320737
0
LINE
8
DEFAULT_255_1_388
10
13.7096853
20
118.3395813
11
14.1994172
21
118.3395813
0
LINE
8
DEFAULT_255_1_388
10
14.1994172
20
118.3395813
11
14.1994172
21
118.3522312
0
ARC
8
DEFAULT_255_1_388
10
13.9802805
20
118.235521
40
0.4923176
50
252.326534
51
270.5809615
0
ARC
8
DEFAULT_255_1_388
10
13.957227
20
118.152194
40
0.4059384
50
223.3000488
51
251.8562489
0
ARC
8
DEFAULT_255_1_388
10
13.981005
20
118.1752898
40
0.4390832
50
190.9374369
51
223.3654369
0
ARC
8
DEFAULT_255_1_388
10
14.1750728
20
118.2191598
40
0.63798
50
179.6531919
51
191.4988561
0
ARC
8
DEFAULT_255_1_388
10
14.1887755
20
118.2573571
40
0.6516811
50
167.4005523
51
180.3177836
0
ARC
8
DEFAULT_255_1_388
10
14.0704426
20
118.2823853
40
0.5307402
50
154.1835149
51
167.2508278
0
ARC
8
DEFAULT_255_1_388
10
13.9994017
20
118.3197925
40
0.4505076
50
134.3150225
51
154.5315008
0
ARC
8
DEFAULT_255_1_388
10
13.9749352
20
118.341255
40
0.4180662
50
122.8617482
51
133.9707159
0
ARC
8
DEFAULT_255_1_388
10
13.9632959
20
118.3662882
40
0.3907416
50
89.8248474
51
123.4199325
0
ARC
8
DEFAULT_255_1_388
10
13.9689257
20
118.2935352
40
0.4635141
50
74.7874349
51
90.5482648
0
ARC
8
DEFAULT_255_1_388
10
14.0019721
20
118.4155987
40
0.3370565
50
39.8178888
51
74.7634383
0
ARC
8
DEFAULT_255_1_388
10
13.9442963
20
118.3706356
40
0.4101553
50
16.8990848
51
39.4830125
0
ARC
8
DEFAULT_255_1_388
10
13.7311578
20
118.3023711
40
0.6339427
50
4.9634768
51
17.2027767
0
ARC
8
DEFAULT_255_1_388
10
13.4590983
20
118.27366
40
0.9074803
50
359.8834402
51
5.2832409
0
ARC
8
DEFAULT_255_1_388
10
14.138334
20
118.2096981
40
0.4341343
50
180.9844233
51
194.9402766
0
ARC
8
DEFAULT_255_1_388
10
14.0202506
20
118.177417
40
0.3117211
50
194.8030557
51
222.0412897
0
ARC
8
DEFAULT_255_1_388
10
13.9860378
20
118.1434715
40
0.2635903
50
221.541578
51
268.8616004
0
ARC
8
DEFAULT_255_1_388
10
13.9942499
20
118.219528
40
0.3398611
50
267.7321071
51
270.009808
0
ARC
8
DEFAULT_255_1_388
10
13.9962562
20
118.2422178
40
0.3625561
50
269.6921218
51
280.4122297
0
ARC
8
DEFAULT_255_1_388
10
14.0160974
20
118.1388767
40
0.2573323
50
280.2257165
51
298.633539
0
ARC
8
DEFAULT_255_1_388
10
14.0286388
20
118.1124578
40
0.2281403
50
299.0485543
51
300.4624141
0
ARC
8
DEFAULT_255_1_388
10
13.9527368
20
118.2389796
40
0.3756797
50
300.6578578
51
322.037749
0
ARC
8
DEFAULT_255_1_388
10
13.9156889
20
118.2713266
40
0.4247956
50
321.671786
51
322.3059078
0
ARC
8
DEFAULT_255_1_388
10
14.0180452
20
118.1419267
40
0.3960488
50
276.9729088
51
328.0035579
0
ARC
8
DEFAULT_255_1_388
10
13.9868923
20
118.3084609
40
0.5652345
50
269.8358003
51
278.0581296
0
ARC
8
DEFAULT_255_1_388
10
13.9613222
20
118.392282
40
0.2274263
50
89.2017936
51
117.2852353
0
ARC
8
DEFAULT_255_1_388
10
13.9672972
20
118.3875637
40
0.2343798
50
118.0546404
51
137.4544511
0
ARC
8
DEFAULT_255_1_388
10
14.0094616
20
118.3492556
40
0.2913471
50
137.5109688
51
158.8516701
0
ARC
8
DEFAULT_255_1_388
10
14.1374717
20
118.2975902
40
0.4293804
50
158.5845496
51
170.1719753
0
ARC
8
DEFAULT_255_1_388
10
14.2691052
20
118.2714519
40
0.5635533
50
169.8378964
51
173.0563877
0
ARC
8
DEFAULT_255_1_388
10
13.7406336
20
118.3289187
40
0.4593755
50
2.9089079
51
12.88469
0
ARC
8
DEFAULT_255_1_388
10
13.8948255
20
118.3652082
40
0.3009753
50
12.6957404
51
28.6405841
0
ARC
8
DEFAULT_255_1_388
10
13.9557752
20
118.3967577
40
0.232366
50
29.016559
51
41.1492981
0
ARC
8
DEFAULT_255_1_388
10
13.9785731
20
118.416608
40
0.2021373
50
41.1646967
51
85.001362
0
ARC
8
DEFAULT_255_1_388
10
13.9649735
20
118.3339775
40
0.2857091
50
83.728216
51
90.0968824
0
LINE
8
DEFAULT_255_1_388
10
15.0325036
20
118.7443781
11
15.0325036
21
118.588965
0
LINE
8
DEFAULT_255_1_388
10
14.7270988
20
118.4552375
11
14.7270988
21
117.7613
0
LINE
8
DEFAULT_255_1_388
10
14.7270988
20
117.7613
11
14.5599394
21
117.7613
0
LINE
8
DEFAULT_255_1_388
10
14.5599394
20
117.7613
11
14.5599394
21
118.7389567
0
LINE
8
DEFAULT_255_1_388
10
14.5599394
20
118.7389567
11
14.722581
21
118.7389567
0
LINE
8
DEFAULT_255_1_388
10
14.722581
20
118.7389567
11
14.7252917
21
118.6260112
0
ARC
8
DEFAULT_255_1_388
10
14.9575196
20
118.1323068
40
0.4627735
50
80.6751522
51
86.893806
0
ARC
8
DEFAULT_255_1_388
10
14.9507026
20
118.0231103
40
0.5721798
50
86.8046851
51
90.0423898
0
ARC
8
DEFAULT_255_1_388
10
14.9465445
20
118.2998197
40
0.2954939
50
89.2758283
51
106.6212906
0
ARC
8
DEFAULT_255_1_388
10
14.923547
20
118.3834009
40
0.2088351
50
107.1347109
51
157.6456887
0
ARC
8
DEFAULT_255_1_388
10
15.0003532
20
118.3406908
40
0.296292
50
155.6557383
51
157.256838
0
ARC
8
DEFAULT_255_1_388
10
14.9783147
20
118.4717472
40
0.296341
50
127.8167201
51
148.6300223
0
ARC
8
DEFAULT_255_1_388
10
14.9497894
20
118.5010066
40
0.2557782
50
91.3329934
51
126.7875218
0
ARC
8
DEFAULT_255_1_388
10
14.9583281
20
118.4206718
40
0.3363561
50
89.9858247
51
92.4688453
0
ARC
8
DEFAULT_255_1_388
10
14.9592774
20
118.4515114
40
0.3055179
50
85.3587643
51
90.1624243
0
ARC
8
DEFAULT_255_1_388
10
14.9687839
20
118.5644458
40
0.1921848
50
78.4019195
51
85.4592653
0
ARC
8
DEFAULT_255_1_388
10
14.98509
20
118.6422142
40
0.1127267
50
67.7849217
51
78.573798
0
ARC
8
DEFAULT_255_1_388
10
14.9972534
20
118.6737374
40
0.0789473
50
63.4805074
51
67.3074739
0
LINE
8
DEFAULT_255_1_388
10
15.367726
20
118.7389567
11
15.367726
21
117.7613
0
LINE
8
DEFAULT_255_1_388
10
15.367726
20
117.7613
11
15.2005666
21
117.7613
0
LINE
8
DEFAULT_255_1_388
10
15.2005666
20
117.7613
11
15.2005666
21
118.7389567
0
LINE
8
DEFAULT_255_1_388
10
15.2005666
20
118.7389567
11
15.367726
21
118.7389567
0
ARC
8
DEFAULT_255_1_388
10
15.2971028
20
118.9993428
40
0.1100948
50
161.4148232
51
180.5532607
0
ARC
8
DEFAULT_255_1_388
10
15.2831338
20
119.0031875
40
0.0956324
50
138.1830164
51
160.9307633
0
ARC
8
DEFAULT_255_1_388
10
15.2707525
20
119.0139313
40
0.0792417
50
104.6371663
51
138.0036136
0
ARC
8
DEFAULT_255_1_388
10
15.2828064
20
118.9726963
40
0.1221906
50
92.0601206
51
105.2198859
0
ARC
8
DEFAULT_255_1_388
10
15.2854428
20
118.9338583
40
0.161103
50
89.9790681
51
92.5006086
0
ARC
8
DEFAULT_255_1_388
10
15.2865604
20
118.9594998
40
0.1354654
50
78.0234649
51
90.4478111
0
ARC
8
DEFAULT_255_1_388
10
15.2969188
20
119.0060203
40
0.0878096
50
55.0521508
51
78.336297
0
ARC
8
DEFAULT_255_1_388
10
15.3025723
20
119.0155168
40
0.0767913
50
42.0506198
51
54.4508489
0
ARC
8
DEFAULT_255_1_388
10
15.2873756
20
119.0015821
40
0.0974091
50
1.7493657
51
42.1498724
0
ARC
8
DEFAULT_255_1_388
10
15.2587661
20
118.9983166
40
0.1261276
50
359.9832635
51
2.8353994
0
ARC
8
DEFAULT_255_1_388
10
15.2774071
20
118.9972412
40
0.1074916
50
342.1062453
51
0.5535864
0
ARC
8
DEFAULT_255_1_388
10
15.2934495
20
118.9928197
40
0.0908695
50
316.7110111
51
341.6513114
0
ARC
8
DEFAULT_255_1_388
10
15.3009927
20
118.9860607
40
0.0807447
50
285.4398289
51
316.5320129
0
ARC
8
DEFAULT_255_1_388
10
15.2886098
20
119.0272023
40
0.1237022
50
272.3543902
51
285.8951677
0
ARC
8
DEFAULT_255_1_388
10
15.2855808
20
119.0687742
40
0.1653687
50
269.9725761
51
272.8112722
0
ARC
8
DEFAULT_255_1_388
10
15.284486
20
119.0436727
40
0.1402709
50
258.8433431
51
270.4148607
0
ARC
8
DEFAULT_255_1_388
10
15.274364
20
118.9946739
40
0.0902407
50
238.54281
51
259.1289544
0
ARC
8
DEFAULT_255_1_388
10
15.2666962
20
118.9807694
40
0.0743817
50
222.5056676
51
237.9918132
0
ARC
8
DEFAULT_255_1_388
10
15.2810555
20
118.9938295
40
0.0937918
50
184.1070774
51
222.4604165
0
ARC
8
DEFAULT_255_1_388
10
15.3112969
20
118.9981538
40
0.1242838
50
179.9419581
51
185.0970785
0
LINE
8
DEFAULT_255_1_388
10
15.5927136
20
118.2230214
11
15.5927136
21
118.2537426
0
LINE
8
DEFAULT_255_1_388
10
16.4221857
20
118.2718139
11
16.4221857
21
118.2022395
0
LINE
8
DEFAULT_255_1_388
10
16.4221857
20
118.2022395
11
15.759873
21
118.2022395
0
LINE
8
DEFAULT_255_1_388
10
16.3074331
20
118.0115874
11
16.4095358
21
117.9320737
0
LINE
8
DEFAULT_255_1_388
10
15.7652944
20
118.3395813
11
16.2550263
21
118.3395813
0
LINE
8
DEFAULT_255_1_388
10
16.2550263
20
118.3395813
11
16.2550263
21
118.3522312
0
ARC
8
DEFAULT_255_1_388
10
16.0358897
20
118.235521
40
0.4923176
50
252.326534
51
270.5809615
0
ARC
8
DEFAULT_255_1_388
10
16.0128361
20
118.152194
40
0.4059384
50
223.3000488
51
251.8562489
0
ARC
8
DEFAULT_255_1_388
10
16.0366141
20
118.1752898
40
0.4390832
50
190.9374369
51
223.3654369
0
ARC
8
DEFAULT_255_1_388
10
16.2306819
20
118.2191598
40
0.63798
50
179.6531919
51
191.4988561
0
ARC
8
DEFAULT_255_1_388
10
16.2443846
20
118.2573571
40
0.6516811
50
167.4005523
51
180.3177836
0
ARC
8
DEFAULT_255_1_388
10
16.1260517
20
118.2823853
40
0.5307402
50
154.1835149
51
167.2508278
0
ARC
8
DEFAULT_255_1_388
10
16.0550108
20
118.3197925
40
0.4505076
50
134.3150225
51
154.5315008
0
ARC
8
DEFAULT_255_1_388
10
16.0305443
20
118.341255
40
0.4180662
50
122.8617482
51
133.9707159
0
ARC
8
DEFAULT_255_1_388
10
16.0189051
20
118.3662882
40
0.3907416
50
89.8248474
51
123.4199325
0
ARC
8
DEFAULT_255_1_388
10
16.0245349
20
118.2935352
40
0.4635141
50
74.7874349
51
90.5482648
0
ARC
8
DEFAULT_255_1_388
10
16.0575813
20
118.4155987
40
0.3370565
50
39.8178888
51
74.7634383
0
ARC
8
DEFAULT_255_1_388
10
15.9999055
20
118.3706356
40
0.4101553
50
16.8990848
51
39.4830125
0
ARC
8
DEFAULT_255_1_388
10
15.7867669
20
118.3023711
40
0.6339427
50
4.9634768
51
17.2027767
0
ARC
8
DEFAULT_255_1_388
10
15.5147074
20
118.27366
40
0.9074803
50
359.8834402
51
5.2832409
0
ARC
8
DEFAULT_255_1_388
10
16.1939432
20
118.2096981
40
0.4341343
50
180.9844233
51
194.9402766
0
ARC
8
DEFAULT_255_1_388
10
16.0758597
20
118.177417
40
0.3117211
50
194.8030557
51
222.0412897
0
ARC
8
DEFAULT_255_1_388
10
16.041647
20
118.1434715
40
0.2635903
50
221.541578
51
268.8616004
0
ARC
8
DEFAULT_255_1_388
10
16.049859
20
118.219528
40
0.3398611
50
267.7321071
51
270.009808
0
ARC
8
DEFAULT_255_1_388
10
16.0518654
20
118.2422178
40
0.3625561
50
269.6921218
51
280.4122297
0
ARC
8
DEFAULT_255_1_388
10
16.0717065
20
118.1388767
40
0.2573323
50
280.2257165
51
298.633539
0
ARC
8
DEFAULT_255_1_388
10
16.0842479
20
118.1124578
40
0.2281403
50
299.0485543
51
300.4624141
0
ARC
8
DEFAULT_255_1_388
10
16.0083459
20
118.2389796
40
0.3756797
50
300.6578578
51
322.037749
0
ARC
8
DEFAULT_255_1_388
10
15.9712981
20
118.2713266
40
0.4247956
50
321.671786
51
322.3059078
0
ARC
8
DEFAULT_255_1_388
10
16.0736544
20
118.1419267
40
0.3960488
50
276.9729088
51
328.0035579
0
ARC
8
DEFAULT_255_1_388
10
16.0425014
20
118.3084609
40
0.5652345
50
269.8358003
51
278.0581296
0
ARC
8
DEFAULT_255_1_388
10
16.0169313
20
118.392282
40
0.2274263
50
89.2017936
51
117.2852353
0
ARC
8
DEFAULT_255_1_388
10
16.0229064
20
118.3875637
40
0.2343798
50
118.0546404
51
137.4544511
0
ARC
8
DEFAULT_255_1_388
10
16.0650707
20
118.3492556
40
0.2913471
50
137.5109688
51
158.8516701
0
ARC
8
DEFAULT_255_1_388
10
16.1930808
20
118.2975902
40
0.4293804
50
158.5845496
51
170.1719753
0
ARC
8
DEFAULT_255_1_388
10
16.3247144
20
118.2714519
40
0.5635533
50
169.8378964
51
173.0563877
0
ARC
8
DEFAULT_255_1_388
10
15.7962427
20
118.3289187
40
0.4593755
50
2.9089079
51
12.88469
0
ARC
8
DEFAULT_255_1_388
10
15.9504347
20
118.3652082
40
0.3009753
50
12.6957404
51
28.6405841
0
ARC
8
DEFAULT_255_1_388
10
16.0113844
20
118.3967577
40
0.232366
50
29.016559
51
41.1492981
0
ARC
8
DEFAULT_255_1_388
10
16.0341823
20
118.416608
40
0.2021373
50
41.1646967
51
85.001362
0
ARC
8
DEFAULT_255_1_388
10
16.0205827
20
118.3339775
40
0.2857091
50
83.728216
51
90.0968824
0
LINE
8
DEFAULT_255_1_388
10
17.3429179
20
118.4516232
11
17.1748549
21
118.4516232
0
LINE
8
DEFAULT_255_1_388
10
16.5748881
20
118.062187
11
16.7420476
21
118.062187
0
ARC
8
DEFAULT_255_1_388
10
17.041184
20
118.0222935
40
0.1436198
50
359.3335374
51
18.5869869
0
ARC
8
DEFAULT_255_1_388
10
17.064658
20
118.0285015
40
0.1194022
50
19.3538149
51
54.6486387
0
ARC
8
DEFAULT_255_1_388
10
17.0079567
20
117.9503077
40
0.2159877
50
54.3821575
51
65.0627557
0
ARC
8
DEFAULT_255_1_388
10
16.9214914
20
117.7684032
40
0.4173927
50
64.8282172
51
71.4204388
0
ARC
8
DEFAULT_255_1_388
10
16.819981
20
117.4705782
40
0.7320403
50
71.3166092
51
75.8005927
0
ARC
8
DEFAULT_255_1_388
10
16.7253695
20
117.1060881
40
1.108605
50
75.6810806
51
78.0063886
0
ARC
8
DEFAULT_255_1_388
10
17.2258284
20
119.466253
40
1.3040363
50
254.69024
51
258.0465557
0
ARC
8
DEFAULT_255_1_388
10
17.1090153
20
119.0432742
40
0.8652254
50
249.9010634
51
254.7555005
0
ARC
8
DEFAULT_255_1_388
10
16.9961205
20
118.736668
40
0.5384962
50
243.3097375
51
249.970939
0
ARC
8
DEFAULT_255_1_388
10
16.9253619
20
118.5955721
40
0.380652
50
234.4047808
51
243.2861752
0
ARC
8
DEFAULT_255_1_388
10
16.8553255
20
118.4988645
40
0.2612502
50
220.8665526
51
234.5497192
0
ARC
8
DEFAULT_255_1_388
10
16.8168254
20
118.4638203
40
0.2092097
50
214.3063391
51
220.5075055
0
ARC
8
DEFAULT_255_1_388
10
16.8139368
20
118.4603577
40
0.2048755
50
186.9131438
51
213.9617385
0
ARC
8
DEFAULT_255_1_388
10
16.8737758
20
118.4700431
40
0.2654563
50
179.8802037
51
187.4338578
0
ARC
8
DEFAULT_255_1_388
10
16.8563722
20
118.4723049
40
0.2480581
50
132.0053393
51
180.3942351
0
ARC
8
DEFAULT_255_1_388
10
16.9302635
20
118.4040997
40
0.3483116
50
129.2317021
51
133.5294826
0
ARC
8
DEFAULT_255_1_388
10
16.9362604
20
118.3935383
40
0.360291
50
100.440976
51
128.9081567
0
ARC
8
DEFAULT_255_1_388
10
16.9670722
20
118.2489357
40
0.5080996
50
89.6985063
51
100.9029043
0
ARC
8
DEFAULT_255_1_388
10
16.9734876
20
118.2308739
40
0.5261675
50
77.6967144
51
90.4074623
0
ARC
8
DEFAULT_255_1_388
10
17.0107229
20
118.3914503
40
0.3613511
50
50.7278431
51
78.0397473
0
ARC
8
DEFAULT_255_1_388
10
17.0607272
20
118.4497173
40
0.2845966
50
25.754382
51
51.0957456
0
ARC
8
DEFAULT_255_1_388
10
17.0608639
20
118.4553311
40
0.2820785
50
359.2468358
51
24.7393861
0
ARC
8
DEFAULT_255_1_388
10
17.0288526
20
118.4521204
40
0.1460032
50
359.8048924
51
45.1543866
0
ARC
8
DEFAULT_255_1_388
10
16.983026
20
118.4129291
40
0.2061641
50
43.8053172
51
49.625485
0
ARC
8
DEFAULT_255_1_388
10
16.9839702
20
118.4130849
40
0.2054344
50
49.7979696
51
82.121802
0
ARC
8
DEFAULT_255_1_388
10
16.9705785
20
118.3403473
40
0.2793404
50
81.4458692
51
90.1707936
0
ARC
8
DEFAULT_255_1_388
10
16.9678362
20
118.2811478
40
0.3385438
50
89.6768097
51
99.1267111
0
ARC
8
DEFAULT_255_1_388
10
16.9485344
20
118.3974405
40
0.2206627
50
98.9679878
51
113.4573418
0
ARC
8
DEFAULT_255_1_388
10
16.9265024
20
118.4501193
40
0.1635691
50
113.7230234
51
127.4758155
0
ARC
8
DEFAULT_255_1_388
10
16.9075606
20
118.4726433
40
0.1341757
50
126.9086647
51
150.3160891
0
ARC
8
DEFAULT_255_1_388
10
16.9021937
20
118.478368
40
0.1266992
50
151.363328
51
180.0701537
0
ARC
8
DEFAULT_255_1_388
10
16.9332158
20
118.476023
40
0.1577364
50
179.2045432
51
180.0012892
0
ARC
8
DEFAULT_255_1_388
10
16.8963269
20
118.4745515
40
0.1208564
50
179.3040542
51
198.4225767
0
ARC
8
DEFAULT_255_1_388
10
16.8747411
20
118.4689337
40
0.0986126
50
199.2893055
51
238.6036855
0
ARC
8
DEFAULT_255_1_388
10
16.9425504
20
118.5753752
40
0.2248082
50
237.9844191
51
246.8751643
0
ARC
8
DEFAULT_255_1_388
10
17.0390364
20
118.7960861
40
0.4656832
50
246.6226408
51
251.8174794
0
ARC
8
DEFAULT_255_1_388
10
17.1550831
20
119.1445909
40
0.8329993
50
251.7140983
51
255.0775146
0
ARC
8
DEFAULT_255_1_388
10
17.2900356
20
119.6472708
40
1.3534786
50
255.0370864
51
257.4701577
0
ARC
8
DEFAULT_255_1_388
10
16.7152901
20
117.0578535
40
1.298957
50
73.6835762
51
77.5015749
0
ARC
8
DEFAULT_255_1_388
10
16.8377815
20
117.4740699
40
0.8650912
50
68.7042835
51
73.7249997
0
ARC
8
DEFAULT_255_1_388
10
16.9393379
20
117.7357853
40
0.584363
50
63.5907059
51
68.6622978
0
ARC
8
DEFAULT_255_1_388
10
17.026112
20
117.9088157
40
0.3907955
50
54.7106507
51
63.7018033
0
ARC
8
DEFAULT_255_1_388
10
17.0963507
20
118.0069287
40
0.2701345
50
41.0624597
51
54.8488532
0
ARC
8
DEFAULT_255_1_388
10
17.1347286
20
118.0421439
40
0.2180695
50
34.4952722
51
40.7097584
0
ARC
8
DEFAULT_255_1_388
10
17.1400251
20
118.0476204
40
0.2106083
50
9.3761233
51
34.0834046
0
ARC
8
DEFAULT_255_1_388
10
17.066538
20
118.0335174
40
0.2854177
50
359.7695264
51
9.7660556
0
ARC
8
DEFAULT_255_1_388
10
17.0887673
20
118.0286841
40
0.2632121
50
335.8653103
51
0.8022272
0
ARC
8
DEFAULT_255_1_388
10
17.0972078
20
118.0301951
40
0.2561728
50
307.7357819
51
334.7849324
0
ARC
8
DEFAULT_255_1_388
10
17.0526719
20
118.0801553
40
0.3229737
50
307.0217048
51
308.5596894
0
ARC
8
DEFAULT_255_1_388
10
17.0231304
20
118.1243063
40
0.3760237
50
282.9361285
51
306.5649033
0
ARC
8
DEFAULT_255_1_388
10
16.9824365
20
118.2893871
40
0.5460314
50
271.1026197
51
283.2199962
0
ARC
8
DEFAULT_255_1_388
10
16.9752554
20
118.4294744
40
0.6862456
50
269.9926344
51
271.4770056
0
ARC
8
DEFAULT_255_1_388
10
16.9723124
20
118.3077633
40
0.5645418
50
259.0723633
51
270.2897324
0
ARC
8
DEFAULT_255_1_388
10
16.9484349
20
118.1820887
40
0.4366198
50
245.4965026
51
259.0225745
0
ARC
8
DEFAULT_255_1_388
10
16.9171565
20
118.1166491
40
0.3641037
50
228.9686619
51
245.7042678
0
ARC
8
DEFAULT_255_1_388
10
16.887284
20
118.0798573
40
0.3167435
50
214.4015391
51
228.6759028
0
ARC
8
DEFAULT_255_1_388
10
16.8547337
20
118.0620429
40
0.2798456
50
179.9704983
51
215.1574389
0
ARC
8
DEFAULT_255_1_388
10
16.933555
20
118.0703148
40
0.1916798
50
182.430239
51
203.0329751
0
ARC
8
DEFAULT_255_1_388
10
16.9128146
20
118.0639675
40
0.1701248
50
203.7987464
51
232.5483345
0
ARC
8
DEFAULT_255_1_388
10
16.943923
20
118.1035049
40
0.2204299
50
232.3784541
51
256.3934343
0
ARC
8
DEFAULT_255_1_388
10
16.9698377
20
118.2036359
40
0.3238512
50
256.1048329
51
268.4627478
0
ARC
8
DEFAULT_255_1_388
10
16.9750797
20
118.2940297
40
0.4143627
50
268.0734924
51
270.0121004
0
ARC
8
DEFAULT_255_1_388
10
16.9771515
20
118.2626191
40
0.3829573
50
269.7031202
51
278.8338867
0
ARC
8
DEFAULT_255_1_388
10
16.9976379
20
118.1354553
40
0.2541568
50
278.6727378
51
292.82331
0
ARC
8
DEFAULT_255_1_388
10
17.0201926
20
118.0790546
40
0.1934264
50
293.1457581
51
303.6656964
0
ARC
8
DEFAULT_255_1_388
10
17.0499999
20
118.0367159
40
0.1416713
50
303.1245849
51
321.7434683
0
ARC
8
DEFAULT_255_1_388
10
17.070908
20
118.018378
40
0.1139081
50
322.4747616
51
1.1293039
0
LINE
8
DEFAULT_255_2_778
10
10.5738396
20
120.2743073
11
9.3932396
21
120.2743073
0
LINE
8
DEFAULT_255_2_778
10
9.3932396
20
120.2743073
11
9.9837396
21
121.2969073
0
LINE
8
DEFAULT_255_2_778
10
9.9837396
20
121.2969073
11
11.1643396
21
121.2969073
0
LINE
8
DEFAULT_255_2_778
10
11.1643396
20
121.2969073
11
10.5738396
21
120.2743073
0
LINE
8
DEFAULT_255_2_778
10
10.5738396
20
120.2743073
11
10.5738396
21
120.2743073
0
LINE
8
DEFAULT_255_2_778
10
11.7546396
20
120.2743073
11
12.9354396
21
120.2743073
0
LINE
8
DEFAULT_255_2_778
10
12.9354396
20
120.2743073
11
12.3451396
21
121.2969073
0
LINE
8
DEFAULT_255_2_778
10
12.3451396
20
121.2969073
11
11.1643396
21
121.2969073
0
LINE
8
DEFAULT_255_2_778
10
11.1643396
20
121.2969073
11
11.7546396
21
120.2743073
0
LINE
8
DEFAULT_255_2_778
10
11.7546396
20
120.2743073
11
11.7546396
21
120.2743073
0
LINE
8
DEFAULT_255_2_778
10
11.7545823
20
122.3195146
11
11.1642823
21
123.3421146
0
LINE
8
DEFAULT_255_2_778
10
11.1642823
20
123.3421146
11
10.5737823
21
122.3195146
0
LINE
8
DEFAULT_255_2_778
10
10.5737823
20
122.3195146
11
11.1642823
21
121.2969146
0
LINE
8
DEFAULT_255_2_778
10
11.1642823
20
121.2969146
11
11.7545823
21
122.3195146
0
LINE
8
DEFAULT_255_2_778
10
11.7545823
20
122.3195146
11
11.7545823
21
122.3195146
0
ARC
8
DEFAULT_255_2_778
10
16.5183731
20
121.9657426
40
0.5650491
50
268.7543645
51
289.1417717
0
ARC
8
DEFAULT_255_2_778
10
16.606208
20
121.7105531
40
0.2951681
50
289.2776255
51
3.7648372
0
ARC
8
DEFAULT_255_2_778
10
16.3901618
20
121.7371085
40
0.5106278
50
359.1949826
51
0.0020862
0
ARC
8
DEFAULT_255_2_778
10
16.547449
20
121.7230832
40
0.1541914
50
280.2616216
51
358.5297855
0
ARC
8
DEFAULT_255_2_778
10
16.5080075
20
121.835655
40
0.2726346
50
269.5969454
51
284.2065679
0
ARC
8
DEFAULT_255_2_778
10
16.4981883
20
121.8198788
40
0.2569732
50
246.5218562
51
271.7619895
0
ARC
8
DEFAULT_255_2_778
10
16.4527498
20
121.7119164
40
0.1398527
50
188.0764216
51
245.9747848
0
ARC
8
DEFAULT_255_2_778
10
16.4833113
20
121.7189608
40
0.1711218
50
179.9443312
51
188.9740498
0
ARC
8
DEFAULT_255_2_778
10
16.4924507
20
121.7257849
40
0.3763411
50
178.2272621
51
205.8283807
0
ARC
8
DEFAULT_255_2_778
10
16.4132476
20
121.7080833
40
0.2979176
50
209.4028057
51
263.0375728
0
ARC
8
DEFAULT_255_2_778
10
16.5005111
20
122.0827629
40
0.6816586
50
259.5722942
51
270.4689037
0
ARC
8
DEFAULT_255_2_778
10
17.411252
20
122.1389767
40
0.1217154
50
2.0482843
51
87.015299
0
ARC
8
DEFAULT_255_2_778
10
17.4057913
20
122.1433868
40
0.1270984
50
353.0742102
51
359.9730821
0
ARC
8
DEFAULT_255_2_778
10
17.4111345
20
122.1401717
40
0.1214332
50
270.7420557
51
354.2761882
0
ARC
8
DEFAULT_255_2_778
10
17.4065072
20
122.1767509
40
0.1581238
50
269.9936646
51
272.2471507
0
ARC
8
DEFAULT_255_2_778
10
17.414084
20
121.7255295
40
0.1400686
50
358.2807293
51
95.6106825
0
ARC
8
DEFAULT_255_2_778
10
17.4103233
20
121.7216963
40
0.1437669
50
266.9962473
51
359.8528392
0
ARC
8
DEFAULT_255_2_778
10
17.4725249
20
121.7619988
40
0.3335288
50
268.2414507
51
302.0223478
0
ARC
8
DEFAULT_255_2_778
10
17.5091261
20
121.686683
40
0.2504234
50
304.0600275
51
2.0468005
0
ARC
8
DEFAULT_255_2_778
10
17.4835388
20
121.693488
40
0.2758592
50
0.4442832
51
66.1293704
0
ARC
8
DEFAULT_255_2_778
10
17.5193244
20
121.758436
40
0.202088
50
67.956084
51
75.8901834
0
ARC
8
DEFAULT_255_2_778
10
17.5042026
20
122.165722
40
0.2208874
50
286.9473417
51
358.0074963
0
ARC
8
DEFAULT_255_2_778
10
17.4710866
20
122.1745045
40
0.2544031
50
356.2897886
51
0.0050857
0
ARC
8
DEFAULT_255_2_778
10
17.497262
20
122.1795946
40
0.2282839
50
358.7280137
51
81.8073164
0
ARC
8
DEFAULT_255_2_778
10
17.4216369
20
121.9281283
40
0.4895182
50
77.2355086
51
90.5088275
0
ARC
8
DEFAULT_255_2_778
10
17.5842747
20
120.9635989
40
0.1302704
50
89.9972707
51
92.6773048
0
ARC
8
DEFAULT_255_2_778
10
17.5844071
20
120.96437
40
0.1294993
50
45.0546048
51
90.0558451
0
ARC
8
DEFAULT_255_2_778
10
17.5844118
20
120.964219
40
0.1296029
50
0.001866
51
45.1031959
0
ARC
8
DEFAULT_255_2_778
10
17.5845123
20
120.9642202
40
0.1295026
50
357.4803735
51
0.0013544
0
ARC
8
DEFAULT_255_2_778
10
17.5901979
20
120.9603512
40
0.1237052
50
339.8672523
51
359.1550732
0
ARC
8
DEFAULT_255_2_778
10
17.5794513
20
120.9575079
40
0.1329691
50
272.0853006
51
342.6124646
0
ARC
8
DEFAULT_255_2_778
10
17.6596145
20
120.9957661
40
0.2575135
50
286.787355
51
290.6121696
0
ARC
8
DEFAULT_255_2_778
10
17.6689461
20
120.9814533
40
0.24086
50
289.7330405
51
342.3216972
0
ARC
8
DEFAULT_255_2_778
10
17.641261
20
120.9862954
40
0.268735
50
343.130572
51
0.3905272
0
ARC
8
DEFAULT_255_2_778
10
17.6578783
20
121.0036767
40
0.2525904
50
356.4706028
51
80.1788963
0
ARC
8
DEFAULT_255_2_778
10
17.5921649
20
120.7767163
40
0.4881286
50
77.1212301
51
90.4900821
0
ARC
8
DEFAULT_255_2_778
10
17.5166337
20
120.479036
40
0.1865405
50
50.1507009
51
92.9634648
0
ARC
8
DEFAULT_255_2_778
10
17.5301354
20
120.5073678
40
0.1563319
50
12.621233
51
47.2950617
0
ARC
8
DEFAULT_255_2_778
10
16.8485884
20
120.3744726
40
0.8506657
50
2.8173892
51
11.3253986
0
ARC
8
DEFAULT_255_2_778
10
-29.2295733
20
116.8781175
40
47.060992
50
4.3048394
51
4.3117143
0
ARC
8
DEFAULT_255_2_778
10
18.5500859
20
120.450584
40
0.8523717
50
182.6850102
51
191.2954256
0
ARC
8
DEFAULT_255_2_778
10
17.9656837
20
120.3442399
40
0.2586603
50
193.5512904
51
195.3825538
0
ARC
8
DEFAULT_255_2_778
10
19.3507425
20
120.6031408
40
1.4700994
50
182.6283124
51
192.8725697
0
ARC
8
DEFAULT_255_2_778
10
17.6207606
20
120.5302215
40
0.261487
50
1.2064311
51
30.4123358
0
ARC
8
DEFAULT_255_2_778
10
17.6663626
20
120.545276
40
0.2147766
50
33.1081154
51
71.7312197
0
LINE
8
DEFAULT_255_2_778
10
13.4657897
20
120.7098271
11
13.9385897
21
120.7098271
0
LINE
8
DEFAULT_255_2_778
10
13.9385897
20
120.7098271
11
13.9385897
21
120.8812271
0
LINE
8
DEFAULT_255_2_778
10
13.9385897
20
120.8812271
11
13.4657897
21
120.8812271
0
LINE
8
DEFAULT_255_2_778
10
13.4657897
20
120.8812271
11
13.4657897
21
121.0921271
0
LINE
8
DEFAULT_255_2_778
10
13.4657897
20
121.0921271
11
13.9977897
21
121.0921271
0
LINE
8
DEFAULT_255_2_778
10
13.9977897
20
121.0921271
11
13.9977897
21
121.2635271
0
LINE
8
DEFAULT_255_2_778
10
13.9977897
20
121.2635271
11
13.4657897
21
121.2635271
0
LINE
8
DEFAULT_255_2_778
10
13.4657897
20
121.2635271
11
13.2651897
21
121.2635271
0
LINE
8
DEFAULT_255_2_778
10
13.2651897
20
121.2635271
11
13.2651897
21
121.0921271
0
LINE
8
DEFAULT_255_2_778
10
13.2651897
20
121.0921271
11
13.2651897
21
120.4457271
0
LINE
8
DEFAULT_255_2_778
10
13.2651897
20
120.4457271
11
13.2651897
21
120.2742271
0
LINE
8
DEFAULT_255_2_778
10
13.2651897
20
120.2742271
11
13.4657897
21
120.2742271
0
LINE
8
DEFAULT_255_2_778
10
13.4657897
20
120.2742271
11
14.0118897
21
120.2742271
0
LINE
8
DEFAULT_255_2_778
10
14.0118897
20
120.2742271
11
14.0118897
21
120.4457271
0
LINE
8
DEFAULT_255_2_778
10
14.0118897
20
120.4457271
11
13.4657897
21
120.4457271
0
LINE
8
DEFAULT_255_2_778
10
13.4657897
20
120.4457271
11
13.4657897
21
120.7095271
0
LINE
8
DEFAULT_255_2_778
10
13.4657897
20
120.7095271
11
13.4657897
21
120.7098271
0
LINE
8
DEFAULT_255_2_778
10
13.4519897
20
122.1639271
11
13.6620897
21
121.4286271
0
LINE
8
DEFAULT_255_2_778
10
13.6620897
20
121.4286271
11
13.6704897
21
121.4286271
0
LINE
8
DEFAULT_255_2_778
10
13.6704897
20
121.4286271
11
13.8464897
21
121.4286271
0
LINE
8
DEFAULT_255_2_778
10
13.8464897
20
121.4286271
11
13.8546897
21
121.4286271
0
LINE
8
DEFAULT_255_2_778
10
13.8546897
20
121.4286271
11
14.0647897
21
122.1639271
0
LINE
8
DEFAULT_255_2_778
10
14.0647897
20
122.1639271
11
14.0647897
21
121.4286271
0
LINE
8
DEFAULT_255_2_778
10
14.0647897
20
121.4286271
11
14.2515897
21
121.4286271
0
LINE
8
DEFAULT_255_2_778
10
14.2515897
20
121.4286271
11
14.2515897
21
122.4179271
0
LINE
8
DEFAULT_255_2_778
10
14.2515897
20
122.4179271
11
14.1496897
21
122.4179271
0
LINE
8
DEFAULT_255_2_778
10
14.1496897
20
122.4179271
11
14.0615897
21
122.4179271
0
LINE
8
DEFAULT_255_2_778
10
14.0615897
20
122.4179271
11
13.9655897
21
122.4179271
0
LINE
8
DEFAULT_255_2_778
10
13.9655897
20
122.4179271
11
13.7583897
21
121.7236271
0
LINE
8
DEFAULT_255_2_778
10
13.7583897
20
121.7236271
11
13.5511897
21
122.4179271
0
LINE
8
DEFAULT_255_2_778
10
13.5511897
20
122.4179271
11
13.4551897
21
122.4179271
0
LINE
8
DEFAULT_255_2_778
10
13.4551897
20
122.4179271
11
13.3670897
21
122.4179271
0
LINE
8
DEFAULT_255_2_778
10
13.3670897
20
122.4179271
11
13.2651897
21
122.4179271
0
LINE
8
DEFAULT_255_2_778
10
13.2651897
20
122.4179271
11
13.2651897
21
121.4286271
0
LINE
8
DEFAULT_255_2_778
10
13.2651897
20
121.4286271
11
13.4519897
21
121.4286271
0
LINE
8
DEFAULT_255_2_778
10
13.4519897
20
121.4286271
11
13.4519897
21
122.1639271
0
LINE
8
DEFAULT_255_2_778
10
13.4519897
20
122.1639271
11
13.4519897
21
122.1639271
0
LINE
8
DEFAULT_255_2_778
10
18.0057897
20
122.4179271
11
17.8064897
21
122.4179271
0
LINE
8
DEFAULT_255_2_778
10
17.8064897
20
122.4179271
11
17.8064897
21
121.4286271
0
LINE
8
DEFAULT_255_2_778
10
17.8064897
20
121.4286271
11
18.0057897
21
121.4286271
0
LINE
8
DEFAULT_255_2_778
10
18.0057897
20
121.4286271
11
18.0057897
21
122.4179271
0
LINE
8
DEFAULT_255_2_778
10
18.0057897
20
122.4179271
11
18.0057897
21
122.4179271
0
LINE
8
DEFAULT_255_2_778
10
18.1681897
20
121.2638271
11
17.9689897
21
121.2638271
0
LINE
8
DEFAULT_255_2_778
10
17.9689897
20
121.2638271
11
17.9689897
21
120.2745271
0
LINE
8
DEFAULT_255_2_778
10
17.9689897
20
120.2745271
11
18.1681897
21
120.2745271
0
LINE
8
DEFAULT_255_2_778
10
18.1681897
20
120.2745271
11
18.1681897
21
121.2638271
0
LINE
8
DEFAULT_255_2_778
10
18.1681897
20
121.2638271
11
18.1681897
21
121.2638271
0
LINE
8
DEFAULT_255_2_778
10
19.9765897
20
122.4179271
11
19.7773897
21
122.4179271
0
LINE
8
DEFAULT_255_2_778
10
19.7773897
20
122.4179271
11
19.7773897
21
121.4286271
0
LINE
8
DEFAULT_255_2_778
10
19.7773897
20
121.4286271
11
19.9765897
21
121.4286271
0
LINE
8
DEFAULT_255_2_778
10
19.9765897
20
121.4286271
11
19.9765897
21
122.4179271
0
LINE
8
DEFAULT_255_2_778
10
19.9765897
20
122.4179271
11
19.9765897
21
122.4179271
0
LINE
8
DEFAULT_255_2_778
10
14.5298897
20
122.4179271
11
14.3306897
21
122.4179271
0
LINE
8
DEFAULT_255_2_778
10
14.3306897
20
122.4179271
11
14.3306897
21
121.4286271
0
LINE
8
DEFAULT_255_2_778
10
14.3306897
20
121.4286271
11
14.5298897
21
121.4286271
0
LINE
8
DEFAULT_255_2_778
10
14.5298897
20
121.4286271
11
14.5298897
21
122.4179271
0
LINE
8
DEFAULT_255_2_778
10
14.5298897
20
122.4179271
11
14.5298897
21
122.4179271
0
LINE
8
DEFAULT_255_2_778
10
19.4989897
20
122.0319271
11
19.1029897
21
122.0319271
0
LINE
8
DEFAULT_255_2_778
10
19.1029897
20
122.0319271
11
19.1029897
21
122.4176271
0
LINE
8
DEFAULT_255_2_778
10
19.1029897
20
122.4176271
11
18.9068897
21
122.4176271
0
LINE
8
DEFAULT_255_2_778
10
18.9068897
20
122.4176271
11
18.9068897
21
121.4286271
0
LINE
8
DEFAULT_255_2_778
10
18.9068897
20
121.4286271
11
19.1029897
21
121.4286271
0
LINE
8
DEFAULT_255_2_778
10
19.1029897
20
121.4286271
11
19.1029897
21
121.8604271
0
LINE
8
DEFAULT_255_2_778
10
19.1029897
20
121.8604271
11
19.4989897
21
121.8604271
0
LINE
8
DEFAULT_255_2_778
10
19.4989897
20
121.8604271
11
19.4989897
21
121.4286271
0
LINE
8
DEFAULT_255_2_778
10
19.4989897
20
121.4286271
11
19.6950897
21
121.4286271
0
LINE
8
DEFAULT_255_2_778
10
19.6950897
20
121.4286271
11
19.6950897
21
122.4176271
0
LINE
8
DEFAULT_255_2_778
10
19.6950897
20
122.4176271
11
19.4989897
21
122.4176271
0
LINE
8
DEFAULT_255_2_778
10
19.4989897
20
122.4176271
11
19.4989897
21
122.0319271
0
LINE
8
DEFAULT_255_2_778
10
19.4989897
20
122.0319271
11
19.4989897
21
122.0319271
0
LINE
8
DEFAULT_255_2_778
10
14.8246897
20
121.4286271
11
15.0280897
21
121.4286271
0
LINE
8
DEFAULT_255_2_778
10
15.0280897
20
121.4286271
11
15.0280897
21
122.2465271
0
LINE
8
DEFAULT_255_2_778
10
15.0280897
20
122.2465271
11
15.2696897
21
122.2465271
0
LINE
8
DEFAULT_255_2_778
10
15.2696897
20
122.2465271
11
15.2696897
21
122.4179271
0
LINE
8
DEFAULT_255_2_778
10
15.2696897
20
122.4179271
11
15.0280897
21
122.4179271
0
LINE
8
DEFAULT_255_2_778
10
15.0280897
20
122.4179271
11
14.8246897
21
122.4179271
0
LINE
8
DEFAULT_255_2_778
10
14.8246897
20
122.4179271
11
14.5830897
21
122.4179271
0
LINE
8
DEFAULT_255_2_778
10
14.5830897
20
122.4179271
11
14.5830897
21
122.2465271
0
LINE
8
DEFAULT_255_2_778
10
14.5830897
20
122.2465271
11
14.8246897
21
122.2465271
0
LINE
8
DEFAULT_255_2_778
10
14.8246897
20
122.2465271
11
14.8246897
21
121.4286271
0
LINE
8
DEFAULT_255_2_778
10
14.8246897
20
121.4286271
11
14.8246897
21
121.4286271
0
LINE
8
DEFAULT_255_2_778
10
16.6422897
20
120.2745271
11
16.8454897
21
120.2745271
0
LINE
8
DEFAULT_255_2_778
10
16.8454897
20
120.2745271
11
16.8454897
21
121.0923271
0
LINE
8
DEFAULT_255_2_778
10
16.8454897
20
121.0923271
11
17.0873897
21
121.0923271
0
LINE
8
DEFAULT_255_2_778
10
17.0873897
20
121.0923271
11
17.0873897
21
121.2641271
0
LINE
8
DEFAULT_255_2_778
10
17.0873897
20
121.2641271
11
16.8454897
21
121.2641271
0
LINE
8
DEFAULT_255_2_778
10
16.8454897
20
121.2641271
11
16.6422897
21
121.2641271
0
LINE
8
DEFAULT_255_2_778
10
16.6422897
20
121.2641271
11
16.4004897
21
121.2641271
0
LINE
8
DEFAULT_255_2_778
10
16.4004897
20
121.2641271
11
16.4004897
21
121.0923271
0
LINE
8
DEFAULT_255_2_778
10
16.4004897
20
121.0923271
11
16.6422897
21
121.0923271
0
LINE
8
DEFAULT_255_2_778
10
16.6422897
20
121.0923271
11
16.6422897
21
120.2745271
0
LINE
8
DEFAULT_255_2_778
10
16.6422897
20
120.2745271
11
16.6422897
21
120.2745271
0
LINE
8
DEFAULT_255_2_778
10
16.9007897
20
121.7371271
11
16.9007897
21
122.4176271
0
LINE
8
DEFAULT_255_2_778
10
16.9007897
20
122.4176271
11
16.7015897
21
122.4176271
0
LINE
8
DEFAULT_255_2_778
10
16.7015897
20
122.4176271
11
16.7015897
21
121.7191271
0
LINE
8
DEFAULT_255_2_778
10
16.3121897
20
121.7191271
11
16.3121897
21
122.4176271
0
LINE
8
DEFAULT_255_2_778
10
16.3121897
20
122.4176271
11
16.1162897
21
122.4176271
0
LINE
8
DEFAULT_255_2_778
10
16.1162897
20
122.4176271
11
16.1162897
21
121.7374271
0
LINE
8
DEFAULT_255_2_778
10
15.0000897
20
120.7098271
11
15.4730897
21
120.7098271
0
LINE
8
DEFAULT_255_2_778
10
15.4730897
20
120.7098271
11
15.4730897
21
120.8812271
0
LINE
8
DEFAULT_255_2_778
10
15.4730897
20
120.8812271
11
15.0000897
21
120.8812271
0
LINE
8
DEFAULT_255_2_778
10
15.0000897
20
120.8812271
11
15.0000897
21
121.0921271
0
LINE
8
DEFAULT_255_2_778
10
15.0000897
20
121.0921271
11
15.5321897
21
121.0921271
0
LINE
8
DEFAULT_255_2_778
10
15.5321897
20
121.0921271
11
15.5321897
21
121.2635271
0
LINE
8
DEFAULT_255_2_778
10
15.5321897
20
121.2635271
11
15.0000897
21
121.2635271
0
LINE
8
DEFAULT_255_2_778
10
15.0000897
20
121.2635271
11
14.7997897
21
121.2635271
0
LINE
8
DEFAULT_255_2_778
10
14.7997897
20
121.2635271
11
14.7997897
21
121.0921271
0
LINE
8
DEFAULT_255_2_778
10
14.7997897
20
121.0921271
11
14.7997897
21
120.4457271
0
LINE
8
DEFAULT_255_2_778
10
14.7997897
20
120.4457271
11
14.7997897
21
120.2742271
0
LINE
8
DEFAULT_255_2_778
10
14.7997897
20
120.2742271
11
15.0000897
21
120.2742271
0
LINE
8
DEFAULT_255_2_778
10
15.0000897
20
120.2742271
11
15.5461897
21
120.2742271
0
LINE
8
DEFAULT_255_2_778
10
15.5461897
20
120.2742271
11
15.5461897
21
120.4457271
0
LINE
8
DEFAULT_255_2_778
10
15.5461897
20
120.4457271
11
15.0000897
21
120.4457271
0
LINE
8
DEFAULT_255_2_778
10
15.0000897
20
120.4457271
11
15.0000897
21
120.7095271
0
LINE
8
DEFAULT_255_2_778
10
15.0000897
20
120.7095271
11
15.0000897
21
120.7098271
0
LINE
8
DEFAULT_255_2_778
10
17.4064897
20
122.0186271
11
17.1690897
21
122.0186271
0
LINE
8
DEFAULT_255_2_778
10
17.1690897
20
122.0186271
11
17.1690897
21
122.2602271
0
LINE
8
DEFAULT_255_2_778
10
17.1690897
20
122.2602271
11
17.4175897
21
122.2602271
0
LINE
8
DEFAULT_255_2_778
10
17.4175897
20
122.2602271
11
17.4175897
21
122.2605271
0
LINE
8
DEFAULT_255_2_778
10
17.4027897
20
121.5778271
11
17.1690897
21
121.5778271
0
LINE
8
DEFAULT_255_2_778
10
17.1690897
20
121.5778271
11
17.1690897
21
121.8649271
0
LINE
8
DEFAULT_255_2_778
10
17.1690897
20
121.8649271
11
17.4003897
21
121.8649271
0
LINE
8
DEFAULT_255_2_778
10
17.1767897
20
121.4286271
11
17.4622897
21
121.4286271
0
LINE
8
DEFAULT_255_2_778
10
17.4172897
20
122.4176271
11
17.1770897
21
122.4176271
0
LINE
8
DEFAULT_255_2_778
10
17.1770897
20
122.4176271
11
16.9722897
21
122.4176271
0
LINE
8
DEFAULT_255_2_778
10
16.9722897
20
122.4176271
11
16.9711897
21
122.4176271
0
LINE
8
DEFAULT_255_2_778
10
16.9711897
20
122.4176271
11
16.9711897
21
121.4286271
0
LINE
8
DEFAULT_255_2_778
10
16.9711897
20
121.4286271
11
16.9722897
21
121.4286271
0
LINE
8
DEFAULT_255_2_778
10
16.9722897
20
121.4286271
11
17.1770897
21
121.4286271
0
LINE
8
DEFAULT_255_2_778
10
17.1770897
20
121.4286271
11
17.1767897
21
121.4286271
0
LINE
8
DEFAULT_255_2_778
10
17.3368897
20
120.8243271
11
17.3368897
21
121.0937271
0
LINE
8
DEFAULT_255_2_778
10
17.3368897
20
121.0937271
11
17.5781897
21
121.0937271
0
LINE
8
DEFAULT_255_2_778
10
17.5842897
20
120.8246271
11
17.3370897
21
120.8246271
0
LINE
8
DEFAULT_255_2_778
10
17.3370897
20
120.8246271
11
17.3368897
21
120.8243271
0
LINE
8
DEFAULT_255_2_778
10
17.5879897
20
121.2648271
11
17.3368897
21
121.2648271
0
LINE
8
DEFAULT_255_2_778
10
17.3368897
20
121.2648271
11
17.1383897
21
121.2648271
0
LINE
8
DEFAULT_255_2_778
10
17.1383897
20
121.2648271
11
17.1362897
21
121.2648271
0
LINE
8
DEFAULT_255_2_778
10
17.1362897
20
121.2648271
11
17.1362897
21
120.2756271
0
LINE
8
DEFAULT_255_2_778
10
17.1362897
20
120.2756271
11
17.3368897
21
120.2756271
0
LINE
8
DEFAULT_255_2_778
10
17.3368897
20
120.2756271
11
17.3368897
21
120.6653271
0
LINE
8
DEFAULT_255_2_778
10
17.3368897
20
120.6653271
11
17.5069897
21
120.6653271
0
LINE
8
DEFAULT_255_2_778
10
17.7162897
20
120.2756271
11
17.9175897
21
120.2756271
0
LINE
8
DEFAULT_255_2_778
10
14.2763897
20
121.2638271
11
14.0760897
21
121.2638271
0
LINE
8
DEFAULT_255_2_778
10
14.0760897
20
121.2638271
11
14.0760897
21
120.4460271
0
LINE
8
DEFAULT_255_2_778
10
14.0760897
20
120.4460271
11
14.0760897
21
120.2745271
0
LINE
8
DEFAULT_255_2_778
10
14.0760897
20
120.2745271
11
14.2763897
21
120.2745271
0
LINE
8
DEFAULT_255_2_778
10
14.2763897
20
120.2745271
11
14.7428897
21
120.2745271
0
LINE
8
DEFAULT_255_2_778
10
14.7428897
20
120.2745271
11
14.7428897
21
120.4460271
0
LINE
8
DEFAULT_255_2_778
10
14.7428897
20
120.4460271
11
14.2763897
21
120.4460271
0
LINE
8
DEFAULT_255_2_778
10
14.2763897
20
120.4460271
11
14.2763897
21
121.2638271
0
LINE
8
DEFAULT_255_2_778
10
14.2763897
20
121.2638271
11
14.2763897
21
121.2638271
0
ARC
8
DEFAULT_255_2_778
10
15.4584271
20
120.8896969
40
0.9681224
50
72.4822103
51
81.3184214
0
ARC
8
DEFAULT_255_2_778
10
15.7160297
20
121.6663918
40
0.1503783
50
28.8883513
51
77.0092434
0
ARC
8
DEFAULT_255_2_778
10
15.7432379
20
121.6953196
40
0.113238
50
358.9917455
51
22.7117017
0
ARC
8
DEFAULT_255_2_778
10
15.7394861
20
121.6994918
40
0.1171346
50
289.2958104
51
356.9831562
0
ARC
8
DEFAULT_255_2_778
10
15.6668261
20
121.8569882
40
0.2902651
50
268.4665462
51
292.5613311
0
ARC
8
DEFAULT_255_2_778
10
15.6496856
20
121.7979179
40
0.2312808
50
236.4956947
51
272.3225735
0
ARC
8
DEFAULT_255_2_778
10
15.6106646
20
121.7296839
40
0.1529307
50
178.9722202
51
234.5742435
0
ARC
8
DEFAULT_255_2_778
10
15.5656113
20
121.7201079
40
0.3002058
50
177.6481608
51
245.5596397
0
ARC
8
DEFAULT_255_2_778
10
15.6409971
20
121.8923561
40
0.488217
50
245.8690375
51
267.169035
0
ARC
8
DEFAULT_255_2_778
10
15.6671503
20
122.1433916
40
0.7403648
50
266.1069867
51
270.0547972
0
ARC
8
DEFAULT_255_2_778
10
15.6772894
20
121.9746135
40
0.5716642
50
269.0547216
51
287.7147747
0
ARC
8
DEFAULT_255_2_778
10
15.7598889
20
121.7289091
40
0.3125017
50
286.995984
51
325.1221533
0
ARC
8
DEFAULT_255_2_778
10
15.7678294
20
121.712361
40
0.2966627
50
326.8673922
51
0.8625726
0
ARC
8
DEFAULT_255_2_778
10
15.7898286
20
121.7209409
40
0.2746606
50
359.1417932
51
76.9739731
0
ARC
8
DEFAULT_255_2_778
10
15.6705461
20
121.4400719
40
0.577616
50
71.7185727
51
79.1315439
0
ARC
8
DEFAULT_255_2_778
10
14.2492968
20
114.086467
40
8.0673056
50
79.0662148
51
79.6216572
0
ARC
8
DEFAULT_255_2_778
10
16.4356585
20
125.9641581
40
4.0099443
50
259.1227669
51
259.4665204
0
ARC
8
DEFAULT_255_2_778
10
15.7836732
20
122.6691142
40
0.6513291
50
249.9945768
51
260.7485895
0
ARC
8
DEFAULT_255_2_778
10
15.5880401
20
122.1580999
40
0.1046098
50
178.6705173
51
254.9333545
0
ARC
8
DEFAULT_255_2_778
10
15.6049957
20
122.1546688
40
0.1216785
50
93.288632
51
177.2403935
0
ARC
8
DEFAULT_255_2_778
10
15.6585677
20
121.9676752
40
0.3143588
50
89.6189463
51
101.1057977
0
ARC
8
DEFAULT_255_2_778
10
15.6722733
20
122.079516
40
0.2028439
50
53.5634072
51
93.2825843
0
ARC
8
DEFAULT_255_2_778
10
15.7018505
20
122.1377144
40
0.1388739
50
357.1985816
51
49.1152298
0
ARC
8
DEFAULT_255_2_778
10
15.7254907
20
122.1309274
40
0.3087677
50
359.9999335
51
2.3703878
0
ARC
8
DEFAULT_255_2_778
10
15.7353555
20
122.1324337
40
0.298851
50
2.1600756
51
60.1092229
0
ARC
8
DEFAULT_255_2_778
10
15.6766212
20
122.0258133
40
0.4205645
50
60.4106856
51
86.1444419
0
ARC
8
DEFAULT_255_2_778
10
15.6536151
20
121.8491228
40
0.5985046
50
85.0843314
51
90.0628677
0
ARC
8
DEFAULT_255_2_778
10
15.6529718
20
121.9725466
40
0.4750804
50
90.001616
51
92.2300394
0
ARC
8
DEFAULT_255_2_778
10
15.6281193
20
122.077687
40
0.3696351
50
89.0131319
51
149.6364996
0
ARC
8
DEFAULT_255_2_778
10
15.5505461
20
122.1499055
40
0.2671974
50
154.5962367
51
180.4885883
0
ARC
8
DEFAULT_255_2_778
10
15.5651524
20
122.148384
40
0.281795
50
180.1539064
51
255.1120325
0
ARC
8
DEFAULT_255_2_778
10
15.7094242
20
122.471232
40
0.6333958
50
249.9962237
51
260.4976723
0
ARC
8
DEFAULT_255_2_778
10
18.2470963
20
120.8908351
40
0.967002
50
72.4685023
51
81.3064395
0
ARC
8
DEFAULT_255_2_778
10
18.5045397
20
121.666427
40
0.1503535
50
28.8782248
51
76.9904304
0
ARC
8
DEFAULT_255_2_778
10
18.5317197
20
121.6953189
40
0.1132561
50
358.9922779
51
22.7082666
0
ARC
8
DEFAULT_255_2_778
10
18.5280402
20
121.6994088
40
0.1170763
50
289.2761556
51
357.0223042
0
ARC
8
DEFAULT_255_2_778
10
18.4553612
20
121.8572836
40
0.2905613
50
268.4611814
51
292.5289055
0
ARC
8
DEFAULT_255_2_778
10
18.4381801
20
121.7988175
40
0.2321799
50
236.6698634
51
272.3149402
0
ARC
8
DEFAULT_255_2_778
10
18.39878
20
121.7296762
40
0.1528464
50
178.9687581
51
234.7686008
0
ARC
8
DEFAULT_255_2_778
10
18.3540113
20
121.7201079
40
0.3002058
50
177.6481608
51
245.5596397
0
ARC
8
DEFAULT_255_2_778
10
18.4293971
20
121.8923561
40
0.488217
50
245.8690375
51
267.169035
0
ARC
8
DEFAULT_255_2_778
10
18.4555503
20
122.1433916
40
0.7403648
50
266.1069867
51
270.0547972
0
ARC
8
DEFAULT_255_2_778
10
18.4656836
20
121.9752451
40
0.5722957
50
269.0563423
51
287.7048702
0
ARC
8
DEFAULT_255_2_778
10
18.548344
20
121.7292682
40
0.312856
50
286.9832601
51
325.0871916
0
ARC
8
DEFAULT_255_2_778
10
18.5567708
20
121.7123856
40
0.2964208
50
326.8311942
51
0.8585267
0
ARC
8
DEFAULT_255_2_778
10
18.5785756
20
121.7210282
40
0.2746149
50
359.1234265
51
76.9343785
0
ARC
8
DEFAULT_255_2_778
10
18.4596421
20
121.4411965
40
0.5764934
50
71.6999697
51
79.1198353
0
ARC
8
DEFAULT_255_2_778
10
17.0173657
20
113.9644392
40
8.1910887
50
79.0843627
51
79.6321368
0
ARC
8
DEFAULT_255_2_778
10
19.2200266
20
125.9439177
40
3.9892176
50
259.1314419
51
259.4772924
0
ARC
8
DEFAULT_255_2_778
10
18.5723251
20
122.6685131
40
0.6507003
50
249.9919323
51
260.7592458
0
ARC
8
DEFAULT_255_2_778
10
18.376901
20
122.1580546
40
0.1045718
50
178.6452075
51
254.9151907
0
ARC
8
DEFAULT_255_2_778
10
18.3939581
20
122.1546016
40
0.121744
50
93.2745253
51
177.21023
0
ARC
8
DEFAULT_255_2_778
10
18.4475726
20
121.9675052
40
0.3145287
50
89.6200387
51
101.1027534
0
ARC
8
DEFAULT_255_2_778
10
18.4613489
20
122.0808453
40
0.2015212
50
53.1490002
51
93.3256649
0
ARC
8
DEFAULT_255_2_778
10
18.4902753
20
122.1376519
40
0.1391457
50
357.2298288
51
48.6469881
0
ARC
8
DEFAULT_255_2_778
10
18.5137232
20
122.1309226
40
0.3092351
50
0.0008291
51
2.3676985
0
ARC
8
DEFAULT_255_2_778
10
18.5240744
20
122.1324868
40
0.2988304
50
2.1500394
51
60.0956838
0
ARC
8
DEFAULT_255_2_778
10
18.4654399
20
122.0259909
40
0.4203859
50
60.40452
51
86.1455285
0
ARC
8
DEFAULT_255_2_778
10
18.4424157
20
121.8491686
40
0.5984588
50
85.0841409
51
90.0629301
0
ARC
8
DEFAULT_255_2_778
10
18.4417778
20
121.9721392
40
0.4754878
50
90.0023409
51
92.3231329
0
ARC
8
DEFAULT_255_2_778
10
18.4167555
20
122.0774604
40
0.3698206
50
89.1093915
51
149.6400816
0
ARC
8
DEFAULT_255_2_778
10
18.338761
20
122.1498917
40
0.2669122
50
154.6001925
51
180.486137
0
ARC
8
DEFAULT_255_2_778
10
18.3537607
20
122.1485152
40
0.2819037
50
180.1805176
51
255.132702
0
ARC
8
DEFAULT_255_2_778
10
18.4982264
20
122.4717784
40
0.6339516
50
250.0026216
51
260.4967164
0
ARC
8
DEFAULT_255_2_778
10
16.008917
20
120.6789283
40
0.2519711
50
190.2626864
51
267.3480013
0
ARC
8
DEFAULT_255_2_778
10
16.2443543
20
120.7702548
40
0.5022041
50
179.6723028
51
195.7380858
0
ARC
8
DEFAULT_255_2_778
10
16.1790511
20
120.7857671
40
0.4370755
50
148.7005643
51
181.6572045
0
ARC
8
DEFAULT_255_2_778
10
15.9957576
20
120.8958723
40
0.2232598
50
89.6148479
51
148.4074796
0
ARC
8
DEFAULT_255_2_778
10
16.0060936
20
120.917949
40
0.201372
50
41.9769772
51
92.5146611
0
ARC
8
DEFAULT_255_2_778
10
15.9522078
20
120.8802523
40
0.2667646
50
15.1848537
51
40.2549591
0
ARC
8
DEFAULT_255_2_778
10
16.028123
20
120.8905326
40
0.3935735
50
8.7091682
51
82.0550801
0
ARC
8
DEFAULT_255_2_778
10
15.9931241
20
120.7440871
40
0.543642
50
80.5350289
51
90.1544743
0
ARC
8
DEFAULT_255_2_778
10
15.9818804
20
120.8327192
40
0.4551129
50
88.7689246
51
119.6437418
0
ARC
8
DEFAULT_255_2_778
10
16.0077717
20
120.8364647
40
0.4653013
50
122.644121
51
173.3997839
0
ARC
8
DEFAULT_255_2_778
10
16.2711934
20
120.7721568
40
0.7351371
50
170.7798304
51
180.1348114
0
ARC
8
DEFAULT_255_2_778
10
16.1377257
20
120.7567615
40
0.6018225
50
178.6988735
51
210.5289552
0
ARC
8
DEFAULT_255_2_778
10
15.970325
20
120.6659953
40
0.4115783
50
211.4828222
51
265.8686737
0
ARC
8
DEFAULT_255_2_778
10
15.9909864
20
120.7907011
40
0.5375742
50
264.6297133
51
270.0503073
0
ARC
8
DEFAULT_255_2_778
10
16.0020995
20
120.7225749
40
0.4695684
50
268.7014824
51
300.1403067
0
ARC
8
DEFAULT_255_2_778
10
16.0350333
20
120.6441852
40
0.385394
50
301.7580058
51
353.77968
0
ARC
8
DEFAULT_255_2_778
10
16.0012256
20
120.6385219
40
0.2113379
50
268.8430278
51
350.1661143
0
ARC
8
DEFAULT_255_2_778
10
18.6896799
20
120.6788824
40
0.2519281
50
190.2538303
51
267.3332171
0
ARC
8
DEFAULT_255_2_778
10
18.9252249
20
120.7702581
40
0.5022746
50
179.672724
51
195.7362088
0
ARC
8
DEFAULT_255_2_778
10
18.8600432
20
120.7857917
40
0.4372682
50
148.7196987
51
181.6596982
0
ARC
8
DEFAULT_255_2_778
10
18.676443
20
120.8959906
40
0.2231415
50
89.6108896
51
148.4244661
0
ARC
8
DEFAULT_255_2_778
10
18.686876
20
120.917967
40
0.2013576
50
42.5913083
51
92.5383066
0
ARC
8
DEFAULT_255_2_778
10
18.6345542
20
120.8815973
40
0.2646316
50
15.0085433
51
40.7215892
0
ARC
8
DEFAULT_255_2_778
10
18.708623
20
120.8905326
40
0.3935735
50
8.7091682
51
82.0550801
0
ARC
8
DEFAULT_255_2_778
10
18.6736241
20
120.7440871
40
0.543642
50
80.5350289
51
90.1544743
0
ARC
8
DEFAULT_255_2_778
10
18.6623804
20
120.8327192
40
0.4551129
50
88.7689246
51
119.6437418
0
ARC
8
DEFAULT_255_2_778
10
18.6882717
20
120.8364647
40
0.4653013
50
122.644121
51
173.3997839
0
ARC
8
DEFAULT_255_2_778
10
18.9516934
20
120.7721568
40
0.7351371
50
170.7798304
51
180.1348114
0
ARC
8
DEFAULT_255_2_778
10
18.8177822
20
120.75682
40
0.6013778
50
178.7034849
51
210.5604279
0
ARC
8
DEFAULT_255_2_778
10
18.6511312
20
120.6663377
40
0.4119265
50
211.5090145
51
265.8592607
0
ARC
8
DEFAULT_255_2_778
10
18.6716883
20
120.7904521
40
0.5373252
50
264.628472
51
270.0501277
0
ARC
8
DEFAULT_255_2_778
10
18.682837
20
120.7223685
40
0.4693629
50
268.6963312
51
300.2191972
0
ARC
8
DEFAULT_255_2_778
10
18.7155684
20
120.6444124
40
0.3856821
50
301.8465101
51
353.7503927
0
ARC
8
DEFAULT_255_2_778
10
18.6820648
20
120.6383604
40
0.2111733
50
268.8857714
51
350.2028431
0
LINE
8
DEFAULT_255_2_778
10
15.4577584
20
121.7324271
11
15.2656584
21
121.7324271
0
LINE
8
DEFAULT_255_2_778
10
15.8405584
20
122.1309271
11
16.0342584
21
122.1309271
0
LINE
8
DEFAULT_255_2_778
10
18.2459584
20
121.7324271
11
18.0540584
21
121.7324271
0
LINE
8
DEFAULT_255_2_778
10
18.6292584
20
122.1309271
11
18.8229584
21
122.1309271
0
LINE
8
DEFAULT_255_2_778
10
16.2096584
20
120.9501271
11
16.4171584
21
120.9501271
0
LINE
8
DEFAULT_255_2_778
10
16.4181584
20
120.6024271
11
16.2094584
21
120.6024271
0
LINE
8
DEFAULT_255_2_778
10
18.8901584
20
120.9501271
11
19.0976584
21
120.9501271
0
LINE
8
DEFAULT_255_2_778
10
19.0989584
20
120.6024271
11
18.8901584
21
120.6024271
0
LINE
8
DEFAULT_255_1_388
10
4.8809318
20
115.9133382
11
4.8809318
21
115.7769
0
LINE
8
DEFAULT_255_1_388
10
4.8809318
20
115.7769
11
4.0189313
21
115.7769
0
LINE
8
DEFAULT_255_1_388
10
4.0189313
20
115.7769
11
4.0189313
21
115.8970741
0
LINE
8
DEFAULT_255_1_388
10
4.0189313
20
115.8970741
11
4.4743278
21
116.4030702
0
LINE
8
DEFAULT_255_1_388
10
4.1607909
20
116.7048607
11
3.9936315
21
116.7048607
0
LINE
8
DEFAULT_255_1_388
10
4.5728163
20
116.295546
11
4.2204262
21
115.9133382
0
LINE
8
DEFAULT_255_1_388
10
4.2204262
20
115.9133382
11
4.8809318
21
115.9133382
0
ARC
8
DEFAULT_255_1_388
10
2.9567337
20
117.7450983
40
2.0258655
50
318.5132526
51
320.7829045
0
ARC
8
DEFAULT_255_1_388
10
3.5515294
20
117.2609929
40
1.2589638
50
320.7372878
51
323.9739031
0
ARC
8
DEFAULT_255_1_388
10
3.9924226
20
116.9415554
40
0.7145141
50
323.8962701
51
328.64194
0
ARC
8
DEFAULT_255_1_388
10
4.2226484
20
116.7995545
40
0.4440242
50
328.8294576
51
331.7891185
0
ARC
8
DEFAULT_255_1_388
10
4.3348804
20
116.7416374
40
0.3177517
50
331.4254512
51
352.9365785
0
ARC
8
DEFAULT_255_1_388
10
4.3501804
20
116.738205
40
0.3021496
50
353.2257659
51
0.0166158
0
ARC
8
DEFAULT_255_1_388
10
4.3738564
20
116.7407894
40
0.2784847
50
359.486299
51
15.9343185
0
ARC
8
DEFAULT_255_1_388
10
4.4308831
20
116.7561269
40
0.2194403
50
16.1712913
51
43.5286088
0
ARC
8
DEFAULT_255_1_388
10
4.4395776
20
116.7648191
40
0.2071504
50
43.4417391
51
83.1661095
0
ARC
8
DEFAULT_255_1_388
10
4.4244937
20
116.6819316
40
0.2912888
50
82.160179
51
90.1505708
0
ARC
8
DEFAULT_255_1_388
10
4.4209418
20
116.6215279
40
0.3517025
50
89.5460741
51
102.5418361
0
ARC
8
DEFAULT_255_1_388
10
4.3936138
20
116.7374933
40
0.2325748
50
102.1738499
51
129.206123
0
ARC
8
DEFAULT_255_1_388
10
4.3847592
20
116.7514664
40
0.2161591
50
129.72865
51
135.753947
0
ARC
8
DEFAULT_255_1_388
10
4.3984074
20
116.7405728
40
0.2335433
50
136.1757367
51
166.3673339
0
ARC
8
DEFAULT_255_1_388
10
4.5116762
20
116.7102148
40
0.3507873
50
165.9090694
51
178.8684636
0
ARC
8
DEFAULT_255_1_388
10
4.6092534
20
116.7049263
40
0.4484624
50
178.4391136
51
180.0083808
0
ARC
8
DEFAULT_255_1_388
10
4.4513235
20
116.7093197
40
0.4577138
50
163.2878482
51
180.5581842
0
ARC
8
DEFAULT_255_1_388
10
4.3611276
20
116.7341393
40
0.3641968
50
133.4540601
51
162.947111
0
ARC
8
DEFAULT_255_1_388
10
4.3812158
20
116.7127789
40
0.3935189
50
100.7869829
51
133.4382499
0
ARC
8
DEFAULT_255_1_388
10
4.4203403
20
116.5385399
40
0.5720313
50
89.660664
51
101.3702276
0
ARC
8
DEFAULT_255_1_388
10
4.4278012
20
116.5454263
40
0.5651495
50
78.2172678
51
90.412935
0
ARC
8
DEFAULT_255_1_388
10
4.4677478
20
116.7281511
40
0.378122
50
55.9269121
51
78.4888449
0
ARC
8
DEFAULT_255_1_388
10
4.4898193
20
116.7662187
40
0.3342379
50
47.929771
51
55.4049217
0
ARC
8
DEFAULT_255_1_388
10
4.5012723
20
116.7778618
40
0.3179217
50
4.334829
51
48.0560205
0
ARC
8
DEFAULT_255_1_388
10
4.3780525
20
116.7587487
40
0.442341
50
359.9251713
51
5.5971671
0
ARC
8
DEFAULT_255_1_388
10
4.426268
20
116.7650728
40
0.3941854
50
337.8914027
51
358.9967534
0
ARC
8
DEFAULT_255_1_388
10
4.121025
20
116.8828295
40
0.7213271
50
326.9132501
51
338.3508308
0
ARC
8
DEFAULT_255_1_388
10
3.6726362
20
117.1702105
40
1.2538973
50
319.6471833
51
327.0959558
0
ARC
8
DEFAULT_255_1_388
10
3.241302
20
117.526005
40
1.8129975
50
317.2588228
51
319.9045804
0
LINE
8
DEFAULT_255_1_388
10
5.7637143
20
117.0924898
11
5.7637143
21
116.218743
0
LINE
8
DEFAULT_255_1_388
10
5.7637143
20
116.218743
11
5.9462343
21
116.218743
0
LINE
8
DEFAULT_255_1_388
10
5.9462343
20
116.218743
11
5.9462343
21
116.0823048
0
LINE
8
DEFAULT_255_1_388
10
5.9462343
20
116.0823048
11
5.7637143
21
116.0823048
0
LINE
8
DEFAULT_255_1_388
10
5.7637143
20
116.0823048
11
5.7637143
21
115.7769
0
LINE
8
DEFAULT_255_1_388
10
5.7637143
20
115.7769
11
5.5956513
21
115.7769
0
LINE
8
DEFAULT_255_1_388
10
5.5956513
20
115.7769
11
5.5956513
21
116.0823048
0
LINE
8
DEFAULT_255_1_388
10
5.5956513
20
116.0823048
11
4.996588
21
116.0823048
0
LINE
8
DEFAULT_255_1_388
10
4.996588
20
116.0823048
11
4.996588
21
116.1807933
0
LINE
8
DEFAULT_255_1_388
10
4.996588
20
116.1807933
11
5.5857121
21
117.0924898
0
LINE
8
DEFAULT_255_1_388
10
5.5857121
20
117.0924898
11
5.7637143
21
117.0924898
0
LINE
8
DEFAULT_255_1_388
10
5.5757729
20
116.8277455
11
5.1863366
21
116.218743
0
LINE
8
DEFAULT_255_1_388
10
5.1863366
20
116.218743
11
5.5956513
21
116.218743
0
LINE
8
DEFAULT_255_1_388
10
5.5956513
20
116.218743
11
5.5956513
21
116.863888
0
LINE
8
DEFAULT_255_1_388
10
5.5956513
20
116.863888
11
5.5757729
21
116.8277455
0
LINE
8
DEFAULT_255_1_388
10
6.201943
20
117.0924898
11
6.5760187
21
116.0073089
0
LINE
8
DEFAULT_255_1_388
10
6.5760187
20
116.0073089
11
6.9519015
21
117.0924898
0
LINE
8
DEFAULT_255_1_388
10
6.9519015
20
117.0924898
11
7.14165
21
117.0924898
0
LINE
8
DEFAULT_255_1_388
10
7.14165
20
117.0924898
11
6.6537252
21
115.7769
0
LINE
8
DEFAULT_255_1_388
10
6.6537252
20
115.7769
11
6.5001193
21
115.7769
0
LINE
8
DEFAULT_255_1_388
10
6.5001193
20
115.7769
11
6.013098
21
117.0924898
0
LINE
8
DEFAULT_255_1_388
10
6.013098
20
117.0924898
11
6.201943
21
117.0924898
0
LINE
8
DEFAULT_255_1_388
10
4.863532
20
5.0693468
11
5.0379199
21
5.0693468
0
LINE
8
DEFAULT_255_1_388
10
4.0250242
20
5.2482525
11
4.0250242
21
5.3747516
0
LINE
8
DEFAULT_255_1_388
10
5.0379199
20
5.5446217
11
4.863532
21
5.5446217
0
LINE
8
DEFAULT_255_1_388
10
4.1994121
20
5.3702337
11
4.1994121
21
5.2428312
0
ARC
8
DEFAULT_255_1_388
10
4.4213433
20
5.1365329
40
0.6202263
50
340.1774904
51
353.7812217
0
ARC
8
DEFAULT_255_1_388
10
4.5981286
20
5.0706893
40
0.4315926
50
311.4560052
51
340.4420756
0
ARC
8
DEFAULT_255_1_388
10
4.5943826
20
5.0831665
40
0.4434573
50
282.4332229
51
310.7514507
0
ARC
8
DEFAULT_255_1_388
10
4.5449644
20
5.2873703
40
0.6535262
50
269.9358869
51
282.8096729
0
ARC
8
DEFAULT_255_1_388
10
4.5391583
20
5.4386329
40
0.8048043
50
269.9995752
51
270.3612856
0
ARC
8
DEFAULT_255_1_388
10
4.5332073
20
5.1587781
40
0.5249831
50
250.7885263
51
270.6488451
0
ARC
8
DEFAULT_255_1_388
10
4.5142898
20
5.0870853
40
0.4510942
50
219.3628377
51
250.0611024
0
ARC
8
DEFAULT_255_1_388
10
4.6075772
20
5.1663653
40
0.5735046
50
193.5480293
51
219.5755675
0
ARC
8
DEFAULT_255_1_388
10
4.8743981
20
5.235652
40
0.849146
50
181.1220183
51
193.8754971
0
ARC
8
DEFAULT_255_1_388
10
5.1067214
20
5.2480914
40
1.0816971
50
179.9914644
51
181.5398227
0
ARC
8
DEFAULT_255_1_388
10
4.8990525
20
5.3789586
40
0.8740384
50
169.5837606
51
180.275782
0
ARC
8
DEFAULT_255_1_388
10
4.6923873
20
5.4171439
40
0.6638751
50
155.0367033
51
169.6002779
0
ARC
8
DEFAULT_255_1_388
10
4.5646331
20
5.4787336
40
0.5220662
50
136.7831557
51
155.2472983
0
ARC
8
DEFAULT_255_1_388
10
4.5208122
20
5.5159577
40
0.4646502
50
121.7633063
51
136.4281161
0
ARC
8
DEFAULT_255_1_388
10
4.5359962
20
5.4879049
40
0.4964979
50
95.6460018
51
121.5489589
0
ARC
8
DEFAULT_255_1_388
10
4.5536936
20
5.3631704
40
0.6223912
50
89.9245727
51
96.1375919
0
ARC
8
DEFAULT_255_1_388
10
4.5593641
20
5.3765721
40
0.6090084
50
76.6779212
51
90.456405
0
ARC
8
DEFAULT_255_1_388
10
4.6036454
20
5.555506
40
0.42469
50
47.4858803
51
76.9287069
0
ARC
8
DEFAULT_255_1_388
10
4.5871068
20
5.5442623
40
0.4441778
50
16.5424081
51
46.8934505
0
ARC
8
DEFAULT_255_1_388
10
4.4062118
20
5.4848265
40
0.6345318
50
5.4072971
51
17.0363711
0
ARC
8
DEFAULT_255_1_388
10
4.2443843
20
5.4588304
40
0.6250632
50
7.8888693
51
15.9242022
0
ARC
8
DEFAULT_255_1_388
10
4.4678828
20
5.5237309
40
0.3923364
50
15.7650676
51
27.9410069
0
ARC
8
DEFAULT_255_1_388
10
4.5920997
20
5.5902317
40
0.2514401
50
27.8167196
51
46.4007942
0
ARC
8
DEFAULT_255_1_388
10
4.5976839
20
5.5895882
40
0.2480958
50
47.4372362
51
75.0695672
0
ARC
8
DEFAULT_255_1_388
10
4.5629675
20
5.4687277
40
0.3738281
50
74.7009379
51
87.8124314
0
ARC
8
DEFAULT_255_1_388
10
4.5547292
20
5.3503659
40
0.4924321
50
87.3802571
51
90.0251599
0
ARC
8
DEFAULT_255_1_388
10
4.5503939
20
5.4823997
40
0.3604218
50
89.3451886
51
108.5744412
0
ARC
8
DEFAULT_255_1_388
10
4.5349931
20
5.5401836
40
0.3007661
50
109.2998307
51
143.3037387
0
ARC
8
DEFAULT_255_1_388
10
4.6207221
20
5.4742584
40
0.4089031
50
143.075267
51
163.1918576
0
ARC
8
DEFAULT_255_1_388
10
4.8403055
20
5.4049652
40
0.6391492
50
162.9375929
51
174.6208776
0
ARC
8
DEFAULT_255_1_388
10
5.1357437
20
5.3725711
40
0.9363344
50
174.342123
51
180.1430283
0
ARC
8
DEFAULT_255_1_388
10
5.0309978
20
5.2382117
40
0.8315986
50
179.6817261
51
189.150555
0
ARC
8
DEFAULT_255_1_388
10
4.7496727
20
5.1913559
40
0.5464044
50
188.9911061
51
203.5772363
0
ARC
8
DEFAULT_255_1_388
10
4.6282019
20
5.1409539
40
0.4149206
50
203.9075402
51
215.1312435
0
ARC
8
DEFAULT_255_1_388
10
4.5243817
20
5.0604907
40
0.2837747
50
213.9071511
51
263.8848919
0
ARC
8
DEFAULT_255_1_388
10
4.538481
20
5.1487519
40
0.3730641
50
263.1757928
51
270.1031044
0
ARC
8
DEFAULT_255_1_388
10
4.542089
20
5.2890511
40
0.5133712
50
269.6722503
51
279.0606936
0
ARC
8
DEFAULT_255_1_388
10
4.5721045
20
5.107615
40
0.3294739
50
278.8749101
51
293.6349581
0
ARC
8
DEFAULT_255_1_388
10
4.6081249
20
5.0230251
40
0.2375405
50
293.8553806
51
310.0518171
0
ARC
8
DEFAULT_255_1_388
10
4.6086758
20
5.0160021
40
0.2318463
50
311.0644687
51
332.0111037
0
ARC
8
DEFAULT_255_1_388
10
4.4745431
20
5.0899702
40
0.3850112
50
331.6586806
51
343.2877423
0
ARC
8
DEFAULT_255_1_388
10
4.2424896
20
5.1612806
40
0.6277712
50
343.1446576
51
351.0103568
0
ARC
8
DEFAULT_255_1_388
10
4.079222
20
5.1912873
40
0.7937327
50
350.71248
51
351.1626997
0
LINE
8
DEFAULT_255_1_388
10
6.286646
20
5.3503553
11
6.286646
21
5.2672274
0
LINE
8
DEFAULT_255_1_388
10
5.228572
20
5.2554811
11
5.228572
21
5.3503553
0
LINE
8
DEFAULT_255_1_388
10
6.1140652
20
5.2545775
11
6.1140652
21
5.3521625
0
LINE
8
DEFAULT_255_1_388
10
5.4011528
20
5.3639088
11
5.4011528
21
5.2672274
0
ARC
8
DEFAULT_255_1_388
10
5.3144198
20
5.2627726
40
0.9722364
50
350.4878118
51
0.2625322
0
ARC
8
DEFAULT_255_1_388
10
5.5724158
20
5.2183994
40
0.7104556
50
336.0277991
51
350.5787241
0
ARC
8
DEFAULT_255_1_388
10
5.7237265
20
5.1500243
40
0.544417
50
319.887443
51
336.1331163
0
ARC
8
DEFAULT_255_1_388
10
5.7915077
20
5.0957733
40
0.4576311
50
302.4806296
51
319.6144102
0
ARC
8
DEFAULT_255_1_388
10
5.7785699
20
5.1207067
40
0.4856183
50
275.8196423
51
302.1885521
0
ARC
8
DEFAULT_255_1_388
10
5.759856
20
5.2492466
40
0.6154183
50
269.9169897
51
276.339506
0
ARC
8
DEFAULT_255_1_388
10
5.7548161
20
5.172068
40
0.5382553
50
252.5221437
51
270.441579
0
ARC
8
DEFAULT_255_1_388
10
5.7386411
20
5.1114046
40
0.4755426
50
237.5349961
51
252.1858334
0
ARC
8
DEFAULT_255_1_388
10
5.7486787
20
5.124212
40
0.4917393
50
209.0632754
51
237.3492577
0
ARC
8
DEFAULT_255_1_388
10
5.8466113
20
5.1857104
40
0.6072464
50
205.118533
51
209.6465345
0
ARC
8
DEFAULT_255_1_388
10
5.9362115
20
5.2237174
40
0.7045164
50
188.7216633
51
204.8239753
0
ARC
8
DEFAULT_255_1_388
10
6.1608891
20
5.2615387
40
0.9323368
50
180.3722704
51
188.9253909
0
ARC
8
DEFAULT_255_1_388
10
6.1578452
20
5.3548416
40
0.929284
50
169.5253055
51
180.2766048
0
ARC
8
DEFAULT_255_1_388
10
5.9438251
20
5.3942024
40
0.7116745
50
155.8314601
51
169.5088611
0
ARC
8
DEFAULT_255_1_388
10
5.7997714
20
5.4610312
40
0.5528904
50
139.6259579
51
156.0379072
0
ARC
8
DEFAULT_255_1_388
10
5.7334248
20
5.5144143
40
0.4677708
50
122.6414784
51
139.3431662
0
ARC
8
DEFAULT_255_1_388
10
5.7447503
20
5.4937787
40
0.4912586
50
93.0224537
51
122.4556091
0
ARC
8
DEFAULT_255_1_388
10
5.7569023
20
5.3851776
40
0.6003837
50
89.9756766
51
93.6340839
0
ARC
8
DEFAULT_255_1_388
10
5.7612621
20
5.4300879
40
0.5554884
50
73.7463329
51
90.4234008
0
ARC
8
DEFAULT_255_1_388
10
5.7810094
20
5.5065772
40
0.4765353
50
57.663051
51
73.4516911
0
ARC
8
DEFAULT_255_1_388
10
5.7801132
20
5.5090108
40
0.4749629
50
29.1441355
51
57.4146687
0
ARC
8
DEFAULT_255_1_388
10
5.6748943
20
5.4433046
40
0.5988917
50
24.0985653
51
29.732054
0
ARC
8
DEFAULT_255_1_388
10
5.5586575
20
5.3951154
40
0.7246823
50
8.6654943
51
23.8241215
0
ARC
8
DEFAULT_255_1_388
10
5.3072994
20
5.3541037
40
0.9793537
50
359.7807044
51
8.8218476
0
ARC
8
DEFAULT_255_1_388
10
5.1782698
20
5.3569731
40
0.9358078
50
359.7054632
51
8.0359751
0
ARC
8
DEFAULT_255_1_388
10
5.5157749
20
5.4061252
40
0.5947474
50
7.8926278
51
20.2962188
0
ARC
8
DEFAULT_255_1_388
10
5.69886
20
5.4736367
40
0.3996117
50
20.3231056
51
36.4990255
0
ARC
8
DEFAULT_255_1_388
10
5.7759897
20
5.5330399
40
0.3022818
50
36.1436715
51
85.6627846
0
ARC
8
DEFAULT_255_1_388
10
5.7577152
20
5.4160881
40
0.4203853
50
84.3845912
51
90.076054
0
ARC
8
DEFAULT_255_1_388
10
5.7529507
20
5.4903416
40
0.346157
50
89.3037228
51
109.9046209
0
ARC
8
DEFAULT_255_1_388
10
5.742534
20
5.5333379
40
0.3022217
50
110.8229774
51
143.917961
0
ARC
8
DEFAULT_255_1_388
10
5.84757
20
5.4531455
40
0.434348
50
143.5289166
51
163.2980252
0
ARC
8
DEFAULT_255_1_388
10
6.0621987
20
5.3856685
40
0.659321
50
163.0418884
51
174.3139873
0
ARC
8
DEFAULT_255_1_388
10
6.3326951
20
5.3544378
40
0.9315905
50
174.050934
51
179.4174954
0
ARC
8
DEFAULT_255_1_388
10
6.2758895
20
5.2625382
40
0.8747493
50
179.6928582
51
188.7908948
0
ARC
8
DEFAULT_255_1_388
10
5.9762695
20
5.2146086
40
0.5713262
50
188.6328449
51
202.5630732
0
ARC
8
DEFAULT_255_1_388
10
5.8351532
20
5.1579142
40
0.4192612
50
202.8078931
51
216.1195888
0
ARC
8
DEFAULT_255_1_388
10
5.7441049
20
5.0846479
40
0.3025752
50
215.0755613
51
264.6379773
0
ARC
8
DEFAULT_255_1_388
10
5.7583887
20
5.1781376
40
0.3970284
50
263.8464302
51
270.0830805
0
ARC
8
DEFAULT_255_1_388
10
5.7630431
20
5.1490808
40
0.3679937
50
269.3649295
51
287.5149684
0
ARC
8
DEFAULT_255_1_388
10
5.7830872
20
5.0762714
40
0.2925408
50
288.0629019
51
323.8115617
0
ARC
8
DEFAULT_255_1_388
10
5.6850848
20
5.1493754
40
0.4148018
50
323.6546541
51
342.6591359
0
ARC
8
DEFAULT_255_1_388
10
5.4565506
20
5.223728
40
0.6551163
50
342.4092446
51
353.6451501
0
ARC
8
DEFAULT_255_1_388
10
5.13803
20
5.2633565
40
0.9760748
50
353.4027553
51
359.4846611
0
LINE
8
DEFAULT_255_1_388
10
6.5468726
20
5.9674898
11
6.7709565
21
5.9674898
0
LINE
8
DEFAULT_255_1_388
10
6.7709565
20
5.9674898
11
7.2010532
21
4.8940553
0
LINE
8
DEFAULT_255_1_388
10
7.2010532
20
4.8940553
11
7.6311499
21
5.9674898
0
LINE
8
DEFAULT_255_1_388
10
7.6311499
20
5.9674898
11
7.8561375
21
5.9674898
0
LINE
8
DEFAULT_255_1_388
10
7.8561375
20
5.9674898
11
7.8561375
21
4.6519
0
LINE
8
DEFAULT_255_1_388
10
7.8561375
20
4.6519
11
7.6826531
21
4.6519
0
LINE
8
DEFAULT_255_1_388
10
7.6826531
20
4.6519
11
7.6826531
21
5.164221
0
LINE
8
DEFAULT_255_1_388
10
7.6826531
20
5.164221
11
7.6989172
21
5.7172025
0
LINE
8
DEFAULT_255_1_388
10
7.6989172
20
5.7172025
11
7.2670134
21
4.6519
0
LINE
8
DEFAULT_255_1_388
10
7.2670134
20
4.6519
11
7.1341895
21
4.6519
0
LINE
8
DEFAULT_255_1_388
10
7.1341895
20
4.6519
11
6.7031892
21
5.7144918
0
LINE
8
DEFAULT_255_1_388
10
6.7031892
20
5.7144918
11
6.7203569
21
5.164221
0
LINE
8
DEFAULT_255_1_388
10
6.7203569
20
5.164221
11
6.7203569
21
4.6519
0
LINE
8
DEFAULT_255_1_388
10
6.7203569
20
4.6519
11
6.5468726
21
4.6519
0
LINE
8
DEFAULT_255_1_388
10
6.5468726
20
4.6519
11
6.5468726
21
5.9674898
0
LINE
8
DEFAULT_255_1_388
10
8.6458528
20
5.1669317
11
8.3359302
21
5.1669317
0
LINE
8
DEFAULT_255_1_388
10
8.3359302
20
5.1669317
11
8.3359302
21
4.6519
0
LINE
8
DEFAULT_255_1_388
10
8.3359302
20
4.6519
11
8.1624458
21
4.6519
0
LINE
8
DEFAULT_255_1_388
10
8.1624458
20
4.6519
11
8.1624458
21
5.9674898
0
LINE
8
DEFAULT_255_1_388
10
8.1624458
20
5.9674898
11
8.6476599
21
5.9674898
0
LINE
8
DEFAULT_255_1_388
10
8.3359302
20
5.8247267
11
8.3359302
21
5.3087914
0
LINE
8
DEFAULT_255_1_388
10
8.3359302
20
5.3087914
11
8.6476599
21
5.3087914
0
LINE
8
DEFAULT_255_1_388
10
8.6575991
20
5.8247267
11
8.3359302
21
5.8247267
0
ARC
8
DEFAULT_255_1_388
10
8.6523972
20
5.2858334
40
0.6816729
50
78.8380084
51
90.398184
0
ARC
8
DEFAULT_255_1_388
10
8.6992003
20
5.5131796
40
0.449571
50
58.9633273
51
79.0810717
0
ARC
8
DEFAULT_255_1_388
10
8.7331387
20
5.5761823
40
0.3781049
50
48.0194715
51
58.4475592
0
ARC
8
DEFAULT_255_1_388
10
8.7431207
20
5.5857818
40
0.3642936
50
3.3374546
51
48.1766642
0
ARC
8
DEFAULT_255_1_388
10
8.6046014
20
5.5658581
40
0.5038766
50
359.9483251
51
4.6822857
0
ARC
8
DEFAULT_255_1_388
10
8.6185937
20
5.5610779
40
0.4899031
50
346.1879032
51
0.5059221
0
ARC
8
DEFAULT_255_1_388
10
8.7714729
20
5.5213763
40
0.3319729
50
310.8832219
51
346.5426612
0
ARC
8
DEFAULT_255_1_388
10
8.7367577
20
5.5682853
40
0.3901853
50
286.6925305
51
310.228778
0
ARC
8
DEFAULT_255_1_388
10
8.6727307
20
5.7696585
40
0.6014737
50
274.6848219
51
287.0247342
0
ARC
8
DEFAULT_255_1_388
10
8.6473856
20
6.0181088
40
0.8511785
50
269.8968222
51
275.0192639
0
ARC
8
DEFAULT_255_1_388
10
8.6504849
20
5.7843144
40
0.4755314
50
269.6596206
51
279.4150542
0
ARC
8
DEFAULT_255_1_388
10
8.6794307
20
5.6165945
40
0.3053379
50
279.2050006
51
294.9901776
0
ARC
8
DEFAULT_255_1_388
10
8.7120942
20
5.5437353
40
0.2255036
50
295.2886769
51
311.2912669
0
ARC
8
DEFAULT_255_1_388
10
8.7200683
20
5.5318938
40
0.2113522
50
311.7853512
51
347.2860549
0
ARC
8
DEFAULT_255_1_388
10
8.6093844
20
5.560343
40
0.3256011
50
346.6891629
51
0.1057086
0
ARC
8
DEFAULT_255_1_388
10
8.5171304
20
5.5636247
40
0.417863
50
359.63239
51
359.9961329
0
ARC
8
DEFAULT_255_1_388
10
8.6335909
20
5.5663987
40
0.3014155
50
359.4673371
51
15.5931159
0
ARC
8
DEFAULT_255_1_388
10
8.7038972
20
5.5853937
40
0.2285918
50
15.7441779
51
46.620186
0
ARC
8
DEFAULT_255_1_388
10
8.6872732
20
5.5662361
40
0.2539359
50
46.8628482
51
75.6676625
0
ARC
8
DEFAULT_255_1_388
10
8.6541788
20
5.4471243
40
0.3775415
50
75.2763152
51
88.2916439
0
ARC
8
DEFAULT_255_1_388
10
8.6475788
20
5.3469097
40
0.4779221
50
87.8589087
51
88.7986197
0
LINE
8
DEFAULT_255_1_388
10
4.2448444
20
13.9049898
11
4.5619955
21
13.4008009
0
LINE
8
DEFAULT_255_1_388
10
4.5619955
20
13.4008009
11
4.8773395
21
13.9049898
0
LINE
8
DEFAULT_255_1_388
10
4.8773395
20
13.9049898
11
5.0815451
21
13.9049898
0
LINE
8
DEFAULT_255_1_388
10
5.0815451
20
13.9049898
11
4.6659054
21
13.2526163
0
LINE
8
DEFAULT_255_1_388
10
4.6659054
20
13.2526163
11
5.0914843
21
12.5894
0
LINE
8
DEFAULT_255_1_388
10
5.0914843
20
12.5894
11
4.8854716
21
12.5894
0
LINE
8
DEFAULT_255_1_388
10
4.8854716
20
12.5894
11
4.5619955
21
13.1026246
0
LINE
8
DEFAULT_255_1_388
10
4.5619955
20
13.1026246
11
4.2367123
21
12.5894
0
LINE
8
DEFAULT_255_1_388
10
4.2367123
20
12.5894
11
4.0316032
21
12.5894
0
LINE
8
DEFAULT_255_1_388
10
4.0316032
20
12.5894
11
4.4580856
21
13.2526163
0
LINE
8
DEFAULT_255_1_388
10
4.4580856
20
13.2526163
11
4.0415424
21
13.9049898
0
LINE
8
DEFAULT_255_1_388
10
4.0415424
20
13.9049898
11
4.2448444
21
13.9049898
0
LINE
8
DEFAULT_255_1_388
10
5.7763861
20
13.1044317
11
5.4664635
21
13.1044317
0
LINE
8
DEFAULT_255_1_388
10
5.4664635
20
13.1044317
11
5.4664635
21
12.5894
0
LINE
8
DEFAULT_255_1_388
10
5.4664635
20
12.5894
11
5.2929792
21
12.5894
0
LINE
8
DEFAULT_255_1_388
10
5.2929792
20
12.5894
11
5.2929792
21
13.9049898
0
LINE
8
DEFAULT_255_1_388
10
5.2929792
20
13.9049898
11
5.7781933
21
13.9049898
0
LINE
8
DEFAULT_255_1_388
10
5.4664635
20
13.7622267
11
5.4664635
21
13.2462914
0
LINE
8
DEFAULT_255_1_388
10
5.4664635
20
13.2462914
11
5.7781933
21
13.2462914
0
LINE
8
DEFAULT_255_1_388
10
5.7881325
20
13.7622267
11
5.4664635
21
13.7622267
0
ARC
8
DEFAULT_255_1_388
10
5.7829306
20
13.2233334
40
0.6816729
50
78.8380084
51
90.398184
0
ARC
8
DEFAULT_255_1_388
10
5.8297336
20
13.4506796
40
0.449571
50
58.9633273
51
79.0810717
0
ARC
8
DEFAULT_255_1_388
10
5.8636721
20
13.5136823
40
0.3781049
50
48.0194715
51
58.4475592
0
ARC
8
DEFAULT_255_1_388
10
5.8736541
20
13.5232818
40
0.3642936
50
3.3374546
51
48.1766642
0
ARC
8
DEFAULT_255_1_388
10
5.7351348
20
13.5033581
40
0.5038766
50
359.9483251
51
4.6822857
0
ARC
8
DEFAULT_255_1_388
10
5.7491271
20
13.4985779
40
0.4899031
50
346.1879032
51
0.5059221
0
ARC
8
DEFAULT_255_1_388
10
5.9020062
20
13.4588763
40
0.3319729
50
310.8832219
51
346.5426612
0
ARC
8
DEFAULT_255_1_388
10
5.8672911
20
13.5057853
40
0.3901853
50
286.6925305
51
310.228778
0
ARC
8
DEFAULT_255_1_388
10
5.803264
20
13.7071585
40
0.6014737
50
274.6848219
51
287.0247342
0
ARC
8
DEFAULT_255_1_388
10
5.7779189
20
13.9556088
40
0.8511785
50
269.8968222
51
275.0192639
0
ARC
8
DEFAULT_255_1_388
10
5.7810183
20
13.7218144
40
0.4755314
50
269.6596206
51
279.4150542
0
ARC
8
DEFAULT_255_1_388
10
5.8099641
20
13.5540945
40
0.3053379
50
279.2050006
51
294.9901776
0
ARC
8
DEFAULT_255_1_388
10
5.8426275
20
13.4812353
40
0.2255036
50
295.2886769
51
311.2912669
0
ARC
8
DEFAULT_255_1_388
10
5.8506016
20
13.4693938
40
0.2113522
50
311.7853512
51
347.2860549
0
ARC
8
DEFAULT_255_1_388
10
5.7399178
20
13.497843
40
0.3256011
50
346.6891629
51
0.1057086
0
ARC
8
DEFAULT_255_1_388
10
5.6476638
20
13.5011247
40
0.417863
50
359.63239
51
359.9961329
0
ARC
8
DEFAULT_255_1_388
10
5.7641243
20
13.5038987
40
0.3014155
50
359.4673371
51
15.5931159
0
ARC
8
DEFAULT_255_1_388
10
5.8344305
20
13.5228937
40
0.2285918
50
15.7441779
51
46.620186
0
ARC
8
DEFAULT_255_1_388
10
5.8178065
20
13.5037361
40
0.2539359
50
46.8628482
51
75.6676625
0
ARC
8
DEFAULT_255_1_388
10
5.7847122
20
13.3846243
40
0.3775415
50
75.2763152
51
88.2916439
0
ARC
8
DEFAULT_255_1_388
10
5.7781121
20
13.2844097
40
0.4779221
50
87.8589087
51
88.7986197
0
LINE
8
DEFAULT_255_1_388
10
6.6275438
20
13.2146666
11
6.4938163
21
13.2490021
0
LINE
8
DEFAULT_255_1_388
10
6.4938163
20
13.2490021
11
6.5606801
21
13.9049898
0
LINE
8
DEFAULT_255_1_388
10
6.5606801
20
13.9049898
11
7.2347392
21
13.9049898
0
LINE
8
DEFAULT_255_1_388
10
7.2347392
20
13.9049898
11
7.2347392
21
13.7504803
0
LINE
8
DEFAULT_255_1_388
10
7.2347392
20
13.7504803
11
6.7025397
21
13.7504803
0
LINE
8
DEFAULT_255_1_388
10
6.7025397
20
13.7504803
11
6.6627829
21
13.3917652
0
LINE
8
DEFAULT_255_1_388
10
6.446831
20
12.9354652
11
6.6049547
21
12.9354652
0
LINE
8
DEFAULT_255_1_388
10
6.6718185
20
13.2508092
11
6.6275438
21
13.2146666
0
ARC
8
DEFAULT_255_1_388
10
6.8714442
20
13.0340241
40
0.4141476
50
93.7181681
51
120.253934
0
ARC
8
DEFAULT_255_1_388
10
6.8820494
20
12.9431284
40
0.5055616
50
89.9660471
51
94.2495185
0
ARC
8
DEFAULT_255_1_388
10
6.8866316
20
13.0094154
40
0.4392953
50
73.8045384
51
90.5585736
0
ARC
8
DEFAULT_255_1_388
10
6.9130574
20
13.105952
40
0.3392225
50
41.3071072
51
73.543002
0
ARC
8
DEFAULT_255_1_388
10
6.8662394
20
13.0656461
40
0.4009977
50
13.5075837
51
41.2174839
0
ARC
8
DEFAULT_255_1_388
10
6.6815491
20
13.0172907
40
0.5918864
50
1.1330171
51
13.8830737
0
ARC
8
DEFAULT_255_1_388
10
6.5219137
20
13.0087522
40
0.7516787
50
359.9925091
51
1.5431298
0
ARC
8
DEFAULT_255_1_388
10
6.6663752
20
13.0041027
40
0.6072343
50
347.8572712
51
0.4294349
0
ARC
8
DEFAULT_255_1_388
10
6.8632887
20
12.9594898
40
0.4053482
50
323.6727442
51
348.1674594
0
ARC
8
DEFAULT_255_1_388
10
6.8963851
20
12.9393175
40
0.3667495
50
316.8171818
51
323.1486802
0
ARC
8
DEFAULT_255_1_388
10
6.9032975
20
12.9351612
40
0.358869
50
281.839603
51
316.5458142
0
ARC
8
DEFAULT_255_1_388
10
6.8610263
20
13.1101363
40
0.5388223
50
269.5770964
51
282.4214641
0
ARC
8
DEFAULT_255_1_388
10
6.8530183
20
13.086093
40
0.5147801
50
256.2425863
51
270.4486481
0
ARC
8
DEFAULT_255_1_388
10
6.8193711
20
12.9511124
40
0.3756708
50
228.9024379
51
256.33135
0
ARC
8
DEFAULT_255_1_388
10
6.8110691
20
12.9380054
40
0.360344
50
193.7536029
51
228.5272638
0
ARC
8
DEFAULT_255_1_388
10
6.9503256
20
12.9788463
40
0.5053599
50
184.9244437
51
194.4976052
0
ARC
8
DEFAULT_255_1_388
10
6.9719897
20
12.9828722
40
0.3700839
50
187.3596909
51
198.6733728
0
ARC
8
DEFAULT_255_1_388
10
6.8539141
20
12.9419373
40
0.2451195
50
198.4453795
51
217.7945479
0
ARC
8
DEFAULT_255_1_388
10
6.8206313
20
12.9183563
40
0.2043754
50
218.2887146
51
228.5613203
0
ARC
8
DEFAULT_255_1_388
10
6.831632
20
12.9331902
40
0.2227819
50
228.9652423
51
258.1237049
0
ARC
8
DEFAULT_255_1_388
10
6.8547758
20
13.0322964
40
0.3245374
50
257.7260585
51
270.4013717
0
ARC
8
DEFAULT_255_1_388
10
6.8598256
20
12.9822255
40
0.2744726
50
269.4204315
51
286.420998
0
ARC
8
DEFAULT_255_1_388
10
6.8765311
20
12.9215705
40
0.2115721
50
286.7250065
51
320.6004665
0
ARC
8
DEFAULT_255_1_388
10
6.8334227
20
12.9565527
40
0.2670878
50
320.6712228
51
344.5440474
0
ARC
8
DEFAULT_255_1_388
10
6.7032941
20
12.9947394
40
0.4026927
50
344.241448
51
356.735803
0
ARC
8
DEFAULT_255_1_388
10
6.5629248
20
13.0063656
40
0.5435085
50
356.3547471
51
0.0507222
0
ARC
8
DEFAULT_255_1_388
10
6.7131513
20
13.0098812
40
0.3932934
50
359.5579289
51
12.9534322
0
ARC
8
DEFAULT_255_1_388
10
6.8318353
20
13.0386586
40
0.2711827
50
12.6489751
51
41.608121
0
ARC
8
DEFAULT_255_1_388
10
6.8577513
20
13.0606946
40
0.2371737
50
41.7851122
51
85.9892156
0
ARC
8
DEFAULT_255_1_388
10
6.8438823
20
12.9691738
40
0.3295244
50
84.6965848
51
90.0672125
0
ARC
8
DEFAULT_255_1_388
10
6.8412391
20
12.8940118
40
0.4046926
50
89.6804991
51
99.161352
0
ARC
8
DEFAULT_255_1_388
10
6.81814
20
13.0320848
40
0.2647044
50
98.9836248
51
113.8905702
0
ARC
8
DEFAULT_255_1_388
10
6.7923075
20
13.0930118
40
0.1985386
50
114.195234
51
127.3641866
0
LINE
8
DEFAULT_255_1_388
10
4.3778444
20
21.8424898
11
4.6949955
21
21.3383009
0
LINE
8
DEFAULT_255_1_388
10
4.6949955
20
21.3383009
11
5.0103395
21
21.8424898
0
LINE
8
DEFAULT_255_1_388
10
5.0103395
20
21.8424898
11
5.2145451
21
21.8424898
0
LINE
8
DEFAULT_255_1_388
10
5.2145451
20
21.8424898
11
4.7989054
21
21.1901163
0
LINE
8
DEFAULT_255_1_388
10
4.7989054
20
21.1901163
11
5.2244843
21
20.5269
0
LINE
8
DEFAULT_255_1_388
10
5.2244843
20
20.5269
11
5.0184716
21
20.5269
0
LINE
8
DEFAULT_255_1_388
10
5.0184716
20
20.5269
11
4.6949955
21
21.0401246
0
LINE
8
DEFAULT_255_1_388
10
4.6949955
20
21.0401246
11
4.3697123
21
20.5269
0
LINE
8
DEFAULT_255_1_388
10
4.3697123
20
20.5269
11
4.1646032
21
20.5269
0
LINE
8
DEFAULT_255_1_388
10
4.1646032
20
20.5269
11
4.5910856
21
21.1901163
0
LINE
8
DEFAULT_255_1_388
10
4.5910856
20
21.1901163
11
4.1745424
21
21.8424898
0
LINE
8
DEFAULT_255_1_388
10
4.1745424
20
21.8424898
11
4.3778444
21
21.8424898
0
LINE
8
DEFAULT_255_1_388
10
5.9093861
20
21.0419317
11
5.5994635
21
21.0419317
0
LINE
8
DEFAULT_255_1_388
10
5.5994635
20
21.0419317
11
5.5994635
21
20.5269
0
LINE
8
DEFAULT_255_1_388
10
5.5994635
20
20.5269
11
5.4259792
21
20.5269
0
LINE
8
DEFAULT_255_1_388
10
5.4259792
20
20.5269
11
5.4259792
21
21.8424898
0
LINE
8
DEFAULT_255_1_388
10
5.4259792
20
21.8424898
11
5.9111933
21
21.8424898
0
LINE
8
DEFAULT_255_1_388
10
5.5994635
20
21.6997267
11
5.5994635
21
21.1837914
0
LINE
8
DEFAULT_255_1_388
10
5.5994635
20
21.1837914
11
5.9111933
21
21.1837914
0
LINE
8
DEFAULT_255_1_388
10
5.9211325
20
21.6997267
11
5.5994635
21
21.6997267
0
ARC
8
DEFAULT_255_1_388
10
5.9159306
20
21.1608334
40
0.6816729
50
78.8380084
51
90.398184
0
ARC
8
DEFAULT_255_1_388
10
5.9627336
20
21.3881796
40
0.449571
50
58.9633273
51
79.0810717
0
ARC
8
DEFAULT_255_1_388
10
5.9966721
20
21.4511823
40
0.3781049
50
48.0194715
51
58.4475592
0
ARC
8
DEFAULT_255_1_388
10
6.0066541
20
21.4607818
40
0.3642936
50
3.3374546
51
48.1766642
0
ARC
8
DEFAULT_255_1_388
10
5.8681348
20
21.4408581
40
0.5038766
50
359.9483251
51
4.6822857
0
ARC
8
DEFAULT_255_1_388
10
5.8821271
20
21.4360779
40
0.4899031
50
346.1879032
51
0.5059221
0
ARC
8
DEFAULT_255_1_388
10
6.0350062
20
21.3963763
40
0.3319729
50
310.8832219
51
346.5426612
0
ARC
8
DEFAULT_255_1_388
10
6.0002911
20
21.4432853
40
0.3901853
50
286.6925305
51
310.228778
0
ARC
8
DEFAULT_255_1_388
10
5.936264
20
21.6446585
40
0.6014737
50
274.6848219
51
287.0247342
0
ARC
8
DEFAULT_255_1_388
10
5.9109189
20
21.8931088
40
0.8511785
50
269.8968222
51
275.0192639
0
ARC
8
DEFAULT_255_1_388
10
5.9140183
20
21.6593144
40
0.4755314
50
269.6596206
51
279.4150542
0
ARC
8
DEFAULT_255_1_388
10
5.9429641
20
21.4915945
40
0.3053379
50
279.2050006
51
294.9901776
0
ARC
8
DEFAULT_255_1_388
10
5.9756275
20
21.4187353
40
0.2255036
50
295.2886769
51
311.2912669
0
ARC
8
DEFAULT_255_1_388
10
5.9836016
20
21.4068938
40
0.2113522
50
311.7853512
51
347.2860549
0
ARC
8
DEFAULT_255_1_388
10
5.8729178
20
21.435343
40
0.3256011
50
346.6891629
51
0.1057086
0
ARC
8
DEFAULT_255_1_388
10
5.7806638
20
21.4386247
40
0.417863
50
359.63239
51
359.9961329
0
ARC
8
DEFAULT_255_1_388
10
5.8971243
20
21.4413987
40
0.3014155
50
359.4673371
51
15.5931159
0
ARC
8
DEFAULT_255_1_388
10
5.9674305
20
21.4603937
40
0.2285918
50
15.7441779
51
46.620186
0
ARC
8
DEFAULT_255_1_388
10
5.9508065
20
21.4412361
40
0.2539359
50
46.8628482
51
75.6676625
0
ARC
8
DEFAULT_255_1_388
10
5.9177122
20
21.3221243
40
0.3775415
50
75.2763152
51
88.2916439
0
ARC
8
DEFAULT_255_1_388
10
5.9111121
20
21.2219097
40
0.4779221
50
87.8589087
51
88.7986197
0
LINE
8
DEFAULT_255_1_388
10
7.4120138
20
20.6633382
11
7.4120138
21
20.5269
0
LINE
8
DEFAULT_255_1_388
10
7.4120138
20
20.5269
11
6.5500133
21
20.5269
0
LINE
8
DEFAULT_255_1_388
10
6.5500133
20
20.5269
11
6.5500133
21
20.6470741
0
LINE
8
DEFAULT_255_1_388
10
6.5500133
20
20.6470741
11
7.0054098
21
21.1530702
0
LINE
8
DEFAULT_255_1_388
10
6.6918729
20
21.4548607
11
6.5247135
21
21.4548607
0
LINE
8
DEFAULT_255_1_388
10
7.1038983
20
21.045546
11
6.7515082
21
20.6633382
0
LINE
8
DEFAULT_255_1_388
10
6.7515082
20
20.6633382
11
7.4120138
21
20.6633382
0
ARC
8
DEFAULT_255_1_388
10
5.4878158
20
22.4950983
40
2.0258655
50
318.5132526
51
320.7829045
0
ARC
8
DEFAULT_255_1_388
10
6.0826115
20
22.0109929
40
1.2589638
50
320.7372878
51
323.9739031
0
ARC
8
DEFAULT_255_1_388
10
6.5235046
20
21.6915554
40
0.7145141
50
323.8962701
51
328.64194
0
ARC
8
DEFAULT_255_1_388
10
6.7537304
20
21.5495545
40
0.4440242
50
328.8294576
51
331.7891185
0
ARC
8
DEFAULT_255_1_388
10
6.8659624
20
21.4916374
40
0.3177517
50
331.4254512
51
352.9365785
0
ARC
8
DEFAULT_255_1_388
10
6.8812624
20
21.488205
40
0.3021496
50
353.2257659
51
0.0166158
0
ARC
8
DEFAULT_255_1_388
10
6.9049385
20
21.4907894
40
0.2784847
50
359.486299
51
15.9343185
0
ARC
8
DEFAULT_255_1_388
10
6.9619651
20
21.5061269
40
0.2194403
50
16.1712913
51
43.5286088
0
ARC
8
DEFAULT_255_1_388
10
6.9706596
20
21.5148191
40
0.2071504
50
43.4417391
51
83.1661095
0
ARC
8
DEFAULT_255_1_388
10
6.9555757
20
21.4319316
40
0.2912888
50
82.160179
51
90.1505708
0
ARC
8
DEFAULT_255_1_388
10
6.9520239
20
21.3715279
40
0.3517025
50
89.5460741
51
102.5418361
0
ARC
8
DEFAULT_255_1_388
10
6.9246959
20
21.4874933
40
0.2325748
50
102.1738499
51
129.206123
0
ARC
8
DEFAULT_255_1_388
10
6.9158412
20
21.5014664
40
0.2161591
50
129.72865
51
135.753947
0
ARC
8
DEFAULT_255_1_388
10
6.9294894
20
21.4905728
40
0.2335433
50
136.1757367
51
166.3673339
0
ARC
8
DEFAULT_255_1_388
10
7.0427583
20
21.4602148
40
0.3507873
50
165.9090694
51
178.8684636
0
ARC
8
DEFAULT_255_1_388
10
7.1403354
20
21.4549263
40
0.4484624
50
178.4391136
51
180.0083808
0
ARC
8
DEFAULT_255_1_388
10
6.9824056
20
21.4593197
40
0.4577138
50
163.2878482
51
180.5581842
0
ARC
8
DEFAULT_255_1_388
10
6.8922097
20
21.4841393
40
0.3641968
50
133.4540601
51
162.947111
0
ARC
8
DEFAULT_255_1_388
10
6.9122979
20
21.4627789
40
0.3935189
50
100.7869829
51
133.4382499
0
ARC
8
DEFAULT_255_1_388
10
6.9514224
20
21.2885399
40
0.5720313
50
89.660664
51
101.3702276
0
ARC
8
DEFAULT_255_1_388
10
6.9588832
20
21.2954263
40
0.5651495
50
78.2172678
51
90.412935
0
ARC
8
DEFAULT_255_1_388
10
6.9988298
20
21.4781511
40
0.378122
50
55.9269121
51
78.4888449
0
ARC
8
DEFAULT_255_1_388
10
7.0209013
20
21.5162187
40
0.3342379
50
47.929771
51
55.4049217
0
ARC
8
DEFAULT_255_1_388
10
7.0323544
20
21.5278618
40
0.3179217
50
4.334829
51
48.0560205
0
ARC
8
DEFAULT_255_1_388
10
6.9091345
20
21.5087487
40
0.442341
50
359.9251713
51
5.5971671
0
ARC
8
DEFAULT_255_1_388
10
6.95735
20
21.5150728
40
0.3941854
50
337.8914027
51
358.9967534
0
ARC
8
DEFAULT_255_1_388
10
6.652107
20
21.6328295
40
0.7213271
50
326.9132501
51
338.3508308
0
ARC
8
DEFAULT_255_1_388
10
6.2037182
20
21.9202105
40
1.2538973
50
319.6471833
51
327.0959558
0
ARC
8
DEFAULT_255_1_388
10
5.772384
20
22.276005
40
1.8129975
50
317.2588228
51
319.9045804
0
LINE
8
DEFAULT_255_1_388
10
8.2947963
20
21.8424898
11
8.2947963
21
20.968743
0
LINE
8
DEFAULT_255_1_388
10
8.2947963
20
20.968743
11
8.4773163
21
20.968743
0
LINE
8
DEFAULT_255_1_388
10
8.4773163
20
20.968743
11
8.4773163
21
20.8323048
0
LINE
8
DEFAULT_255_1_388
10
8.4773163
20
20.8323048
11
8.2947963
21
20.8323048
0
LINE
8
DEFAULT_255_1_388
10
8.2947963
20
20.8323048
11
8.2947963
21
20.5269
0
LINE
8
DEFAULT_255_1_388
10
8.2947963
20
20.5269
11
8.1267333
21
20.5269
0
LINE
8
DEFAULT_255_1_388
10
8.1267333
20
20.5269
11
8.1267333
21
20.8323048
0
LINE
8
DEFAULT_255_1_388
10
8.1267333
20
20.8323048
11
7.5276701
21
20.8323048
0
LINE
8
DEFAULT_255_1_388
10
7.5276701
20
20.8323048
11
7.5276701
21
20.9307933
0
LINE
8
DEFAULT_255_1_388
10
7.5276701
20
20.9307933
11
8.1167941
21
21.8424898
0
LINE
8
DEFAULT_255_1_388
10
8.1167941
20
21.8424898
11
8.2947963
21
21.8424898
0
LINE
8
DEFAULT_255_1_388
10
8.1068549
20
21.5777455
11
7.7174186
21
20.968743
0
LINE
8
DEFAULT_255_1_388
10
7.7174186
20
20.968743
11
8.1267333
21
20.968743
0
LINE
8
DEFAULT_255_1_388
10
8.1267333
20
20.968743
11
8.1267333
21
21.613888
0
LINE
8
DEFAULT_255_1_388
10
8.1267333
20
21.613888
11
8.1068549
21
21.5777455
0
LINE
8
DEFAULT_255_1_388
10
4.840332
20
28.8818468
11
5.0147199
21
28.8818468
0
LINE
8
DEFAULT_255_1_388
10
4.0018242
20
29.0607525
11
4.0018242
21
29.1872516
0
LINE
8
DEFAULT_255_1_388
10
5.0147199
20
29.3571217
11
4.840332
21
29.3571217
0
LINE
8
DEFAULT_255_1_388
10
4.1762121
20
29.1827337
11
4.1762121
21
29.0553312
0
ARC
8
DEFAULT_255_1_388
10
4.3981433
20
28.9490329
40
0.6202263
50
340.1774904
51
353.7812217
0
ARC
8
DEFAULT_255_1_388
10
4.5749286
20
28.8831893
40
0.4315926
50
311.4560052
51
340.4420756
0
ARC
8
DEFAULT_255_1_388
10
4.5711826
20
28.8956665
40
0.4434573
50
282.4332229
51
310.7514507
0
ARC
8
DEFAULT_255_1_388
10
4.5217644
20
29.0998703
40
0.6535262
50
269.9358869
51
282.8096729
0
ARC
8
DEFAULT_255_1_388
10
4.5159583
20
29.2511329
40
0.8048043
50
269.9995752
51
270.3612856
0
ARC
8
DEFAULT_255_1_388
10
4.5100073
20
28.9712781
40
0.5249831
50
250.7885263
51
270.6488451
0
ARC
8
DEFAULT_255_1_388
10
4.4910898
20
28.8995853
40
0.4510942
50
219.3628377
51
250.0611024
0
ARC
8
DEFAULT_255_1_388
10
4.5843772
20
28.9788653
40
0.5735046
50
193.5480293
51
219.5755675
0
ARC
8
DEFAULT_255_1_388
10
4.8511981
20
29.048152
40
0.849146
50
181.1220183
51
193.8754971
0
ARC
8
DEFAULT_255_1_388
10
5.0835214
20
29.0605914
40
1.0816971
50
179.9914644
51
181.5398227
0
ARC
8
DEFAULT_255_1_388
10
4.8758525
20
29.1914586
40
0.8740384
50
169.5837606
51
180.275782
0
ARC
8
DEFAULT_255_1_388
10
4.6691873
20
29.2296439
40
0.6638751
50
155.0367033
51
169.6002779
0
ARC
8
DEFAULT_255_1_388
10
4.5414331
20
29.2912336
40
0.5220662
50
136.7831557
51
155.2472983
0
ARC
8
DEFAULT_255_1_388
10
4.4976122
20
29.3284577
40
0.4646502
50
121.7633063
51
136.4281161
0
ARC
8
DEFAULT_255_1_388
10
4.5127962
20
29.3004049
40
0.4964979
50
95.6460018
51
121.5489589
0
ARC
8
DEFAULT_255_1_388
10
4.5304936
20
29.1756704
40
0.6223912
50
89.9245727
51
96.1375919
0
ARC
8
DEFAULT_255_1_388
10
4.5361641
20
29.1890721
40
0.6090084
50
76.6779212
51
90.456405
0
ARC
8
DEFAULT_255_1_388
10
4.5804454
20
29.368006
40
0.42469
50
47.4858803
51
76.9287069
0
ARC
8
DEFAULT_255_1_388
10
4.5639068
20
29.3567623
40
0.4441778
50
16.5424081
51
46.8934505
0
ARC
8
DEFAULT_255_1_388
10
4.3830118
20
29.2973265
40
0.6345318
50
5.4072971
51
17.0363711
0
ARC
8
DEFAULT_255_1_388
10
4.2211843
20
29.2713304
40
0.6250632
50
7.8888693
51
15.9242022
0
ARC
8
DEFAULT_255_1_388
10
4.4446828
20
29.3362309
40
0.3923364
50
15.7650676
51
27.9410069
0
ARC
8
DEFAULT_255_1_388
10
4.5688997
20
29.4027317
40
0.2514401
50
27.8167196
51
46.4007942
0
ARC
8
DEFAULT_255_1_388
10
4.5744839
20
29.4020882
40
0.2480958
50
47.4372362
51
75.0695672
0
ARC
8
DEFAULT_255_1_388
10
4.5397675
20
29.2812277
40
0.3738281
50
74.7009379
51
87.8124314
0
ARC
8
DEFAULT_255_1_388
10
4.5315292
20
29.1628659
40
0.4924321
50
87.3802571
51
90.0251599
0
ARC
8
DEFAULT_255_1_388
10
4.5271939
20
29.2948997
40
0.3604218
50
89.3451886
51
108.5744412
0
ARC
8
DEFAULT_255_1_388
10
4.5117931
20
29.3526836
40
0.3007661
50
109.2998307
51
143.3037387
0
ARC
8
DEFAULT_255_1_388
10
4.5975221
20
29.2867584
40
0.4089031
50
143.075267
51
163.1918576
0
ARC
8
DEFAULT_255_1_388
10
4.8171055
20
29.2174652
40
0.6391492
50
162.9375929
51
174.6208776
0
ARC
8
DEFAULT_255_1_388
10
5.1125437
20
29.1850711
40
0.9363344
50
174.342123
51
180.1430283
0
ARC
8
DEFAULT_255_1_388
10
5.0077978
20
29.0507117
40
0.8315986
50
179.6817261
51
189.150555
0
ARC
8
DEFAULT_255_1_388
10
4.7264727
20
29.0038559
40
0.5464044
50
188.9911061
51
203.5772363
0
ARC
8
DEFAULT_255_1_388
10
4.6050019
20
28.9534539
40
0.4149206
50
203.9075402
51
215.1312435
0
ARC
8
DEFAULT_255_1_388
10
4.5011817
20
28.8729907
40
0.2837747
50
213.9071511
51
263.8848919
0
ARC
8
DEFAULT_255_1_388
10
4.515281
20
28.9612519
40
0.3730641
50
263.1757928
51
270.1031044
0
ARC
8
DEFAULT_255_1_388
10
4.518889
20
29.1015511
40
0.5133712
50
269.6722503
51
279.0606936
0
ARC
8
DEFAULT_255_1_388
10
4.5489045
20
28.920115
40
0.3294739
50
278.8749101
51
293.6349581
0
ARC
8
DEFAULT_255_1_388
10
4.5849249
20
28.8355251
40
0.2375405
50
293.8553806
51
310.0518171
0
ARC
8
DEFAULT_255_1_388
10
4.5854758
20
28.8285021
40
0.2318463
50
311.0644687
51
332.0111037
0
ARC
8
DEFAULT_255_1_388
10
4.4513431
20
28.9024702
40
0.3850112
50
331.6586806
51
343.2877423
0
ARC
8
DEFAULT_255_1_388
10
4.2192896
20
28.9737806
40
0.6277712
50
343.1446576
51
351.0103568
0
ARC
8
DEFAULT_255_1_388
10
4.056022
20
29.0037873
40
0.7937327
50
350.71248
51
351.1626997
0
LINE
8
DEFAULT_255_1_388
10
6.263446
20
29.1628553
11
6.263446
21
29.0797274
0
LINE
8
DEFAULT_255_1_388
10
5.205372
20
29.0679811
11
5.205372
21
29.1628553
0
LINE
8
DEFAULT_255_1_388
10
6.0908652
20
29.0670775
11
6.0908652
21
29.1646625
0
LINE
8
DEFAULT_255_1_388
10
5.3779528
20
29.1764088
11
5.3779528
21
29.0797274
0
ARC
8
DEFAULT_255_1_388
10
5.2912198
20
29.0752726
40
0.9722364
50
350.4878118
51
0.2625322
0
ARC
8
DEFAULT_255_1_388
10
5.5492158
20
29.0308994
40
0.7104556
50
336.0277991
51
350.5787241
0
ARC
8
DEFAULT_255_1_388
10
5.7005265
20
28.9625243
40
0.544417
50
319.887443
51
336.1331163
0
ARC
8
DEFAULT_255_1_388
10
5.7683077
20
28.9082733
40
0.4576311
50
302.4806296
51
319.6144102
0
ARC
8
DEFAULT_255_1_388
10
5.7553699
20
28.9332067
40
0.4856183
50
275.8196423
51
302.1885521
0
ARC
8
DEFAULT_255_1_388
10
5.736656
20
29.0617466
40
0.6154183
50
269.9169897
51
276.339506
0
ARC
8
DEFAULT_255_1_388
10
5.7316161
20
28.984568
40
0.5382553
50
252.5221437
51
270.441579
0
ARC
8
DEFAULT_255_1_388
10
5.7154411
20
28.9239046
40
0.4755426
50
237.5349961
51
252.1858334
0
ARC
8
DEFAULT_255_1_388
10
5.7254787
20
28.936712
40
0.4917393
50
209.0632754
51
237.3492577
0
ARC
8
DEFAULT_255_1_388
10
5.8234113
20
28.9982104
40
0.6072464
50
205.118533
51
209.6465345
0
ARC
8
DEFAULT_255_1_388
10
5.9130115
20
29.0362174
40
0.7045164
50
188.7216633
51
204.8239753
0
ARC
8
DEFAULT_255_1_388
10
6.1376891
20
29.0740387
40
0.9323368
50
180.3722704
51
188.9253909
0
ARC
8
DEFAULT_255_1_388
10
6.1346452
20
29.1673416
40
0.929284
50
169.5253055
51
180.2766048
0
ARC
8
DEFAULT_255_1_388
10
5.9206251
20
29.2067024
40
0.7116745
50
155.8314601
51
169.5088611
0
ARC
8
DEFAULT_255_1_388
10
5.7765714
20
29.2735312
40
0.5528904
50
139.6259579
51
156.0379072
0
ARC
8
DEFAULT_255_1_388
10
5.7102248
20
29.3269143
40
0.4677708
50
122.6414784
51
139.3431662
0
ARC
8
DEFAULT_255_1_388
10
5.7215503
20
29.3062787
40
0.4912586
50
93.0224537
51
122.4556091
0
ARC
8
DEFAULT_255_1_388
10
5.7337023
20
29.1976776
40
0.6003837
50
89.9756766
51
93.6340839
0
ARC
8
DEFAULT_255_1_388
10
5.7380621
20
29.2425879
40
0.5554884
50
73.7463329
51
90.4234008
0
ARC
8
DEFAULT_255_1_388
10
5.7578094
20
29.3190772
40
0.4765353
50
57.663051
51
73.4516911
0
ARC
8
DEFAULT_255_1_388
10
5.7569132
20
29.3215108
40
0.4749629
50
29.1441355
51
57.4146687
0
ARC
8
DEFAULT_255_1_388
10
5.6516943
20
29.2558046
40
0.5988917
50
24.0985653
51
29.732054
0
ARC
8
DEFAULT_255_1_388
10
5.5354575
20
29.2076154
40
0.7246823
50
8.6654943
51
23.8241215
0
ARC
8
DEFAULT_255_1_388
10
5.2840994
20
29.1666037
40
0.9793537
50
359.7807044
51
8.8218476
0
ARC
8
DEFAULT_255_1_388
10
5.1550698
20
29.1694731
40
0.9358078
50
359.7054632
51
8.0359751
0
ARC
8
DEFAULT_255_1_388
10
5.4925749
20
29.2186252
40
0.5947474
50
7.8926278
51
20.2962188
0
ARC
8
DEFAULT_255_1_388
10
5.67566
20
29.2861367
40
0.3996117
50
20.3231056
51
36.4990255
0
ARC
8
DEFAULT_255_1_388
10
5.7527897
20
29.3455399
40
0.3022818
50
36.1436715
51
85.6627846
0
ARC
8
DEFAULT_255_1_388
10
5.7345152
20
29.2285881
40
0.4203853
50
84.3845912
51
90.076054
0
ARC
8
DEFAULT_255_1_388
10
5.7297507
20
29.3028416
40
0.346157
50
89.3037228
51
109.9046209
0
ARC
8
DEFAULT_255_1_388
10
5.719334
20
29.3458379
40
0.3022217
50
110.8229774
51
143.917961
0
ARC
8
DEFAULT_255_1_388
10
5.82437
20
29.2656455
40
0.434348
50
143.5289166
51
163.2980252
0
ARC
8
DEFAULT_255_1_388
10
6.0389987
20
29.1981685
40
0.659321
50
163.0418884
51
174.3139873
0
ARC
8
DEFAULT_255_1_388
10
6.3094951
20
29.1669378
40
0.9315905
50
174.050934
51
179.4174954
0
ARC
8
DEFAULT_255_1_388
10
6.2526895
20
29.0750382
40
0.8747493
50
179.6928582
51
188.7908948
0
ARC
8
DEFAULT_255_1_388
10
5.9530695
20
29.0271086
40
0.5713262
50
188.6328449
51
202.5630732
0
ARC
8
DEFAULT_255_1_388
10
5.8119532
20
28.9704142
40
0.4192612
50
202.8078931
51
216.1195888
0
ARC
8
DEFAULT_255_1_388
10
5.7209049
20
28.8971479
40
0.3025752
50
215.0755613
51
264.6379773
0
ARC
8
DEFAULT_255_1_388
10
5.7351887
20
28.9906376
40
0.3970284
50
263.8464302
51
270.0830805
0
ARC
8
DEFAULT_255_1_388
10
5.7398431
20
28.9615808
40
0.3679937
50
269.3649295
51
287.5149684
0
ARC
8
DEFAULT_255_1_388
10
5.7598872
20
28.8887714
40
0.2925408
50
288.0629019
51
323.8115617
0
ARC
8
DEFAULT_255_1_388
10
5.6618848
20
28.9618754
40
0.4148018
50
323.6546541
51
342.6591359
0
ARC
8
DEFAULT_255_1_388
10
5.4333506
20
29.036228
40
0.6551163
50
342.4092446
51
353.6451501
0
ARC
8
DEFAULT_255_1_388
10
5.11483
20
29.0758565
40
0.9760748
50
353.4027553
51
359.4846611
0
LINE
8
DEFAULT_255_1_388
10
6.5236726
20
29.7799898
11
6.7477565
21
29.7799898
0
LINE
8
DEFAULT_255_1_388
10
6.7477565
20
29.7799898
11
7.1778532
21
28.7065553
0
LINE
8
DEFAULT_255_1_388
10
7.1778532
20
28.7065553
11
7.6079499
21
29.7799898
0
LINE
8
DEFAULT_255_1_388
10
7.6079499
20
29.7799898
11
7.8329375
21
29.7799898
0
LINE
8
DEFAULT_255_1_388
10
7.8329375
20
29.7799898
11
7.8329375
21
28.4644
0
LINE
8
DEFAULT_255_1_388
10
7.8329375
20
28.4644
11
7.6594531
21
28.4644
0
LINE
8
DEFAULT_255_1_388
10
7.6594531
20
28.4644
11
7.6594531
21
28.976721
0
LINE
8
DEFAULT_255_1_388
10
7.6594531
20
28.976721
11
7.6757172
21
29.5297025
0
LINE
8
DEFAULT_255_1_388
10
7.6757172
20
29.5297025
11
7.2438134
21
28.4644
0
LINE
8
DEFAULT_255_1_388
10
7.2438134
20
28.4644
11
7.1109895
21
28.4644
0
LINE
8
DEFAULT_255_1_388
10
7.1109895
20
28.4644
11
6.6799892
21
29.5269918
0
LINE
8
DEFAULT_255_1_388
10
6.6799892
20
29.5269918
11
6.6971569
21
28.976721
0
LINE
8
DEFAULT_255_1_388
10
6.6971569
20
28.976721
11
6.6971569
21
28.4644
0
LINE
8
DEFAULT_255_1_388
10
6.6971569
20
28.4644
11
6.5236726
21
28.4644
0
LINE
8
DEFAULT_255_1_388
10
6.5236726
20
28.4644
11
6.5236726
21
29.7799898
0
LINE
8
DEFAULT_255_1_388
10
8.5033823
20
28.4644
11
8.1392458
21
28.4644
0
LINE
8
DEFAULT_255_1_388
10
8.1392458
20
28.4644
11
8.1392458
21
29.7799898
0
LINE
8
DEFAULT_255_1_388
10
8.1392458
20
29.7799898
11
8.5106108
21
29.7799898
0
LINE
8
DEFAULT_255_1_388
10
9.0906992
20
29.1664696
11
9.0906992
21
29.0824381
0
LINE
8
DEFAULT_255_1_388
10
8.5151286
20
29.6372267
11
8.3127302
21
29.6372267
0
LINE
8
DEFAULT_255_1_388
10
8.3127302
20
29.6372267
11
8.3127302
21
28.6062596
0
LINE
8
DEFAULT_255_1_388
10
8.3127302
20
28.6062596
11
8.4952502
21
28.6062596
0
LINE
8
DEFAULT_255_1_388
10
8.9190219
20
29.0860523
11
8.9190219
21
29.1628553
0
ARC
8
DEFAULT_255_1_388
10
8.5149903
20
29.1201436
40
0.6598608
50
75.4100343
51
90.3802731
0
ARC
8
DEFAULT_255_1_388
10
8.5408148
20
29.2277691
40
0.5492049
50
60.1455157
51
75.1889627
0
ARC
8
DEFAULT_255_1_388
10
8.558674
20
29.2588914
40
0.5133226
50
26.525419
51
60.1451222
0
ARC
8
DEFAULT_255_1_388
10
8.4326526
20
29.1920642
40
0.6559324
50
7.4029944
51
26.832209
0
ARC
8
DEFAULT_255_1_388
10
8.2532923
20
29.1641229
40
0.8374103
50
0.1605597
51
7.7176135
0
ARC
8
DEFAULT_255_1_388
10
8.2717323
20
29.0781321
40
0.8189782
50
348.7289744
51
0.30125
0
ARC
8
DEFAULT_255_1_388
10
8.4580787
20
29.0411156
40
0.628991
50
333.0706936
51
348.7181455
0
ARC
8
DEFAULT_255_1_388
10
8.5668416
20
28.9820449
40
0.5052808
50
299.2531435
51
333.4571133
0
ARC
8
DEFAULT_255_1_388
10
8.5262446
20
29.0591629
40
0.5924066
50
278.1072193
51
299.0340218
0
ARC
8
DEFAULT_255_1_388
10
8.4974495
20
29.2287979
40
0.7644209
50
270.4446841
51
278.4508355
0
ARC
8
DEFAULT_255_1_388
10
8.4997979
20
29.12423
40
0.5179903
50
269.4969684
51
284.0204874
0
ARC
8
DEFAULT_255_1_388
10
8.5397697
20
28.9706415
40
0.3592968
50
283.7699076
51
318.1557121
0
ARC
8
DEFAULT_255_1_388
10
8.5018242
20
28.9990399
40
0.4065308
50
318.7417595
51
343.687252
0
ARC
8
DEFAULT_255_1_388
10
8.2988821
20
29.0624275
40
0.6191194
50
343.3324891
51
355.8548594
0
ARC
8
DEFAULT_255_1_388
10
8.0627859
20
29.0848719
40
0.856237
50
355.4988754
51
0.0789913
0
ARC
8
DEFAULT_255_1_388
10
8.1508658
20
29.167608
40
0.7681709
50
359.6455047
51
9.8607559
0
ARC
8
DEFAULT_255_1_388
10
8.4164381
20
29.2155664
40
0.498312
50
9.6573037
51
26.1931522
0
ARC
8
DEFAULT_255_1_388
10
8.5208456
20
29.2640587
40
0.3832303
50
26.5777895
51
40.1533752
0
ARC
8
DEFAULT_255_1_388
10
8.5496121
20
29.286502
40
0.3467742
50
40.3839958
51
80.1430923
0
ARC
8
DEFAULT_255_1_388
10
8.5128377
20
29.1234486
40
0.5137832
50
79.2153636
51
89.7445174
0
LINE
8
DEFAULT_255_1_388
10
4.2446444
20
37.7174898
11
4.5617955
21
37.2133009
0
LINE
8
DEFAULT_255_1_388
10
4.5617955
20
37.2133009
11
4.8771395
21
37.7174898
0
LINE
8
DEFAULT_255_1_388
10
4.8771395
20
37.7174898
11
5.0813451
21
37.7174898
0
LINE
8
DEFAULT_255_1_388
10
5.0813451
20
37.7174898
11
4.6657054
21
37.0651163
0
LINE
8
DEFAULT_255_1_388
10
4.6657054
20
37.0651163
11
5.0912843
21
36.4019
0
LINE
8
DEFAULT_255_1_388
10
5.0912843
20
36.4019
11
4.8852716
21
36.4019
0
LINE
8
DEFAULT_255_1_388
10
4.8852716
20
36.4019
11
4.5617955
21
36.9151246
0
LINE
8
DEFAULT_255_1_388
10
4.5617955
20
36.9151246
11
4.2365123
21
36.4019
0
LINE
8
DEFAULT_255_1_388
10
4.2365123
20
36.4019
11
4.0314032
21
36.4019
0
LINE
8
DEFAULT_255_1_388
10
4.0314032
20
36.4019
11
4.4578856
21
37.0651163
0
LINE
8
DEFAULT_255_1_388
10
4.4578856
20
37.0651163
11
4.0413424
21
37.7174898
0
LINE
8
DEFAULT_255_1_388
10
4.0413424
20
37.7174898
11
4.2446444
21
37.7174898
0
LINE
8
DEFAULT_255_1_388
10
5.6569156
20
36.4019
11
5.2927792
21
36.4019
0
LINE
8
DEFAULT_255_1_388
10
5.2927792
20
36.4019
11
5.2927792
21
37.7174898
0
LINE
8
DEFAULT_255_1_388
10
5.2927792
20
37.7174898
11
5.6641441
21
37.7174898
0
LINE
8
DEFAULT_255_1_388
10
6.2442325
20
37.1039696
11
6.2442325
21
37.0199381
0
LINE
8
DEFAULT_255_1_388
10
5.668662
20
37.5747267
11
5.4662635
21
37.5747267
0
LINE
8
DEFAULT_255_1_388
10
5.4662635
20
37.5747267
11
5.4662635
21
36.5437596
0
LINE
8
DEFAULT_255_1_388
10
5.4662635
20
36.5437596
11
5.6487835
21
36.5437596
0
LINE
8
DEFAULT_255_1_388
10
6.0725553
20
37.0235523
11
6.0725553
21
37.1003553
0
ARC
8
DEFAULT_255_1_388
10
5.6685236
20
37.0576436
40
0.6598608
50
75.4100343
51
90.3802731
0
ARC
8
DEFAULT_255_1_388
10
5.6943482
20
37.1652691
40
0.5492049
50
60.1455157
51
75.1889627
0
ARC
8
DEFAULT_255_1_388
10
5.7122073
20
37.1963914
40
0.5133226
50
26.525419
51
60.1451222
0
ARC
8
DEFAULT_255_1_388
10
5.5861859
20
37.1295642
40
0.6559324
50
7.4029944
51
26.832209
0
ARC
8
DEFAULT_255_1_388
10
5.4068257
20
37.1016229
40
0.8374103
50
0.1605597
51
7.7176135
0
ARC
8
DEFAULT_255_1_388
10
5.4252657
20
37.0156321
40
0.8189782
50
348.7289744
51
0.30125
0
ARC
8
DEFAULT_255_1_388
10
5.6116121
20
36.9786156
40
0.628991
50
333.0706936
51
348.7181455
0
ARC
8
DEFAULT_255_1_388
10
5.7203749
20
36.9195449
40
0.5052808
50
299.2531435
51
333.4571133
0
ARC
8
DEFAULT_255_1_388
10
5.679778
20
36.9966629
40
0.5924066
50
278.1072193
51
299.0340218
0
ARC
8
DEFAULT_255_1_388
10
5.6509829
20
37.1662979
40
0.7644209
50
270.4446841
51
278.4508355
0
ARC
8
DEFAULT_255_1_388
10
5.6533312
20
37.06173
40
0.5179903
50
269.4969684
51
284.0204874
0
ARC
8
DEFAULT_255_1_388
10
5.6933031
20
36.9081415
40
0.3592968
50
283.7699076
51
318.1557121
0
ARC
8
DEFAULT_255_1_388
10
5.6553576
20
36.9365399
40
0.4065308
50
318.7417595
51
343.687252
0
ARC
8
DEFAULT_255_1_388
10
5.4524155
20
36.9999275
40
0.6191194
50
343.3324891
51
355.8548594
0
ARC
8
DEFAULT_255_1_388
10
5.2163192
20
37.0223719
40
0.856237
50
355.4988754
51
0.0789913
0
ARC
8
DEFAULT_255_1_388
10
5.3043991
20
37.105108
40
0.7681709
50
359.6455047
51
9.8607559
0
ARC
8
DEFAULT_255_1_388
10
5.5699715
20
37.1530664
40
0.498312
50
9.6573037
51
26.1931522
0
ARC
8
DEFAULT_255_1_388
10
5.6743789
20
37.2015587
40
0.3832303
50
26.5777895
51
40.1533752
0
ARC
8
DEFAULT_255_1_388
10
5.7031454
20
37.224002
40
0.3467742
50
40.3839958
51
80.1430923
0
ARC
8
DEFAULT_255_1_388
10
5.666371
20
37.0609486
40
0.5137832
50
79.2153636
51
89.7445174
0
LINE
8
DEFAULT_255_1_388
10
6.6734256
20
37.0271666
11
6.5396981
21
37.0615021
0
LINE
8
DEFAULT_255_1_388
10
6.5396981
20
37.0615021
11
6.6065619
21
37.7174898
0
LINE
8
DEFAULT_255_1_388
10
6.6065619
20
37.7174898
11
7.2806209
21
37.7174898
0
LINE
8
DEFAULT_255_1_388
10
7.2806209
20
37.7174898
11
7.2806209
21
37.5629803
0
LINE
8
DEFAULT_255_1_388
10
7.2806209
20
37.5629803
11
6.7484215
21
37.5629803
0
LINE
8
DEFAULT_255_1_388
10
6.7484215
20
37.5629803
11
6.7086646
21
37.2042652
0
LINE
8
DEFAULT_255_1_388
10
6.4927127
20
36.7479652
11
6.6508365
21
36.7479652
0
LINE
8
DEFAULT_255_1_388
10
6.7177003
20
37.0633092
11
6.6734256
21
37.0271666
0
ARC
8
DEFAULT_255_1_388
10
6.917326
20
36.8465241
40
0.4141476
50
93.7181681
51
120.253934
0
ARC
8
DEFAULT_255_1_388
10
6.9279312
20
36.7556284
40
0.5055616
50
89.9660471
51
94.2495185
0
ARC
8
DEFAULT_255_1_388
10
6.9325134
20
36.8219154
40
0.4392953
50
73.8045384
51
90.5585736
0
ARC
8
DEFAULT_255_1_388
10
6.9589392
20
36.918452
40
0.3392225
50
41.3071072
51
73.543002
0
ARC
8
DEFAULT_255_1_388
10
6.9121212
20
36.8781461
40
0.4009977
50
13.5075837
51
41.2174839
0
ARC
8
DEFAULT_255_1_388
10
6.7274309
20
36.8297907
40
0.5918864
50
1.1330171
51
13.8830737
0
ARC
8
DEFAULT_255_1_388
10
6.5677955
20
36.8212522
40
0.7516787
50
359.9925091
51
1.5431298
0
ARC
8
DEFAULT_255_1_388
10
6.712257
20
36.8166027
40
0.6072343
50
347.8572712
51
0.4294349
0
ARC
8
DEFAULT_255_1_388
10
6.9091705
20
36.7719898
40
0.4053482
50
323.6727442
51
348.1674594
0
ARC
8
DEFAULT_255_1_388
10
6.9422669
20
36.7518175
40
0.3667495
50
316.8171818
51
323.1486802
0
ARC
8
DEFAULT_255_1_388
10
6.9491793
20
36.7476612
40
0.358869
50
281.839603
51
316.5458142
0
ARC
8
DEFAULT_255_1_388
10
6.906908
20
36.9226363
40
0.5388223
50
269.5770964
51
282.4214641
0
ARC
8
DEFAULT_255_1_388
10
6.8989001
20
36.898593
40
0.5147801
50
256.2425863
51
270.4486481
0
ARC
8
DEFAULT_255_1_388
10
6.8652529
20
36.7636124
40
0.3756708
50
228.9024379
51
256.33135
0
ARC
8
DEFAULT_255_1_388
10
6.8569509
20
36.7505054
40
0.360344
50
193.7536029
51
228.5272638
0
ARC
8
DEFAULT_255_1_388
10
6.9962074
20
36.7913463
40
0.5053599
50
184.9244437
51
194.4976052
0
ARC
8
DEFAULT_255_1_388
10
7.0178715
20
36.7953722
40
0.3700839
50
187.3596909
51
198.6733728
0
ARC
8
DEFAULT_255_1_388
10
6.8997959
20
36.7544373
40
0.2451195
50
198.4453795
51
217.7945479
0
ARC
8
DEFAULT_255_1_388
10
6.8665131
20
36.7308563
40
0.2043754
50
218.2887146
51
228.5613203
0
ARC
8
DEFAULT_255_1_388
10
6.8775138
20
36.7456902
40
0.2227819
50
228.9652423
51
258.1237049
0
ARC
8
DEFAULT_255_1_388
10
6.9006576
20
36.8447964
40
0.3245374
50
257.7260585
51
270.4013717
0
ARC
8
DEFAULT_255_1_388
10
6.9057074
20
36.7947255
40
0.2744726
50
269.4204315
51
286.420998
0
ARC
8
DEFAULT_255_1_388
10
6.9224129
20
36.7340705
40
0.2115721
50
286.7250065
51
320.6004665
0
ARC
8
DEFAULT_255_1_388
10
6.8793045
20
36.7690527
40
0.2670878
50
320.6712228
51
344.5440474
0
ARC
8
DEFAULT_255_1_388
10
6.7491759
20
36.8072394
40
0.4026927
50
344.241448
51
356.735803
0
ARC
8
DEFAULT_255_1_388
10
6.6088066
20
36.8188656
40
0.5435085
50
356.3547471
51
0.0507222
0
ARC
8
DEFAULT_255_1_388
10
6.7590331
20
36.8223812
40
0.3932934
50
359.5579289
51
12.9534322
0
ARC
8
DEFAULT_255_1_388
10
6.8777171
20
36.8511586
40
0.2711827
50
12.6489751
51
41.608121
0
ARC
8
DEFAULT_255_1_388
10
6.9036331
20
36.8731946
40
0.2371737
50
41.7851122
51
85.9892156
0
ARC
8
DEFAULT_255_1_388
10
6.8897641
20
36.7816738
40
0.3295244
50
84.6965848
51
90.0672125
0
ARC
8
DEFAULT_255_1_388
10
6.8871208
20
36.7065118
40
0.4046926
50
89.6804991
51
99.161352
0
ARC
8
DEFAULT_255_1_388
10
6.8640218
20
36.8445848
40
0.2647044
50
98.9836248
51
113.8905702
0
ARC
8
DEFAULT_255_1_388
10
6.8381893
20
36.9055118
40
0.1985386
50
114.195234
51
127.3641866
0
LINE
8
DEFAULT_255_1_388
10
4.3775444
20
45.6549898
11
4.6946955
21
45.1508009
0
LINE
8
DEFAULT_255_1_388
10
4.6946955
20
45.1508009
11
5.0100395
21
45.6549898
0
LINE
8
DEFAULT_255_1_388
10
5.0100395
20
45.6549898
11
5.2142451
21
45.6549898
0
LINE
8
DEFAULT_255_1_388
10
5.2142451
20
45.6549898
11
4.7986054
21
45.0026163
0
LINE
8
DEFAULT_255_1_388
10
4.7986054
20
45.0026163
11
5.2241843
21
44.3394
0
LINE
8
DEFAULT_255_1_388
10
5.2241843
20
44.3394
11
5.0181716
21
44.3394
0
LINE
8
DEFAULT_255_1_388
10
5.0181716
20
44.3394
11
4.6946955
21
44.8526246
0
LINE
8
DEFAULT_255_1_388
10
4.6946955
20
44.8526246
11
4.3694123
21
44.3394
0
LINE
8
DEFAULT_255_1_388
10
4.3694123
20
44.3394
11
4.1643032
21
44.3394
0
LINE
8
DEFAULT_255_1_388
10
4.1643032
20
44.3394
11
4.5907856
21
45.0026163
0
LINE
8
DEFAULT_255_1_388
10
4.5907856
20
45.0026163
11
4.1742424
21
45.6549898
0
LINE
8
DEFAULT_255_1_388
10
4.1742424
20
45.6549898
11
4.3775444
21
45.6549898
0
LINE
8
DEFAULT_255_1_388
10
5.7898156
20
44.3394
11
5.4256792
21
44.3394
0
LINE
8
DEFAULT_255_1_388
10
5.4256792
20
44.3394
11
5.4256792
21
45.6549898
0
LINE
8
DEFAULT_255_1_388
10
5.4256792
20
45.6549898
11
5.7970441
21
45.6549898
0
LINE
8
DEFAULT_255_1_388
10
6.3771325
20
45.0414696
11
6.3771325
21
44.9574381
0
LINE
8
DEFAULT_255_1_388
10
5.801562
20
45.5122267
11
5.5991635
21
45.5122267
0
LINE
8
DEFAULT_255_1_388
10
5.5991635
20
45.5122267
11
5.5991635
21
44.4812596
0
LINE
8
DEFAULT_255_1_388
10
5.5991635
20
44.4812596
11
5.7816835
21
44.4812596
0
LINE
8
DEFAULT_255_1_388
10
6.2054553
20
44.9610523
11
6.2054553
21
45.0378553
0
ARC
8
DEFAULT_255_1_388
10
5.8014236
20
44.9951436
40
0.6598608
50
75.4100343
51
90.3802731
0
ARC
8
DEFAULT_255_1_388
10
5.8272482
20
45.1027691
40
0.5492049
50
60.1455157
51
75.1889627
0
ARC
8
DEFAULT_255_1_388
10
5.8451073
20
45.1338914
40
0.5133226
50
26.525419
51
60.1451222
0
ARC
8
DEFAULT_255_1_388
10
5.7190859
20
45.0670642
40
0.6559324
50
7.4029944
51
26.832209
0
ARC
8
DEFAULT_255_1_388
10
5.5397257
20
45.0391229
40
0.8374103
50
0.1605597
51
7.7176135
0
ARC
8
DEFAULT_255_1_388
10
5.5581657
20
44.9531321
40
0.8189782
50
348.7289744
51
0.30125
0
ARC
8
DEFAULT_255_1_388
10
5.7445121
20
44.9161156
40
0.628991
50
333.0706936
51
348.7181455
0
ARC
8
DEFAULT_255_1_388
10
5.8532749
20
44.8570449
40
0.5052808
50
299.2531435
51
333.4571133
0
ARC
8
DEFAULT_255_1_388
10
5.812678
20
44.9341629
40
0.5924066
50
278.1072193
51
299.0340218
0
ARC
8
DEFAULT_255_1_388
10
5.7838829
20
45.1037979
40
0.7644209
50
270.4446841
51
278.4508355
0
ARC
8
DEFAULT_255_1_388
10
5.7862312
20
44.99923
40
0.5179903
50
269.4969684
51
284.0204874
0
ARC
8
DEFAULT_255_1_388
10
5.8262031
20
44.8456415
40
0.3592968
50
283.7699076
51
318.1557121
0
ARC
8
DEFAULT_255_1_388
10
5.7882576
20
44.8740399
40
0.4065308
50
318.7417595
51
343.687252
0
ARC
8
DEFAULT_255_1_388
10
5.5853155
20
44.9374275
40
0.6191194
50
343.3324891
51
355.8548594
0
ARC
8
DEFAULT_255_1_388
10
5.3492192
20
44.9598719
40
0.856237
50
355.4988754
51
0.0789913
0
ARC
8
DEFAULT_255_1_388
10
5.4372991
20
45.042608
40
0.7681709
50
359.6455047
51
9.8607559
0
ARC
8
DEFAULT_255_1_388
10
5.7028715
20
45.0905664
40
0.498312
50
9.6573037
51
26.1931522
0
ARC
8
DEFAULT_255_1_388
10
5.8072789
20
45.1390587
40
0.3832303
50
26.5777895
51
40.1533752
0
ARC
8
DEFAULT_255_1_388
10
5.8360454
20
45.161502
40
0.3467742
50
40.3839958
51
80.1430923
0
ARC
8
DEFAULT_255_1_388
10
5.799271
20
44.9984486
40
0.5137832
50
79.2153636
51
89.7445174
0
LINE
8
DEFAULT_255_1_388
10
7.4577956
20
44.4758382
11
7.4577956
21
44.3394
0
LINE
8
DEFAULT_255_1_388
10
7.4577956
20
44.3394
11
6.5957951
21
44.3394
0
LINE
8
DEFAULT_255_1_388
10
6.5957951
20
44.3394
11
6.5957951
21
44.4595741
0
LINE
8
DEFAULT_255_1_388
10
6.5957951
20
44.4595741
11
7.0511916
21
44.9655702
0
LINE
8
DEFAULT_255_1_388
10
6.7376547
20
45.2673607
11
6.5704953
21
45.2673607
0
LINE
8
DEFAULT_255_1_388
10
7.1496801
20
44.858046
11
6.79729
21
44.4758382
0
LINE
8
DEFAULT_255_1_388
10
6.79729
20
44.4758382
11
7.4577956
21
44.4758382
0
ARC
8
DEFAULT_255_1_388
10
5.5335976
20
46.3075983
40
2.0258655
50
318.5132526
51
320.7829045
0
ARC
8
DEFAULT_255_1_388
10
6.1283932
20
45.8234929
40
1.2589638
50
320.7372878
51
323.9739031
0
ARC
8
DEFAULT_255_1_388
10
6.5692864
20
45.5040554
40
0.7145141
50
323.8962701
51
328.64194
0
ARC
8
DEFAULT_255_1_388
10
6.7995122
20
45.3620545
40
0.4440242
50
328.8294576
51
331.7891185
0
ARC
8
DEFAULT_255_1_388
10
6.9117442
20
45.3041374
40
0.3177517
50
331.4254512
51
352.9365785
0
ARC
8
DEFAULT_255_1_388
10
6.9270442
20
45.300705
40
0.3021496
50
353.2257659
51
0.0166158
0
ARC
8
DEFAULT_255_1_388
10
6.9507202
20
45.3032894
40
0.2784847
50
359.486299
51
15.9343185
0
ARC
8
DEFAULT_255_1_388
10
7.0077469
20
45.3186269
40
0.2194403
50
16.1712913
51
43.5286088
0
ARC
8
DEFAULT_255_1_388
10
7.0164414
20
45.3273191
40
0.2071504
50
43.4417391
51
83.1661095
0
ARC
8
DEFAULT_255_1_388
10
7.0013575
20
45.2444316
40
0.2912888
50
82.160179
51
90.1505708
0
ARC
8
DEFAULT_255_1_388
10
6.9978057
20
45.1840279
40
0.3517025
50
89.5460741
51
102.5418361
0
ARC
8
DEFAULT_255_1_388
10
6.9704777
20
45.2999933
40
0.2325748
50
102.1738499
51
129.206123
0
ARC
8
DEFAULT_255_1_388
10
6.961623
20
45.3139664
40
0.2161591
50
129.72865
51
135.753947
0
ARC
8
DEFAULT_255_1_388
10
6.9752712
20
45.3030728
40
0.2335433
50
136.1757367
51
166.3673339
0
ARC
8
DEFAULT_255_1_388
10
7.0885401
20
45.2727148
40
0.3507873
50
165.9090694
51
178.8684636
0
ARC
8
DEFAULT_255_1_388
10
7.1861172
20
45.2674263
40
0.4484624
50
178.4391136
51
180.0083808
0
ARC
8
DEFAULT_255_1_388
10
7.0281873
20
45.2718197
40
0.4577138
50
163.2878482
51
180.5581842
0
ARC
8
DEFAULT_255_1_388
10
6.9379915
20
45.2966393
40
0.3641968
50
133.4540601
51
162.947111
0
ARC
8
DEFAULT_255_1_388
10
6.9580796
20
45.2752789
40
0.3935189
50
100.7869829
51
133.4382499
0
ARC
8
DEFAULT_255_1_388
10
6.9972041
20
45.1010399
40
0.5720313
50
89.660664
51
101.3702276
0
ARC
8
DEFAULT_255_1_388
10
7.004665
20
45.1079263
40
0.5651495
50
78.2172678
51
90.412935
0
ARC
8
DEFAULT_255_1_388
10
7.0446116
20
45.2906511
40
0.378122
50
55.9269121
51
78.4888449
0
ARC
8
DEFAULT_255_1_388
10
7.0666831
20
45.3287187
40
0.3342379
50
47.929771
51
55.4049217
0
ARC
8
DEFAULT_255_1_388
10
7.0781362
20
45.3403618
40
0.3179217
50
4.334829
51
48.0560205
0
ARC
8
DEFAULT_255_1_388
10
6.9549163
20
45.3212487
40
0.442341
50
359.9251713
51
5.5971671
0
ARC
8
DEFAULT_255_1_388
10
7.0031318
20
45.3275728
40
0.3941854
50
337.8914027
51
358.9967534
0
ARC
8
DEFAULT_255_1_388
10
6.6978888
20
45.4453295
40
0.7213271
50
326.9132501
51
338.3508308
0
ARC
8
DEFAULT_255_1_388
10
6.2495
20
45.7327105
40
1.2538973
50
319.6471833
51
327.0959558
0
ARC
8
DEFAULT_255_1_388
10
5.8181658
20
46.088505
40
1.8129975
50
317.2588228
51
319.9045804
0
LINE
8
DEFAULT_255_1_388
10
8.3405781
20
45.6549898
11
8.3405781
21
44.781243
0
LINE
8
DEFAULT_255_1_388
10
8.3405781
20
44.781243
11
8.5230981
21
44.781243
0
LINE
8
DEFAULT_255_1_388
10
8.5230981
20
44.781243
11
8.5230981
21
44.6448048
0
LINE
8
DEFAULT_255_1_388
10
8.5230981
20
44.6448048
11
8.3405781
21
44.6448048
0
LINE
8
DEFAULT_255_1_388
10
8.3405781
20
44.6448048
11
8.3405781
21
44.3394
0
LINE
8
DEFAULT_255_1_388
10
8.3405781
20
44.3394
11
8.1725151
21
44.3394
0
LINE
8
DEFAULT_255_1_388
10
8.1725151
20
44.3394
11
8.1725151
21
44.6448048
0
LINE
8
DEFAULT_255_1_388
10
8.1725151
20
44.6448048
11
7.5734519
21
44.6448048
0
LINE
8
DEFAULT_255_1_388
10
7.5734519
20
44.6448048
11
7.5734519
21
44.7432933
0
LINE
8
DEFAULT_255_1_388
10
7.5734519
20
44.7432933
11
8.1625759
21
45.6549898
0
LINE
8
DEFAULT_255_1_388
10
8.1625759
20
45.6549898
11
8.3405781
21
45.6549898
0
LINE
8
DEFAULT_255_1_388
10
8.1526367
20
45.3902455
11
7.7632004
21
44.781243
0
LINE
8
DEFAULT_255_1_388
10
7.7632004
20
44.781243
11
8.1725151
21
44.781243
0
LINE
8
DEFAULT_255_1_388
10
8.1725151
20
44.781243
11
8.1725151
21
45.426388
0
LINE
8
DEFAULT_255_1_388
10
8.1725151
20
45.426388
11
8.1526367
21
45.3902455
0
LINE
8
DEFAULT_255_1_388
10
4.5863024
20
52.2769
11
4.1300024
21
52.2769
0
LINE
8
DEFAULT_255_1_388
10
4.1300024
20
52.2769
11
4.1300024
21
53.5924898
0
LINE
8
DEFAULT_255_1_388
10
4.1300024
20
53.5924898
11
4.5600991
21
53.5924898
0
LINE
8
DEFAULT_255_1_388
10
4.5926274
20
52.8922274
11
4.3034868
21
52.8922274
0
LINE
8
DEFAULT_255_1_388
10
4.3034868
20
52.8922274
11
4.3034868
21
52.4187596
0
LINE
8
DEFAULT_255_1_388
10
4.3034868
20
52.4187596
11
4.5899167
21
52.4187596
0
LINE
8
DEFAULT_255_1_388
10
4.3034868
20
53.4497267
11
4.3034868
21
53.0313763
0
LINE
8
DEFAULT_255_1_388
10
4.3034868
20
53.0313763
11
4.5655205
21
53.0313763
0
LINE
8
DEFAULT_255_1_388
10
4.5600991
20
53.4497267
11
4.3034868
21
53.4497267
0
ARC
8
DEFAULT_255_1_388
10
4.5643411
20
52.7636824
40
0.8288183
50
82.1256322
51
90.2932506
0
ARC
8
DEFAULT_255_1_388
10
4.6080986
20
53.069459
40
0.5199321
50
69.9044202
51
82.2857574
0
ARC
8
DEFAULT_255_1_388
10
4.6722979
20
53.2429993
40
0.3348993
50
51.1840204
51
70.018125
0
ARC
8
DEFAULT_255_1_388
10
4.7009811
20
53.2846945
40
0.2844579
50
12.1018086
51
50.421322
0
ARC
8
DEFAULT_255_1_388
10
4.5452682
20
53.2455937
40
0.4449429
50
359.5252354
51
12.8212369
0
ARC
8
DEFAULT_255_1_388
10
4.7230112
20
53.2377943
40
0.2672162
50
323.4907456
51
0.8818258
0
ARC
8
DEFAULT_255_1_388
10
4.6759525
20
53.2741523
40
0.3266736
50
298.6824053
51
323.2758285
0
ARC
8
DEFAULT_255_1_388
10
4.6352816
20
53.3417509
40
0.4055105
50
293.1994739
51
299.139634
0
ARC
8
DEFAULT_255_1_388
10
4.7109766
20
52.6571651
40
0.3229926
50
54.0009997
51
74.9168635
0
ARC
8
DEFAULT_255_1_388
10
4.7240693
20
52.6793511
40
0.2973581
50
36.3578854
51
53.5293172
0
ARC
8
DEFAULT_255_1_388
10
4.7098061
20
52.669185
40
0.3148715
50
4.8189348
51
36.3090187
0
ARC
8
DEFAULT_255_1_388
10
4.6221085
20
52.6568383
40
0.4033265
50
359.9373213
51
5.5201284
0
ARC
8
DEFAULT_255_1_388
10
4.5856415
20
52.6522733
40
0.4398126
50
344.7479357
51
0.5372278
0
ARC
8
DEFAULT_255_1_388
10
4.6971314
20
52.6222205
40
0.3243441
50
311.1785587
51
344.6887681
0
ARC
8
DEFAULT_255_1_388
10
4.6642857
20
52.6631084
40
0.3767511
50
286.0417804
51
310.8440924
0
ARC
8
DEFAULT_255_1_388
10
4.6072266
20
52.8483885
40
0.5705957
50
274.1044074
51
286.4070149
0
ARC
8
DEFAULT_255_1_388
10
4.5873482
20
53.0601901
40
0.7832907
50
269.9235077
51
274.4458593
0
ARC
8
DEFAULT_255_1_388
10
4.59252
20
52.7970462
40
0.3782955
50
269.6057074
51
281.3740795
0
ARC
8
DEFAULT_255_1_388
10
4.6184698
20
52.6740569
40
0.2526069
50
281.105298
51
302.5134029
0
ARC
8
DEFAULT_255_1_388
10
4.6350086
20
52.6443944
40
0.2187131
50
303.0365425
51
311.8818034
0
ARC
8
DEFAULT_255_1_388
10
4.6430263
20
52.6348602
40
0.2062624
50
311.9916937
51
351.7143773
0
ARC
8
DEFAULT_255_1_388
10
4.5511288
20
52.6534271
40
0.2999202
50
350.7343295
51
0.2221526
0
ARC
8
DEFAULT_255_1_388
10
4.5390376
20
52.659787
40
0.3120525
50
359.045729
51
17.2295312
0
ARC
8
DEFAULT_255_1_388
10
4.6559406
20
52.6945155
40
0.1901144
50
17.6685208
51
78.9940245
0
ARC
8
DEFAULT_255_1_388
10
4.5977767
20
52.4857011
40
0.4065575
50
76.565218
51
90.7103392
0
LINE
8
DEFAULT_255_1_388
10
4.5927364
20
52.8922274
11
4.5926274
21
52.8922274
0
ARC
8
DEFAULT_255_1_388
10
4.5680593
20
53.4009949
40
0.3696273
50
269.6064514
51
281.4533785
0
ARC
8
DEFAULT_255_1_388
10
4.5931234
20
53.2827283
40
0.2487412
50
281.2044438
51
302.5143998
0
ARC
8
DEFAULT_255_1_388
10
4.6085488
20
53.2549576
40
0.2170405
50
303.0211308
51
309.8378766
0
ARC
8
DEFAULT_255_1_388
10
4.6291605
20
53.2318486
40
0.1860946
50
309.5229446
51
356.9509628
0
ARC
8
DEFAULT_255_1_388
10
4.5545731
20
53.2425831
40
0.2612347
50
355.4699226
51
0.0498632
0
ARC
8
DEFAULT_255_1_388
10
4.5231404
20
53.2450789
40
0.2926762
50
359.5558955
51
11.2092924
0
ARC
8
DEFAULT_255_1_388
10
4.6308372
20
53.2673667
40
0.1827036
50
10.9185717
51
31.322519
0
ARC
8
DEFAULT_255_1_388
10
4.662992
20
53.2852571
40
0.1459418
50
31.8850633
51
52.1415586
0
ARC
8
DEFAULT_255_1_388
10
4.6321349
20
53.2416674
40
0.1993088
50
52.8283418
51
71.9850132
0
ARC
8
DEFAULT_255_1_388
10
4.589851
20
53.1172158
40
0.3307407
50
71.686634
51
82.8453416
0
ARC
8
DEFAULT_255_1_388
10
4.5629157
20
52.9136892
40
0.536039
50
82.6981895
51
90.1730083
0
ARC
8
DEFAULT_255_1_388
10
4.5603989
20
53.0015836
40
0.4481429
50
89.8851568
51
90.0383283
0
LINE
8
DEFAULT_255_1_388
10
5.603716
20
52.9039737
11
5.603716
21
52.7675355
0
LINE
8
DEFAULT_255_1_388
10
5.603716
20
52.7675355
11
5.1627766
21
52.7675355
0
LINE
8
DEFAULT_255_1_388
10
5.1627766
20
52.7675355
11
5.1627766
21
52.9039737
0
LINE
8
DEFAULT_255_1_388
10
5.1627766
20
52.9039737
11
5.603716
21
52.9039737
0
LINE
8
DEFAULT_255_1_388
10
4.4506024
20
60.2144
11
3.9943024
21
60.2144
0
LINE
8
DEFAULT_255_1_388
10
3.9943024
20
60.2144
11
3.9943024
21
61.5299898
0
LINE
8
DEFAULT_255_1_388
10
3.9943024
20
61.5299898
11
4.4243991
21
61.5299898
0
LINE
8
DEFAULT_255_1_388
10
4.4569274
20
60.8297274
11
4.1677868
21
60.8297274
0
LINE
8
DEFAULT_255_1_388
10
4.1677868
20
60.8297274
11
4.1677868
21
60.3562596
0
LINE
8
DEFAULT_255_1_388
10
4.1677868
20
60.3562596
11
4.4542167
21
60.3562596
0
LINE
8
DEFAULT_255_1_388
10
4.1677868
20
61.3872267
11
4.1677868
21
60.9688763
0
LINE
8
DEFAULT_255_1_388
10
4.1677868
20
60.9688763
11
4.4298205
21
60.9688763
0
LINE
8
DEFAULT_255_1_388
10
4.4243991
20
61.3872267
11
4.1677868
21
61.3872267
0
ARC
8
DEFAULT_255_1_388
10
4.4286411
20
60.7011824
40
0.8288183
50
82.1256322
51
90.2932506
0
ARC
8
DEFAULT_255_1_388
10
4.4723986
20
61.006959
40
0.5199321
50
69.9044202
51
82.2857574
0
ARC
8
DEFAULT_255_1_388
10
4.5365979
20
61.1804993
40
0.3348993
50
51.1840204
51
70.018125
0
ARC
8
DEFAULT_255_1_388
10
4.5652811
20
61.2221945
40
0.2844579
50
12.1018086
51
50.421322
0
ARC
8
DEFAULT_255_1_388
10
4.4095682
20
61.1830937
40
0.4449429
50
359.5252354
51
12.8212369
0
ARC
8
DEFAULT_255_1_388
10
4.5873112
20
61.1752943
40
0.2672162
50
323.4907456
51
0.8818258
0
ARC
8
DEFAULT_255_1_388
10
4.5402525
20
61.2116523
40
0.3266736
50
298.6824053
51
323.2758285
0
ARC
8
DEFAULT_255_1_388
10
4.4995816
20
61.2792509
40
0.4055105
50
293.1994739
51
299.139634
0
ARC
8
DEFAULT_255_1_388
10
4.5752766
20
60.5946651
40
0.3229926
50
54.0009997
51
74.9168635
0
ARC
8
DEFAULT_255_1_388
10
4.5883693
20
60.6168511
40
0.2973581
50
36.3578854
51
53.5293172
0
ARC
8
DEFAULT_255_1_388
10
4.5741061
20
60.606685
40
0.3148715
50
4.8189348
51
36.3090187
0
ARC
8
DEFAULT_255_1_388
10
4.4864085
20
60.5943383
40
0.4033265
50
359.9373213
51
5.5201284
0
ARC
8
DEFAULT_255_1_388
10
4.4499415
20
60.5897733
40
0.4398126
50
344.7479357
51
0.5372278
0
ARC
8
DEFAULT_255_1_388
10
4.5614314
20
60.5597205
40
0.3243441
50
311.1785587
51
344.6887681
0
ARC
8
DEFAULT_255_1_388
10
4.5285857
20
60.6006084
40
0.3767511
50
286.0417804
51
310.8440924
0
ARC
8
DEFAULT_255_1_388
10
4.4715266
20
60.7858885
40
0.5705957
50
274.1044074
51
286.4070149
0
ARC
8
DEFAULT_255_1_388
10
4.4516482
20
60.9976901
40
0.7832907
50
269.9235077
51
274.4458593
0
ARC
8
DEFAULT_255_1_388
10
4.45682
20
60.7345462
40
0.3782955
50
269.6057074
51
281.3740795
0
ARC
8
DEFAULT_255_1_388
10
4.4827698
20
60.6115569
40
0.2526069
50
281.105298
51
302.5134029
0
ARC
8
DEFAULT_255_1_388
10
4.4993086
20
60.5818944
40
0.2187131
50
303.0365425
51
311.8818034
0
ARC
8
DEFAULT_255_1_388
10
4.5073263
20
60.5723602
40
0.2062624
50
311.9916937
51
351.7143773
0
ARC
8
DEFAULT_255_1_388
10
4.4154288
20
60.5909271
40
0.2999202
50
350.7343295
51
0.2221526
0
ARC
8
DEFAULT_255_1_388
10
4.4033376
20
60.597287
40
0.3120525
50
359.045729
51
17.2295312
0
ARC
8
DEFAULT_255_1_388
10
4.5202406
20
60.6320155
40
0.1901144
50
17.6685208
51
78.9940245
0
ARC
8
DEFAULT_255_1_388
10
4.4620767
20
60.4232011
40
0.4065575
50
76.565218
51
90.7103392
0
LINE
8
DEFAULT_255_1_388
10
4.4570364
20
60.8297274
11
4.4569274
21
60.8297274
0
ARC
8
DEFAULT_255_1_388
10
4.4323593
20
61.3384949
40
0.3696273
50
269.6064514
51
281.4533785
0
ARC
8
DEFAULT_255_1_388
10
4.4574234
20
61.2202283
40
0.2487412
50
281.2044438
51
302.5143998
0
ARC
8
DEFAULT_255_1_388
10
4.4728488
20
61.1924576
40
0.2170405
50
303.0211308
51
309.8378766
0
ARC
8
DEFAULT_255_1_388
10
4.4934605
20
61.1693486
40
0.1860946
50
309.5229446
51
356.9509628
0
ARC
8
DEFAULT_255_1_388
10
4.4188731
20
61.1800831
40
0.2612347
50
355.4699226
51
0.0498632
0
ARC
8
DEFAULT_255_1_388
10
4.3874404
20
61.1825789
40
0.2926762
50
359.5558955
51
11.2092924
0
ARC
8
DEFAULT_255_1_388
10
4.4951372
20
61.2048667
40
0.1827036
50
10.9185717
51
31.322519
0
ARC
8
DEFAULT_255_1_388
10
4.527292
20
61.2227571
40
0.1459418
50
31.8850633
51
52.1415586
0
ARC
8
DEFAULT_255_1_388
10
4.4964349
20
61.1791674
40
0.1993088
50
52.8283418
51
71.9850132
0
ARC
8
DEFAULT_255_1_388
10
4.454151
20
61.0547158
40
0.3307407
50
71.686634
51
82.8453416
0
ARC
8
DEFAULT_255_1_388
10
4.4272157
20
60.8511892
40
0.536039
50
82.6981895
51
90.1730083
0
ARC
8
DEFAULT_255_1_388
10
4.4246989
20
60.9390836
40
0.4481429
50
89.8851568
51
90.0383283
0
LINE
8
DEFAULT_255_1_388
10
5.3135065
20
60.8396666
11
5.179779
21
60.8740021
0
LINE
8
DEFAULT_255_1_388
10
5.179779
20
60.8740021
11
5.2466427
21
61.5299898
0
LINE
8
DEFAULT_255_1_388
10
5.2466427
20
61.5299898
11
5.9207018
21
61.5299898
0
LINE
8
DEFAULT_255_1_388
10
5.9207018
20
61.5299898
11
5.9207018
21
61.3754803
0
LINE
8
DEFAULT_255_1_388
10
5.9207018
20
61.3754803
11
5.3885023
21
61.3754803
0
LINE
8
DEFAULT_255_1_388
10
5.3885023
20
61.3754803
11
5.3487455
21
61.0167652
0
LINE
8
DEFAULT_255_1_388
10
5.1327936
20
60.5604652
11
5.2909174
21
60.5604652
0
LINE
8
DEFAULT_255_1_388
10
5.3577812
20
60.8758092
11
5.3135065
21
60.8396666
0
ARC
8
DEFAULT_255_1_388
10
5.5574069
20
60.6590241
40
0.4141476
50
93.7181681
51
120.253934
0
ARC
8
DEFAULT_255_1_388
10
5.5680121
20
60.5681284
40
0.5055616
50
89.9660471
51
94.2495185
0
ARC
8
DEFAULT_255_1_388
10
5.5725943
20
60.6344154
40
0.4392953
50
73.8045384
51
90.5585736
0
ARC
8
DEFAULT_255_1_388
10
5.59902
20
60.730952
40
0.3392225
50
41.3071072
51
73.543002
0
ARC
8
DEFAULT_255_1_388
10
5.552202
20
60.6906461
40
0.4009977
50
13.5075837
51
41.2174839
0
ARC
8
DEFAULT_255_1_388
10
5.3675118
20
60.6422907
40
0.5918864
50
1.1330171
51
13.8830737
0
ARC
8
DEFAULT_255_1_388
10
5.2078764
20
60.6337522
40
0.7516787
50
359.9925091
51
1.5431298
0
ARC
8
DEFAULT_255_1_388
10
5.3523378
20
60.6291027
40
0.6072343
50
347.8572712
51
0.4294349
0
ARC
8
DEFAULT_255_1_388
10
5.5492513
20
60.5844898
40
0.4053482
50
323.6727442
51
348.1674594
0
ARC
8
DEFAULT_255_1_388
10
5.5823478
20
60.5643175
40
0.3667495
50
316.8171818
51
323.1486802
0
ARC
8
DEFAULT_255_1_388
10
5.5892601
20
60.5601612
40
0.358869
50
281.839603
51
316.5458142
0
ARC
8
DEFAULT_255_1_388
10
5.5469889
20
60.7351363
40
0.5388223
50
269.5770964
51
282.4214641
0
ARC
8
DEFAULT_255_1_388
10
5.538981
20
60.711093
40
0.5147801
50
256.2425863
51
270.4486481
0
ARC
8
DEFAULT_255_1_388
10
5.5053337
20
60.5761124
40
0.3756708
50
228.9024379
51
256.33135
0
ARC
8
DEFAULT_255_1_388
10
5.4970318
20
60.5630054
40
0.360344
50
193.7536029
51
228.5272638
0
ARC
8
DEFAULT_255_1_388
10
5.6362883
20
60.6038463
40
0.5053599
50
184.9244437
51
194.4976052
0
ARC
8
DEFAULT_255_1_388
10
5.6579524
20
60.6078722
40
0.3700839
50
187.3596909
51
198.6733728
0
ARC
8
DEFAULT_255_1_388
10
5.5398767
20
60.5669373
40
0.2451195
50
198.4453795
51
217.7945479
0
ARC
8
DEFAULT_255_1_388
10
5.506594
20
60.5433563
40
0.2043754
50
218.2887146
51
228.5613203
0
ARC
8
DEFAULT_255_1_388
10
5.5175947
20
60.5581902
40
0.2227819
50
228.9652423
51
258.1237049
0
ARC
8
DEFAULT_255_1_388
10
5.5407384
20
60.6572964
40
0.3245374
50
257.7260585
51
270.4013717
0
ARC
8
DEFAULT_255_1_388
10
5.5457882
20
60.6072255
40
0.2744726
50
269.4204315
51
286.420998
0
ARC
8
DEFAULT_255_1_388
10
5.5624938
20
60.5465705
40
0.2115721
50
286.7250065
51
320.6004665
0
ARC
8
DEFAULT_255_1_388
10
5.5193853
20
60.5815527
40
0.2670878
50
320.6712228
51
344.5440474
0
ARC
8
DEFAULT_255_1_388
10
5.3892567
20
60.6197394
40
0.4026927
50
344.241448
51
356.735803
0
ARC
8
DEFAULT_255_1_388
10
5.2488874
20
60.6313656
40
0.5435085
50
356.3547471
51
0.0507222
0
ARC
8
DEFAULT_255_1_388
10
5.399114
20
60.6348812
40
0.3932934
50
359.5579289
51
12.9534322
0
ARC
8
DEFAULT_255_1_388
10
5.5177979
20
60.6636586
40
0.2711827
50
12.6489751
51
41.608121
0
ARC
8
DEFAULT_255_1_388
10
5.5437139
20
60.6856946
40
0.2371737
50
41.7851122
51
85.9892156
0
ARC
8
DEFAULT_255_1_388
10
5.529845
20
60.5941738
40
0.3295244
50
84.6965848
51
90.0672125
0
ARC
8
DEFAULT_255_1_388
10
5.5272017
20
60.5190118
40
0.4046926
50
89.6804991
51
99.161352
0
ARC
8
DEFAULT_255_1_388
10
5.5041026
20
60.6570848
40
0.2647044
50
98.9836248
51
113.8905702
0
ARC
8
DEFAULT_255_1_388
10
5.4782701
20
60.7180118
40
0.1985386
50
114.195234
51
127.3641866
0
LINE
8
DEFAULT_255_1_388
10
6.638132
20
61.3040987
11
6.638132
21
60.9200838
0
LINE
8
DEFAULT_255_1_388
10
6.638132
20
60.9200838
11
7.0049792
21
60.9200838
0
LINE
8
DEFAULT_255_1_388
10
7.0049792
20
60.9200838
11
7.0049792
21
60.7619601
0
LINE
8
DEFAULT_255_1_388
10
7.0049792
20
60.7619601
11
6.638132
21
60.7619601
0
LINE
8
DEFAULT_255_1_388
10
6.638132
20
60.7619601
11
6.638132
21
60.3463204
0
LINE
8
DEFAULT_255_1_388
10
6.638132
20
60.3463204
11
6.470069
21
60.3463204
0
LINE
8
DEFAULT_255_1_388
10
6.470069
20
60.3463204
11
6.470069
21
60.7619601
0
LINE
8
DEFAULT_255_1_388
10
6.470069
20
60.7619601
11
6.1032218
21
60.7619601
0
LINE
8
DEFAULT_255_1_388
10
6.1032218
20
60.7619601
11
6.1032218
21
60.9200838
0
LINE
8
DEFAULT_255_1_388
10
6.1032218
20
60.9200838
11
6.470069
21
60.9200838
0
LINE
8
DEFAULT_255_1_388
10
6.470069
20
60.9200838
11
6.470069
21
61.3040987
0
LINE
8
DEFAULT_255_1_388
10
6.470069
20
61.3040987
11
6.638132
21
61.3040987
0
LINE
8
DEFAULT_255_1_388
10
4.4512024
20
68.1519
11
3.9949024
21
68.1519
0
LINE
8
DEFAULT_255_1_388
10
3.9949024
20
68.1519
11
3.9949024
21
69.4674898
0
LINE
8
DEFAULT_255_1_388
10
3.9949024
20
69.4674898
11
4.4249991
21
69.4674898
0
LINE
8
DEFAULT_255_1_388
10
4.4575274
20
68.7672274
11
4.1683868
21
68.7672274
0
LINE
8
DEFAULT_255_1_388
10
4.1683868
20
68.7672274
11
4.1683868
21
68.2937596
0
LINE
8
DEFAULT_255_1_388
10
4.1683868
20
68.2937596
11
4.4548167
21
68.2937596
0
LINE
8
DEFAULT_255_1_388
10
4.1683868
20
69.3247267
11
4.1683868
21
68.9063763
0
LINE
8
DEFAULT_255_1_388
10
4.1683868
20
68.9063763
11
4.4304205
21
68.9063763
0
LINE
8
DEFAULT_255_1_388
10
4.4249991
20
69.3247267
11
4.1683868
21
69.3247267
0
ARC
8
DEFAULT_255_1_388
10
4.4292411
20
68.6386824
40
0.8288183
50
82.1256322
51
90.2932506
0
ARC
8
DEFAULT_255_1_388
10
4.4729986
20
68.944459
40
0.5199321
50
69.9044202
51
82.2857574
0
ARC
8
DEFAULT_255_1_388
10
4.5371979
20
69.1179993
40
0.3348993
50
51.1840204
51
70.018125
0
ARC
8
DEFAULT_255_1_388
10
4.5658811
20
69.1596945
40
0.2844579
50
12.1018086
51
50.421322
0
ARC
8
DEFAULT_255_1_388
10
4.4101682
20
69.1205937
40
0.4449429
50
359.5252354
51
12.8212369
0
ARC
8
DEFAULT_255_1_388
10
4.5879112
20
69.1127943
40
0.2672162
50
323.4907456
51
0.8818258
0
ARC
8
DEFAULT_255_1_388
10
4.5408525
20
69.1491523
40
0.3266736
50
298.6824053
51
323.2758285
0
ARC
8
DEFAULT_255_1_388
10
4.5001816
20
69.2167509
40
0.4055105
50
293.1994739
51
299.139634
0
ARC
8
DEFAULT_255_1_388
10
4.5758766
20
68.5321651
40
0.3229926
50
54.0009997
51
74.9168635
0
ARC
8
DEFAULT_255_1_388
10
4.5889693
20
68.5543511
40
0.2973581
50
36.3578854
51
53.5293172
0
ARC
8
DEFAULT_255_1_388
10
4.5747061
20
68.544185
40
0.3148715
50
4.8189348
51
36.3090187
0
ARC
8
DEFAULT_255_1_388
10
4.4870085
20
68.5318383
40
0.4033265
50
359.9373213
51
5.5201284
0
ARC
8
DEFAULT_255_1_388
10
4.4505415
20
68.5272733
40
0.4398126
50
344.7479357
51
0.5372278
0
ARC
8
DEFAULT_255_1_388
10
4.5620314
20
68.4972205
40
0.3243441
50
311.1785587
51
344.6887681
0
ARC
8
DEFAULT_255_1_388
10
4.5291857
20
68.5381084
40
0.3767511
50
286.0417804
51
310.8440924
0
ARC
8
DEFAULT_255_1_388
10
4.4721266
20
68.7233885
40
0.5705957
50
274.1044074
51
286.4070149
0
ARC
8
DEFAULT_255_1_388
10
4.4522482
20
68.9351901
40
0.7832907
50
269.9235077
51
274.4458593
0
ARC
8
DEFAULT_255_1_388
10
4.45742
20
68.6720462
40
0.3782955
50
269.6057074
51
281.3740795
0
ARC
8
DEFAULT_255_1_388
10
4.4833698
20
68.5490569
40
0.2526069
50
281.105298
51
302.5134029
0
ARC
8
DEFAULT_255_1_388
10
4.4999086
20
68.5193944
40
0.2187131
50
303.0365425
51
311.8818034
0
ARC
8
DEFAULT_255_1_388
10
4.5079263
20
68.5098602
40
0.2062624
50
311.9916937
51
351.7143773
0
ARC
8
DEFAULT_255_1_388
10
4.4160288
20
68.5284271
40
0.2999202
50
350.7343295
51
0.2221526
0
ARC
8
DEFAULT_255_1_388
10
4.4039376
20
68.534787
40
0.3120525
50
359.045729
51
17.2295312
0
ARC
8
DEFAULT_255_1_388
10
4.5208406
20
68.5695155
40
0.1901144
50
17.6685208
51
78.9940245
0
ARC
8
DEFAULT_255_1_388
10
4.4626767
20
68.3607011
40
0.4065575
50
76.565218
51
90.7103392
0
LINE
8
DEFAULT_255_1_388
10
4.4576364
20
68.7672274
11
4.4575274
21
68.7672274
0
ARC
8
DEFAULT_255_1_388
10
4.4329593
20
69.2759949
40
0.3696273
50
269.6064514
51
281.4533785
0
ARC
8
DEFAULT_255_1_388
10
4.4580234
20
69.1577283
40
0.2487412
50
281.2044438
51
302.5143998
0
ARC
8
DEFAULT_255_1_388
10
4.4734488
20
69.1299576
40
0.2170405
50
303.0211308
51
309.8378766
0
ARC
8
DEFAULT_255_1_388
10
4.4940605
20
69.1068486
40
0.1860946
50
309.5229446
51
356.9509628
0
ARC
8
DEFAULT_255_1_388
10
4.4194731
20
69.1175831
40
0.2612347
50
355.4699226
51
0.0498632
0
ARC
8
DEFAULT_255_1_388
10
4.3880404
20
69.1200789
40
0.2926762
50
359.5558955
51
11.2092924
0
ARC
8
DEFAULT_255_1_388
10
4.4957372
20
69.1423667
40
0.1827036
50
10.9185717
51
31.322519
0
ARC
8
DEFAULT_255_1_388
10
4.527892
20
69.1602571
40
0.1459418
50
31.8850633
51
52.1415586
0
ARC
8
DEFAULT_255_1_388
10
4.4970349
20
69.1166674
40
0.1993088
50
52.8283418
51
71.9850132
0
ARC
8
DEFAULT_255_1_388
10
4.454751
20
68.9922158
40
0.3307407
50
71.686634
51
82.8453416
0
ARC
8
DEFAULT_255_1_388
10
4.4278157
20
68.7886892
40
0.536039
50
82.6981895
51
90.1730083
0
ARC
8
DEFAULT_255_1_388
10
4.4252989
20
68.8765836
40
0.4481429
50
89.8851568
51
90.0383283
0
LINE
8
DEFAULT_255_1_388
10
5.6529432
20
69.4738148
11
5.6529432
21
68.1519
0
LINE
8
DEFAULT_255_1_388
10
5.6529432
20
68.1519
11
5.4848802
21
68.1519
0
LINE
8
DEFAULT_255_1_388
10
5.4848802
20
68.1519
11
5.4848802
21
69.265995
0
LINE
8
DEFAULT_255_1_388
10
5.4848802
20
69.265995
11
5.1478506
21
69.1422066
0
LINE
8
DEFAULT_255_1_388
10
5.1478506
20
69.1422066
11
5.1478506
21
69.2940055
0
LINE
8
DEFAULT_255_1_388
10
5.1478506
20
69.2940055
11
5.6267398
21
69.4738148
0
LINE
8
DEFAULT_255_1_388
10
5.6267398
20
69.4738148
11
5.6529432
21
69.4738148
0
LINE
8
DEFAULT_255_1_388
10
7.0046756
20
68.2883382
11
7.0046756
21
68.1519
0
LINE
8
DEFAULT_255_1_388
10
7.0046756
20
68.1519
11
6.1426751
21
68.1519
0
LINE
8
DEFAULT_255_1_388
10
6.1426751
20
68.1519
11
6.1426751
21
68.2720741
0
LINE
8
DEFAULT_255_1_388
10
6.1426751
20
68.2720741
11
6.5980716
21
68.7780702
0
LINE
8
DEFAULT_255_1_388
10
6.2845347
20
69.0798607
11
6.1173753
21
69.0798607
0
LINE
8
DEFAULT_255_1_388
10
6.6965601
20
68.670546
11
6.34417
21
68.2883382
0
LINE
8
DEFAULT_255_1_388
10
6.34417
20
68.2883382
11
7.0046756
21
68.2883382
0
ARC
8
DEFAULT_255_1_388
10
5.0804775
20
70.1200983
40
2.0258655
50
318.5132526
51
320.7829045
0
ARC
8
DEFAULT_255_1_388
10
5.6752732
20
69.6359929
40
1.2589638
50
320.7372878
51
323.9739031
0
ARC
8
DEFAULT_255_1_388
10
6.1161664
20
69.3165554
40
0.7145141
50
323.8962701
51
328.64194
0
ARC
8
DEFAULT_255_1_388
10
6.3463922
20
69.1745545
40
0.4440242
50
328.8294576
51
331.7891185
0
ARC
8
DEFAULT_255_1_388
10
6.4586242
20
69.1166374
40
0.3177517
50
331.4254512
51
352.9365785
0
ARC
8
DEFAULT_255_1_388
10
6.4739242
20
69.113205
40
0.3021496
50
353.2257659
51
0.0166158
0
ARC
8
DEFAULT_255_1_388
10
6.4976002
20
69.1157894
40
0.2784847
50
359.486299
51
15.9343185
0
ARC
8
DEFAULT_255_1_388
10
6.5546269
20
69.1311269
40
0.2194403
50
16.1712913
51
43.5286088
0
ARC
8
DEFAULT_255_1_388
10
6.5633214
20
69.1398191
40
0.2071504
50
43.4417391
51
83.1661095
0
ARC
8
DEFAULT_255_1_388
10
6.5482375
20
69.0569316
40
0.2912888
50
82.160179
51
90.1505708
0
ARC
8
DEFAULT_255_1_388
10
6.5446856
20
68.9965279
40
0.3517025
50
89.5460741
51
102.5418361
0
ARC
8
DEFAULT_255_1_388
10
6.5173576
20
69.1124933
40
0.2325748
50
102.1738499
51
129.206123
0
ARC
8
DEFAULT_255_1_388
10
6.508503
20
69.1264664
40
0.2161591
50
129.72865
51
135.753947
0
ARC
8
DEFAULT_255_1_388
10
6.5221512
20
69.1155728
40
0.2335433
50
136.1757367
51
166.3673339
0
ARC
8
DEFAULT_255_1_388
10
6.63542
20
69.0852148
40
0.3507873
50
165.9090694
51
178.8684636
0
ARC
8
DEFAULT_255_1_388
10
6.7329972
20
69.0799263
40
0.4484624
50
178.4391136
51
180.0083808
0
ARC
8
DEFAULT_255_1_388
10
6.5750673
20
69.0843197
40
0.4577138
50
163.2878482
51
180.5581842
0
ARC
8
DEFAULT_255_1_388
10
6.4848714
20
69.1091393
40
0.3641968
50
133.4540601
51
162.947111
0
ARC
8
DEFAULT_255_1_388
10
6.5049596
20
69.0877789
40
0.3935189
50
100.7869829
51
133.4382499
0
ARC
8
DEFAULT_255_1_388
10
6.5440841
20
68.9135399
40
0.5720313
50
89.660664
51
101.3702276
0
ARC
8
DEFAULT_255_1_388
10
6.551545
20
68.9204263
40
0.5651495
50
78.2172678
51
90.412935
0
ARC
8
DEFAULT_255_1_388
10
6.5914916
20
69.1031511
40
0.378122
50
55.9269121
51
78.4888449
0
ARC
8
DEFAULT_255_1_388
10
6.6135631
20
69.1412187
40
0.3342379
50
47.929771
51
55.4049217
0
ARC
8
DEFAULT_255_1_388
10
6.6250161
20
69.1528618
40
0.3179217
50
4.334829
51
48.0560205
0
ARC
8
DEFAULT_255_1_388
10
6.5017963
20
69.1337487
40
0.442341
50
359.9251713
51
5.5971671
0
ARC
8
DEFAULT_255_1_388
10
6.5500118
20
69.1400728
40
0.3941854
50
337.8914027
51
358.9967534
0
ARC
8
DEFAULT_255_1_388
10
6.2447688
20
69.2578295
40
0.7213271
50
326.9132501
51
338.3508308
0
ARC
8
DEFAULT_255_1_388
10
5.79638
20
69.5452105
40
1.2538973
50
319.6471833
51
327.0959558
0
ARC
8
DEFAULT_255_1_388
10
5.3650458
20
69.901005
40
1.8129975
50
317.2588228
51
319.9045804
0
LINE
8
DEFAULT_255_1_388
10
7.6778311
20
69.2415987
11
7.6778311
21
68.8575838
0
LINE
8
DEFAULT_255_1_388
10
7.6778311
20
68.8575838
11
8.0446783
21
68.8575838
0
LINE
8
DEFAULT_255_1_388
10
8.0446783
20
68.8575838
11
8.0446783
21
68.6994601
0
LINE
8
DEFAULT_255_1_388
10
8.0446783
20
68.6994601
11
7.6778311
21
68.6994601
0
LINE
8
DEFAULT_255_1_388
10
7.6778311
20
68.6994601
11
7.6778311
21
68.2838204
0
LINE
8
DEFAULT_255_1_388
10
7.6778311
20
68.2838204
11
7.5097681
21
68.2838204
0
LINE
8
DEFAULT_255_1_388
10
7.5097681
20
68.2838204
11
7.5097681
21
68.6994601
0
LINE
8
DEFAULT_255_1_388
10
7.5097681
20
68.6994601
11
7.1429209
21
68.6994601
0
LINE
8
DEFAULT_255_1_388
10
7.1429209
20
68.6994601
11
7.1429209
21
68.8575838
0
LINE
8
DEFAULT_255_1_388
10
7.1429209
20
68.8575838
11
7.5097681
21
68.8575838
0
LINE
8
DEFAULT_255_1_388
10
7.5097681
20
68.8575838
11
7.5097681
21
69.2415987
0
LINE
8
DEFAULT_255_1_388
10
7.5097681
20
69.2415987
11
7.6778311
21
69.2415987
0
LINE
8
DEFAULT_255_1_388
10
4.4512024
20
76.0894
11
3.9949024
21
76.0894
0
LINE
8
DEFAULT_255_1_388
10
3.9949024
20
76.0894
11
3.9949024
21
77.4049898
0
LINE
8
DEFAULT_255_1_388
10
3.9949024
20
77.4049898
11
4.4249991
21
77.4049898
0
LINE
8
DEFAULT_255_1_388
10
4.4575274
20
76.7047274
11
4.1683868
21
76.7047274
0
LINE
8
DEFAULT_255_1_388
10
4.1683868
20
76.7047274
11
4.1683868
21
76.2312596
0
LINE
8
DEFAULT_255_1_388
10
4.1683868
20
76.2312596
11
4.4548167
21
76.2312596
0
LINE
8
DEFAULT_255_1_388
10
4.1683868
20
77.2622267
11
4.1683868
21
76.8438763
0
LINE
8
DEFAULT_255_1_388
10
4.1683868
20
76.8438763
11
4.4304205
21
76.8438763
0
LINE
8
DEFAULT_255_1_388
10
4.4249991
20
77.2622267
11
4.1683868
21
77.2622267
0
ARC
8
DEFAULT_255_1_388
10
4.4292411
20
76.5761824
40
0.8288183
50
82.1256322
51
90.2932506
0
ARC
8
DEFAULT_255_1_388
10
4.4729986
20
76.881959
40
0.5199321
50
69.9044202
51
82.2857574
0
ARC
8
DEFAULT_255_1_388
10
4.5371979
20
77.0554993
40
0.3348993
50
51.1840204
51
70.018125
0
ARC
8
DEFAULT_255_1_388
10
4.5658811
20
77.0971945
40
0.2844579
50
12.1018086
51
50.421322
0
ARC
8
DEFAULT_255_1_388
10
4.4101682
20
77.0580937
40
0.4449429
50
359.5252354
51
12.8212369
0
ARC
8
DEFAULT_255_1_388
10
4.5879112
20
77.0502943
40
0.2672162
50
323.4907456
51
0.8818258
0
ARC
8
DEFAULT_255_1_388
10
4.5408525
20
77.0866523
40
0.3266736
50
298.6824053
51
323.2758285
0
ARC
8
DEFAULT_255_1_388
10
4.5001816
20
77.1542509
40
0.4055105
50
293.1994739
51
299.139634
0
ARC
8
DEFAULT_255_1_388
10
4.5758766
20
76.4696651
40
0.3229926
50
54.0009997
51
74.9168635
0
ARC
8
DEFAULT_255_1_388
10
4.5889693
20
76.4918511
40
0.2973581
50
36.3578854
51
53.5293172
0
ARC
8
DEFAULT_255_1_388
10
4.5747061
20
76.481685
40
0.3148715
50
4.8189348
51
36.3090187
0
ARC
8
DEFAULT_255_1_388
10
4.4870085
20
76.4693383
40
0.4033265
50
359.9373213
51
5.5201284
0
ARC
8
DEFAULT_255_1_388
10
4.4505415
20
76.4647733
40
0.4398126
50
344.7479357
51
0.5372278
0
ARC
8
DEFAULT_255_1_388
10
4.5620314
20
76.4347205
40
0.3243441
50
311.1785587
51
344.6887681
0
ARC
8
DEFAULT_255_1_388
10
4.5291857
20
76.4756084
40
0.3767511
50
286.0417804
51
310.8440924
0
ARC
8
DEFAULT_255_1_388
10
4.4721266
20
76.6608885
40
0.5705957
50
274.1044074
51
286.4070149
0
ARC
8
DEFAULT_255_1_388
10
4.4522482
20
76.8726901
40
0.7832907
50
269.9235077
51
274.4458593
0
ARC
8
DEFAULT_255_1_388
10
4.45742
20
76.6095462
40
0.3782955
50
269.6057074
51
281.3740795
0
ARC
8
DEFAULT_255_1_388
10
4.4833698
20
76.4865569
40
0.2526069
50
281.105298
51
302.5134029
0
ARC
8
DEFAULT_255_1_388
10
4.4999086
20
76.4568944
40
0.2187131
50
303.0365425
51
311.8818034
0
ARC
8
DEFAULT_255_1_388
10
4.5079263
20
76.4473602
40
0.2062624
50
311.9916937
51
351.7143773
0
ARC
8
DEFAULT_255_1_388
10
4.4160288
20
76.4659271
40
0.2999202
50
350.7343295
51
0.2221526
0
ARC
8
DEFAULT_255_1_388
10
4.4039376
20
76.472287
40
0.3120525
50
359.045729
51
17.2295312
0
ARC
8
DEFAULT_255_1_388
10
4.5208406
20
76.5070155
40
0.1901144
50
17.6685208
51
78.9940245
0
ARC
8
DEFAULT_255_1_388
10
4.4626767
20
76.2982011
40
0.4065575
50
76.565218
51
90.7103392
0
LINE
8
DEFAULT_255_1_388
10
4.4576364
20
76.7047274
11
4.4575274
21
76.7047274
0
ARC
8
DEFAULT_255_1_388
10
4.4329593
20
77.2134949
40
0.3696273
50
269.6064514
51
281.4533785
0
ARC
8
DEFAULT_255_1_388
10
4.4580234
20
77.0952283
40
0.2487412
50
281.2044438
51
302.5143998
0
ARC
8
DEFAULT_255_1_388
10
4.4734488
20
77.0674576
40
0.2170405
50
303.0211308
51
309.8378766
0
ARC
8
DEFAULT_255_1_388
10
4.4940605
20
77.0443486
40
0.1860946
50
309.5229446
51
356.9509628
0
ARC
8
DEFAULT_255_1_388
10
4.4194731
20
77.0550831
40
0.2612347
50
355.4699226
51
0.0498632
0
ARC
8
DEFAULT_255_1_388
10
4.3880404
20
77.0575789
40
0.2926762
50
359.5558955
51
11.2092924
0
ARC
8
DEFAULT_255_1_388
10
4.4957372
20
77.0798667
40
0.1827036
50
10.9185717
51
31.322519
0
ARC
8
DEFAULT_255_1_388
10
4.527892
20
77.0977571
40
0.1459418
50
31.8850633
51
52.1415586
0
ARC
8
DEFAULT_255_1_388
10
4.4970349
20
77.0541674
40
0.1993088
50
52.8283418
51
71.9850132
0
ARC
8
DEFAULT_255_1_388
10
4.454751
20
76.9297158
40
0.3307407
50
71.686634
51
82.8453416
0
ARC
8
DEFAULT_255_1_388
10
4.4278157
20
76.7261892
40
0.536039
50
82.6981895
51
90.1730083
0
ARC
8
DEFAULT_255_1_388
10
4.4252989
20
76.8140836
40
0.4481429
50
89.8851568
51
90.0383283
0
LINE
8
DEFAULT_255_1_388
10
5.9655765
20
76.2258382
11
5.9655765
21
76.0894
0
LINE
8
DEFAULT_255_1_388
10
5.9655765
20
76.0894
11
5.103576
21
76.0894
0
LINE
8
DEFAULT_255_1_388
10
5.103576
20
76.0894
11
5.103576
21
76.2095741
0
LINE
8
DEFAULT_255_1_388
10
5.103576
20
76.2095741
11
5.5589725
21
76.7155702
0
LINE
8
DEFAULT_255_1_388
10
5.2454356
20
77.0173607
11
5.0782762
21
77.0173607
0
LINE
8
DEFAULT_255_1_388
10
5.657461
20
76.608046
11
5.3050708
21
76.2258382
0
LINE
8
DEFAULT_255_1_388
10
5.3050708
20
76.2258382
11
5.9655765
21
76.2258382
0
ARC
8
DEFAULT_255_1_388
10
4.0413784
20
78.0575983
40
2.0258655
50
318.5132526
51
320.7829045
0
ARC
8
DEFAULT_255_1_388
10
4.6361741
20
77.5734929
40
1.2589638
50
320.7372878
51
323.9739031
0
ARC
8
DEFAULT_255_1_388
10
5.0770673
20
77.2540554
40
0.7145141
50
323.8962701
51
328.64194
0
ARC
8
DEFAULT_255_1_388
10
5.307293
20
77.1120545
40
0.4440242
50
328.8294576
51
331.7891185
0
ARC
8
DEFAULT_255_1_388
10
5.419525
20
77.0541374
40
0.3177517
50
331.4254512
51
352.9365785
0
ARC
8
DEFAULT_255_1_388
10
5.434825
20
77.050705
40
0.3021496
50
353.2257659
51
0.0166158
0
ARC
8
DEFAULT_255_1_388
10
5.4585011
20
77.0532894
40
0.2784847
50
359.486299
51
15.9343185
0
ARC
8
DEFAULT_255_1_388
10
5.5155278
20
77.0686269
40
0.2194403
50
16.1712913
51
43.5286088
0
ARC
8
DEFAULT_255_1_388
10
5.5242222
20
77.0773191
40
0.2071504
50
43.4417391
51
83.1661095
0
ARC
8
DEFAULT_255_1_388
10
5.5091383
20
76.9944316
40
0.2912888
50
82.160179
51
90.1505708
0
ARC
8
DEFAULT_255_1_388
10
5.5055865
20
76.9340279
40
0.3517025
50
89.5460741
51
102.5418361
0
ARC
8
DEFAULT_255_1_388
10
5.4782585
20
77.0499933
40
0.2325748
50
102.1738499
51
129.206123
0
ARC
8
DEFAULT_255_1_388
10
5.4694038
20
77.0639664
40
0.2161591
50
129.72865
51
135.753947
0
ARC
8
DEFAULT_255_1_388
10
5.4830521
20
77.0530728
40
0.2335433
50
136.1757367
51
166.3673339
0
ARC
8
DEFAULT_255_1_388
10
5.5963209
20
77.0227148
40
0.3507873
50
165.9090694
51
178.8684636
0
ARC
8
DEFAULT_255_1_388
10
5.6938981
20
77.0174263
40
0.4484624
50
178.4391136
51
180.0083808
0
ARC
8
DEFAULT_255_1_388
10
5.5359682
20
77.0218197
40
0.4577138
50
163.2878482
51
180.5581842
0
ARC
8
DEFAULT_255_1_388
10
5.4457723
20
77.0466393
40
0.3641968
50
133.4540601
51
162.947111
0
ARC
8
DEFAULT_255_1_388
10
5.4658605
20
77.0252789
40
0.3935189
50
100.7869829
51
133.4382499
0
ARC
8
DEFAULT_255_1_388
10
5.504985
20
76.8510399
40
0.5720313
50
89.660664
51
101.3702276
0
ARC
8
DEFAULT_255_1_388
10
5.5124459
20
76.8579263
40
0.5651495
50
78.2172678
51
90.412935
0
ARC
8
DEFAULT_255_1_388
10
5.5523925
20
77.0406511
40
0.378122
50
55.9269121
51
78.4888449
0
ARC
8
DEFAULT_255_1_388
10
5.574464
20
77.0787187
40
0.3342379
50
47.929771
51
55.4049217
0
ARC
8
DEFAULT_255_1_388
10
5.585917
20
77.0903618
40
0.3179217
50
4.334829
51
48.0560205
0
ARC
8
DEFAULT_255_1_388
10
5.4626972
20
77.0712487
40
0.442341
50
359.9251713
51
5.5971671
0
ARC
8
DEFAULT_255_1_388
10
5.5109126
20
77.0775728
40
0.3941854
50
337.8914027
51
358.9967534
0
ARC
8
DEFAULT_255_1_388
10
5.2056697
20
77.1953295
40
0.7213271
50
326.9132501
51
338.3508308
0
ARC
8
DEFAULT_255_1_388
10
4.7572808
20
77.4827105
40
1.2538973
50
319.6471833
51
327.0959558
0
ARC
8
DEFAULT_255_1_388
10
4.3259467
20
77.838505
40
1.8129975
50
317.2588228
51
319.9045804
0
LINE
8
DEFAULT_255_1_388
10
6.8483589
20
77.4049898
11
6.8483589
21
76.531243
0
LINE
8
DEFAULT_255_1_388
10
6.8483589
20
76.531243
11
7.030879
21
76.531243
0
LINE
8
DEFAULT_255_1_388
10
7.030879
20
76.531243
11
7.030879
21
76.3948048
0
LINE
8
DEFAULT_255_1_388
10
7.030879
20
76.3948048
11
6.8483589
21
76.3948048
0
LINE
8
DEFAULT_255_1_388
10
6.8483589
20
76.3948048
11
6.8483589
21
76.0894
0
LINE
8
DEFAULT_255_1_388
10
6.8483589
20
76.0894
11
6.6802959
21
76.0894
0
LINE
8
DEFAULT_255_1_388
10
6.6802959
20
76.0894
11
6.6802959
21
76.3948048
0
LINE
8
DEFAULT_255_1_388
10
6.6802959
20
76.3948048
11
6.0812327
21
76.3948048
0
LINE
8
DEFAULT_255_1_388
10
6.0812327
20
76.3948048
11
6.0812327
21
76.4932933
0
LINE
8
DEFAULT_255_1_388
10
6.0812327
20
76.4932933
11
6.6703567
21
77.4049898
0
LINE
8
DEFAULT_255_1_388
10
6.6703567
20
77.4049898
11
6.8483589
21
77.4049898
0
LINE
8
DEFAULT_255_1_388
10
6.6604175
20
77.1402455
11
6.2709813
21
76.531243
0
LINE
8
DEFAULT_255_1_388
10
6.2709813
20
76.531243
11
6.6802959
21
76.531243
0
LINE
8
DEFAULT_255_1_388
10
6.6802959
20
76.531243
11
6.6802959
21
77.176388
0
LINE
8
DEFAULT_255_1_388
10
6.6802959
20
77.176388
11
6.6604175
21
77.1402455
0
LINE
8
DEFAULT_255_1_388
10
7.6778311
20
77.1790987
11
7.6778311
21
76.7950838
0
LINE
8
DEFAULT_255_1_388
10
7.6778311
20
76.7950838
11
8.0446783
21
76.7950838
0
LINE
8
DEFAULT_255_1_388
10
8.0446783
20
76.7950838
11
8.0446783
21
76.6369601
0
LINE
8
DEFAULT_255_1_388
10
8.0446783
20
76.6369601
11
7.6778311
21
76.6369601
0
LINE
8
DEFAULT_255_1_388
10
7.6778311
20
76.6369601
11
7.6778311
21
76.2213204
0
LINE
8
DEFAULT_255_1_388
10
7.6778311
20
76.2213204
11
7.5097681
21
76.2213204
0
LINE
8
DEFAULT_255_1_388
10
7.5097681
20
76.2213204
11
7.5097681
21
76.6369601
0
LINE
8
DEFAULT_255_1_388
10
7.5097681
20
76.6369601
11
7.1429209
21
76.6369601
0
LINE
8
DEFAULT_255_1_388
10
7.1429209
20
76.6369601
11
7.1429209
21
76.7950838
0
LINE
8
DEFAULT_255_1_388
10
7.1429209
20
76.7950838
11
7.5097681
21
76.7950838
0
LINE
8
DEFAULT_255_1_388
10
7.5097681
20
76.7950838
11
7.5097681
21
77.1790987
0
LINE
8
DEFAULT_255_1_388
10
7.5097681
20
77.1790987
11
7.6778311
21
77.1790987
0
LINE
8
DEFAULT_255_1_388
10
5.1135637
20
84.0269
11
4.9879682
21
84.3702545
0
LINE
8
DEFAULT_255_1_388
10
4.9879682
20
84.3702545
11
4.4367939
21
84.3702545
0
LINE
8
DEFAULT_255_1_388
10
4.4367939
20
84.3702545
11
4.3130056
21
84.0269
0
LINE
8
DEFAULT_255_1_388
10
4.3130056
20
84.0269
11
4.1340998
21
84.0269
0
LINE
8
DEFAULT_255_1_388
10
4.1340998
20
84.0269
11
4.6364816
21
85.3424898
0
LINE
8
DEFAULT_255_1_388
10
4.6364816
20
85.3424898
11
4.7882805
21
85.3424898
0
LINE
8
DEFAULT_255_1_388
10
4.7882805
20
85.3424898
11
5.2915659
21
84.0269
0
LINE
8
DEFAULT_255_1_388
10
5.2915659
20
84.0269
11
5.1135637
21
84.0269
0
LINE
8
DEFAULT_255_1_388
10
4.7123811
20
85.1283451
11
4.4892006
21
84.5130177
0
LINE
8
DEFAULT_255_1_388
10
4.4892006
20
84.5130177
11
4.936465
21
84.5130177
0
LINE
8
DEFAULT_255_1_388
10
4.936465
20
84.5130177
11
4.7123811
21
85.1283451
0
LINE
8
DEFAULT_255_1_388
10
5.7903334
20
84.6539737
11
5.7903334
21
84.5175355
0
LINE
8
DEFAULT_255_1_388
10
5.7903334
20
84.5175355
11
5.349394
21
84.5175355
0
LINE
8
DEFAULT_255_1_388
10
5.349394
20
84.5175355
11
5.349394
21
84.6539737
0
LINE
8
DEFAULT_255_1_388
10
5.349394
20
84.6539737
11
5.7903334
21
84.6539737
0
LINE
8
DEFAULT_255_1_388
10
4.9777637
20
91.9644
11
4.8521682
21
92.3077545
0
LINE
8
DEFAULT_255_1_388
10
4.8521682
20
92.3077545
11
4.3009939
21
92.3077545
0
LINE
8
DEFAULT_255_1_388
10
4.3009939
20
92.3077545
11
4.1772056
21
91.9644
0
LINE
8
DEFAULT_255_1_388
10
4.1772056
20
91.9644
11
3.9982998
21
91.9644
0
LINE
8
DEFAULT_255_1_388
10
3.9982998
20
91.9644
11
4.5006816
21
93.2799898
0
LINE
8
DEFAULT_255_1_388
10
4.5006816
20
93.2799898
11
4.6524805
21
93.2799898
0
LINE
8
DEFAULT_255_1_388
10
4.6524805
20
93.2799898
11
5.1557659
21
91.9644
0
LINE
8
DEFAULT_255_1_388
10
5.1557659
20
91.9644
11
4.9777637
21
91.9644
0
LINE
8
DEFAULT_255_1_388
10
4.5765811
20
93.0658451
11
4.3534006
21
92.4505177
0
LINE
8
DEFAULT_255_1_388
10
4.3534006
20
92.4505177
11
4.800665
21
92.4505177
0
LINE
8
DEFAULT_255_1_388
10
4.800665
20
92.4505177
11
4.5765811
21
93.0658451
0
LINE
8
DEFAULT_255_1_388
10
5.5000239
20
92.5896666
11
5.3662964
21
92.6240021
0
LINE
8
DEFAULT_255_1_388
10
5.3662964
20
92.6240021
11
5.4331602
21
93.2799898
0
LINE
8
DEFAULT_255_1_388
10
5.4331602
20
93.2799898
11
6.1072192
21
93.2799898
0
LINE
8
DEFAULT_255_1_388
10
6.1072192
20
93.2799898
11
6.1072192
21
93.1254803
0
LINE
8
DEFAULT_255_1_388
10
6.1072192
20
93.1254803
11
5.5750198
21
93.1254803
0
LINE
8
DEFAULT_255_1_388
10
5.5750198
20
93.1254803
11
5.5352629
21
92.7667652
0
LINE
8
DEFAULT_255_1_388
10
5.319311
20
92.3104652
11
5.4774348
21
92.3104652
0
LINE
8
DEFAULT_255_1_388
10
5.5442986
20
92.6258092
11
5.5000239
21
92.5896666
0
ARC
8
DEFAULT_255_1_388
10
5.7439243
20
92.4090241
40
0.4141476
50
93.7181681
51
120.253934
0
ARC
8
DEFAULT_255_1_388
10
5.7545295
20
92.3181284
40
0.5055616
50
89.9660471
51
94.2495185
0
ARC
8
DEFAULT_255_1_388
10
5.7591117
20
92.3844154
40
0.4392953
50
73.8045384
51
90.5585736
0
ARC
8
DEFAULT_255_1_388
10
5.7855375
20
92.480952
40
0.3392225
50
41.3071072
51
73.543002
0
ARC
8
DEFAULT_255_1_388
10
5.7387195
20
92.4406461
40
0.4009977
50
13.5075837
51
41.2174839
0
ARC
8
DEFAULT_255_1_388
10
5.5540292
20
92.3922907
40
0.5918864
50
1.1330171
51
13.8830737
0
ARC
8
DEFAULT_255_1_388
10
5.3943938
20
92.3837522
40
0.7516787
50
359.9925091
51
1.5431298
0
ARC
8
DEFAULT_255_1_388
10
5.5388553
20
92.3791027
40
0.6072343
50
347.8572712
51
0.4294349
0
ARC
8
DEFAULT_255_1_388
10
5.7357688
20
92.3344898
40
0.4053482
50
323.6727442
51
348.1674594
0
ARC
8
DEFAULT_255_1_388
10
5.7688652
20
92.3143175
40
0.3667495
50
316.8171818
51
323.1486802
0
ARC
8
DEFAULT_255_1_388
10
5.7757776
20
92.3101612
40
0.358869
50
281.839603
51
316.5458142
0
ARC
8
DEFAULT_255_1_388
10
5.7335063
20
92.4851363
40
0.5388223
50
269.5770964
51
282.4214641
0
ARC
8
DEFAULT_255_1_388
10
5.7254984
20
92.461093
40
0.5147801
50
256.2425863
51
270.4486481
0
ARC
8
DEFAULT_255_1_388
10
5.6918512
20
92.3261124
40
0.3756708
50
228.9024379
51
256.33135
0
ARC
8
DEFAULT_255_1_388
10
5.6835492
20
92.3130054
40
0.360344
50
193.7536029
51
228.5272638
0
ARC
8
DEFAULT_255_1_388
10
5.8228057
20
92.3538463
40
0.5053599
50
184.9244437
51
194.4976052
0
ARC
8
DEFAULT_255_1_388
10
5.8444698
20
92.3578722
40
0.3700839
50
187.3596909
51
198.6733728
0
ARC
8
DEFAULT_255_1_388
10
5.7263942
20
92.3169373
40
0.2451195
50
198.4453795
51
217.7945479
0
ARC
8
DEFAULT_255_1_388
10
5.6931114
20
92.2933563
40
0.2043754
50
218.2887146
51
228.5613203
0
ARC
8
DEFAULT_255_1_388
10
5.7041121
20
92.3081902
40
0.2227819
50
228.9652423
51
258.1237049
0
ARC
8
DEFAULT_255_1_388
10
5.7272558
20
92.4072964
40
0.3245374
50
257.7260585
51
270.4013717
0
ARC
8
DEFAULT_255_1_388
10
5.7323056
20
92.3572255
40
0.2744726
50
269.4204315
51
286.420998
0
ARC
8
DEFAULT_255_1_388
10
5.7490112
20
92.2965705
40
0.2115721
50
286.7250065
51
320.6004665
0
ARC
8
DEFAULT_255_1_388
10
5.7059028
20
92.3315527
40
0.2670878
50
320.6712228
51
344.5440474
0
ARC
8
DEFAULT_255_1_388
10
5.5757742
20
92.3697394
40
0.4026927
50
344.241448
51
356.735803
0
ARC
8
DEFAULT_255_1_388
10
5.4354049
20
92.3813656
40
0.5435085
50
356.3547471
51
0.0507222
0
ARC
8
DEFAULT_255_1_388
10
5.5856314
20
92.3848812
40
0.3932934
50
359.5579289
51
12.9534322
0
ARC
8
DEFAULT_255_1_388
10
5.7043154
20
92.4136586
40
0.2711827
50
12.6489751
51
41.608121
0
ARC
8
DEFAULT_255_1_388
10
5.7302314
20
92.4356946
40
0.2371737
50
41.7851122
51
85.9892156
0
ARC
8
DEFAULT_255_1_388
10
5.7163624
20
92.3441738
40
0.3295244
50
84.6965848
51
90.0672125
0
ARC
8
DEFAULT_255_1_388
10
5.7137191
20
92.2690118
40
0.4046926
50
89.6804991
51
99.161352
0
ARC
8
DEFAULT_255_1_388
10
5.6906201
20
92.4070848
40
0.2647044
50
98.9836248
51
113.8905702
0
ARC
8
DEFAULT_255_1_388
10
5.6647875
20
92.4680118
40
0.1985386
50
114.195234
51
127.3641866
0
LINE
8
DEFAULT_255_1_388
10
6.8246494
20
93.0540987
11
6.8246494
21
92.6700838
0
LINE
8
DEFAULT_255_1_388
10
6.8246494
20
92.6700838
11
7.1914966
21
92.6700838
0
LINE
8
DEFAULT_255_1_388
10
7.1914966
20
92.6700838
11
7.1914966
21
92.5119601
0
LINE
8
DEFAULT_255_1_388
10
7.1914966
20
92.5119601
11
6.8246494
21
92.5119601
0
LINE
8
DEFAULT_255_1_388
10
6.8246494
20
92.5119601
11
6.8246494
21
92.0963204
0
LINE
8
DEFAULT_255_1_388
10
6.8246494
20
92.0963204
11
6.6565864
21
92.0963204
0
LINE
8
DEFAULT_255_1_388
10
6.6565864
20
92.0963204
11
6.6565864
21
92.5119601
0
LINE
8
DEFAULT_255_1_388
10
6.6565864
20
92.5119601
11
6.2897393
21
92.5119601
0
LINE
8
DEFAULT_255_1_388
10
6.2897393
20
92.5119601
11
6.2897393
21
92.6700838
0
LINE
8
DEFAULT_255_1_388
10
6.2897393
20
92.6700838
11
6.6565864
21
92.6700838
0
LINE
8
DEFAULT_255_1_388
10
6.6565864
20
92.6700838
11
6.6565864
21
93.0540987
0
LINE
8
DEFAULT_255_1_388
10
6.6565864
20
93.0540987
11
6.8246494
21
93.0540987
0
LINE
8
DEFAULT_255_1_388
10
4.9809637
20
99.9019
11
4.8553682
21
100.2452545
0
LINE
8
DEFAULT_255_1_388
10
4.8553682
20
100.2452545
11
4.3041939
21
100.2452545
0
LINE
8
DEFAULT_255_1_388
10
4.3041939
20
100.2452545
11
4.1804056
21
99.9019
0
LINE
8
DEFAULT_255_1_388
10
4.1804056
20
99.9019
11
4.0014998
21
99.9019
0
LINE
8
DEFAULT_255_1_388
10
4.0014998
20
99.9019
11
4.5038816
21
101.2174898
0
LINE
8
DEFAULT_255_1_388
10
4.5038816
20
101.2174898
11
4.6556805
21
101.2174898
0
LINE
8
DEFAULT_255_1_388
10
4.6556805
20
101.2174898
11
5.1589659
21
99.9019
0
LINE
8
DEFAULT_255_1_388
10
5.1589659
20
99.9019
11
4.9809637
21
99.9019
0
LINE
8
DEFAULT_255_1_388
10
4.5797811
20
101.0033451
11
4.3566006
21
100.3880177
0
LINE
8
DEFAULT_255_1_388
10
4.3566006
20
100.3880177
11
4.803865
21
100.3880177
0
LINE
8
DEFAULT_255_1_388
10
4.803865
20
100.3880177
11
4.5797811
21
101.0033451
0
LINE
8
DEFAULT_255_1_388
10
5.8420606
20
101.2238148
11
5.8420606
21
99.9019
0
LINE
8
DEFAULT_255_1_388
10
5.8420606
20
99.9019
11
5.6739976
21
99.9019
0
LINE
8
DEFAULT_255_1_388
10
5.6739976
20
99.9019
11
5.6739976
21
101.015995
0
LINE
8
DEFAULT_255_1_388
10
5.6739976
20
101.015995
11
5.3369681
21
100.8922066
0
LINE
8
DEFAULT_255_1_388
10
5.3369681
20
100.8922066
11
5.3369681
21
101.0440055
0
LINE
8
DEFAULT_255_1_388
10
5.3369681
20
101.0440055
11
5.8158572
21
101.2238148
0
LINE
8
DEFAULT_255_1_388
10
5.8158572
20
101.2238148
11
5.8420606
21
101.2238148
0
LINE
8
DEFAULT_255_1_388
10
7.193793
20
100.0383382
11
7.193793
21
99.9019
0
LINE
8
DEFAULT_255_1_388
10
7.193793
20
99.9019
11
6.3317925
21
99.9019
0
LINE
8
DEFAULT_255_1_388
10
6.3317925
20
99.9019
11
6.3317925
21
100.0220741
0
LINE
8
DEFAULT_255_1_388
10
6.3317925
20
100.0220741
11
6.787189
21
100.5280702
0
LINE
8
DEFAULT_255_1_388
10
6.4736521
20
100.8298607
11
6.3064927
21
100.8298607
0
LINE
8
DEFAULT_255_1_388
10
6.8856775
20
100.420546
11
6.5332874
21
100.0383382
0
LINE
8
DEFAULT_255_1_388
10
6.5332874
20
100.0383382
11
7.193793
21
100.0383382
0
ARC
8
DEFAULT_255_1_388
10
5.269595
20
101.8700983
40
2.0258655
50
318.5132526
51
320.7829045
0
ARC
8
DEFAULT_255_1_388
10
5.8643907
20
101.3859929
40
1.2589638
50
320.7372878
51
323.9739031
0
ARC
8
DEFAULT_255_1_388
10
6.3052838
20
101.0665554
40
0.7145141
50
323.8962701
51
328.64194
0
ARC
8
DEFAULT_255_1_388
10
6.5355096
20
100.9245545
40
0.4440242
50
328.8294576
51
331.7891185
0
ARC
8
DEFAULT_255_1_388
10
6.6477416
20
100.8666374
40
0.3177517
50
331.4254512
51
352.9365785
0
ARC
8
DEFAULT_255_1_388
10
6.6630416
20
100.863205
40
0.3021496
50
353.2257659
51
0.0166158
0
ARC
8
DEFAULT_255_1_388
10
6.6867177
20
100.8657894
40
0.2784847
50
359.486299
51
15.9343185
0
ARC
8
DEFAULT_255_1_388
10
6.7437443
20
100.8811269
40
0.2194403
50
16.1712913
51
43.5286088
0
ARC
8
DEFAULT_255_1_388
10
6.7524388
20
100.8898191
40
0.2071504
50
43.4417391
51
83.1661095
0
ARC
8
DEFAULT_255_1_388
10
6.7373549
20
100.8069316
40
0.2912888
50
82.160179
51
90.1505708
0
ARC
8
DEFAULT_255_1_388
10
6.7338031
20
100.7465279
40
0.3517025
50
89.5460741
51
102.5418361
0
ARC
8
DEFAULT_255_1_388
10
6.7064751
20
100.8624933
40
0.2325748
50
102.1738499
51
129.206123
0
ARC
8
DEFAULT_255_1_388
10
6.6976204
20
100.8764664
40
0.2161591
50
129.72865
51
135.753947
0
ARC
8
DEFAULT_255_1_388
10
6.7112686
20
100.8655728
40
0.2335433
50
136.1757367
51
166.3673339
0
ARC
8
DEFAULT_255_1_388
10
6.8245375
20
100.8352148
40
0.3507873
50
165.9090694
51
178.8684636
0
ARC
8
DEFAULT_255_1_388
10
6.9221146
20
100.8299263
40
0.4484624
50
178.4391136
51
180.0083808
0
ARC
8
DEFAULT_255_1_388
10
6.7641848
20
100.8343197
40
0.4577138
50
163.2878482
51
180.5581842
0
ARC
8
DEFAULT_255_1_388
10
6.6739889
20
100.8591393
40
0.3641968
50
133.4540601
51
162.947111
0
ARC
8
DEFAULT_255_1_388
10
6.6940771
20
100.8377789
40
0.3935189
50
100.7869829
51
133.4382499
0
ARC
8
DEFAULT_255_1_388
10
6.7332016
20
100.6635399
40
0.5720313
50
89.660664
51
101.3702276
0
ARC
8
DEFAULT_255_1_388
10
6.7406624
20
100.6704263
40
0.5651495
50
78.2172678
51
90.412935
0
ARC
8
DEFAULT_255_1_388
10
6.780609
20
100.8531511
40
0.378122
50
55.9269121
51
78.4888449
0
ARC
8
DEFAULT_255_1_388
10
6.8026805
20
100.8912187
40
0.3342379
50
47.929771
51
55.4049217
0
ARC
8
DEFAULT_255_1_388
10
6.8141336
20
100.9028618
40
0.3179217
50
4.334829
51
48.0560205
0
ARC
8
DEFAULT_255_1_388
10
6.6909137
20
100.8837487
40
0.442341
50
359.9251713
51
5.5971671
0
ARC
8
DEFAULT_255_1_388
10
6.7391292
20
100.8900728
40
0.3941854
50
337.8914027
51
358.9967534
0
ARC
8
DEFAULT_255_1_388
10
6.4338862
20
101.0078295
40
0.7213271
50
326.9132501
51
338.3508308
0
ARC
8
DEFAULT_255_1_388
10
5.9854974
20
101.2952105
40
1.2538973
50
319.6471833
51
327.0959558
0
ARC
8
DEFAULT_255_1_388
10
5.5541632
20
101.651005
40
1.8129975
50
317.2588228
51
319.9045804
0
LINE
8
DEFAULT_255_1_388
10
7.8669485
20
100.9915987
11
7.8669485
21
100.6075838
0
LINE
8
DEFAULT_255_1_388
10
7.8669485
20
100.6075838
11
8.2337957
21
100.6075838
0
LINE
8
DEFAULT_255_1_388
10
8.2337957
20
100.6075838
11
8.2337957
21
100.4494601
0
LINE
8
DEFAULT_255_1_388
10
8.2337957
20
100.4494601
11
7.8669485
21
100.4494601
0
LINE
8
DEFAULT_255_1_388
10
7.8669485
20
100.4494601
11
7.8669485
21
100.0338204
0
LINE
8
DEFAULT_255_1_388
10
7.8669485
20
100.0338204
11
7.6988855
21
100.0338204
0
LINE
8
DEFAULT_255_1_388
10
7.6988855
20
100.0338204
11
7.6988855
21
100.4494601
0
LINE
8
DEFAULT_255_1_388
10
7.6988855
20
100.4494601
11
7.3320384
21
100.4494601
0
LINE
8
DEFAULT_255_1_388
10
7.3320384
20
100.4494601
11
7.3320384
21
100.6075838
0
LINE
8
DEFAULT_255_1_388
10
7.3320384
20
100.6075838
11
7.6988855
21
100.6075838
0
LINE
8
DEFAULT_255_1_388
10
7.6988855
20
100.6075838
11
7.6988855
21
100.9915987
0
LINE
8
DEFAULT_255_1_388
10
7.6988855
20
100.9915987
11
7.8669485
21
100.9915987
0
LINE
8
DEFAULT_255_1_388
10
4.9809637
20
107.8394
11
4.8553682
21
108.1827545
0
LINE
8
DEFAULT_255_1_388
10
4.8553682
20
108.1827545
11
4.3041939
21
108.1827545
0
LINE
8
DEFAULT_255_1_388
10
4.3041939
20
108.1827545
11
4.1804056
21
107.8394
0
LINE
8
DEFAULT_255_1_388
10
4.1804056
20
107.8394
11
4.0014998
21
107.8394
0
LINE
8
DEFAULT_255_1_388
10
4.0014998
20
107.8394
11
4.5038816
21
109.1549898
0
LINE
8
DEFAULT_255_1_388
10
4.5038816
20
109.1549898
11
4.6556805
21
109.1549898
0
LINE
8
DEFAULT_255_1_388
10
4.6556805
20
109.1549898
11
5.1589659
21
107.8394
0
LINE
8
DEFAULT_255_1_388
10
5.1589659
20
107.8394
11
4.9809637
21
107.8394
0
LINE
8
DEFAULT_255_1_388
10
4.5797811
20
108.9408451
11
4.3566006
21
108.3255177
0
LINE
8
DEFAULT_255_1_388
10
4.3566006
20
108.3255177
11
4.803865
21
108.3255177
0
LINE
8
DEFAULT_255_1_388
10
4.803865
20
108.3255177
11
4.5797811
21
108.9408451
0
LINE
8
DEFAULT_255_1_388
10
6.1546939
20
107.9758382
11
6.1546939
21
107.8394
0
LINE
8
DEFAULT_255_1_388
10
6.1546939
20
107.8394
11
5.2926934
21
107.8394
0
LINE
8
DEFAULT_255_1_388
10
5.2926934
20
107.8394
11
5.2926934
21
107.9595741
0
LINE
8
DEFAULT_255_1_388
10
5.2926934
20
107.9595741
11
5.7480899
21
108.4655702
0
LINE
8
DEFAULT_255_1_388
10
5.434553
20
108.7673607
11
5.2673936
21
108.7673607
0
LINE
8
DEFAULT_255_1_388
10
5.8465784
20
108.358046
11
5.4941883
21
107.9758382
0
LINE
8
DEFAULT_255_1_388
10
5.4941883
20
107.9758382
11
6.1546939
21
107.9758382
0
ARC
8
DEFAULT_255_1_388
10
4.2304958
20
109.8075983
40
2.0258655
50
318.5132526
51
320.7829045
0
ARC
8
DEFAULT_255_1_388
10
4.8252915
20
109.3234929
40
1.2589638
50
320.7372878
51
323.9739031
0
ARC
8
DEFAULT_255_1_388
10
5.2661847
20
109.0040554
40
0.7145141
50
323.8962701
51
328.64194
0
ARC
8
DEFAULT_255_1_388
10
5.4964105
20
108.8620545
40
0.4440242
50
328.8294576
51
331.7891185
0
ARC
8
DEFAULT_255_1_388
10
5.6086425
20
108.8041374
40
0.3177517
50
331.4254512
51
352.9365785
0
ARC
8
DEFAULT_255_1_388
10
5.6239425
20
108.800705
40
0.3021496
50
353.2257659
51
0.0166158
0
ARC
8
DEFAULT_255_1_388
10
5.6476185
20
108.8032894
40
0.2784847
50
359.486299
51
15.9343185
0
ARC
8
DEFAULT_255_1_388
10
5.7046452
20
108.8186269
40
0.2194403
50
16.1712913
51
43.5286088
0
ARC
8
DEFAULT_255_1_388
10
5.7133397
20
108.8273191
40
0.2071504
50
43.4417391
51
83.1661095
0
ARC
8
DEFAULT_255_1_388
10
5.6982558
20
108.7444316
40
0.2912888
50
82.160179
51
90.1505708
0
ARC
8
DEFAULT_255_1_388
10
5.6947039
20
108.6840279
40
0.3517025
50
89.5460741
51
102.5418361
0
ARC
8
DEFAULT_255_1_388
10
5.6673759
20
108.7999933
40
0.2325748
50
102.1738499
51
129.206123
0
ARC
8
DEFAULT_255_1_388
10
5.6585213
20
108.8139664
40
0.2161591
50
129.72865
51
135.753947
0
ARC
8
DEFAULT_255_1_388
10
5.6721695
20
108.8030728
40
0.2335433
50
136.1757367
51
166.3673339
0
ARC
8
DEFAULT_255_1_388
10
5.7854383
20
108.7727148
40
0.3507873
50
165.9090694
51
178.8684636
0
ARC
8
DEFAULT_255_1_388
10
5.8830155
20
108.7674263
40
0.4484624
50
178.4391136
51
180.0083808
0
ARC
8
DEFAULT_255_1_388
10
5.7250856
20
108.7718197
40
0.4577138
50
163.2878482
51
180.5581842
0
ARC
8
DEFAULT_255_1_388
10
5.6348898
20
108.7966393
40
0.3641968
50
133.4540601
51
162.947111
0
ARC
8
DEFAULT_255_1_388
10
5.6549779
20
108.7752789
40
0.3935189
50
100.7869829
51
133.4382499
0
ARC
8
DEFAULT_255_1_388
10
5.6941024
20
108.6010399
40
0.5720313
50
89.660664
51
101.3702276
0
ARC
8
DEFAULT_255_1_388
10
5.7015633
20
108.6079263
40
0.5651495
50
78.2172678
51
90.412935
0
ARC
8
DEFAULT_255_1_388
10
5.7415099
20
108.7906511
40
0.378122
50
55.9269121
51
78.4888449
0
ARC
8
DEFAULT_255_1_388
10
5.7635814
20
108.8287187
40
0.3342379
50
47.929771
51
55.4049217
0
ARC
8
DEFAULT_255_1_388
10
5.7750344
20
108.8403618
40
0.3179217
50
4.334829
51
48.0560205
0
ARC
8
DEFAULT_255_1_388
10
5.6518146
20
108.8212487
40
0.442341
50
359.9251713
51
5.5971671
0
ARC
8
DEFAULT_255_1_388
10
5.7000301
20
108.8275728
40
0.3941854
50
337.8914027
51
358.9967534
0
ARC
8
DEFAULT_255_1_388
10
5.3947871
20
108.9453295
40
0.7213271
50
326.9132501
51
338.3508308
0
ARC
8
DEFAULT_255_1_388
10
4.9463983
20
109.2327105
40
1.2538973
50
319.6471833
51
327.0959558
0
ARC
8
DEFAULT_255_1_388
10
4.5150641
20
109.588505
40
1.8129975
50
317.2588228
51
319.9045804
0
LINE
8
DEFAULT_255_1_388
10
7.0374764
20
109.1549898
11
7.0374764
21
108.281243
0
LINE
8
DEFAULT_255_1_388
10
7.0374764
20
108.281243
11
7.2199964
21
108.281243
0
LINE
8
DEFAULT_255_1_388
10
7.2199964
20
108.281243
11
7.2199964
21
108.1448048
0
LINE
8
DEFAULT_255_1_388
10
7.2199964
20
108.1448048
11
7.0374764
21
108.1448048
0
LINE
8
DEFAULT_255_1_388
10
7.0374764
20
108.1448048
11
7.0374764
21
107.8394
0
LINE
8
DEFAULT_255_1_388
10
7.0374764
20
107.8394
11
6.8694134
21
107.8394
0
LINE
8
DEFAULT_255_1_388
10
6.8694134
20
107.8394
11
6.8694134
21
108.1448048
0
LINE
8
DEFAULT_255_1_388
10
6.8694134
20
108.1448048
11
6.2703501
21
108.1448048
0
LINE
8
DEFAULT_255_1_388
10
6.2703501
20
108.1448048
11
6.2703501
21
108.2432933
0
LINE
8
DEFAULT_255_1_388
10
6.2703501
20
108.2432933
11
6.8594742
21
109.1549898
0
LINE
8
DEFAULT_255_1_388
10
6.8594742
20
109.1549898
11
7.0374764
21
109.1549898
0
LINE
8
DEFAULT_255_1_388
10
6.849535
20
108.8902455
11
6.4600987
21
108.281243
0
LINE
8
DEFAULT_255_1_388
10
6.4600987
20
108.281243
11
6.8694134
21
108.281243
0
LINE
8
DEFAULT_255_1_388
10
6.8694134
20
108.281243
11
6.8694134
21
108.926388
0
LINE
8
DEFAULT_255_1_388
10
6.8694134
20
108.926388
11
6.849535
21
108.8902455
0
LINE
8
DEFAULT_255_1_388
10
7.8669485
20
108.9290987
11
7.8669485
21
108.5450838
0
LINE
8
DEFAULT_255_1_388
10
7.8669485
20
108.5450838
11
8.2337957
21
108.5450838
0
LINE
8
DEFAULT_255_1_388
10
8.2337957
20
108.5450838
11
8.2337957
21
108.3869601
0
LINE
8
DEFAULT_255_1_388
10
8.2337957
20
108.3869601
11
7.8669485
21
108.3869601
0
LINE
8
DEFAULT_255_1_388
10
7.8669485
20
108.3869601
11
7.8669485
21
107.9713204
0
LINE
8
DEFAULT_255_1_388
10
7.8669485
20
107.9713204
11
7.6988855
21
107.9713204
0
LINE
8
DEFAULT_255_1_388
10
7.6988855
20
107.9713204
11
7.6988855
21
108.3869601
0
LINE
8
DEFAULT_255_1_388
10
7.6988855
20
108.3869601
11
7.3320384
21
108.3869601
0
LINE
8
DEFAULT_255_1_388
10
7.3320384
20
108.3869601
11
7.3320384
21
108.5450838
0
LINE
8
DEFAULT_255_1_388
10
7.3320384
20
108.5450838
11
7.6988855
21
108.5450838
0
LINE
8
DEFAULT_255_1_388
10
7.6988855
20
108.5450838
11
7.6988855
21
108.9290987
0
LINE
8
DEFAULT_255_1_388
10
7.6988855
20
108.9290987
11
7.8669485
21
108.9290987
0
LINE
8
DEFAULT_255_1_388
10
21.7506342
20
116.4319842
11
21.7506342
21
115.9494808
0
LINE
8
DEFAULT_255_1_388
10
20.7368349
20
116.3714454
11
20.7368349
21
116.4861981
0
LINE
8
DEFAULT_255_1_388
10
21.7506342
20
116.7066678
11
21.5771498
21
116.7066678
0
LINE
8
DEFAULT_255_1_388
10
20.9112228
20
116.4907159
11
20.9112228
21
116.3831917
0
LINE
8
DEFAULT_255_1_388
10
21.5780534
20
115.9955626
11
21.5780534
21
116.2910282
0
LINE
8
DEFAULT_255_1_388
10
21.5780534
20
116.2910282
11
21.2735521
21
116.2910282
0
LINE
8
DEFAULT_255_1_388
10
21.2735521
20
116.2910282
11
21.2735521
21
116.4319842
0
LINE
8
DEFAULT_255_1_388
10
21.2735521
20
116.4319842
11
21.7506342
21
116.4319842
0
ARC
8
DEFAULT_255_1_388
10
21.4320942
20
116.1737284
40
0.3895571
50
295.8437277
51
324.8549962
0
ARC
8
DEFAULT_255_1_388
10
21.3853325
20
116.2583619
40
0.4861381
50
291.5691164
51
296.4556269
0
ARC
8
DEFAULT_255_1_388
10
21.3278327
20
116.4119801
40
0.6501442
50
278.6622213
51
291.3047061
0
ARC
8
DEFAULT_255_1_388
10
21.2896359
20
116.6536557
40
0.8948168
50
270.0200506
51
278.7494673
0
ARC
8
DEFAULT_255_1_388
10
21.2852563
20
116.8382453
40
1.0794166
50
270.0022372
51
270.2490917
0
ARC
8
DEFAULT_255_1_388
10
21.2810456
20
116.3423827
40
0.5835695
50
253.5785313
51
270.4175629
0
ARC
8
DEFAULT_255_1_388
10
21.2615452
20
116.2668625
40
0.5056241
50
238.8203954
51
253.2788387
0
ARC
8
DEFAULT_255_1_388
10
21.2593367
20
116.2611224
40
0.4995712
50
206.7883476
51
238.696262
0
ARC
8
DEFAULT_255_1_388
10
21.3468763
20
116.3135847
40
0.6014056
50
206.1137778
51
207.4912776
0
ARC
8
DEFAULT_255_1_388
10
21.4135599
20
116.3419284
40
0.6737692
50
188.6922336
51
205.782076
0
ARC
8
DEFAULT_255_1_388
10
21.6223958
20
116.3774455
40
0.8855812
50
180.3881972
51
188.9218085
0
ARC
8
DEFAULT_255_1_388
10
21.7605116
20
116.4925622
40
1.0236965
50
170.2024645
51
180.3561986
0
ARC
8
DEFAULT_255_1_388
10
21.4046266
20
116.5562101
40
0.6621746
50
154.2856519
51
170.3893388
0
ARC
8
DEFAULT_255_1_388
10
21.260423
20
116.6222192
40
0.5036209
50
139.8400879
51
153.9334639
0
ARC
8
DEFAULT_255_1_388
10
21.2200133
20
116.6545716
40
0.4518751
50
98.4190017
51
139.6707015
0
ARC
8
DEFAULT_255_1_388
10
21.2627101
20
116.4469755
40
0.6635912
50
89.7660128
51
99.4415389
0
ARC
8
DEFAULT_255_1_388
10
21.2700497
20
116.4543517
40
0.6562258
50
78.0552044
51
90.4042252
0
ARC
8
DEFAULT_255_1_388
10
21.3155561
20
116.6589661
40
0.4466287
50
54.6380186
51
78.3338577
0
ARC
8
DEFAULT_255_1_388
10
21.3369859
20
116.6950444
40
0.4048184
50
50.0313964
51
54.1562739
0
ARC
8
DEFAULT_255_1_388
10
21.3248753
20
116.6841798
40
0.4209308
50
18.1092229
51
49.7179911
0
ARC
8
DEFAULT_255_1_388
10
21.1609833
20
116.6241399
40
0.5953982
50
7.967396
51
18.698492
0
ARC
8
DEFAULT_255_1_388
10
21.1779094
20
116.6380236
40
0.4050986
50
9.7558763
51
27.3214087
0
ARC
8
DEFAULT_255_1_388
10
21.3047559
20
116.7014087
40
0.2633168
50
27.736147
51
84.5257861
0
ARC
8
DEFAULT_255_1_388
10
21.2678968
20
116.5164988
40
0.4513019
50
82.1064239
51
90.1997295
0
ARC
8
DEFAULT_255_1_388
10
21.2622985
20
116.5736501
40
0.3941684
50
89.4148952
51
105.5824837
0
ARC
8
DEFAULT_255_1_388
10
21.2333865
20
116.6789043
40
0.2850167
50
105.6678541
51
144.2649156
0
ARC
8
DEFAULT_255_1_388
10
21.3338758
20
116.6074024
40
0.4083468
50
144.3560675
51
162.8564185
0
ARC
8
DEFAULT_255_1_388
10
21.56832
20
116.5321083
40
0.6545749
50
162.6076338
51
173.6779811
0
ARC
8
DEFAULT_255_1_388
10
21.9127315
20
116.4902422
40
1.0015089
50
173.4670996
51
179.9729015
0
ARC
8
DEFAULT_255_1_388
10
21.6980186
20
116.3784636
40
0.78681
50
179.6556955
51
190.007958
0
ARC
8
DEFAULT_255_1_388
10
21.4374468
20
116.330666
40
0.5218997
50
189.8117884
51
206.6795375
0
ARC
8
DEFAULT_255_1_388
10
21.3423914
20
116.2863514
40
0.4170788
50
207.1031171
51
217.7074698
0
ARC
8
DEFAULT_255_1_388
10
21.2710344
20
116.2242596
40
0.3226945
50
216.7345117
51
265.6812141
0
ARC
8
DEFAULT_255_1_388
10
21.2857486
20
116.326003
40
0.4253149
50
264.7367524
51
270.0610826
0
ARC
8
DEFAULT_255_1_388
10
21.2883672
20
116.6455173
40
0.7448321
50
269.8334494
51
276.0538364
0
ARC
8
DEFAULT_255_1_388
10
21.3116534
20
116.4315924
40
0.5296446
50
275.9894423
51
284.4615914
0
ARC
8
DEFAULT_255_1_388
10
21.3338047
20
116.338357
40
0.4338353
50
284.7038488
51
286.4938196
0
ARC
8
DEFAULT_255_1_388
10
21.3797196
20
116.1904371
40
0.2789738
50
286.0770429
51
304.2629628
0
ARC
8
DEFAULT_255_1_388
10
21.3947354
20
116.165868
40
0.2502188
50
304.5886247
51
317.1074126
0
LINE
8
DEFAULT_255_1_388
10
23.0508634
20
117.0924898
11
23.0508634
21
115.7769
0
LINE
8
DEFAULT_255_1_388
10
23.0508634
20
115.7769
11
22.8764755
21
115.7769
0
LINE
8
DEFAULT_255_1_388
10
22.8764755
20
115.7769
11
22.2141627
21
116.7906993
0
LINE
8
DEFAULT_255_1_388
10
22.2141627
20
116.7906993
11
22.2141627
21
115.7769
0
LINE
8
DEFAULT_255_1_388
10
22.2141627
20
115.7769
11
22.0397748
21
115.7769
0
LINE
8
DEFAULT_255_1_388
10
22.0397748
20
115.7769
11
22.0397748
21
117.0924898
0
LINE
8
DEFAULT_255_1_388
10
22.0397748
20
117.0924898
11
22.2141627
21
117.0924898
0
LINE
8
DEFAULT_255_1_388
10
22.2141627
20
117.0924898
11
22.8782826
21
116.0741727
0
LINE
8
DEFAULT_255_1_388
10
22.8782826
20
116.0741727
11
22.8782826
21
117.0924898
0
LINE
8
DEFAULT_255_1_388
10
22.8782826
20
117.0924898
11
23.0508634
21
117.0924898
0
LINE
8
DEFAULT_255_1_388
10
23.7231154
20
115.7769
11
23.3589789
21
115.7769
0
LINE
8
DEFAULT_255_1_388
10
23.3589789
20
115.7769
11
23.3589789
21
117.0924898
0
LINE
8
DEFAULT_255_1_388
10
23.3589789
20
117.0924898
11
23.7303439
21
117.0924898
0
LINE
8
DEFAULT_255_1_388
10
24.3104323
20
116.4789696
11
24.3104323
21
116.3949381
0
LINE
8
DEFAULT_255_1_388
10
23.7348617
20
116.9497267
11
23.5324633
21
116.9497267
0
LINE
8
DEFAULT_255_1_388
10
23.5324633
20
116.9497267
11
23.5324633
21
115.9187596
0
LINE
8
DEFAULT_255_1_388
10
23.5324633
20
115.9187596
11
23.7149833
21
115.9187596
0
LINE
8
DEFAULT_255_1_388
10
24.138755
20
116.3985523
11
24.138755
21
116.4753553
0
ARC
8
DEFAULT_255_1_388
10
23.7347234
20
116.4326436
40
0.6598608
50
75.4100343
51
90.3802731
0
ARC
8
DEFAULT_255_1_388
10
23.7605479
20
116.5402691
40
0.5492049
50
60.1455157
51
75.1889627
0
ARC
8
DEFAULT_255_1_388
10
23.7784071
20
116.5713914
40
0.5133226
50
26.525419
51
60.1451222
0
ARC
8
DEFAULT_255_1_388
10
23.6523857
20
116.5045642
40
0.6559324
50
7.4029944
51
26.832209
0
ARC
8
DEFAULT_255_1_388
10
23.4730254
20
116.4766229
40
0.8374103
50
0.1605597
51
7.7176135
0
ARC
8
DEFAULT_255_1_388
10
23.4914654
20
116.3906321
40
0.8189782
50
348.7289744
51
0.30125
0
ARC
8
DEFAULT_255_1_388
10
23.6778118
20
116.3536156
40
0.628991
50
333.0706936
51
348.7181455
0
ARC
8
DEFAULT_255_1_388
10
23.7865747
20
116.2945449
40
0.5052808
50
299.2531435
51
333.4571133
0
ARC
8
DEFAULT_255_1_388
10
23.7459777
20
116.3716629
40
0.5924066
50
278.1072193
51
299.0340218
0
ARC
8
DEFAULT_255_1_388
10
23.7171826
20
116.5412979
40
0.7644209
50
270.4446841
51
278.4508355
0
ARC
8
DEFAULT_255_1_388
10
23.719531
20
116.43673
40
0.5179903
50
269.4969684
51
284.0204874
0
ARC
8
DEFAULT_255_1_388
10
23.7595028
20
116.2831415
40
0.3592968
50
283.7699076
51
318.1557121
0
ARC
8
DEFAULT_255_1_388
10
23.7215573
20
116.3115399
40
0.4065308
50
318.7417595
51
343.687252
0
ARC
8
DEFAULT_255_1_388
10
23.5186152
20
116.3749275
40
0.6191194
50
343.3324891
51
355.8548594
0
ARC
8
DEFAULT_255_1_388
10
23.282519
20
116.3973719
40
0.856237
50
355.4988754
51
0.0789913
0
ARC
8
DEFAULT_255_1_388
10
23.3705989
20
116.480108
40
0.7681709
50
359.6455047
51
9.8607559
0
ARC
8
DEFAULT_255_1_388
10
23.6361712
20
116.5280664
40
0.498312
50
9.6573037
51
26.1931522
0
ARC
8
DEFAULT_255_1_388
10
23.7405787
20
116.5765587
40
0.3832303
50
26.5777895
51
40.1533752
0
ARC
8
DEFAULT_255_1_388
10
23.7693452
20
116.599002
40
0.3467742
50
40.3839958
51
80.1430923
0
ARC
8
DEFAULT_255_1_388
10
23.7325708
20
116.4359486
40
0.5137832
50
79.2153636
51
89.7445174
0
LINE
8
DEFAULT_255_1_388
10
21.7064376
20
85.3424898
11
22.047985
21
84.6819842
0
LINE
8
DEFAULT_255_1_388
10
22.047985
20
84.6819842
11
22.3913395
21
85.3424898
0
LINE
8
DEFAULT_255_1_388
10
22.3913395
20
85.3424898
11
22.5883166
21
85.3424898
0
LINE
8
DEFAULT_255_1_388
10
22.5883166
20
85.3424898
11
22.1347272
21
84.5175355
0
LINE
8
DEFAULT_255_1_388
10
22.1347272
20
84.5175355
11
22.1347272
21
84.0269
0
LINE
8
DEFAULT_255_1_388
10
22.1347272
20
84.0269
11
21.9612428
21
84.0269
0
LINE
8
DEFAULT_255_1_388
10
21.9612428
20
84.0269
11
21.9612428
21
84.5175355
0
LINE
8
DEFAULT_255_1_388
10
21.9612428
20
84.5175355
11
21.5076535
21
85.3424898
0
LINE
8
DEFAULT_255_1_388
10
21.5076535
20
85.3424898
11
21.7064376
21
85.3424898
0
LINE
8
DEFAULT_255_1_388
10
23.6165729
20
84.9620892
11
23.442185
21
84.9620892
0
LINE
8
DEFAULT_255_1_388
10
22.6633124
20
84.4082042
11
22.8377003
21
84.4082042
0
ARC
8
DEFAULT_255_1_388
10
23.5162577
20
85.9684821
40
1.4087688
50
248.9196578
51
254.1442424
0
ARC
8
DEFAULT_255_1_388
10
23.3272457
20
85.4818805
40
0.8867498
50
241.6337352
51
249.0064643
0
ARC
8
DEFAULT_255_1_388
10
23.155277
20
85.1667764
40
0.5277799
50
230.4982261
51
241.8087583
0
ARC
8
DEFAULT_255_1_388
10
23.0670541
20
85.0543686
40
0.3849419
50
227.4062979
51
229.9877433
0
ARC
8
DEFAULT_255_1_388
10
23.0121888
20
85.0008155
40
0.3084129
50
200.6782127
51
228.1765252
0
ARC
8
DEFAULT_255_1_388
10
23.0203257
20
84.9991277
40
0.315461
50
179.506278
51
199.8695278
0
ARC
8
DEFAULT_255_1_388
10
23.0192845
20
85.0074671
40
0.3144584
50
132.4834401
51
181.0242352
0
ARC
8
DEFAULT_255_1_388
10
23.086205
20
84.9442788
40
0.4063094
50
129.2526113
51
133.4249077
0
ARC
8
DEFAULT_255_1_388
10
23.1027642
20
84.9194619
40
0.436014
50
101.9878945
51
128.8741833
0
ARC
8
DEFAULT_255_1_388
10
23.1476058
20
84.725836
40
0.6347415
50
89.5906376
51
102.3170567
0
ARC
8
DEFAULT_255_1_388
10
23.1555369
20
84.7616586
40
0.5989122
50
77.2359491
51
90.3248968
0
ARC
8
DEFAULT_255_1_388
10
23.17883
20
84.8704554
40
0.4876594
50
63.8379856
51
77.0808925
0
ARC
8
DEFAULT_255_1_388
10
23.2100834
20
84.9286882
40
0.4216191
50
45.9863127
51
64.1608798
0
ARC
8
DEFAULT_255_1_388
10
23.2394227
20
84.962199
40
0.3771394
50
32.2747934
51
45.6544796
0
ARC
8
DEFAULT_255_1_388
10
23.2469034
20
84.9643426
40
0.3696765
50
359.6507495
51
32.6129943
0
ARC
8
DEFAULT_255_1_388
10
23.1408216
20
84.9648788
40
0.3013762
50
359.469654
51
14.983205
0
ARC
8
DEFAULT_255_1_388
10
23.2201469
20
84.9861288
40
0.2192542
50
14.9781954
51
48.2004799
0
ARC
8
DEFAULT_255_1_388
10
23.2016579
20
84.9628937
40
0.2489048
50
48.5926661
51
74.1242559
0
ARC
8
DEFAULT_255_1_388
10
23.1641382
20
84.8390607
40
0.3782845
50
73.7889321
51
86.6653996
0
ARC
8
DEFAULT_255_1_388
10
23.1526197
20
84.7032955
40
0.5145025
50
86.2642725
51
90.0533288
0
ARC
8
DEFAULT_255_1_388
10
23.1494289
20
84.7477376
40
0.4700681
50
89.669455
51
99.2313411
0
ARC
8
DEFAULT_255_1_388
10
23.1221449
20
84.9102401
40
0.3052945
50
99.0695987
51
113.7659242
0
ARC
8
DEFAULT_255_1_388
10
23.0913443
20
84.9828772
40
0.226407
50
114.0402885
51
127.9848946
0
ARC
8
DEFAULT_255_1_388
10
23.064292
20
85.0161884
40
0.1835045
50
127.7287217
51
176.7106493
0
ARC
8
DEFAULT_255_1_388
10
23.1406585
20
85.004821
40
0.2604907
50
175.1780759
51
180.0581213
0
ARC
8
DEFAULT_255_1_388
10
23.0457928
20
85.0034411
40
0.1656287
50
179.6140658
51
228.124674
0
ARC
8
DEFAULT_255_1_388
10
23.0955286
20
85.049494
40
0.2332038
50
226.5785315
51
230.8792476
0
ARC
8
DEFAULT_255_1_388
10
23.1484772
20
85.1197908
40
0.3211664
50
231.4636401
51
241.9261664
0
ARC
8
DEFAULT_255_1_388
10
23.2831556
20
85.3676349
40
0.6032345
50
241.7177136
51
248.3259138
0
ARC
8
DEFAULT_255_1_388
10
23.4390151
20
85.7537771
40
1.0196417
50
248.2007377
51
252.4527713
0
ARC
8
DEFAULT_255_1_388
10
23.5743677
20
86.1722092
40
1.4594143
50
252.3388938
51
254.347037
0
ARC
8
DEFAULT_255_1_388
10
22.7258978
20
83.1374095
40
1.6917621
50
71.0197462
51
74.4085467
0
ARC
8
DEFAULT_255_1_388
10
22.9166066
20
83.6879144
40
1.1091618
50
66.1845203
51
71.086519
0
ARC
8
DEFAULT_255_1_388
10
23.0916614
20
84.0820439
40
0.6779073
50
59.3537334
51
66.269255
0
ARC
8
DEFAULT_255_1_388
10
23.191634
20
84.2511777
40
0.4814366
50
49.1021732
51
59.3294421
0
ARC
8
DEFAULT_255_1_388
10
23.2837329
20
84.3561575
40
0.3417875
50
32.7924183
51
49.2503526
0
ARC
8
DEFAULT_255_1_388
10
23.3186943
20
84.3811311
40
0.2988789
50
31.121225
51
32.3977355
0
ARC
8
DEFAULT_255_1_388
10
23.3099121
20
84.3778728
40
0.3080861
50
8.1116803
51
30.7958224
0
ARC
8
DEFAULT_255_1_388
10
23.2187466
20
84.3623437
40
0.4005385
50
359.8390945
51
8.4707348
0
ARC
8
DEFAULT_255_1_388
10
23.2891514
20
84.3568751
40
0.3301608
50
337.4732479
51
0.7538283
0
ARC
8
DEFAULT_255_1_388
10
23.3092539
20
84.3546554
40
0.3107929
50
307.5917028
51
336.4313755
0
ARC
8
DEFAULT_255_1_388
10
23.2581597
20
84.4114509
40
0.3870096
50
307.6560665
51
308.4561779
0
ARC
8
DEFAULT_255_1_388
10
23.2315813
20
84.4522832
40
0.435591
50
284.3733666
51
307.1426212
0
ARC
8
DEFAULT_255_1_388
10
23.1758708
20
84.6572391
40
0.6479685
50
272.4384566
51
284.6464689
0
ARC
8
DEFAULT_255_1_388
10
23.1616093
20
84.8596434
40
0.8508149
50
269.9708517
51
272.8180721
0
ARC
8
DEFAULT_255_1_388
10
23.1567775
20
84.6304283
40
0.6216151
50
248.2707343
51
270.4054609
0
ARC
8
DEFAULT_255_1_388
10
23.1506647
20
84.6089673
40
0.5994203
50
246.1380358
51
248.054058
0
ARC
8
DEFAULT_255_1_388
10
23.1035789
20
84.5100705
40
0.4899388
50
233.1671897
51
246.4951656
0
ARC
8
DEFAULT_255_1_388
10
23.0412424
20
84.4259137
40
0.3852115
50
215.3403381
51
233.084328
0
ARC
8
DEFAULT_255_1_388
10
23.0105788
20
84.4036093
40
0.3472969
50
179.2419235
51
215.2648426
0
ARC
8
DEFAULT_255_1_388
10
23.0969339
20
84.4051979
40
0.259251
50
179.3355796
51
199.1045873
0
ARC
8
DEFAULT_255_1_388
10
23.0595481
20
84.3954223
40
0.2207454
50
199.8830064
51
232.7061328
0
ARC
8
DEFAULT_255_1_388
10
23.1126756
20
84.4622456
40
0.306101
50
232.3736206
51
255.5136621
0
ARC
8
DEFAULT_255_1_388
10
23.1510261
20
84.6022177
40
0.4512213
50
255.2447928
51
267.5318292
0
ARC
8
DEFAULT_255_1_388
10
23.1608728
20
84.7408709
40
0.5901825
50
267.1564563
51
270.0294721
0
ARC
8
DEFAULT_255_1_388
10
23.1640054
20
84.6909623
40
0.5402814
50
269.6999944
51
278.1662446
0
ARC
8
DEFAULT_255_1_388
10
23.1928081
20
84.4962974
40
0.3435003
50
278.0229022
51
290.6255326
0
ARC
8
DEFAULT_255_1_388
10
23.2319248
20
84.3919547
40
0.2320666
50
290.6616368
51
307.0374127
0
ARC
8
DEFAULT_255_1_388
10
23.2657148
20
84.350504
40
0.1786372
50
306.3942078
51
355.303191
0
ARC
8
DEFAULT_255_1_388
10
23.2081441
20
84.3591186
40
0.2367516
50
354.3662092
51
0.0709489
0
ARC
8
DEFAULT_255_1_388
10
23.224131
20
84.3616561
40
0.2207761
50
359.4175379
51
16.1975911
0
ARC
8
DEFAULT_255_1_388
10
23.2753427
20
84.3756954
40
0.1676828
50
16.4721294
51
52.6261798
0
ARC
8
DEFAULT_255_1_388
10
23.1829935
20
84.2537606
40
0.3206412
50
52.7381828
51
62.4979144
0
ARC
8
DEFAULT_255_1_388
10
23.0271687
20
83.9605236
40
0.6527035
50
62.2517425
51
68.1219454
0
ARC
8
DEFAULT_255_1_388
10
22.8337176
20
83.4850951
40
1.1659797
50
68.006043
51
71.8055127
0
ARC
8
DEFAULT_255_1_388
10
22.6317083
20
82.8792723
40
1.8045908
50
71.718361
51
73.9260743
0
LINE
8
DEFAULT_255_1_388
10
24.1632294
20
84.6539737
11
24.1632294
21
84.5175355
0
LINE
8
DEFAULT_255_1_388
10
24.1632294
20
84.5175355
11
23.7222899
21
84.5175355
0
LINE
8
DEFAULT_255_1_388
10
23.7222899
20
84.5175355
11
23.7222899
21
84.6539737
0
LINE
8
DEFAULT_255_1_388
10
23.7222899
20
84.6539737
11
24.1632294
21
84.6539737
0
LINE
8
DEFAULT_255_1_388
10
21.3054376
20
93.2799898
11
21.646985
21
92.6194842
0
LINE
8
DEFAULT_255_1_388
10
21.646985
20
92.6194842
11
21.9903395
21
93.2799898
0
LINE
8
DEFAULT_255_1_388
10
21.9903395
20
93.2799898
11
22.1873166
21
93.2799898
0
LINE
8
DEFAULT_255_1_388
10
22.1873166
20
93.2799898
11
21.7337272
21
92.4550355
0
LINE
8
DEFAULT_255_1_388
10
21.7337272
20
92.4550355
11
21.7337272
21
91.9644
0
LINE
8
DEFAULT_255_1_388
10
21.7337272
20
91.9644
11
21.5602428
21
91.9644
0
LINE
8
DEFAULT_255_1_388
10
21.5602428
20
91.9644
11
21.5602428
21
92.4550355
0
LINE
8
DEFAULT_255_1_388
10
21.5602428
20
92.4550355
11
21.1066535
21
93.2799898
0
LINE
8
DEFAULT_255_1_388
10
21.1066535
20
93.2799898
11
21.3054376
21
93.2799898
0
LINE
8
DEFAULT_255_1_388
10
23.2155729
20
92.8995892
11
23.041185
21
92.8995892
0
LINE
8
DEFAULT_255_1_388
10
22.2623124
20
92.3457042
11
22.4367003
21
92.3457042
0
ARC
8
DEFAULT_255_1_388
10
23.1152577
20
93.9059821
40
1.4087688
50
248.9196578
51
254.1442424
0
ARC
8
DEFAULT_255_1_388
10
22.9262457
20
93.4193805
40
0.8867498
50
241.6337352
51
249.0064643
0
ARC
8
DEFAULT_255_1_388
10
22.754277
20
93.1042764
40
0.5277799
50
230.4982261
51
241.8087583
0
ARC
8
DEFAULT_255_1_388
10
22.6660541
20
92.9918686
40
0.3849419
50
227.4062979
51
229.9877433
0
ARC
8
DEFAULT_255_1_388
10
22.6111888
20
92.9383155
40
0.3084129
50
200.6782127
51
228.1765252
0
ARC
8
DEFAULT_255_1_388
10
22.6193257
20
92.9366277
40
0.315461
50
179.506278
51
199.8695278
0
ARC
8
DEFAULT_255_1_388
10
22.6182845
20
92.9449671
40
0.3144584
50
132.4834401
51
181.0242352
0
ARC
8
DEFAULT_255_1_388
10
22.685205
20
92.8817788
40
0.4063094
50
129.2526113
51
133.4249077
0
ARC
8
DEFAULT_255_1_388
10
22.7017642
20
92.8569619
40
0.436014
50
101.9878945
51
128.8741833
0
ARC
8
DEFAULT_255_1_388
10
22.7466058
20
92.663336
40
0.6347415
50
89.5906376
51
102.3170567
0
ARC
8
DEFAULT_255_1_388
10
22.7545369
20
92.6991586
40
0.5989122
50
77.2359491
51
90.3248968
0
ARC
8
DEFAULT_255_1_388
10
22.77783
20
92.8079554
40
0.4876594
50
63.8379856
51
77.0808925
0
ARC
8
DEFAULT_255_1_388
10
22.8090834
20
92.8661882
40
0.4216191
50
45.9863127
51
64.1608798
0
ARC
8
DEFAULT_255_1_388
10
22.8384227
20
92.899699
40
0.3771394
50
32.2747934
51
45.6544796
0
ARC
8
DEFAULT_255_1_388
10
22.8459034
20
92.9018426
40
0.3696765
50
359.6507495
51
32.6129943
0
ARC
8
DEFAULT_255_1_388
10
22.7398216
20
92.9023788
40
0.3013762
50
359.469654
51
14.983205
0
ARC
8
DEFAULT_255_1_388
10
22.8191469
20
92.9236288
40
0.2192542
50
14.9781954
51
48.2004799
0
ARC
8
DEFAULT_255_1_388
10
22.8006579
20
92.9003937
40
0.2489048
50
48.5926661
51
74.1242559
0
ARC
8
DEFAULT_255_1_388
10
22.7631382
20
92.7765607
40
0.3782845
50
73.7889321
51
86.6653996
0
ARC
8
DEFAULT_255_1_388
10
22.7516197
20
92.6407955
40
0.5145025
50
86.2642725
51
90.0533288
0
ARC
8
DEFAULT_255_1_388
10
22.7484289
20
92.6852376
40
0.4700681
50
89.669455
51
99.2313411
0
ARC
8
DEFAULT_255_1_388
10
22.7211449
20
92.8477401
40
0.3052945
50
99.0695987
51
113.7659242
0
ARC
8
DEFAULT_255_1_388
10
22.6903443
20
92.9203772
40
0.226407
50
114.0402885
51
127.9848946
0
ARC
8
DEFAULT_255_1_388
10
22.663292
20
92.9536884
40
0.1835045
50
127.7287217
51
176.7106493
0
ARC
8
DEFAULT_255_1_388
10
22.7396585
20
92.942321
40
0.2604907
50
175.1780759
51
180.0581213
0
ARC
8
DEFAULT_255_1_388
10
22.6447928
20
92.9409411
40
0.1656287
50
179.6140658
51
228.124674
0
ARC
8
DEFAULT_255_1_388
10
22.6945286
20
92.986994
40
0.2332038
50
226.5785315
51
230.8792476
0
ARC
8
DEFAULT_255_1_388
10
22.7474772
20
93.0572908
40
0.3211664
50
231.4636401
51
241.9261664
0
ARC
8
DEFAULT_255_1_388
10
22.8821556
20
93.3051349
40
0.6032345
50
241.7177136
51
248.3259138
0
ARC
8
DEFAULT_255_1_388
10
23.0380151
20
93.6912771
40
1.0196417
50
248.2007377
51
252.4527713
0
ARC
8
DEFAULT_255_1_388
10
23.1733677
20
94.1097092
40
1.4594143
50
252.3388938
51
254.347037
0
ARC
8
DEFAULT_255_1_388
10
22.3248978
20
91.0749095
40
1.6917621
50
71.0197462
51
74.4085467
0
ARC
8
DEFAULT_255_1_388
10
22.5156066
20
91.6254144
40
1.1091618
50
66.1845203
51
71.086519
0
ARC
8
DEFAULT_255_1_388
10
22.6906614
20
92.0195439
40
0.6779073
50
59.3537334
51
66.269255
0
ARC
8
DEFAULT_255_1_388
10
22.790634
20
92.1886777
40
0.4814366
50
49.1021732
51
59.3294421
0
ARC
8
DEFAULT_255_1_388
10
22.8827329
20
92.2936575
40
0.3417875
50
32.7924183
51
49.2503526
0
ARC
8
DEFAULT_255_1_388
10
22.9176943
20
92.3186311
40
0.2988789
50
31.121225
51
32.3977355
0
ARC
8
DEFAULT_255_1_388
10
22.9089121
20
92.3153728
40
0.3080861
50
8.1116803
51
30.7958224
0
ARC
8
DEFAULT_255_1_388
10
22.8177466
20
92.2998437
40
0.4005385
50
359.8390945
51
8.4707348
0
ARC
8
DEFAULT_255_1_388
10
22.8881514
20
92.2943751
40
0.3301608
50
337.4732479
51
0.7538283
0
ARC
8
DEFAULT_255_1_388
10
22.9082539
20
92.2921554
40
0.3107929
50
307.5917028
51
336.4313755
0
ARC
8
DEFAULT_255_1_388
10
22.8571597
20
92.3489509
40
0.3870096
50
307.6560665
51
308.4561779
0
ARC
8
DEFAULT_255_1_388
10
22.8305813
20
92.3897832
40
0.435591
50
284.3733666
51
307.1426212
0
ARC
8
DEFAULT_255_1_388
10
22.7748708
20
92.5947391
40
0.6479685
50
272.4384566
51
284.6464689
0
ARC
8
DEFAULT_255_1_388
10
22.7606093
20
92.7971434
40
0.8508149
50
269.9708517
51
272.8180721
0
ARC
8
DEFAULT_255_1_388
10
22.7557775
20
92.5679283
40
0.6216151
50
248.2707343
51
270.4054609
0
ARC
8
DEFAULT_255_1_388
10
22.7496647
20
92.5464673
40
0.5994203
50
246.1380358
51
248.054058
0
ARC
8
DEFAULT_255_1_388
10
22.7025789
20
92.4475705
40
0.4899388
50
233.1671897
51
246.4951656
0
ARC
8
DEFAULT_255_1_388
10
22.6402424
20
92.3634137
40
0.3852115
50
215.3403381
51
233.084328
0
ARC
8
DEFAULT_255_1_388
10
22.6095788
20
92.3411093
40
0.3472969
50
179.2419235
51
215.2648426
0
ARC
8
DEFAULT_255_1_388
10
22.6959339
20
92.3426979
40
0.259251
50
179.3355796
51
199.1045873
0
ARC
8
DEFAULT_255_1_388
10
22.6585481
20
92.3329223
40
0.2207454
50
199.8830064
51
232.7061328
0
ARC
8
DEFAULT_255_1_388
10
22.7116756
20
92.3997456
40
0.306101
50
232.3736206
51
255.5136621
0
ARC
8
DEFAULT_255_1_388
10
22.7500261
20
92.5397177
40
0.4512213
50
255.2447928
51
267.5318292
0
ARC
8
DEFAULT_255_1_388
10
22.7598728
20
92.6783709
40
0.5901825
50
267.1564563
51
270.0294721
0
ARC
8
DEFAULT_255_1_388
10
22.7630054
20
92.6284623
40
0.5402814
50
269.6999944
51
278.1662446
0
ARC
8
DEFAULT_255_1_388
10
22.7918081
20
92.4337974
40
0.3435003
50
278.0229022
51
290.6255326
0
ARC
8
DEFAULT_255_1_388
10
22.8309248
20
92.3294547
40
0.2320666
50
290.6616368
51
307.0374127
0
ARC
8
DEFAULT_255_1_388
10
22.8647148
20
92.288004
40
0.1786372
50
306.3942078
51
355.303191
0
ARC
8
DEFAULT_255_1_388
10
22.8071441
20
92.2966186
40
0.2367516
50
354.3662092
51
0.0709489
0
ARC
8
DEFAULT_255_1_388
10
22.823131
20
92.2991561
40
0.2207761
50
359.4175379
51
16.1975911
0
ARC
8
DEFAULT_255_1_388
10
22.8743427
20
92.3131954
40
0.1676828
50
16.4721294
51
52.6261798
0
ARC
8
DEFAULT_255_1_388
10
22.7819935
20
92.1912606
40
0.3206412
50
52.7381828
51
62.4979144
0
ARC
8
DEFAULT_255_1_388
10
22.6261687
20
91.8980236
40
0.6527035
50
62.2517425
51
68.1219454
0
ARC
8
DEFAULT_255_1_388
10
22.4327176
20
91.4225951
40
1.1659797
50
68.006043
51
71.8055127
0
ARC
8
DEFAULT_255_1_388
10
22.2307083
20
90.8167723
40
1.8045908
50
71.718361
51
73.9260743
0
LINE
8
DEFAULT_255_1_388
10
23.8932462
20
93.0540987
11
23.8932462
21
92.6700838
0
LINE
8
DEFAULT_255_1_388
10
23.8932462
20
92.6700838
11
24.2600934
21
92.6700838
0
LINE
8
DEFAULT_255_1_388
10
24.2600934
20
92.6700838
11
24.2600934
21
92.5119601
0
LINE
8
DEFAULT_255_1_388
10
24.2600934
20
92.5119601
11
23.8932462
21
92.5119601
0
LINE
8
DEFAULT_255_1_388
10
23.8932462
20
92.5119601
11
23.8932462
21
92.0963204
0
LINE
8
DEFAULT_255_1_388
10
23.8932462
20
92.0963204
11
23.7251833
21
92.0963204
0
LINE
8
DEFAULT_255_1_388
10
23.7251833
20
92.0963204
11
23.7251833
21
92.5119601
0
LINE
8
DEFAULT_255_1_388
10
23.7251833
20
92.5119601
11
23.3583361
21
92.5119601
0
LINE
8
DEFAULT_255_1_388
10
23.3583361
20
92.5119601
11
23.3583361
21
92.6700838
0
LINE
8
DEFAULT_255_1_388
10
23.3583361
20
92.6700838
11
23.7251833
21
92.6700838
0
LINE
8
DEFAULT_255_1_388
10
23.7251833
20
92.6700838
11
23.7251833
21
93.0540987
0
LINE
8
DEFAULT_255_1_388
10
23.7251833
20
93.0540987
11
23.8932462
21
93.0540987
0
LINE
8
DEFAULT_255_1_388
10
21.4722376
20
101.2174898
11
21.813785
21
100.5569842
0
LINE
8
DEFAULT_255_1_388
10
21.813785
20
100.5569842
11
22.1571395
21
101.2174898
0
LINE
8
DEFAULT_255_1_388
10
22.1571395
20
101.2174898
11
22.3541166
21
101.2174898
0
LINE
8
DEFAULT_255_1_388
10
22.3541166
20
101.2174898
11
21.9005272
21
100.3925355
0
LINE
8
DEFAULT_255_1_388
10
21.9005272
20
100.3925355
11
21.9005272
21
99.9019
0
LINE
8
DEFAULT_255_1_388
10
21.9005272
20
99.9019
11
21.7270428
21
99.9019
0
LINE
8
DEFAULT_255_1_388
10
21.7270428
20
99.9019
11
21.7270428
21
100.3925355
0
LINE
8
DEFAULT_255_1_388
10
21.7270428
20
100.3925355
11
21.2734535
21
101.2174898
0
LINE
8
DEFAULT_255_1_388
10
21.2734535
20
101.2174898
11
21.4722376
21
101.2174898
0
LINE
8
DEFAULT_255_1_388
10
23.5350753
20
101.2174898
11
23.5350753
21
99.9019
0
LINE
8
DEFAULT_255_1_388
10
23.5350753
20
99.9019
11
23.3606874
21
99.9019
0
LINE
8
DEFAULT_255_1_388
10
23.3606874
20
99.9019
11
23.3606874
21
100.5099989
0
LINE
8
DEFAULT_255_1_388
10
23.3606874
20
100.5099989
11
22.697471
21
100.5099989
0
LINE
8
DEFAULT_255_1_388
10
22.697471
20
100.5099989
11
22.697471
21
99.9019
0
LINE
8
DEFAULT_255_1_388
10
22.697471
20
99.9019
11
22.5239867
21
99.9019
0
LINE
8
DEFAULT_255_1_388
10
22.5239867
20
99.9019
11
22.5239867
21
101.2174898
0
LINE
8
DEFAULT_255_1_388
10
22.5239867
20
101.2174898
11
22.697471
21
101.2174898
0
LINE
8
DEFAULT_255_1_388
10
22.697471
20
101.2174898
11
22.697471
21
100.6518585
0
LINE
8
DEFAULT_255_1_388
10
22.697471
20
100.6518585
11
23.3606874
21
100.6518585
0
LINE
8
DEFAULT_255_1_388
10
23.3606874
20
100.6518585
11
23.3606874
21
101.2174898
0
LINE
8
DEFAULT_255_1_388
10
23.3606874
20
101.2174898
11
23.5350753
21
101.2174898
0
LINE
8
DEFAULT_255_1_388
10
24.1648597
20
100.5289737
11
24.1648597
21
100.3925355
0
LINE
8
DEFAULT_255_1_388
10
24.1648597
20
100.3925355
11
23.7239203
21
100.3925355
0
LINE
8
DEFAULT_255_1_388
10
23.7239203
20
100.3925355
11
23.7239203
21
100.5289737
0
LINE
8
DEFAULT_255_1_388
10
23.7239203
20
100.5289737
11
24.1648597
21
100.5289737
0
LINE
8
DEFAULT_255_1_388
10
21.0712376
20
109.1549898
11
21.412785
21
108.4944842
0
LINE
8
DEFAULT_255_1_388
10
21.412785
20
108.4944842
11
21.7561395
21
109.1549898
0
LINE
8
DEFAULT_255_1_388
10
21.7561395
20
109.1549898
11
21.9531166
21
109.1549898
0
LINE
8
DEFAULT_255_1_388
10
21.9531166
20
109.1549898
11
21.4995272
21
108.3300355
0
LINE
8
DEFAULT_255_1_388
10
21.4995272
20
108.3300355
11
21.4995272
21
107.8394
0
LINE
8
DEFAULT_255_1_388
10
21.4995272
20
107.8394
11
21.3260428
21
107.8394
0
LINE
8
DEFAULT_255_1_388
10
21.3260428
20
107.8394
11
21.3260428
21
108.3300355
0
LINE
8
DEFAULT_255_1_388
10
21.3260428
20
108.3300355
11
20.8724535
21
109.1549898
0
LINE
8
DEFAULT_255_1_388
10
20.8724535
20
109.1549898
11
21.0712376
21
109.1549898
0
LINE
8
DEFAULT_255_1_388
10
23.1340753
20
109.1549898
11
23.1340753
21
107.8394
0
LINE
8
DEFAULT_255_1_388
10
23.1340753
20
107.8394
11
22.9596874
21
107.8394
0
LINE
8
DEFAULT_255_1_388
10
22.9596874
20
107.8394
11
22.9596874
21
108.4474989
0
LINE
8
DEFAULT_255_1_388
10
22.9596874
20
108.4474989
11
22.296471
21
108.4474989
0
LINE
8
DEFAULT_255_1_388
10
22.296471
20
108.4474989
11
22.296471
21
107.8394
0
LINE
8
DEFAULT_255_1_388
10
22.296471
20
107.8394
11
22.1229867
21
107.8394
0
LINE
8
DEFAULT_255_1_388
10
22.1229867
20
107.8394
11
22.1229867
21
109.1549898
0
LINE
8
DEFAULT_255_1_388
10
22.1229867
20
109.1549898
11
22.296471
21
109.1549898
0
LINE
8
DEFAULT_255_1_388
10
22.296471
20
109.1549898
11
22.296471
21
108.5893585
0
LINE
8
DEFAULT_255_1_388
10
22.296471
20
108.5893585
11
22.9596874
21
108.5893585
0
LINE
8
DEFAULT_255_1_388
10
22.9596874
20
108.5893585
11
22.9596874
21
109.1549898
0
LINE
8
DEFAULT_255_1_388
10
22.9596874
20
109.1549898
11
23.1340753
21
109.1549898
0
LINE
8
DEFAULT_255_1_388
10
23.8948766
20
108.9290987
11
23.8948766
21
108.5450838
0
LINE
8
DEFAULT_255_1_388
10
23.8948766
20
108.5450838
11
24.2617237
21
108.5450838
0
LINE
8
DEFAULT_255_1_388
10
24.2617237
20
108.5450838
11
24.2617237
21
108.3869601
0
LINE
8
DEFAULT_255_1_388
10
24.2617237
20
108.3869601
11
23.8948766
21
108.3869601
0
LINE
8
DEFAULT_255_1_388
10
23.8948766
20
108.3869601
11
23.8948766
21
107.9713204
0
LINE
8
DEFAULT_255_1_388
10
23.8948766
20
107.9713204
11
23.7268136
21
107.9713204
0
LINE
8
DEFAULT_255_1_388
10
23.7268136
20
107.9713204
11
23.7268136
21
108.3869601
0
LINE
8
DEFAULT_255_1_388
10
23.7268136
20
108.3869601
11
23.3599664
21
108.3869601
0
LINE
8
DEFAULT_255_1_388
10
23.3599664
20
108.3869601
11
23.3599664
21
108.5450838
0
LINE
8
DEFAULT_255_1_388
10
23.3599664
20
108.5450838
11
23.7268136
21
108.5450838
0
LINE
8
DEFAULT_255_1_388
10
23.7268136
20
108.5450838
11
23.7268136
21
108.9290987
0
LINE
8
DEFAULT_255_1_388
10
23.7268136
20
108.9290987
11
23.8948766
21
108.9290987
0
ENDSEC
0
EOF