0
SECTION
2
HEADER
9
$MEASUREMENT
70
1
0
ENDSEC
0
SECTION
2
TABLES
0
TABLE
2
LTYPE
0
LTYPE
72
65
70
64
2
CONTINUOUS
3
______
73
0
40
0
0
ENDTAB
0
TABLE
2
LAYER
0
LAYER
2
DEFAULT_255_2_778
70
0
62
255
6
CONTINUOUS
0
ENDTAB
0
ENDSEC
0
SECTION
2
ENTITIES
0
LINE
8
DEFAULT_255_2_778
10
9.4959375
20
30.3959849
11
9.4959375
21
68.6859849
0
LINE
8
DEFAULT_255_2_778
10
10.4960375
20
68.6859849
11
10.4960375
21
30.3959849
0
LINE
8
DEFAULT_255_2_778
10
10.9958146
20
28.4960552
11
10.9958146
21
25.4959552
0
LINE
8
DEFAULT_255_2_778
10
10.9958146
20
25.4959552
11
14.9958146
21
25.4959552
0
LINE
8
DEFAULT_255_2_778
10
14.9958146
20
25.4959552
11
14.9958146
21
28.4960552
0
LINE
8
DEFAULT_255_2_778
10
14.9958146
20
28.4960552
11
10.9958146
21
28.4960552
0
LINE
8
DEFAULT_255_2_778
10
13.1958
20
30.3960364
11
13.1958
21
29.2961364
0
ARC
8
DEFAULT_255_2_778
10
7.4927009
20
26.9984429
40
0.996929
50
140.5710592
51
180.1447138
0
ARC
8
DEFAULT_255_2_778
10
7.4930469
20
26.9991961
40
0.9967183
50
93.1797565
51
140.6171326
0
ARC
8
DEFAULT_255_2_778
10
7.4958147
20
26.9709074
40
1.0251177
50
89.9966308
51
93.2465192
0
ARC
8
DEFAULT_255_2_778
10
7.4984296
20
26.9990856
40
0.9969427
50
50.6575055
51
90.1468132
0
ARC
8
DEFAULT_255_2_778
10
7.4991567
20
26.9987964
40
0.9967056
50
3.1830602
51
50.7003697
0
ARC
8
DEFAULT_255_2_778
10
7.4708416
20
26.9959932
40
1.0251334
50
359.9961883
51
3.2516226
0
ARC
8
DEFAULT_255_2_778
10
7.4989792
20
26.9933518
40
0.9969992
50
320.8339009
51
0.1478782
0
ARC
8
DEFAULT_255_2_778
10
7.4988079
20
26.9925951
40
0.9966544
50
273.1917681
51
320.8738452
0
ARC
8
DEFAULT_255_2_778
10
7.4959348
20
27.0215893
40
1.0257644
50
269.9966624
51
273.2618314
0
ARC
8
DEFAULT_255_2_778
10
7.4933347
20
26.9927975
40
0.9969758
50
230.5749324
51
270.1459901
0
ARC
8
DEFAULT_255_2_778
10
7.492541
20
26.9930309
40
0.9966524
50
183.1767404
51
230.6186978
0
ARC
8
DEFAULT_255_2_778
10
7.5212221
20
26.9958643
40
1.0254472
50
179.9966112
51
183.2460045
0
LINE
8
DEFAULT_255_2_778
10
6.495775
20
26.995925
11
6.495775
21
26.995925
0
LINE
8
DEFAULT_255_2_778
10
10.9958146
20
17.0660552
11
10.9958146
21
14.0659552
0
LINE
8
DEFAULT_255_2_778
10
10.9958146
20
14.0659552
11
14.9958146
21
14.0659552
0
LINE
8
DEFAULT_255_2_778
10
14.9958146
20
14.0659552
11
14.9958146
21
17.0660552
0
LINE
8
DEFAULT_255_2_778
10
14.9958146
20
17.0660552
11
10.9958146
21
17.0660552
0
LINE
8
DEFAULT_255_2_778
10
10.9958146
20
13.2560552
11
10.9958146
21
10.2559552
0
LINE
8
DEFAULT_255_2_778
10
10.9958146
20
10.2559552
11
14.9958146
21
10.2559552
0
LINE
8
DEFAULT_255_2_778
10
14.9958146
20
10.2559552
11
14.9958146
21
13.2560552
0
LINE
8
DEFAULT_255_2_778
10
14.9958146
20
13.2560552
11
10.9958146
21
13.2560552
0
LINE
8
DEFAULT_255_2_778
10
10.9958146
20
24.6860552
11
10.9958146
21
21.6859552
0
LINE
8
DEFAULT_255_2_778
10
10.9958146
20
21.6859552
11
14.9958146
21
21.6859552
0
LINE
8
DEFAULT_255_2_778
10
14.9958146
20
21.6859552
11
14.9958146
21
24.6860552
0
LINE
8
DEFAULT_255_2_778
10
14.9958146
20
24.6860552
11
10.9958146
21
24.6860552
0
LINE
8
DEFAULT_255_2_778
10
10.9958146
20
20.8760552
11
10.9958146
21
17.8759552
0
LINE
8
DEFAULT_255_2_778
10
10.9958146
20
17.8759552
11
14.9958146
21
17.8759552
0
LINE
8
DEFAULT_255_2_778
10
14.9958146
20
17.8759552
11
14.9958146
21
20.8760552
0
LINE
8
DEFAULT_255_2_778
10
14.9958146
20
20.8760552
11
10.9958146
21
20.8760552
0
LINE
8
DEFAULT_255_2_778
10
10.496
20
29.2959226
11
10.496
21
9.4559226
0
LINE
8
DEFAULT_255_2_778
10
9.4959252
20
29.2959263
11
9.4959252
21
9.4558263
0
LINE
8
DEFAULT_255_2_778
10
9.4959252
20
9.4558263
11
3.1959252
21
9.4558263
0
LINE
8
DEFAULT_255_2_778
10
3.1959252
20
9.4558263
11
3.1959252
21
29.2959263
0
LINE
8
DEFAULT_255_2_778
10
3.1959252
20
29.2959263
11
15.4958252
21
29.2959263
0
LINE
8
DEFAULT_255_2_778
10
15.4958252
20
29.2959263
11
15.4958252
21
9.4558263
0
LINE
8
DEFAULT_255_2_778
10
15.4958252
20
9.4558263
11
9.4959252
21
9.4558263
0
LINE
8
DEFAULT_255_2_778
10
10.9958252
20
61.0758263
11
14.9958252
21
61.0758263
0
LINE
8
DEFAULT_255_2_778
10
14.9958252
20
61.0758263
11
14.9958252
21
64.0759263
0
LINE
8
DEFAULT_255_2_778
10
14.9958252
20
64.0759263
11
10.9958252
21
64.0759263
0
LINE
8
DEFAULT_255_2_778
10
10.9958252
20
64.0759263
11
10.9958252
21
61.0758263
0
LINE
8
DEFAULT_255_2_778
10
10.9958252
20
64.8858263
11
14.9958252
21
64.8858263
0
LINE
8
DEFAULT_255_2_778
10
14.9958252
20
64.8858263
11
14.9958252
21
67.8859263
0
LINE
8
DEFAULT_255_2_778
10
14.9958252
20
67.8859263
11
10.9958252
21
67.8859263
0
LINE
8
DEFAULT_255_2_778
10
10.9958252
20
67.8859263
11
10.9958252
21
64.8858263
0
LINE
8
DEFAULT_255_2_778
10
10.9958146
20
53.4557552
11
14.9958146
21
53.4557552
0
LINE
8
DEFAULT_255_2_778
10
14.9958146
20
53.4557552
11
14.9958146
21
56.4558552
0
LINE
8
DEFAULT_255_2_778
10
14.9958146
20
56.4558552
11
10.9958146
21
56.4558552
0
LINE
8
DEFAULT_255_2_778
10
10.9958146
20
56.4558552
11
10.9958146
21
53.4557552
0
LINE
8
DEFAULT_255_2_778
10
10.9958146
20
57.2657552
11
14.9958146
21
57.2657552
0
LINE
8
DEFAULT_255_2_778
10
14.9958146
20
57.2657552
11
14.9958146
21
60.2658552
0
LINE
8
DEFAULT_255_2_778
10
14.9958146
20
60.2658552
11
10.9958146
21
60.2658552
0
LINE
8
DEFAULT_255_2_778
10
10.9958146
20
60.2658552
11
10.9958146
21
57.2657552
0
LINE
8
DEFAULT_255_2_778
10
10.9958146
20
38.8158552
11
14.9958146
21
38.8158552
0
LINE
8
DEFAULT_255_2_778
10
14.9958146
20
38.8158552
11
14.9958146
21
41.8159552
0
LINE
8
DEFAULT_255_2_778
10
14.9958146
20
41.8159552
11
10.9958146
21
41.8159552
0
LINE
8
DEFAULT_255_2_778
10
10.9958146
20
41.8159552
11
10.9958146
21
38.8158552
0
LINE
8
DEFAULT_255_2_778
10
10.9958146
20
42.6258552
11
14.9958146
21
42.6258552
0
LINE
8
DEFAULT_255_2_778
10
14.9958146
20
42.6258552
11
14.9958146
21
45.6259552
0
LINE
8
DEFAULT_255_2_778
10
14.9958146
20
45.6259552
11
10.9958146
21
45.6259552
0
LINE
8
DEFAULT_255_2_778
10
10.9958146
20
45.6259552
11
10.9958146
21
42.6258552
0
LINE
8
DEFAULT_255_2_778
10
10.9958146
20
31.1958552
11
14.9958146
21
31.1958552
0
LINE
8
DEFAULT_255_2_778
10
14.9958146
20
31.1958552
11
14.9958146
21
34.1959552
0
LINE
8
DEFAULT_255_2_778
10
14.9958146
20
34.1959552
11
10.9958146
21
34.1959552
0
LINE
8
DEFAULT_255_2_778
10
10.9958146
20
34.1959552
11
10.9958146
21
31.1958552
0
LINE
8
DEFAULT_255_2_778
10
10.9958146
20
35.0058552
11
14.9958146
21
35.0058552
0
LINE
8
DEFAULT_255_2_778
10
14.9958146
20
35.0058552
11
14.9958146
21
38.0059552
0
LINE
8
DEFAULT_255_2_778
10
14.9958146
20
38.0059552
11
10.9958146
21
38.0059552
0
LINE
8
DEFAULT_255_2_778
10
10.9958146
20
38.0059552
11
10.9958146
21
35.0058552
0
ARC
8
DEFAULT_255_2_778
10
7.4957771
20
51.1462843
40
1.0001198
50
180.0330208
51
245.5133203
0
ARC
8
DEFAULT_255_2_778
10
7.4952076
20
51.1455732
40
0.9995502
50
169.8185593
51
179.9922784
0
ARC
8
DEFAULT_255_2_778
10
7.5052289
20
51.1439729
40
1.0096968
50
167.7436317
51
169.8296958
0
ARC
8
DEFAULT_255_2_778
10
7.4957708
20
51.1463729
40
0.9999447
50
89.9957086
51
167.7629703
0
ARC
8
DEFAULT_255_2_778
10
7.4959317
20
51.1462626
40
1.000055
50
12.2421243
51
90.0049258
0
ARC
8
DEFAULT_255_2_778
10
7.4866363
20
51.1441969
40
1.0095771
50
10.1586023
51
12.2448294
0
ARC
8
DEFAULT_255_2_778
10
7.4963408
20
51.1457334
40
0.9997538
50
0.0075022
51
10.1700227
0
ARC
8
DEFAULT_255_2_778
10
7.4958169
20
51.1464136
40
1.0002778
50
294.4886925
51
359.9685352
0
ARC
8
DEFAULT_255_2_778
10
7.4958864
20
47.9357805
40
1.0002292
50
114.4907062
51
179.9683094
0
ARC
8
DEFAULT_255_2_778
10
7.4952254
20
47.9364633
40
0.999568
50
180.0074265
51
190.1540729
0
ARC
8
DEFAULT_255_2_778
10
7.5051919
20
47.9380595
40
1.0096598
50
190.1435242
51
192.2566516
0
ARC
8
DEFAULT_255_2_778
10
7.4958537
20
47.9357649
40
1.0000474
50
192.241767
51
269.9995443
0
ARC
8
DEFAULT_255_2_778
10
7.4958491
20
47.9358752
40
1.0001576
50
269.9998102
51
347.7531362
0
ARC
8
DEFAULT_255_2_778
10
7.4861072
20
47.9379446
40
1.0101166
50
347.7556427
51
349.8677293
0
ARC
8
DEFAULT_255_2_778
10
7.4962914
20
47.9363065
40
0.9998031
50
349.8574659
51
359.9925981
0
ARC
8
DEFAULT_255_2_778
10
7.4957076
20
47.9356512
40
1.0003871
50
0.0301351
51
65.5072816
0
LINE
8
DEFAULT_255_2_778
10
14.9957457
20
46.4359176
11
14.9957457
21
48.8460176
0
LINE
8
DEFAULT_255_2_778
10
14.9957457
20
48.8460176
11
10.9957457
21
48.8460176
0
LINE
8
DEFAULT_255_2_778
10
10.9957457
20
48.8460176
11
10.9957457
21
46.4359176
0
LINE
8
DEFAULT_255_2_778
10
10.9957457
20
46.4359176
11
14.9957457
21
46.4359176
0
LINE
8
DEFAULT_255_2_778
10
10.9957457
20
50.2358176
11
14.9957457
21
50.2358176
0
LINE
8
DEFAULT_255_2_778
10
14.9957457
20
50.2358176
11
14.9957457
21
52.6459176
0
LINE
8
DEFAULT_255_2_778
10
14.9957457
20
52.6459176
11
10.9957457
21
52.6459176
0
LINE
8
DEFAULT_255_2_778
10
10.9957457
20
52.6459176
11
10.9957457
21
50.2358176
0
LINE
8
DEFAULT_255_2_778
10
7.9104457
20
50.2361176
11
7.0812457
21
50.2361176
0
LINE
8
DEFAULT_255_2_778
10
7.9104457
20
48.8460176
11
7.0812457
21
48.8460176
0
LINE
8
DEFAULT_255_2_778
10
15.4958252
20
68.6859849
11
15.4958252
21
30.3959849
0
LINE
8
DEFAULT_255_2_778
10
15.4958252
20
30.3959849
11
3.1959252
21
30.3959849
0
LINE
8
DEFAULT_255_2_778
10
3.1959252
20
30.3959849
11
3.1959252
21
68.6859849
0
LINE
8
DEFAULT_255_2_778
10
3.1959252
20
68.6859849
11
15.4958252
21
68.6859849
0
ARC
8
DEFAULT_255_2_778
10
7.4927009
20
15.5684429
40
0.996929
50
140.5710592
51
180.1447138
0
ARC
8
DEFAULT_255_2_778
10
7.4930469
20
15.5691961
40
0.9967183
50
93.1797565
51
140.6171326
0
ARC
8
DEFAULT_255_2_778
10
7.4958147
20
15.5409074
40
1.0251177
50
89.9966308
51
93.2465192
0
ARC
8
DEFAULT_255_2_778
10
7.4984296
20
15.5690856
40
0.9969427
50
50.6575055
51
90.1468132
0
ARC
8
DEFAULT_255_2_778
10
7.4991567
20
15.5687964
40
0.9967056
50
3.1830602
51
50.7003697
0
ARC
8
DEFAULT_255_2_778
10
7.4708416
20
15.5659932
40
1.0251334
50
359.9961883
51
3.2516226
0
ARC
8
DEFAULT_255_2_778
10
7.4989792
20
15.5633518
40
0.9969992
50
320.8339009
51
0.1478782
0
ARC
8
DEFAULT_255_2_778
10
7.4988079
20
15.5625951
40
0.9966544
50
273.1917681
51
320.8738452
0
ARC
8
DEFAULT_255_2_778
10
7.4959348
20
15.5915893
40
1.0257644
50
269.9966624
51
273.2618314
0
ARC
8
DEFAULT_255_2_778
10
7.4933347
20
15.5627975
40
0.9969758
50
230.5749324
51
270.1459901
0
ARC
8
DEFAULT_255_2_778
10
7.492541
20
15.5630309
40
0.9966524
50
183.1767404
51
230.6186978
0
ARC
8
DEFAULT_255_2_778
10
7.5212221
20
15.5658643
40
1.0254472
50
179.9966112
51
183.2460045
0
LINE
8
DEFAULT_255_2_778
10
6.495775
20
15.565925
11
6.495775
21
15.565925
0
ARC
8
DEFAULT_255_2_778
10
7.4927009
20
11.7584429
40
0.996929
50
140.5710592
51
180.1447138
0
ARC
8
DEFAULT_255_2_778
10
7.4930469
20
11.7591961
40
0.9967183
50
93.1797565
51
140.6171326
0
ARC
8
DEFAULT_255_2_778
10
7.4958147
20
11.7309074
40
1.0251177
50
89.9966308
51
93.2465192
0
ARC
8
DEFAULT_255_2_778
10
7.4984296
20
11.7590856
40
0.9969427
50
50.6575055
51
90.1468132
0
ARC
8
DEFAULT_255_2_778
10
7.4991567
20
11.7587964
40
0.9967056
50
3.1830602
51
50.7003697
0
ARC
8
DEFAULT_255_2_778
10
7.4708416
20
11.7559932
40
1.0251334
50
359.9961883
51
3.2516226
0
ARC
8
DEFAULT_255_2_778
10
7.4989792
20
11.7533518
40
0.9969992
50
320.8339009
51
0.1478782
0
ARC
8
DEFAULT_255_2_778
10
7.4988079
20
11.7525951
40
0.9966544
50
273.1917681
51
320.8738452
0
ARC
8
DEFAULT_255_2_778
10
7.4959348
20
11.7815893
40
1.0257644
50
269.9966624
51
273.2618314
0
ARC
8
DEFAULT_255_2_778
10
7.4933347
20
11.7527975
40
0.9969758
50
230.5749324
51
270.1459901
0
ARC
8
DEFAULT_255_2_778
10
7.492541
20
11.7530309
40
0.9966524
50
183.1767404
51
230.6186978
0
ARC
8
DEFAULT_255_2_778
10
7.5212221
20
11.7558643
40
1.0254472
50
179.9966112
51
183.2460045
0
LINE
8
DEFAULT_255_2_778
10
6.495775
20
11.755925
11
6.495775
21
11.755925
0
ARC
8
DEFAULT_255_2_778
10
7.4927009
20
23.1884429
40
0.996929
50
140.5710592
51
180.1447138
0
ARC
8
DEFAULT_255_2_778
10
7.4930469
20
23.1891961
40
0.9967183
50
93.1797565
51
140.6171326
0
ARC
8
DEFAULT_255_2_778
10
7.4958147
20
23.1609074
40
1.0251177
50
89.9966308
51
93.2465192
0
ARC
8
DEFAULT_255_2_778
10
7.4984296
20
23.1890856
40
0.9969427
50
50.6575055
51
90.1468132
0
ARC
8
DEFAULT_255_2_778
10
7.4991567
20
23.1887964
40
0.9967056
50
3.1830602
51
50.7003697
0
ARC
8
DEFAULT_255_2_778
10
7.4708416
20
23.1859932
40
1.0251334
50
359.9961883
51
3.2516226
0
ARC
8
DEFAULT_255_2_778
10
7.4989792
20
23.1833518
40
0.9969992
50
320.8339009
51
0.1478782
0
ARC
8
DEFAULT_255_2_778
10
7.4988079
20
23.1825951
40
0.9966544
50
273.1917681
51
320.8738452
0
ARC
8
DEFAULT_255_2_778
10
7.4959348
20
23.2115893
40
1.0257644
50
269.9966624
51
273.2618314
0
ARC
8
DEFAULT_255_2_778
10
7.4933347
20
23.1827975
40
0.9969758
50
230.5749324
51
270.1459901
0
ARC
8
DEFAULT_255_2_778
10
7.492541
20
23.1830309
40
0.9966524
50
183.1767404
51
230.6186978
0
ARC
8
DEFAULT_255_2_778
10
7.5212221
20
23.1858643
40
1.0254472
50
179.9966112
51
183.2460045
0
LINE
8
DEFAULT_255_2_778
10
6.495775
20
23.185925
11
6.495775
21
23.185925
0
ARC
8
DEFAULT_255_2_778
10
7.4927009
20
19.3784429
40
0.996929
50
140.5710592
51
180.1447138
0
ARC
8
DEFAULT_255_2_778
10
7.4930469
20
19.3791961
40
0.9967183
50
93.1797565
51
140.6171326
0
ARC
8
DEFAULT_255_2_778
10
7.4958147
20
19.3509074
40
1.0251177
50
89.9966308
51
93.2465192
0
ARC
8
DEFAULT_255_2_778
10
7.4984296
20
19.3790856
40
0.9969427
50
50.6575055
51
90.1468132
0
ARC
8
DEFAULT_255_2_778
10
7.4991567
20
19.3787964
40
0.9967056
50
3.1830602
51
50.7003697
0
ARC
8
DEFAULT_255_2_778
10
7.4708416
20
19.3759932
40
1.0251334
50
359.9961883
51
3.2516226
0
ARC
8
DEFAULT_255_2_778
10
7.4989792
20
19.3733518
40
0.9969992
50
320.8339009
51
0.1478782
0
ARC
8
DEFAULT_255_2_778
10
7.4988079
20
19.3725951
40
0.9966544
50
273.1917681
51
320.8738452
0
ARC
8
DEFAULT_255_2_778
10
7.4959348
20
19.4015893
40
1.0257644
50
269.9966624
51
273.2618314
0
ARC
8
DEFAULT_255_2_778
10
7.4933347
20
19.3727975
40
0.9969758
50
230.5749324
51
270.1459901
0
ARC
8
DEFAULT_255_2_778
10
7.492541
20
19.3730309
40
0.9966524
50
183.1767404
51
230.6186978
0
ARC
8
DEFAULT_255_2_778
10
7.5212221
20
19.3758643
40
1.0254472
50
179.9966112
51
183.2460045
0
LINE
8
DEFAULT_255_2_778
10
6.495775
20
19.375925
11
6.495775
21
19.375925
0
ARC
8
DEFAULT_255_2_778
10
7.4927009
20
62.5785429
40
0.996929
50
140.5710592
51
180.1447138
0
ARC
8
DEFAULT_255_2_778
10
7.4930469
20
62.5792961
40
0.9967183
50
93.1797565
51
140.6171326
0
ARC
8
DEFAULT_255_2_778
10
7.4958147
20
62.5510074
40
1.0251177
50
89.9966308
51
93.2465192
0
ARC
8
DEFAULT_255_2_778
10
7.4984296
20
62.5791856
40
0.9969427
50
50.6575055
51
90.1468132
0
ARC
8
DEFAULT_255_2_778
10
7.4991567
20
62.5788964
40
0.9967056
50
3.1830602
51
50.7003697
0
ARC
8
DEFAULT_255_2_778
10
7.4708416
20
62.5760932
40
1.0251334
50
359.9961883
51
3.2516226
0
ARC
8
DEFAULT_255_2_778
10
7.4989792
20
62.5734518
40
0.9969992
50
320.8339009
51
0.1478782
0
ARC
8
DEFAULT_255_2_778
10
7.4988079
20
62.5726951
40
0.9966544
50
273.1917681
51
320.8738452
0
ARC
8
DEFAULT_255_2_778
10
7.4959348
20
62.6016893
40
1.0257644
50
269.9966624
51
273.2618314
0
ARC
8
DEFAULT_255_2_778
10
7.4933347
20
62.5728975
40
0.9969758
50
230.5749324
51
270.1459901
0
ARC
8
DEFAULT_255_2_778
10
7.492541
20
62.5731309
40
0.9966524
50
183.1767404
51
230.6186978
0
ARC
8
DEFAULT_255_2_778
10
7.5212221
20
62.5759643
40
1.0254472
50
179.9966112
51
183.2460045
0
LINE
8
DEFAULT_255_2_778
10
6.495775
20
62.576025
11
6.495775
21
62.576025
0
ARC
8
DEFAULT_255_2_778
10
7.4927009
20
66.3885429
40
0.996929
50
140.5710592
51
180.1447138
0
ARC
8
DEFAULT_255_2_778
10
7.4930469
20
66.3892961
40
0.9967183
50
93.1797565
51
140.6171326
0
ARC
8
DEFAULT_255_2_778
10
7.4958147
20
66.3610074
40
1.0251177
50
89.9966308
51
93.2465192
0
ARC
8
DEFAULT_255_2_778
10
7.4984296
20
66.3891856
40
0.9969427
50
50.6575055
51
90.1468132
0
ARC
8
DEFAULT_255_2_778
10
7.4991567
20
66.3888964
40
0.9967056
50
3.1830602
51
50.7003697
0
ARC
8
DEFAULT_255_2_778
10
7.4708416
20
66.3860932
40
1.0251334
50
359.9961883
51
3.2516226
0
ARC
8
DEFAULT_255_2_778
10
7.4989792
20
66.3834518
40
0.9969992
50
320.8339009
51
0.1478782
0
ARC
8
DEFAULT_255_2_778
10
7.4988079
20
66.3826951
40
0.9966544
50
273.1917681
51
320.8738452
0
ARC
8
DEFAULT_255_2_778
10
7.4959348
20
66.4116893
40
1.0257644
50
269.9966624
51
273.2618314
0
ARC
8
DEFAULT_255_2_778
10
7.4933347
20
66.3828975
40
0.9969758
50
230.5749324
51
270.1459901
0
ARC
8
DEFAULT_255_2_778
10
7.492541
20
66.3831309
40
0.9966524
50
183.1767404
51
230.6186978
0
ARC
8
DEFAULT_255_2_778
10
7.5212221
20
66.3859643
40
1.0254472
50
179.9966112
51
183.2460045
0
LINE
8
DEFAULT_255_2_778
10
6.495775
20
66.386025
11
6.495775
21
66.386025
0
ARC
8
DEFAULT_255_2_778
10
7.4927009
20
54.9585429
40
0.996929
50
140.5710592
51
180.1447138
0
ARC
8
DEFAULT_255_2_778
10
7.4930469
20
54.9592961
40
0.9967183
50
93.1797565
51
140.6171326
0
ARC
8
DEFAULT_255_2_778
10
7.4958147
20
54.9310074
40
1.0251177
50
89.9966308
51
93.2465192
0
ARC
8
DEFAULT_255_2_778
10
7.4984296
20
54.9591856
40
0.9969427
50
50.6575055
51
90.1468132
0
ARC
8
DEFAULT_255_2_778
10
7.4991567
20
54.9588964
40
0.9967056
50
3.1830602
51
50.7003697
0
ARC
8
DEFAULT_255_2_778
10
7.4708416
20
54.9560932
40
1.0251334
50
359.9961883
51
3.2516226
0
ARC
8
DEFAULT_255_2_778
10
7.4989792
20
54.9534518
40
0.9969992
50
320.8339009
51
0.1478782
0
ARC
8
DEFAULT_255_2_778
10
7.4988079
20
54.9526951
40
0.9966544
50
273.1917681
51
320.8738452
0
ARC
8
DEFAULT_255_2_778
10
7.4959348
20
54.9816893
40
1.0257644
50
269.9966624
51
273.2618314
0
ARC
8
DEFAULT_255_2_778
10
7.4933347
20
54.9528975
40
0.9969758
50
230.5749324
51
270.1459901
0
ARC
8
DEFAULT_255_2_778
10
7.492541
20
54.9531309
40
0.9966524
50
183.1767404
51
230.6186978
0
ARC
8
DEFAULT_255_2_778
10
7.5212221
20
54.9559643
40
1.0254472
50
179.9966112
51
183.2460045
0
LINE
8
DEFAULT_255_2_778
10
6.495775
20
54.956025
11
6.495775
21
54.956025
0
ARC
8
DEFAULT_255_2_778
10
7.4927009
20
58.7685429
40
0.996929
50
140.5710592
51
180.1447138
0
ARC
8
DEFAULT_255_2_778
10
7.4930469
20
58.7692961
40
0.9967183
50
93.1797565
51
140.6171326
0
ARC
8
DEFAULT_255_2_778
10
7.4958147
20
58.7410074
40
1.0251177
50
89.9966308
51
93.2465192
0
ARC
8
DEFAULT_255_2_778
10
7.4984296
20
58.7691856
40
0.9969427
50
50.6575055
51
90.1468132
0
ARC
8
DEFAULT_255_2_778
10
7.4991567
20
58.7688964
40
0.9967056
50
3.1830602
51
50.7003697
0
ARC
8
DEFAULT_255_2_778
10
7.4708416
20
58.7660932
40
1.0251334
50
359.9961883
51
3.2516226
0
ARC
8
DEFAULT_255_2_778
10
7.4989792
20
58.7634518
40
0.9969992
50
320.8339009
51
0.1478782
0
ARC
8
DEFAULT_255_2_778
10
7.4988079
20
58.7626951
40
0.9966544
50
273.1917681
51
320.8738452
0
ARC
8
DEFAULT_255_2_778
10
7.4959348
20
58.7916893
40
1.0257644
50
269.9966624
51
273.2618314
0
ARC
8
DEFAULT_255_2_778
10
7.4933347
20
58.7628975
40
0.9969758
50
230.5749324
51
270.1459901
0
ARC
8
DEFAULT_255_2_778
10
7.492541
20
58.7631309
40
0.9966524
50
183.1767404
51
230.6186978
0
ARC
8
DEFAULT_255_2_778
10
7.5212221
20
58.7659643
40
1.0254472
50
179.9966112
51
183.2460045
0
LINE
8
DEFAULT_255_2_778
10
6.495775
20
58.766025
11
6.495775
21
58.766025
0
ARC
8
DEFAULT_255_2_778
10
7.4927009
20
40.3183429
40
0.996929
50
140.5710592
51
180.1447138
0
ARC
8
DEFAULT_255_2_778
10
7.4930469
20
40.3190961
40
0.9967183
50
93.1797565
51
140.6171326
0
ARC
8
DEFAULT_255_2_778
10
7.4958147
20
40.2908074
40
1.0251177
50
89.9966308
51
93.2465192
0
ARC
8
DEFAULT_255_2_778
10
7.4984296
20
40.3189856
40
0.9969427
50
50.6575055
51
90.1468132
0
ARC
8
DEFAULT_255_2_778
10
7.4991567
20
40.3186964
40
0.9967056
50
3.1830602
51
50.7003697
0
ARC
8
DEFAULT_255_2_778
10
7.4708416
20
40.3158932
40
1.0251334
50
359.9961883
51
3.2516226
0
ARC
8
DEFAULT_255_2_778
10
7.4989792
20
40.3132518
40
0.9969992
50
320.8339009
51
0.1478782
0
ARC
8
DEFAULT_255_2_778
10
7.4988079
20
40.3124951
40
0.9966544
50
273.1917681
51
320.8738452
0
ARC
8
DEFAULT_255_2_778
10
7.4959348
20
40.3414893
40
1.0257644
50
269.9966624
51
273.2618314
0
ARC
8
DEFAULT_255_2_778
10
7.4933347
20
40.3126975
40
0.9969758
50
230.5749324
51
270.1459901
0
ARC
8
DEFAULT_255_2_778
10
7.492541
20
40.3129309
40
0.9966524
50
183.1767404
51
230.6186978
0
ARC
8
DEFAULT_255_2_778
10
7.5212221
20
40.3157643
40
1.0254472
50
179.9966112
51
183.2460045
0
LINE
8
DEFAULT_255_2_778
10
6.495775
20
40.315825
11
6.495775
21
40.315825
0
ARC
8
DEFAULT_255_2_778
10
7.4927009
20
44.1283429
40
0.996929
50
140.5710592
51
180.1447138
0
ARC
8
DEFAULT_255_2_778
10
7.4930469
20
44.1290961
40
0.9967183
50
93.1797565
51
140.6171326
0
ARC
8
DEFAULT_255_2_778
10
7.4958147
20
44.1008074
40
1.0251177
50
89.9966308
51
93.2465192
0
ARC
8
DEFAULT_255_2_778
10
7.4984296
20
44.1289856
40
0.9969427
50
50.6575055
51
90.1468132
0
ARC
8
DEFAULT_255_2_778
10
7.4991567
20
44.1286964
40
0.9967056
50
3.1830602
51
50.7003697
0
ARC
8
DEFAULT_255_2_778
10
7.4708416
20
44.1258932
40
1.0251334
50
359.9961883
51
3.2516226
0
ARC
8
DEFAULT_255_2_778
10
7.4989792
20
44.1232518
40
0.9969992
50
320.8339009
51
0.1478782
0
ARC
8
DEFAULT_255_2_778
10
7.4988079
20
44.1224951
40
0.9966544
50
273.1917681
51
320.8738452
0
ARC
8
DEFAULT_255_2_778
10
7.4959348
20
44.1514893
40
1.0257644
50
269.9966624
51
273.2618314
0
ARC
8
DEFAULT_255_2_778
10
7.4933347
20
44.1226975
40
0.9969758
50
230.5749324
51
270.1459901
0
ARC
8
DEFAULT_255_2_778
10
7.492541
20
44.1229309
40
0.9966524
50
183.1767404
51
230.6186978
0
ARC
8
DEFAULT_255_2_778
10
7.5212221
20
44.1257643
40
1.0254472
50
179.9966112
51
183.2460045
0
LINE
8
DEFAULT_255_2_778
10
6.495775
20
44.125825
11
6.495775
21
44.125825
0
ARC
8
DEFAULT_255_2_778
10
7.4927009
20
32.6983429
40
0.996929
50
140.5710592
51
180.1447138
0
ARC
8
DEFAULT_255_2_778
10
7.4930469
20
32.6990961
40
0.9967183
50
93.1797565
51
140.6171326
0
ARC
8
DEFAULT_255_2_778
10
7.4958147
20
32.6708074
40
1.0251177
50
89.9966308
51
93.2465192
0
ARC
8
DEFAULT_255_2_778
10
7.4984296
20
32.6989856
40
0.9969427
50
50.6575055
51
90.1468132
0
ARC
8
DEFAULT_255_2_778
10
7.4991567
20
32.6986964
40
0.9967056
50
3.1830602
51
50.7003697
0
ARC
8
DEFAULT_255_2_778
10
7.4708416
20
32.6958932
40
1.0251334
50
359.9961883
51
3.2516226
0
ARC
8
DEFAULT_255_2_778
10
7.4989792
20
32.6932518
40
0.9969992
50
320.8339009
51
0.1478782
0
ARC
8
DEFAULT_255_2_778
10
7.4988079
20
32.6924951
40
0.9966544
50
273.1917681
51
320.8738452
0
ARC
8
DEFAULT_255_2_778
10
7.4959348
20
32.7214893
40
1.0257644
50
269.9966624
51
273.2618314
0
ARC
8
DEFAULT_255_2_778
10
7.4933347
20
32.6926975
40
0.9969758
50
230.5749324
51
270.1459901
0
ARC
8
DEFAULT_255_2_778
10
7.492541
20
32.6929309
40
0.9966524
50
183.1767404
51
230.6186978
0
ARC
8
DEFAULT_255_2_778
10
7.5212221
20
32.6957643
40
1.0254472
50
179.9966112
51
183.2460045
0
LINE
8
DEFAULT_255_2_778
10
6.495775
20
32.695825
11
6.495775
21
32.695825
0
ARC
8
DEFAULT_255_2_778
10
7.4927009
20
36.5083429
40
0.996929
50
140.5710592
51
180.1447138
0
ARC
8
DEFAULT_255_2_778
10
7.4930469
20
36.5090961
40
0.9967183
50
93.1797565
51
140.6171326
0
ARC
8
DEFAULT_255_2_778
10
7.4958147
20
36.4808074
40
1.0251177
50
89.9966308
51
93.2465192
0
ARC
8
DEFAULT_255_2_778
10
7.4984296
20
36.5089856
40
0.9969427
50
50.6575055
51
90.1468132
0
ARC
8
DEFAULT_255_2_778
10
7.4991567
20
36.5086964
40
0.9967056
50
3.1830602
51
50.7003697
0
ARC
8
DEFAULT_255_2_778
10
7.4708416
20
36.5058932
40
1.0251334
50
359.9961883
51
3.2516226
0
ARC
8
DEFAULT_255_2_778
10
7.4989792
20
36.5032518
40
0.9969992
50
320.8339009
51
0.1478782
0
ARC
8
DEFAULT_255_2_778
10
7.4988079
20
36.5024951
40
0.9966544
50
273.1917681
51
320.8738452
0
ARC
8
DEFAULT_255_2_778
10
7.4959348
20
36.5314893
40
1.0257644
50
269.9966624
51
273.2618314
0
ARC
8
DEFAULT_255_2_778
10
7.4933347
20
36.5026975
40
0.9969758
50
230.5749324
51
270.1459901
0
ARC
8
DEFAULT_255_2_778
10
7.492541
20
36.5029309
40
0.9966524
50
183.1767404
51
230.6186978
0
ARC
8
DEFAULT_255_2_778
10
7.5212221
20
36.5057643
40
1.0254472
50
179.9966112
51
183.2460045
0
LINE
8
DEFAULT_255_2_778
10
6.495775
20
36.505825
11
6.495775
21
36.505825
0
ARC
8
DEFAULT_255_2_778
10
7.4930466
20
79.7581889
40
0.897262
50
136.3553735
51
180.145367
0
ARC
8
DEFAULT_255_2_778
10
7.4934801
20
79.7589014
40
0.8970843
50
90.6208726
51
136.4074087
0
ARC
8
DEFAULT_255_2_778
10
7.4958779
20
79.7288154
40
0.927197
50
89.999408
51
90.748893
0
ARC
8
DEFAULT_255_2_778
10
7.4982953
20
79.7587982
40
0.8972175
50
46.6984764
51
90.1537573
0
ARC
8
DEFAULT_255_2_778
10
7.4988682
20
79.7584413
40
0.8970845
50
0.8061688
51
46.7407367
0
ARC
8
DEFAULT_255_2_778
10
7.4661561
20
79.7559028
40
0.9298314
50
0.0005966
51
0.9342169
0
ARC
8
DEFAULT_255_2_778
10
7.4987455
20
79.7534776
40
0.8972453
50
316.7025253
51
0.155484
0
ARC
8
DEFAULT_255_2_778
10
7.4984686
20
79.7528963
40
0.8970484
50
270.8030542
51
316.7416762
0
ARC
8
DEFAULT_255_2_778
10
7.4958778
20
79.7859992
40
0.9301866
50
270.0005962
51
270.9340436
0
ARC
8
DEFAULT_255_2_778
10
7.4934961
20
79.7530685
40
0.8972592
50
226.5307528
51
270.1527091
0
ARC
8
DEFAULT_255_2_778
10
7.4928566
20
79.7533642
40
0.8970342
50
180.8015346
51
226.5733925
0
ARC
8
DEFAULT_255_2_778
10
7.5250372
20
79.7559222
40
0.9292497
50
180.0006025
51
180.9314852
0
LINE
8
DEFAULT_255_2_778
10
6.5957875
20
79.7559125
11
6.5957875
21
79.7559125
0
ARC
8
DEFAULT_255_2_778
10
9.4017947
20
80.1572793
40
0.1282671
50
358.5908425
51
90.5403899
0
ARC
8
DEFAULT_255_2_778
10
9.33876
20
79.8718527
40
0.4182825
50
81.5001539
51
90.40231
0
LINE
8
DEFAULT_255_2_778
10
9.335823
20
80.290125
11
9.335823
21
80.033225
0
ARC
8
DEFAULT_255_2_778
10
9.3476277
20
80.3683016
40
0.3352845
50
267.9823107
51
289.203178
0
ARC
8
DEFAULT_255_2_778
10
9.4269896
20
80.1500422
40
0.1031142
50
287.4490548
51
2.2692307
0
ARC
8
DEFAULT_255_2_778
10
9.4014741
20
80.7726444
40
0.9232566
50
265.9223603
51
269.3615553
0
ARC
8
DEFAULT_255_2_778
10
9.3993206
20
80.6563125
40
0.8069083
50
269.4224145
51
269.9997586
0
ARC
8
DEFAULT_255_2_778
10
9.4103809
20
80.3760059
40
0.5267179
50
268.7964145
51
287.4169341
0
ARC
8
DEFAULT_255_2_778
10
9.4892832
20
80.1237058
40
0.262368
50
287.4681069
51
1.571606
0
ARC
8
DEFAULT_255_2_778
10
9.2398843
20
80.1614639
40
0.5125801
50
356.5817451
51
0.0427564
0
ARC
8
DEFAULT_255_2_778
10
9.1693707
20
80.16164
40
0.5830936
50
0.0202785
51
2.2296236
0
ARC
8
DEFAULT_255_2_778
10
9.5154368
20
80.2007831
40
0.237158
50
356.0206254
51
75.0867291
0
ARC
8
DEFAULT_255_2_778
10
9.399358
20
79.8610142
40
0.5958692
50
72.7084187
51
89.4114397
0
ARC
8
DEFAULT_255_2_778
10
9.3766308
20
79.4826735
40
0.9746056
50
88.3038127
51
90.0164955
0
ARC
8
DEFAULT_255_2_778
10
9.3768903
20
79.3390079
40
1.1182712
50
90.0276729
51
92.1046001
0
LINE
8
DEFAULT_255_2_778
10
9.335823
20
80.456525
11
9.113823
21
80.456525
0
LINE
8
DEFAULT_255_2_778
10
12.059123
20
79.523925
11
12.059123
21
80.457325
0
LINE
8
DEFAULT_255_2_778
10
12.059123
20
80.457325
11
12.562923
21
80.457325
0
LINE
8
DEFAULT_255_2_778
10
12.562923
20
80.457325
11
12.562923
21
80.310225
0
LINE
8
DEFAULT_255_2_778
10
12.562923
20
80.310225
11
12.230323
21
80.310225
0
LINE
8
DEFAULT_255_2_778
10
12.230323
20
80.310225
11
12.230323
21
80.080025
0
LINE
8
DEFAULT_255_2_778
10
12.230323
20
80.080025
11
12.534923
21
80.080025
0
LINE
8
DEFAULT_255_2_778
10
12.534923
20
80.080025
11
12.534923
21
79.932925
0
LINE
8
DEFAULT_255_2_778
10
12.534923
20
79.932925
11
12.230323
21
79.932925
0
LINE
8
DEFAULT_255_2_778
10
12.230323
20
79.932925
11
12.230323
21
79.671025
0
LINE
8
DEFAULT_255_2_778
10
12.230323
20
79.671025
11
12.565623
21
79.671025
0
LINE
8
DEFAULT_255_2_778
10
12.565623
20
79.671025
11
12.565623
21
79.523925
0
LINE
8
DEFAULT_255_2_778
10
12.565623
20
79.523925
11
12.059123
21
79.523925
0
LINE
8
DEFAULT_255_2_778
10
10.947423
20
79.523925
11
10.721123
21
80.457325
0
LINE
8
DEFAULT_255_2_778
10
10.721123
20
80.457325
11
10.900823
21
80.457325
0
LINE
8
DEFAULT_255_2_778
10
10.900823
20
80.457325
11
11.059823
21
79.710925
0
LINE
8
DEFAULT_255_2_778
10
11.059823
20
79.710925
11
11.062223
21
79.710925
0
LINE
8
DEFAULT_255_2_778
10
11.062223
20
79.710925
11
11.207723
21
80.457325
0
LINE
8
DEFAULT_255_2_778
10
11.207723
20
80.457325
11
11.440023
21
80.457325
0
LINE
8
DEFAULT_255_2_778
10
11.440023
20
80.457325
11
11.590623
21
79.710925
0
LINE
8
DEFAULT_255_2_778
10
11.590623
20
79.710925
11
11.592923
21
79.710925
0
LINE
8
DEFAULT_255_2_778
10
11.592923
20
79.710925
11
11.753023
21
80.457325
0
LINE
8
DEFAULT_255_2_778
10
11.753023
20
80.457325
11
11.919423
21
80.457325
0
LINE
8
DEFAULT_255_2_778
10
11.919423
20
80.457325
11
11.696923
21
79.523925
0
LINE
8
DEFAULT_255_2_778
10
11.696923
20
79.523925
11
11.476823
21
79.523925
0
LINE
8
DEFAULT_255_2_778
10
11.476823
20
79.523925
11
11.322823
21
80.270225
0
LINE
8
DEFAULT_255_2_778
10
11.322823
20
80.270225
11
11.320423
21
80.270225
0
LINE
8
DEFAULT_255_2_778
10
11.320423
20
80.270225
11
11.168823
21
79.523925
0
LINE
8
DEFAULT_255_2_778
10
11.168823
20
79.523925
11
10.947423
21
79.523925
0
LINE
8
DEFAULT_255_2_778
10
9.530023
20
80.154125
11
9.530023
21
80.154125
0
LINE
8
DEFAULT_255_2_778
10
9.113823
20
80.456525
11
9.113823
21
79.549325
0
LINE
8
DEFAULT_255_2_778
10
9.113823
20
79.549325
11
9.335823
21
79.549325
0
LINE
8
DEFAULT_255_2_778
10
9.335823
20
79.549325
11
9.335823
21
79.851725
0
LINE
8
DEFAULT_255_2_778
10
9.113823
20
80.456525
11
9.113823
21
80.456525
0
ARC
8
DEFAULT_255_2_778
10
10.2693768
20
79.8975938
40
0.2240558
50
270.8276882
51
352.2913537
0
ARC
8
DEFAULT_255_2_778
10
9.9539227
20
80.0038979
40
0.554512
50
345.7646035
51
357.6087413
0
ARC
8
DEFAULT_255_2_778
10
9.8316824
20
80.0128705
40
0.6770314
50
357.2816937
51
0.0120917
0
ARC
8
DEFAULT_255_2_778
10
9.6098088
20
80.0128014
40
0.8989052
50
0.0135123
51
0.0675649
0
ARC
8
DEFAULT_255_2_778
10
10.2778482
20
80.104231
40
0.223451
50
90.7781964
51
172.0990335
0
ARC
8
DEFAULT_255_2_778
10
10.5949431
20
79.9969297
40
0.5558326
50
165.6226486
51
177.5736539
0
ARC
8
DEFAULT_255_2_778
10
10.7219008
20
79.9875099
40
0.6830874
50
177.2350702
51
180.0124541
0
ARC
8
DEFAULT_255_2_778
10
10.2774309
20
79.8975332
40
0.2239949
50
187.6951103
51
269.1769763
0
ARC
8
DEFAULT_255_2_778
10
10.5923609
20
80.0035839
40
0.5538753
50
182.3614909
51
194.2185877
0
ARC
8
DEFAULT_255_2_778
10
10.713745
20
80.012454
40
0.6755328
50
179.9882855
51
182.6889714
0
ARC
8
DEFAULT_255_2_778
10
10.7094122
20
80.012698
40
0.6712
50
179.9006848
51
180.0090398
0
ARC
8
DEFAULT_255_2_778
10
10.2694522
20
80.1048413
40
0.2238424
50
7.7493336
51
89.19082
0
ARC
8
DEFAULT_255_2_778
10
9.9520281
20
79.9978564
40
0.5563953
50
2.4183072
51
14.2722241
0
ARC
8
DEFAULT_255_2_778
10
9.8265373
20
79.9886078
40
0.682176
50
359.9877055
51
2.7496727
0
ARC
8
DEFAULT_255_2_778
10
10.2507307
20
80.0789591
40
0.3938394
50
86.4942629
51
89.9958861
0
ARC
8
DEFAULT_255_2_778
10
10.2473008
20
80.1084641
40
0.3643507
50
89.4561665
51
151.2973102
0
ARC
8
DEFAULT_255_2_778
10
10.3680242
20
80.0444023
40
0.50101
50
151.5019131
51
175.7008936
0
ARC
8
DEFAULT_255_2_778
10
10.5566513
20
80.0195706
40
0.6910493
50
174.8201954
51
180.0650206
0
ARC
8
DEFAULT_255_2_778
10
10.6195137
20
80.0187981
40
0.7539113
50
180.0008934
51
180.9832098
0
ARC
8
DEFAULT_255_2_778
10
10.275219
20
80.0327649
40
0.5045113
50
269.6813741
51
269.9957694
0
ARC
8
DEFAULT_255_2_778
10
10.2910007
20
79.9010301
40
0.3731119
50
267.5700872
51
336.6619266
0
ARC
8
DEFAULT_255_2_778
10
10.1004035
20
79.9812535
40
0.579899
50
336.8443546
51
356.9277397
0
ARC
8
DEFAULT_255_2_778
10
9.8525172
20
80.0074595
40
0.8289337
50
356.0372451
51
359.4540765
0
ARC
8
DEFAULT_255_2_778
10
10.260564
20
79.9388045
40
0.4107972
50
270.0013333
51
272.0157394
0
ARC
8
DEFAULT_255_2_778
10
10.2555156
20
79.9024329
40
0.37446
50
208.77216
51
270.773947
0
ARC
8
DEFAULT_255_2_778
10
10.3696956
20
79.9604216
40
0.5024719
50
184.0541405
51
208.3013819
0
ARC
8
DEFAULT_255_2_778
10
10.5585121
20
79.9846117
40
0.6926099
50
179.9399723
51
184.9459778
0
ARC
8
DEFAULT_255_2_778
10
10.619766
20
79.9853252
40
0.7538636
50
179.0167598
51
179.9990759
0
ARC
8
DEFAULT_255_2_778
10
10.2756973
20
79.9673342
40
0.5058366
50
90.0038524
51
90.3493168
0
ARC
8
DEFAULT_255_2_778
10
10.2927181
20
80.1012065
40
0.372355
50
22.9291554
51
92.6252071
0
ARC
8
DEFAULT_255_2_778
10
10.0977706
20
80.0214323
40
0.5829839
50
2.676889
51
22.6855044
0
ARC
8
DEFAULT_255_2_778
10
9.8487796
20
79.9965128
40
0.8329726
50
0.5536313
51
3.5892568
0
ARC
8
DEFAULT_255_2_778
10
13.0571756
20
80.1873794
40
0.0989494
50
359.1209809
51
90.8920241
0
ARC
8
DEFAULT_255_2_778
10
13.0063101
20
79.9565811
40
0.3334046
50
81.4922315
51
90.4125218
0
ARC
8
DEFAULT_255_2_778
10
13.0057761
20
79.7352949
40
0.5546854
50
90.1927909
51
95.2918138
0
ARC
8
DEFAULT_255_2_778
10
13.0179446
20
79.5806606
40
0.7097862
50
95.1186652
51
95.2568608
0
LINE
8
DEFAULT_255_2_778
10
12.9529134
20
80.2874614
11
12.9529134
21
80.0842614
0
ARC
8
DEFAULT_255_2_778
10
13.0145241
20
80.6240747
40
0.5433178
50
263.4888198
51
268.8717396
0
ARC
8
DEFAULT_255_2_778
10
13.0105259
20
80.4980452
40
0.4172369
50
269.0798866
51
269.9965342
0
ARC
8
DEFAULT_255_2_778
10
13.020611
20
80.2882562
40
0.2076942
50
267.2097958
51
295.0618744
0
ARC
8
DEFAULT_255_2_778
10
13.0665716
20
80.179447
40
0.0897713
50
297.9082023
51
4.0974472
0
ARC
8
DEFAULT_255_2_778
10
12.9707044
20
79.5134388
40
0.3961841
50
90.029841
51
92.0816701
0
ARC
8
DEFAULT_255_2_778
10
12.981381
20
79.7424994
40
0.1674773
50
61.4872495
51
93.7258072
0
ARC
8
DEFAULT_255_2_778
10
13.0258106
20
79.8336096
40
0.0663584
50
27.6080028
51
57.641164
0
ARC
8
DEFAULT_255_2_778
10
13.1664505
20
79.8911864
40
0.1164498
50
24.3832958
51
68.137872
0
ARC
8
DEFAULT_255_2_778
10
13.1556478
20
80.1941723
40
0.2022972
50
285.5305907
51
5.7285488
0
ARC
8
DEFAULT_255_2_778
10
12.9396289
20
80.2205339
40
0.4173514
50
359.1530264
51
0.0027959
0
ARC
8
DEFAULT_255_2_778
10
12.9203331
20
80.2205353
40
0.436647
50
0.0024966
51
1.0007365
0
ARC
8
DEFAULT_255_2_778
10
13.143984
20
80.2342227
40
0.2130156
50
358.3694547
51
80.9640154
0
ARC
8
DEFAULT_255_2_778
10
13.0627774
20
79.9347254
40
0.5226032
50
77.3259087
51
90.7316927
0
ARC
8
DEFAULT_255_2_778
10
13.0562441
20
79.6851961
40
0.77209
50
90.0104175
51
91.3826906
0
LINE
8
DEFAULT_255_2_778
10
13.0376134
20
80.4570614
11
12.7526134
21
80.4570614
0
LINE
8
DEFAULT_255_2_778
10
13.1561134
20
80.1858614
11
13.1561134
21
80.1858614
0
LINE
8
DEFAULT_255_2_778
10
12.7529134
20
80.4570614
11
12.7529134
21
79.5492614
0
LINE
8
DEFAULT_255_2_778
10
12.7529134
20
79.5492614
11
12.9563134
21
79.5492614
0
LINE
8
DEFAULT_255_2_778
10
12.9563134
20
79.5492614
11
12.9563134
21
79.9093614
0
LINE
8
DEFAULT_255_2_778
10
13.0846134
20
79.8643614
11
13.1817134
21
79.5529614
0
LINE
8
DEFAULT_255_2_778
10
13.1817134
20
79.5529614
11
13.3916134
21
79.5492614
0
LINE
8
DEFAULT_255_2_778
10
13.3916134
20
79.5492614
11
13.2725134
21
79.9392614
0
LINE
8
DEFAULT_255_2_778
10
12.7526134
20
80.4570614
11
12.7529134
21
80.4570614
0
ARC
8
DEFAULT_255_2_778
10
16.7996459
20
0.7548962
40
0.9962134
50
318.3529649
51
0.0712575
0
ARC
8
DEFAULT_255_2_778
10
16.7967548
20
0.7541251
40
0.9978645
50
271.7505947
51
318.4963691
0
ARC
8
DEFAULT_255_2_778
10
16.7955983
20
0.7753814
40
1.0191463
50
270.0202567
51
271.7790781
0
ARC
8
DEFAULT_255_2_778
10
16.799537
20
88.7574542
40
0.9963226
50
359.9183951
51
41.6458612
0
ARC
8
DEFAULT_255_2_778
10
16.7968749
20
88.7584737
40
0.9976376
50
41.5005114
51
88.267068
0
ARC
8
DEFAULT_255_2_778
10
16.7957683
20
88.737376
40
1.0187592
50
88.2407388
51
90.0005446
0
ARC
8
DEFAULT_255_2_778
10
1.1944395
20
88.7598136
40
0.9963226
50
89.9183951
51
131.6458612
0
ARC
8
DEFAULT_255_2_778
10
1.19342
20
88.7571516
40
0.9976376
50
131.5005114
51
178.267068
0
ARC
8
DEFAULT_255_2_778
10
1.2145178
20
88.7560449
40
1.0187592
50
178.2407388
51
180.0005446
0
ARC
8
DEFAULT_255_2_778
10
1.195986
20
0.7567509
40
1.0005157
50
225.0116733
51
269.9927046
0
ARC
8
DEFAULT_255_2_778
10
1.1960558
20
0.756372
40
1.0002974
50
180.0135654
51
224.9935018
0
LINE
8
DEFAULT_255_2_778
10
4.3957586
20
9.4561352
11
4.3957586
21
7.7562352
0
LINE
8
DEFAULT_255_2_778
10
4.3957586
20
7.7562352
11
17.5958586
21
7.7562352
0
LINE
8
DEFAULT_255_2_778
10
17.5958586
20
7.7562352
11
17.7958586
21
7.5561352
0
LINE
8
DEFAULT_255_2_778
10
17.7958586
20
7.5561352
11
17.7958586
21
0.7561352
0
LINE
8
DEFAULT_255_2_778
10
16.7959586
20
-0.2437648
11
5.2376586
21
-0.2437648
0
LINE
8
DEFAULT_255_2_778
10
5.2376586
20
-0.2437648
11
1.1919586
21
-0.2437648
0
LINE
8
DEFAULT_255_2_778
10
1.1919586
20
-0.2437648
11
5.2376586
21
-0.2437648
0
LINE
8
DEFAULT_255_2_778
10
4.3957586
20
68.6860352
11
4.3957586
21
69.7560352
0
LINE
8
DEFAULT_255_2_778
10
4.3957586
20
69.7560352
11
17.5958586
21
69.7560352
0
LINE
8
DEFAULT_255_2_778
10
17.5958586
20
69.7560352
11
17.7958586
21
69.9560352
0
LINE
8
DEFAULT_255_2_778
10
17.7958586
20
69.9560352
11
17.7958586
21
88.7560352
0
LINE
8
DEFAULT_255_2_778
10
16.7957586
20
89.7561352
11
5.2376586
21
89.7561352
0
LINE
8
DEFAULT_255_2_778
10
5.2376586
20
89.7561352
11
1.1344586
21
89.7561352
0
LINE
8
DEFAULT_255_2_778
10
1.1344586
20
89.7561352
11
5.2376586
21
89.7561352
0
LINE
8
DEFAULT_255_2_778
10
16.8957586
20
-0.2249648
11
16.8957586
21
-0.2389648
0
LINE
8
DEFAULT_255_2_778
10
17.7958586
20
69.6560352
11
13.1957586
21
69.6560352
0
LINE
8
DEFAULT_255_2_778
10
13.1957586
20
69.6560352
11
13.1957586
21
68.6860352
0
LINE
8
DEFAULT_255_2_778
10
13.1957586
20
9.4561352
11
13.1957586
21
7.8562352
0
LINE
8
DEFAULT_255_2_778
10
13.1957586
20
7.8562352
11
17.7958586
21
7.8562352
0
LINE
8
DEFAULT_255_2_778
10
17.7958586
20
69.9563352
11
17.7958586
21
7.5561352
0
LINE
8
DEFAULT_255_2_778
10
0.1957586
20
0.7561352
11
0.1957586
21
88.7560352
0
ARC
8
DEFAULT_255_2_778
10
3.5024117
20
87.5098153
40
0.2219326
50
267.7893732
51
310.774092
0
ARC
8
DEFAULT_255_2_778
10
3.5197891
20
87.4737712
40
0.1835816
50
314.0154045
51
2.8027575
0
ARC
8
DEFAULT_255_2_778
10
3.4764227
20
87.4954424
40
0.2270835
50
356.795363
51
32.3648216
0
ARC
8
DEFAULT_255_2_778
10
3.5335914
20
87.5102552
40
0.1718213
50
38.4086998
51
92.9202603
0
ARC
8
DEFAULT_255_2_778
10
3.5132473
20
87.3368064
40
0.3452416
50
88.0761002
51
90.01596
0
ARC
8
DEFAULT_255_2_778
10
3.5037354
20
87.48957
40
0.192708
50
87.1994211
51
133.718805
0
ARC
8
DEFAULT_255_2_778
10
3.5087741
20
87.4961414
40
0.1916158
50
136.1664642
51
182.5704334
0
ARC
8
DEFAULT_255_2_778
10
3.4745568
20
87.4951015
40
0.2951024
50
132.8796893
51
181.4667374
0
ARC
8
DEFAULT_255_2_778
10
3.5012844
20
87.4665388
40
0.3342199
50
87.9652502
51
132.9053521
0
ARC
8
DEFAULT_255_2_778
10
3.5269053
20
87.4443843
40
0.3564291
50
58.1549141
51
92.2115326
0
ARC
8
DEFAULT_255_2_778
10
3.5636085
20
87.5200577
40
0.272921
50
45.7790142
51
56.3179557
0
ARC
8
DEFAULT_255_2_778
10
3.5330318
20
87.5014543
40
0.307708
50
358.978043
51
44.114434
0
ARC
8
DEFAULT_255_2_778
10
3.3355451
20
87.4797502
40
0.505406
50
359.9884001
51
1.8386463
0
ARC
8
DEFAULT_255_2_778
10
3.5848201
20
87.4824958
40
0.2561468
50
325.2377306
51
359.362959
0
ARC
8
DEFAULT_255_2_778
10
3.5632886
20
87.4895072
40
0.2779096
50
292.6587756
51
326.581375
0
ARC
8
DEFAULT_255_2_778
10
3.5928395
20
86.9778364
40
0.2667227
50
36.0626615
51
73.1056773
0
ARC
8
DEFAULT_255_2_778
10
3.5767164
20
86.9763073
40
0.2807777
50
358.1714344
51
34.3778705
0
ARC
8
DEFAULT_255_2_778
10
3.5419011
20
86.9518962
40
0.3158282
50
314.1407097
51
2.8042827
0
ARC
8
DEFAULT_255_2_778
10
3.5287174
20
86.9832733
40
0.3477476
50
267.5333436
51
312.0987517
0
ARC
8
DEFAULT_255_2_778
10
3.498464
20
86.99213
40
0.3566099
50
229.1582573
51
272.4569007
0
ARC
8
DEFAULT_255_2_778
10
3.4618151
20
86.9390706
40
0.2925853
50
177.771475
51
227.7924823
0
ARC
8
DEFAULT_255_2_778
10
3.4973676
20
86.9418012
40
0.189414
50
177.3835507
51
225.2217609
0
ARC
8
DEFAULT_255_2_778
10
3.5033353
20
86.9599968
40
0.2067115
50
227.6007048
51
272.8882476
0
ARC
8
DEFAULT_255_2_778
10
3.5274461
20
86.956092
40
0.2030066
50
266.1318484
51
313.1757997
0
ARC
8
DEFAULT_255_2_778
10
3.5056326
20
86.9492615
40
0.2139432
50
318.6961793
51
3.2198599
0
ARC
8
DEFAULT_255_2_778
10
3.3281956
20
86.9644421
40
0.3910553
50
359.5364232
51
0.0008432
0
ARC
8
DEFAULT_255_2_778
10
3.5248352
20
86.9770577
40
0.1948244
50
356.2890112
51
45.6393386
0
ARC
8
DEFAULT_255_2_778
10
3.5109176
20
86.9343731
40
0.2359129
50
50.4765571
51
90.1870613
0
ARC
8
DEFAULT_255_2_778
10
3.4871287
20
86.7343864
40
0.4365057
50
86.9771653
51
89.183219
0
ARC
8
DEFAULT_255_2_778
10
4.4752706
20
87.0017075
40
0.3710925
50
317.6561972
51
1.9365724
0
ARC
8
DEFAULT_255_2_778
10
4.477187
20
87.0184139
40
0.3811731
50
271.8889019
51
315.6056526
0
ARC
8
DEFAULT_255_2_778
10
4.4377027
20
87.0610558
40
0.4254366
50
239.4279347
51
271.8788457
0
ARC
8
DEFAULT_255_2_778
10
4.4015001
20
86.9821213
40
0.3391802
50
226.4364409
51
237.9112007
0
ARC
8
DEFAULT_255_2_778
10
4.4212812
20
86.9923078
40
0.360268
50
179.757273
51
225.2732405
0
ARC
8
DEFAULT_255_2_778
10
4.6296598
20
87.0172653
40
0.5691259
50
180.4447211
51
182.3595716
0
ARC
8
DEFAULT_255_2_778
10
4.4818262
20
87.0037597
40
0.280005
50
177.2184374
51
214.591941
0
ARC
8
DEFAULT_255_2_778
10
4.4168963
20
86.9692488
40
0.2071333
50
216.9306983
51
223.6220463
0
ARC
8
DEFAULT_255_2_778
10
4.4350626
20
86.9990993
40
0.2410488
50
225.7798634
51
272.9463785
0
ARC
8
DEFAULT_255_2_778
10
4.4516229
20
87.1723664
40
0.4140184
50
269.4228989
51
270.0038964
0
ARC
8
DEFAULT_255_2_778
10
4.4654861
20
87.014257
40
0.2562828
50
266.9054701
51
307.5646409
0
ARC
8
DEFAULT_255_2_778
10
4.4952219
20
86.9618988
40
0.1968287
50
309.9959977
51
316.3541636
0
ARC
8
DEFAULT_255_2_778
10
4.4445057
20
86.996416
40
0.257547
50
318.5853868
51
1.1730408
0
ARC
8
DEFAULT_255_2_778
10
4.2531895
20
87.0167369
40
0.4490615
50
358.079612
51
0.0141571
0
LINE
8
DEFAULT_255_2_778
10
2.0145511
20
87.2660479
11
2.0145511
21
87.1433479
0
LINE
8
DEFAULT_255_2_778
10
2.0145511
20
87.1433479
11
1.5372511
21
87.1433479
0
LINE
8
DEFAULT_255_2_778
10
1.5372511
20
87.1433479
11
1.5372511
21
86.6408479
0
LINE
8
DEFAULT_255_2_778
10
1.5372511
20
86.6408479
11
1.3872511
21
86.6408479
0
LINE
8
DEFAULT_255_2_778
10
1.3872511
20
86.6408479
11
1.3872511
21
87.7785479
0
LINE
8
DEFAULT_255_2_778
10
1.3872511
20
87.7785479
11
2.0918511
21
87.7785479
0
LINE
8
DEFAULT_255_2_778
10
2.0918511
20
87.7785479
11
2.0918511
21
87.6550479
0
LINE
8
DEFAULT_255_2_778
10
2.0918511
20
87.6550479
11
1.5372511
21
87.6550479
0
LINE
8
DEFAULT_255_2_778
10
1.5372511
20
87.6550479
11
1.5372511
21
87.2660479
0
LINE
8
DEFAULT_255_2_778
10
1.5372511
20
87.2660479
11
2.0145511
21
87.2660479
0
LINE
8
DEFAULT_255_2_778
10
2.0145511
20
87.2660479
11
2.0145511
21
87.2660479
0
LINE
8
DEFAULT_255_2_778
10
2.3685511
20
87.7785479
11
2.6426511
21
87.3425479
0
LINE
8
DEFAULT_255_2_778
10
2.6426511
20
87.3425479
11
2.9154511
21
87.7785479
0
LINE
8
DEFAULT_255_2_778
10
2.9154511
20
87.7785479
11
3.0919511
21
87.7785479
0
LINE
8
DEFAULT_255_2_778
10
3.0919511
20
87.7785479
11
2.7326511
21
87.2144479
0
LINE
8
DEFAULT_255_2_778
10
2.7326511
20
87.2144479
11
3.1006511
21
86.6411479
0
LINE
8
DEFAULT_255_2_778
10
3.1006511
20
86.6411479
11
2.9226511
21
86.6411479
0
LINE
8
DEFAULT_255_2_778
10
2.9226511
20
86.6411479
11
2.6429511
21
87.0848479
0
LINE
8
DEFAULT_255_2_778
10
2.6429511
20
87.0848479
11
2.3617511
21
86.6411479
0
LINE
8
DEFAULT_255_2_778
10
2.3617511
20
86.6411479
11
2.1844511
21
86.6411479
0
LINE
8
DEFAULT_255_2_778
10
2.1844511
20
86.6411479
11
2.5532511
21
87.2144479
0
LINE
8
DEFAULT_255_2_778
10
2.5532511
20
87.2144479
11
2.1931511
21
87.7785479
0
LINE
8
DEFAULT_255_2_778
10
2.1931511
20
87.7785479
11
2.3688511
21
87.7785479
0
LINE
8
DEFAULT_255_2_778
10
2.3688511
20
87.7785479
11
2.3685511
21
87.7785479
0
LINE
8
DEFAULT_255_2_778
10
3.3904511
20
87.1705479
11
3.3904511
21
87.2880479
0
LINE
8
DEFAULT_255_2_778
10
3.3904511
20
87.2880479
11
3.4938511
21
87.2880479
0
LINE
8
DEFAULT_255_2_778
10
3.3173511
20
87.4875479
11
3.1795511
21
87.4875479
0
LINE
8
DEFAULT_255_2_778
10
3.1694511
20
86.9504479
11
3.3081511
21
86.9504479
0
LINE
8
DEFAULT_255_2_778
10
3.4933511
20
87.1708479
11
3.3898511
21
87.1708479
0
LINE
8
DEFAULT_255_2_778
10
3.3898511
20
87.1708479
11
3.3904511
21
87.1705479
0
LINE
8
DEFAULT_255_2_778
10
4.7024511
20
87.7849479
11
4.8461511
21
87.7849479
0
LINE
8
DEFAULT_255_2_778
10
4.8461511
20
87.7849479
11
4.8461511
21
87.0142479
0
LINE
8
DEFAULT_255_2_778
10
4.4897511
20
86.6374479
11
4.4516511
21
86.6358479
0
LINE
8
DEFAULT_255_2_778
10
4.0605511
20
87.0128479
11
4.0605511
21
87.7849479
0
LINE
8
DEFAULT_255_2_778
10
4.0605511
20
87.7849479
11
4.2021511
21
87.7849479
0
LINE
8
DEFAULT_255_2_778
10
4.2021511
20
87.7849479
11
4.2021511
21
87.0173479
0
LINE
8
DEFAULT_255_2_778
10
4.7022511
20
87.0168479
11
4.7022511
21
87.7849479
0
LINE
8
DEFAULT_255_2_778
10
4.7022511
20
87.7849479
11
4.7024511
21
87.7849479
0
ENDSEC
0
EOF