0
SECTION
2
HEADER
9
$MEASUREMENT
70
1
0
ENDSEC
0
SECTION
2
TABLES
0
TABLE
2
LTYPE
0
LTYPE
72
65
70
64
2
CONTINUOUS
3
______
73
0
40
0
0
ENDTAB
0
TABLE
2
LAYER
0
LAYER
2
DEFAULT_255_2_778
70
0
62
255
6
CONTINUOUS
0
LAYER
2
DEFAULT_255_1_234
70
0
62
255
6
CONTINUOUS
0
LAYER
2
DEFAULT_255_2_778_1
70
0
62
255
6
CONTINUOUS
0
ENDTAB
0
ENDSEC
0
SECTION
2
ENTITIES
0
ARC
8
DEFAULT_255_2_778
10
3.5700693
20
67.8676531
40
0.7914215
50
129.1312896
51
180.1450914
0
ARC
8
DEFAULT_255_2_778
10
3.5703345
20
67.8681402
40
0.7912112
50
89.854026
51
129.1684493
0
ARC
8
DEFAULT_255_2_778
10
25.7993937
20
67.8678268
40
0.7915249
50
39.4792447
51
90.147911
0
ARC
8
DEFAULT_255_2_778
10
25.7999935
20
67.8676734
40
0.7911595
50
359.8533901
51
39.5154338
0
ARC
8
DEFAULT_255_2_778
10
25.7996693
20
-1.9863991
40
0.7914836
50
309.4761667
51
0.1482649
0
ARC
8
DEFAULT_255_2_778
10
25.799398
20
-1.9868302
40
0.7913235
50
269.8517415
51
309.511178
0
ARC
8
DEFAULT_255_2_778
10
3.570342
20
-1.986772
40
0.7913815
50
219.1282118
51
270.1454017
0
ARC
8
DEFAULT_255_2_778
10
3.5700247
20
-1.9863896
40
0.7913769
50
179.8524075
51
219.1641908
0
LINE
8
DEFAULT_255_2_778
10
3.5723503
20
68.659349
11
25.7973503
21
68.659349
0
LINE
8
DEFAULT_255_2_778
10
26.5911503
20
67.865649
11
26.5911503
21
-1.984351
0
LINE
8
DEFAULT_255_2_778
10
25.7973503
20
-2.778151
11
3.5723503
21
-2.778151
0
LINE
8
DEFAULT_255_2_778
10
2.7786503
20
-1.984351
11
2.7786503
21
67.865649
0
LINE
8
DEFAULT_255_1_234
10
7.585985
20
-0.0087609
11
7.585985
21
-0.1348592
0
LINE
8
DEFAULT_255_1_234
10
7.585985
20
-0.1348592
11
7.0952458
21
-0.1348592
0
LINE
8
DEFAULT_255_1_234
10
7.0952458
20
-0.1348592
11
7.0952458
21
-0.6513
0
LINE
8
DEFAULT_255_1_234
10
7.0952458
20
-0.6513
11
6.9410364
21
-0.6513
0
LINE
8
DEFAULT_255_1_234
10
6.9410364
20
-0.6513
11
6.9410364
21
0.5181211
0
LINE
8
DEFAULT_255_1_234
10
6.9410364
20
0.5181211
11
7.6654992
21
0.5181211
0
LINE
8
DEFAULT_255_1_234
10
7.6654992
20
0.5181211
11
7.6654992
21
0.3912196
0
LINE
8
DEFAULT_255_1_234
10
7.6654992
20
0.3912196
11
7.0952458
21
0.3912196
0
LINE
8
DEFAULT_255_1_234
10
7.0952458
20
0.3912196
11
7.0952458
21
-0.0087609
0
LINE
8
DEFAULT_255_1_234
10
7.0952458
20
-0.0087609
11
7.585985
21
-0.0087609
0
LINE
8
DEFAULT_255_1_234
10
7.9498227
20
0.5181211
11
8.2317367
21
0.0699501
0
LINE
8
DEFAULT_255_1_234
10
8.2317367
20
0.0699501
11
8.5120444
21
0.5181211
0
LINE
8
DEFAULT_255_1_234
10
8.5120444
20
0.5181211
11
8.6935617
21
0.5181211
0
LINE
8
DEFAULT_255_1_234
10
8.6935617
20
0.5181211
11
8.3241017
21
-0.0617704
0
LINE
8
DEFAULT_255_1_234
10
8.3241017
20
-0.0617704
11
8.7023966
21
-0.6513
0
LINE
8
DEFAULT_255_1_234
10
8.7023966
20
-0.6513
11
8.5192729
21
-0.6513
0
LINE
8
DEFAULT_255_1_234
10
8.5192729
20
-0.6513
11
8.2317367
21
-0.1950973
0
LINE
8
DEFAULT_255_1_234
10
8.2317367
20
-0.1950973
11
7.9425941
21
-0.6513
0
LINE
8
DEFAULT_255_1_234
10
7.9425941
20
-0.6513
11
7.7602737
21
-0.6513
0
LINE
8
DEFAULT_255_1_234
10
7.7602737
20
-0.6513
11
8.1393717
21
-0.0617704
0
LINE
8
DEFAULT_255_1_234
10
8.1393717
20
-0.0617704
11
7.7691086
21
0.5181211
0
LINE
8
DEFAULT_255_1_234
10
7.7691086
20
0.5181211
11
7.9498227
21
0.5181211
0
LINE
8
DEFAULT_255_1_234
10
9.0590058
20
-0.1155831
11
9.0590058
21
0.0056962
0
LINE
8
DEFAULT_255_1_234
10
9.0590058
20
0.0056962
11
9.1706469
21
0.0056962
0
LINE
8
DEFAULT_255_1_234
10
8.9802947
20
0.2113087
11
8.8317076
21
0.2113087
0
LINE
8
DEFAULT_255_1_234
10
8.8212663
20
-0.3428813
11
8.9706566
21
-0.3428813
0
LINE
8
DEFAULT_255_1_234
10
9.1706469
20
-0.1155831
11
9.0590058
21
-0.1155831
0
ARC
8
DEFAULT_255_1_234
10
9.1677336
20
0.3449713
40
0.3392876
50
270.4919872
51
281.8951556
0
ARC
8
DEFAULT_255_1_234
10
9.1918597
20
0.2347702
40
0.2264817
50
281.6691735
51
301.2943132
0
ARC
8
DEFAULT_255_1_234
10
9.2088808
20
0.2036304
40
0.1910381
50
301.7833094
51
311.7545298
0
ARC
8
DEFAULT_255_1_234
10
9.2180383
20
0.1934748
40
0.1773635
50
311.7323931
51
354.2802411
0
ARC
8
DEFAULT_255_1_234
10
9.1454009
20
0.2059722
40
0.2509385
50
353.0937916
51
0.1181479
0
ARC
8
DEFAULT_255_1_234
10
9.0992793
20
0.2107386
40
0.2970898
50
359.1805295
51
15.0453146
0
ARC
8
DEFAULT_255_1_234
10
9.233863
20
0.2499992
40
0.1569564
50
13.9577229
51
77.6713066
0
ARC
8
DEFAULT_255_1_234
10
9.195216
20
0.1114949
40
0.3006298
50
76.1116566
51
90.7026153
0
ARC
8
DEFAULT_255_1_234
10
9.1892998
20
0.1388545
40
0.2732568
50
89.5324876
51
103.531937
0
ARC
8
DEFAULT_255_1_234
10
9.1692442
20
0.2187884
40
0.1908508
50
103.2931773
51
133.5619022
0
ARC
8
DEFAULT_255_1_234
10
9.164793
20
0.2247375
40
0.1834746
50
133.8349307
51
173.5344437
0
ARC
8
DEFAULT_255_1_234
10
9.2370973
20
0.2119213
40
0.2568033
50
172.5096846
51
180.1366907
0
ARC
8
DEFAULT_255_1_234
10
9.1419867
20
0.2153622
40
0.3103056
50
155.3484492
51
180.7484736
0
ARC
8
DEFAULT_255_1_234
10
9.1370956
20
0.2124846
40
0.3070957
50
131.5744599
51
154.4798489
0
ARC
8
DEFAULT_255_1_234
10
9.1684104
20
0.180831
40
0.3515643
50
96.9875458
51
131.9690667
0
ARC
8
DEFAULT_255_1_234
10
9.1903584
20
0.0562636
40
0.4779224
50
89.8596053
51
97.7825159
0
ARC
8
DEFAULT_255_1_234
10
9.1951647
20
0.0300616
40
0.5041361
50
78.3655447
51
90.4131539
0
ARC
8
DEFAULT_255_1_234
10
9.2309565
20
0.1959887
40
0.3344039
50
56.6229102
51
78.638727
0
ARC
8
DEFAULT_255_1_234
10
9.2524508
20
0.2335805
40
0.2912001
50
47.0253525
51
56.0854072
0
ARC
8
DEFAULT_255_1_234
10
9.2544288
20
0.2375223
40
0.2869704
50
10.9208013
51
46.7778124
0
ARC
8
DEFAULT_255_1_234
10
9.1180355
20
0.2059857
40
0.426899
50
359.6364486
51
11.6087304
0
ARC
8
DEFAULT_255_1_234
10
9.3015199
20
0.2044752
40
0.243409
50
332.3549906
51
359.7179418
0
ARC
8
DEFAULT_255_1_234
10
9.23648
20
0.2353142
40
0.3153459
50
325.2333722
51
332.8745602
0
ARC
8
DEFAULT_255_1_234
10
9.2517424
20
0.2246828
40
0.2967456
50
292.9802137
51
325.2392345
0
ARC
8
DEFAULT_255_1_234
10
9.2242798
20
0.2780863
40
0.3566604
50
292.5402179
51
293.6924929
0
ARC
8
DEFAULT_255_1_234
10
9.2635394
20
-0.3673909
40
0.3307468
50
57.6435486
51
72.8625112
0
ARC
8
DEFAULT_255_1_234
10
9.2989894
20
-0.3099451
40
0.2632492
50
36.7248896
51
57.4697979
0
ARC
8
DEFAULT_255_1_234
10
9.2978526
20
-0.308678
40
0.2634081
50
8.0545065
51
36.356114
0
ARC
8
DEFAULT_255_1_234
10
9.2115712
20
-0.3241826
40
0.3510261
50
359.8320645
51
8.5869982
0
ARC
8
DEFAULT_255_1_234
10
9.1740488
20
-0.3289899
40
0.3885653
50
343.9829931
51
0.5571613
0
ARC
8
DEFAULT_255_1_234
10
9.2626685
20
-0.3532562
40
0.2966924
50
311.6359546
51
343.7651759
0
ARC
8
DEFAULT_255_1_234
10
9.2248254
20
-0.3105898
40
0.3537231
50
279.7829875
51
311.6255694
0
ARC
8
DEFAULT_255_1_234
10
9.194703
20
-0.166872
40
0.5004971
50
269.7286406
51
280.3856417
0
ARC
8
DEFAULT_255_1_234
10
9.1885103
20
-0.1710004
40
0.4963778
50
256.6828919
51
270.4412052
0
ARC
8
DEFAULT_255_1_234
10
9.1546399
20
-0.3094606
40
0.3538406
50
229.4223008
51
256.8556159
0
ARC
8
DEFAULT_255_1_234
10
9.1131792
20
-0.3561264
40
0.2914296
50
181.818294
51
229.6455059
0
ARC
8
DEFAULT_255_1_234
10
9.2171748
20
-0.3430504
40
0.3959084
50
179.9755256
51
183.2323064
0
ARC
8
DEFAULT_255_1_234
10
9.1999494
20
-0.3450963
40
0.2293034
50
179.4465117
51
196.2869258
0
ARC
8
DEFAULT_255_1_234
10
9.1511902
20
-0.3584349
40
0.1787621
50
196.5661473
51
227.705904
0
ARC
8
DEFAULT_255_1_234
10
9.1675996
20
-0.3400845
40
0.2033784
50
227.7652068
51
257.8762805
0
ARC
8
DEFAULT_255_1_234
10
9.1900967
20
-0.2457844
40
0.3003081
50
257.4584385
51
270.426602
0
ARC
8
DEFAULT_255_1_234
10
9.1946533
20
-0.2168004
40
0.329292
50
269.5962073
51
280.8789248
0
ARC
8
DEFAULT_255_1_234
10
9.2176062
20
-0.3314315
40
0.2123908
50
280.6346389
51
299.8595945
0
ARC
8
DEFAULT_255_1_234
10
9.2366968
20
-0.3676788
40
0.171457
50
300.3576302
51
314.5517981
0
ARC
8
DEFAULT_255_1_234
10
9.2284028
20
-0.3616081
40
0.1816095
50
315.0728369
51
345.0431014
0
ARC
8
DEFAULT_255_1_234
10
9.1360843
20
-0.3347159
40
0.2777492
50
344.5986631
51
357.9269593
0
ARC
8
DEFAULT_255_1_234
10
9.0465169
20
-0.3285724
40
0.3674917
50
357.4748886
51
0.0231117
0
ARC
8
DEFAULT_255_1_234
10
9.1488278
20
-0.3261321
40
0.2651907
50
359.5047933
51
13.4239635
0
ARC
8
DEFAULT_255_1_234
10
9.2354922
20
-0.3039522
40
0.1757509
50
12.9498199
51
48.7551375
0
ARC
8
DEFAULT_255_1_234
10
9.2172656
20
-0.32886
40
0.2065134
50
49.5088623
51
72.1836453
0
ARC
8
DEFAULT_255_1_234
10
9.1814808
20
-0.4350709
40
0.3185836
50
71.9010081
51
84.3554254
0
ARC
8
DEFAULT_255_1_234
10
9.165344
20
-0.5711674
40
0.4556151
50
84.0193428
51
89.333121
0
LINE
8
DEFAULT_255_1_234
10
10.5810202
20
0.1799849
11
10.4260076
21
0.1799849
0
LINE
8
DEFAULT_255_1_234
10
9.7336718
20
-0.3123606
11
9.8886843
21
-0.3123606
0
ARC
8
DEFAULT_255_1_234
10
10.4918889
20
1.0746768
40
1.252368
50
248.9199003
51
254.1439814
0
ARC
8
DEFAULT_255_1_234
10
10.3238384
20
0.6420234
40
0.788226
50
241.633709
51
249.0064503
0
ARC
8
DEFAULT_255_1_234
10
10.1709778
20
0.3619317
40
0.4691427
50
230.498225
51
241.8087113
0
ARC
8
DEFAULT_255_1_234
10
10.0925353
20
0.2619906
40
0.3421437
50
227.4064532
51
229.9881192
0
ARC
8
DEFAULT_255_1_234
10
10.0437873
20
0.2144088
40
0.2741476
50
200.6781896
51
228.1763934
0
ARC
8
DEFAULT_255_1_234
10
10.0510184
20
0.2129077
40
0.2804109
50
179.5061581
51
199.8694617
0
ARC
8
DEFAULT_255_1_234
10
10.0500935
20
0.220321
40
0.2795204
50
132.4834203
51
181.0242172
0
ARC
8
DEFAULT_255_1_234
10
10.1096518
20
0.1640704
40
0.3612768
50
129.2532479
51
133.4242687
0
ARC
8
DEFAULT_255_1_234
10
10.1242967
20
0.1420965
40
0.3875675
50
101.98776
51
128.8742646
0
ARC
8
DEFAULT_255_1_234
10
10.1641578
20
-0.0300259
40
0.5642249
50
89.5906553
51
102.3169264
0
ARC
8
DEFAULT_255_1_234
10
10.171207
20
0.0018148
40
0.5323783
50
77.2360837
51
90.3248275
0
ARC
8
DEFAULT_255_1_234
10
10.1919149
20
0.09854
40
0.4334697
50
63.837784
51
77.0809408
0
ARC
8
DEFAULT_255_1_234
10
10.2196911
20
0.1502911
40
0.3747796
50
45.9864267
51
64.1607727
0
ARC
8
DEFAULT_255_1_234
10
10.2457792
20
0.1800866
40
0.3352302
50
32.2747395
51
45.6547121
0
ARC
8
DEFAULT_255_1_234
10
10.2524233
20
0.181988
40
0.328603
50
359.6507365
51
32.6130309
0
ARC
8
DEFAULT_255_1_234
10
10.1581328
20
0.182466
40
0.2678863
50
359.469343
51
14.9832209
0
ARC
8
DEFAULT_255_1_234
10
10.2286391
20
0.2013539
40
0.1948938
50
14.9781179
51
48.2004265
0
ARC
8
DEFAULT_255_1_234
10
10.2122035
20
0.1806983
40
0.2212521
50
48.5927837
51
74.1241538
0
ARC
8
DEFAULT_255_1_234
10
10.1788524
20
0.0706248
40
0.3362561
50
73.7888341
51
86.6652678
0
ARC
8
DEFAULT_255_1_234
10
10.168609
20
-0.0501119
40
0.4573953
50
86.2640471
51
90.0526343
0
ARC
8
DEFAULT_255_1_234
10
10.1657803
20
-0.0105808
40
0.4178709
50
89.6697524
51
99.2309573
0
ARC
8
DEFAULT_255_1_234
10
10.1415253
20
0.1338964
40
0.2713749
50
99.069534
51
113.7658566
0
ARC
8
DEFAULT_255_1_234
10
10.1141445
20
0.1984677
40
0.2012469
50
114.0401004
51
127.9850673
0
ARC
8
DEFAULT_255_1_234
10
10.0901009
20
0.228073
40
0.1631167
50
127.7287463
51
176.7105154
0
ARC
8
DEFAULT_255_1_234
10
10.1579726
20
0.2179693
40
0.2315392
50
175.1779447
51
180.0581938
0
ARC
8
DEFAULT_255_1_234
10
10.0736573
20
0.2167428
40
0.1472271
50
179.6142195
51
228.1246017
0
ARC
8
DEFAULT_255_1_234
10
10.1178241
20
0.2576308
40
0.2072299
50
226.5779593
51
230.8800004
0
ARC
8
DEFAULT_255_1_234
10
10.164932
20
0.3201636
40
0.2854818
50
231.4635071
51
241.9260842
0
ARC
8
DEFAULT_255_1_234
10
10.2846498
20
0.54048
40
0.53622
50
241.7178533
51
248.3259551
0
ARC
8
DEFAULT_255_1_234
10
10.423187
20
0.8837064
40
0.9063478
50
248.2007737
51
252.4528373
0
ARC
8
DEFAULT_255_1_234
10
10.5435595
20
1.2558441
40
1.2974635
50
252.3391078
51
254.3469452
0
ARC
8
DEFAULT_255_1_234
10
9.7893297
20
-1.4418852
40
1.5037162
50
71.0197183
51
74.4087047
0
ARC
8
DEFAULT_255_1_234
10
9.9587983
20
-0.9526889
40
0.9859993
50
66.1847285
51
71.086374
0
ARC
8
DEFAULT_255_1_234
10
10.1144295
20
-0.60228
40
0.6025855
50
59.3536294
51
66.2691831
0
ARC
8
DEFAULT_255_1_234
10
10.2032947
20
-0.4519391
40
0.4279449
50
49.1020879
51
59.3293958
0
ARC
8
DEFAULT_255_1_234
10
10.2851687
20
-0.3586166
40
0.3038015
50
32.7919921
51
49.2505539
0
ARC
8
DEFAULT_255_1_234
10
10.3172777
20
-0.3357809
40
0.264448
50
31.1181161
51
32.4005348
0
ARC
8
DEFAULT_255_1_234
10
10.3084315
20
-0.3393221
40
0.2738556
50
8.1116974
51
30.7958831
0
ARC
8
DEFAULT_255_1_234
10
10.2273983
20
-0.3531247
40
0.3560327
50
359.8389159
51
8.4706516
0
ARC
8
DEFAULT_255_1_234
10
10.2899775
20
-0.3579863
40
0.2934776
50
337.4731098
51
0.7537279
0
ARC
8
DEFAULT_255_1_234
10
10.3078469
20
-0.3599613
40
0.2762607
50
307.5917067
51
336.4315538
0
ARC
8
DEFAULT_255_1_234
10
10.2618297
20
-0.3086898
40
0.3449979
50
307.6551545
51
308.4529766
0
ARC
8
DEFAULT_255_1_234
10
10.2388016
20
-0.273175
40
0.3871988
50
284.3734338
51
307.1424381
0
ARC
8
DEFAULT_255_1_234
10
10.1892846
20
-0.0910068
40
0.5759636
50
272.4382747
51
284.646547
0
ARC
8
DEFAULT_255_1_234
10
10.1766055
20
0.0889893
40
0.7563528
50
269.9708387
51
272.8178037
0
ARC
8
DEFAULT_255_1_234
10
10.1723095
20
-0.1148284
40
0.5525489
50
248.2707594
51
270.4055579
0
ARC
8
DEFAULT_255_1_234
10
10.1668836
20
-0.1338808
40
0.5328452
50
246.1383403
51
248.0542782
0
ARC
8
DEFAULT_255_1_234
10
10.1250215
20
-0.2218157
40
0.4355005
50
233.1670131
51
246.4950969
0
ARC
8
DEFAULT_255_1_234
10
10.069612
20
-0.2966188
40
0.3424126
50
215.3403242
51
233.0843104
0
ARC
8
DEFAULT_255_1_234
10
10.0423551
20
-0.3164451
40
0.3087104
50
179.2419209
51
215.2648451
0
ARC
8
DEFAULT_255_1_234
10
10.1191145
20
-0.3150334
40
0.2304457
50
179.335461
51
199.1045811
0
ARC
8
DEFAULT_255_1_234
10
10.0858821
20
-0.3237234
40
0.1962176
50
199.8828939
51
232.7063202
0
ARC
8
DEFAULT_255_1_234
10
10.133109
20
-0.2643212
40
0.2720938
50
232.3738199
51
255.5136649
0
ARC
8
DEFAULT_255_1_234
10
10.1671957
20
-0.1399165
40
0.4010747
50
255.2446292
51
267.5320849
0
ARC
8
DEFAULT_255_1_234
10
10.175958
20
-0.0166298
40
0.5246356
50
267.1557994
51
270.0286766
0
ARC
8
DEFAULT_255_1_234
10
10.1787352
20
-0.061005
40
0.4802668
50
269.7000017
51
278.1660162
0
ARC
8
DEFAULT_255_1_234
10
10.2043357
20
-0.2340485
40
0.3053425
50
278.0231263
51
290.625471
0
ARC
8
DEFAULT_255_1_234
10
10.2391044
20
-0.3267975
40
0.206291
50
290.6619762
51
307.0370976
0
ARC
8
DEFAULT_255_1_234
10
10.2691433
20
-0.3636496
40
0.1587906
50
306.3943566
51
355.3030547
0
ARC
8
DEFAULT_255_1_234
10
10.2179365
20
-0.3559887
40
0.2104809
50
354.3660432
51
0.0698737
0
ARC
8
DEFAULT_255_1_234
10
10.232171
20
-0.3537383
40
0.1962563
50
359.417946
51
16.1971788
0
ARC
8
DEFAULT_255_1_234
10
10.277702
20
-0.3412582
40
0.149053
50
16.4723299
51
52.6262157
0
ARC
8
DEFAULT_255_1_234
10
10.1956074
20
-0.4496567
40
0.2850296
50
52.7386432
51
62.4979148
0
ARC
8
DEFAULT_255_1_234
10
10.0571151
20
-0.7102717
40
0.5801521
50
62.2515216
51
68.1220564
0
ARC
8
DEFAULT_255_1_234
10
9.8851062
20
-1.1330128
40
1.0365451
50
68.0062803
51
71.8053402
0
ARC
8
DEFAULT_255_1_234
10
9.7055433
20
-1.6715242
40
1.6042013
50
71.7183119
51
73.9258742
0
LINE
8
DEFAULT_255_1_234
10
11.0669403
20
-0.0938974
11
11.0669403
21
-0.2151766
0
LINE
8
DEFAULT_255_1_234
10
11.0669403
20
-0.2151766
11
10.6749915
21
-0.2151766
0
LINE
8
DEFAULT_255_1_234
10
10.6749915
20
-0.2151766
11
10.6749915
21
-0.0938974
0
LINE
8
DEFAULT_255_1_234
10
10.6749915
20
-0.0938974
11
11.0669403
21
-0.0938974
0
LINE
8
DEFAULT_255_1_234
10
11.4123051
20
-0.1155831
11
11.4123051
21
0.0056962
0
LINE
8
DEFAULT_255_1_234
10
11.4123051
20
0.0056962
11
11.5239462
21
0.0056962
0
LINE
8
DEFAULT_255_1_234
10
11.333594
20
0.2113087
11
11.1850069
21
0.2113087
0
LINE
8
DEFAULT_255_1_234
10
11.1745656
20
-0.3428813
11
11.323956
21
-0.3428813
0
LINE
8
DEFAULT_255_1_234
10
11.5239462
20
-0.1155831
11
11.4123051
21
-0.1155831
0
ARC
8
DEFAULT_255_1_234
10
11.5210329
20
0.3449713
40
0.3392876
50
270.4919872
51
281.8951556
0
ARC
8
DEFAULT_255_1_234
10
11.545159
20
0.2347702
40
0.2264817
50
281.6691735
51
301.2943132
0
ARC
8
DEFAULT_255_1_234
10
11.5621801
20
0.2036304
40
0.1910381
50
301.7833094
51
311.7545298
0
ARC
8
DEFAULT_255_1_234
10
11.5713376
20
0.1934748
40
0.1773635
50
311.7323931
51
354.2802411
0
ARC
8
DEFAULT_255_1_234
10
11.4987002
20
0.2059722
40
0.2509385
50
353.0937916
51
0.1181479
0
ARC
8
DEFAULT_255_1_234
10
11.4525787
20
0.2107386
40
0.2970898
50
359.1805295
51
15.0453146
0
ARC
8
DEFAULT_255_1_234
10
11.5871624
20
0.2499992
40
0.1569564
50
13.9577229
51
77.6713066
0
ARC
8
DEFAULT_255_1_234
10
11.5485153
20
0.1114949
40
0.3006298
50
76.1116566
51
90.7026153
0
ARC
8
DEFAULT_255_1_234
10
11.5425991
20
0.1388545
40
0.2732568
50
89.5324876
51
103.531937
0
ARC
8
DEFAULT_255_1_234
10
11.5225435
20
0.2187884
40
0.1908508
50
103.2931773
51
133.5619022
0
ARC
8
DEFAULT_255_1_234
10
11.5180923
20
0.2247375
40
0.1834746
50
133.8349307
51
173.5344437
0
ARC
8
DEFAULT_255_1_234
10
11.5903967
20
0.2119213
40
0.2568033
50
172.5096846
51
180.1366907
0
ARC
8
DEFAULT_255_1_234
10
11.495286
20
0.2153622
40
0.3103056
50
155.3484492
51
180.7484736
0
ARC
8
DEFAULT_255_1_234
10
11.490395
20
0.2124846
40
0.3070957
50
131.5744599
51
154.4798489
0
ARC
8
DEFAULT_255_1_234
10
11.5217097
20
0.180831
40
0.3515643
50
96.9875458
51
131.9690667
0
ARC
8
DEFAULT_255_1_234
10
11.5436577
20
0.0562636
40
0.4779224
50
89.8596053
51
97.7825159
0
ARC
8
DEFAULT_255_1_234
10
11.548464
20
0.0300616
40
0.5041361
50
78.3655447
51
90.4131539
0
ARC
8
DEFAULT_255_1_234
10
11.5842558
20
0.1959887
40
0.3344039
50
56.6229102
51
78.638727
0
ARC
8
DEFAULT_255_1_234
10
11.6057501
20
0.2335805
40
0.2912001
50
47.0253525
51
56.0854072
0
ARC
8
DEFAULT_255_1_234
10
11.6077281
20
0.2375223
40
0.2869704
50
10.9208013
51
46.7778124
0
ARC
8
DEFAULT_255_1_234
10
11.4713348
20
0.2059857
40
0.426899
50
359.6364486
51
11.6087304
0
ARC
8
DEFAULT_255_1_234
10
11.6548192
20
0.2044752
40
0.243409
50
332.3549906
51
359.7179418
0
ARC
8
DEFAULT_255_1_234
10
11.5897793
20
0.2353142
40
0.3153459
50
325.2333722
51
332.8745602
0
ARC
8
DEFAULT_255_1_234
10
11.6050417
20
0.2246828
40
0.2967456
50
292.9802137
51
325.2392345
0
ARC
8
DEFAULT_255_1_234
10
11.5775791
20
0.2780863
40
0.3566604
50
292.5402179
51
293.6924929
0
ARC
8
DEFAULT_255_1_234
10
11.6168387
20
-0.3673909
40
0.3307468
50
57.6435486
51
72.8625112
0
ARC
8
DEFAULT_255_1_234
10
11.6522887
20
-0.3099451
40
0.2632492
50
36.7248896
51
57.4697979
0
ARC
8
DEFAULT_255_1_234
10
11.6511519
20
-0.308678
40
0.2634081
50
8.0545065
51
36.356114
0
ARC
8
DEFAULT_255_1_234
10
11.5648705
20
-0.3241826
40
0.3510261
50
359.8320645
51
8.5869982
0
ARC
8
DEFAULT_255_1_234
10
11.5273481
20
-0.3289899
40
0.3885653
50
343.9829931
51
0.5571613
0
ARC
8
DEFAULT_255_1_234
10
11.6159678
20
-0.3532562
40
0.2966924
50
311.6359546
51
343.7651759
0
ARC
8
DEFAULT_255_1_234
10
11.5781247
20
-0.3105898
40
0.3537231
50
279.7829875
51
311.6255694
0
ARC
8
DEFAULT_255_1_234
10
11.5480023
20
-0.166872
40
0.5004971
50
269.7286406
51
280.3856417
0
ARC
8
DEFAULT_255_1_234
10
11.5418096
20
-0.1710004
40
0.4963778
50
256.6828919
51
270.4412052
0
ARC
8
DEFAULT_255_1_234
10
11.5079392
20
-0.3094606
40
0.3538406
50
229.4223008
51
256.8556159
0
ARC
8
DEFAULT_255_1_234
10
11.4664785
20
-0.3561264
40
0.2914296
50
181.818294
51
229.6455059
0
ARC
8
DEFAULT_255_1_234
10
11.5704741
20
-0.3430504
40
0.3959084
50
179.9755256
51
183.2323064
0
ARC
8
DEFAULT_255_1_234
10
11.5532487
20
-0.3450963
40
0.2293034
50
179.4465117
51
196.2869258
0
ARC
8
DEFAULT_255_1_234
10
11.5044895
20
-0.3584349
40
0.1787621
50
196.5661473
51
227.705904
0
ARC
8
DEFAULT_255_1_234
10
11.520899
20
-0.3400845
40
0.2033784
50
227.7652068
51
257.8762805
0
ARC
8
DEFAULT_255_1_234
10
11.543396
20
-0.2457844
40
0.3003081
50
257.4584385
51
270.426602
0
ARC
8
DEFAULT_255_1_234
10
11.5479526
20
-0.2168004
40
0.329292
50
269.5962073
51
280.8789248
0
ARC
8
DEFAULT_255_1_234
10
11.5709055
20
-0.3314315
40
0.2123908
50
280.6346389
51
299.8595945
0
ARC
8
DEFAULT_255_1_234
10
11.5899961
20
-0.3676788
40
0.171457
50
300.3576302
51
314.5517981
0
ARC
8
DEFAULT_255_1_234
10
11.5817021
20
-0.3616081
40
0.1816095
50
315.0728369
51
345.0431014
0
ARC
8
DEFAULT_255_1_234
10
11.4893836
20
-0.3347159
40
0.2777492
50
344.5986631
51
357.9269593
0
ARC
8
DEFAULT_255_1_234
10
11.3998162
20
-0.3285724
40
0.3674917
50
357.4748886
51
0.0231117
0
ARC
8
DEFAULT_255_1_234
10
11.5021271
20
-0.3261321
40
0.2651907
50
359.5047933
51
13.4239635
0
ARC
8
DEFAULT_255_1_234
10
11.5887915
20
-0.3039522
40
0.1757509
50
12.9498199
51
48.7551375
0
ARC
8
DEFAULT_255_1_234
10
11.5705649
20
-0.32886
40
0.2065134
50
49.5088623
51
72.1836453
0
ARC
8
DEFAULT_255_1_234
10
11.5347802
20
-0.4350709
40
0.3185836
50
71.9010081
51
84.3554254
0
ARC
8
DEFAULT_255_1_234
10
11.5186433
20
-0.5711674
40
0.4556151
50
84.0193428
51
89.333121
0
LINE
8
DEFAULT_255_1_234
10
12.8531989
20
0.0402327
11
12.8531989
21
-0.1525291
0
LINE
8
DEFAULT_255_1_234
10
12.1150822
20
-0.1726084
11
12.1150822
21
0.0257755
0
LINE
8
DEFAULT_255_1_234
10
12.7046118
20
-0.1926877
11
12.7046118
21
0.0506739
0
LINE
8
DEFAULT_255_1_234
10
12.2636693
20
0.0619184
11
12.2636693
21
-0.1758211
0
ARC
8
DEFAULT_255_1_234
10
11.6284879
20
-0.1574195
40
1.2247208
50
353.8441951
51
0.2287902
0
ARC
8
DEFAULT_255_1_234
10
12.0924382
20
-0.2092194
40
0.7578929
50
344.4934747
51
353.9765454
0
ARC
8
DEFAULT_255_1_234
10
12.3916973
20
-0.2943019
40
0.4467846
50
329.2803592
51
344.7472793
0
ARC
8
DEFAULT_255_1_234
10
12.4909798
20
-0.3487982
40
0.3336173
50
324.9352394
51
328.6160465
0
ARC
8
DEFAULT_255_1_234
10
12.5286906
20
-0.3751573
40
0.2876076
50
280.580143
51
324.9173126
0
ARC
8
DEFAULT_255_1_234
10
12.4885699
20
-0.2080901
40
0.4592847
50
269.5977311
51
281.6734359
0
ARC
8
DEFAULT_255_1_234
10
12.4813604
20
-0.2200827
40
0.4472986
50
256.6228859
51
270.51044
0
ARC
8
DEFAULT_255_1_234
10
12.4411582
20
-0.3749123
40
0.2873874
50
215.8618325
51
257.2788573
0
ARC
8
DEFAULT_255_1_234
10
12.5432614
20
-0.3064023
40
0.4102928
50
197.9693508
51
215.2623606
0
ARC
8
DEFAULT_255_1_234
10
12.791773
20
-0.2225291
40
0.6725652
50
187.8816417
51
198.2346507
0
ARC
8
DEFAULT_255_1_234
10
13.1875938
20
-0.1653921
40
1.0724845
50
180.8976217
51
188.0055519
0
ARC
8
DEFAULT_255_1_234
10
13.4676126
20
-0.1550223
40
1.3526448
50
180.7449369
51
181.1510016
0
ARC
8
DEFAULT_255_1_234
10
13.3098855
20
0.0306042
40
1.1948131
50
173.7675579
51
180.231553
0
ARC
8
DEFAULT_255_1_234
10
12.8581002
20
0.0816666
40
0.7401564
50
164.3058563
51
173.9002247
0
ARC
8
DEFAULT_255_1_234
10
12.566907
20
0.1655656
40
0.4371288
50
148.7922025
51
164.568378
0
ARC
8
DEFAULT_255_1_234
10
12.4717523
20
0.2186929
40
0.3282386
50
144.5883898
51
148.1176286
0
ARC
8
DEFAULT_255_1_234
10
12.437442
20
0.2426315
40
0.2864044
50
101.6440918
51
144.514236
0
ARC
8
DEFAULT_255_1_234
10
12.4799487
20
0.0737069
40
0.4604934
50
89.5284041
51
102.5819763
0
ARC
8
DEFAULT_255_1_234
10
12.4878575
20
0.0698018
40
0.464401
50
77.0437873
51
90.5081339
0
ARC
8
DEFAULT_255_1_234
10
12.5280577
20
0.2340615
40
0.2953195
50
48.2778575
51
77.4994676
0
ARC
8
DEFAULT_255_1_234
10
12.5353208
20
0.2469746
40
0.2808655
50
36.3142134
51
47.6305865
0
ARC
8
DEFAULT_255_1_234
10
12.4484515
20
0.1884515
40
0.3855453
50
18.2931786
51
35.6769206
0
ARC
8
DEFAULT_255_1_234
10
12.1941274
20
0.1011593
40
0.654423
50
8.024666
51
18.5605216
0
ARC
8
DEFAULT_255_1_234
10
11.7778194
20
0.0396792
40
1.0752407
50
1.1274072
51
8.1718305
0
ARC
8
DEFAULT_255_1_234
10
11.4542384
20
0.0269885
40
1.3990231
50
0.5424119
51
1.3863029
0
ARC
8
DEFAULT_255_1_234
10
11.6363762
20
0.0542342
40
1.0682415
50
359.8090433
51
4.9407866
0
ARC
8
DEFAULT_255_1_234
10
12.0573776
20
0.0918113
40
0.6455691
50
4.8362157
51
12.2904523
0
ARC
8
DEFAULT_255_1_234
10
12.3328891
20
0.1531965
40
0.3633074
50
12.0805627
51
23.8173984
0
ARC
8
DEFAULT_255_1_234
10
12.4502596
20
0.2028919
40
0.2358723
50
24.2871213
51
31.3935614
0
ARC
8
DEFAULT_255_1_234
10
12.5027294
20
0.2372233
40
0.1732111
50
30.7407893
51
82.4657128
0
ARC
8
DEFAULT_255_1_234
10
12.4847428
20
0.1488691
40
0.263235
50
81.1060089
51
90.2184952
0
ARC
8
DEFAULT_255_1_234
10
12.4811727
20
0.1746924
40
0.2374236
50
89.3806855
51
105.6762551
0
ARC
8
DEFAULT_255_1_234
10
12.4628357
20
0.2413567
40
0.1682847
50
105.7981136
51
149.7388061
0
ARC
8
DEFAULT_255_1_234
10
12.5692436
20
0.177395
40
0.2924306
50
149.4208916
51
163.6286378
0
ARC
8
DEFAULT_255_1_234
10
12.7783324
20
0.113625
40
0.5110213
50
163.3763315
51
172.1410975
0
ARC
8
DEFAULT_255_1_234
10
13.1084043
20
0.0663518
40
0.8444586
50
172.0259487
51
178.0703232
0
ARC
8
DEFAULT_255_1_234
10
13.4114132
20
0.0519906
40
1.1477868
50
177.8631668
51
179.5044149
0
ARC
8
DEFAULT_255_1_234
10
13.3041537
20
-0.1794611
40
1.0404907
50
179.7995573
51
185.2460446
0
ARC
8
DEFAULT_255_1_234
10
12.8998576
20
-0.2177487
40
0.6343885
50
185.1411642
51
193.0079639
0
ARC
8
DEFAULT_255_1_234
10
12.6355049
20
-0.2802359
40
0.3627568
50
192.7897626
51
205.2507664
0
ARC
8
DEFAULT_255_1_234
10
12.5308596
20
-0.3269585
40
0.2481908
50
205.8005384
51
211.2537509
0
ARC
8
DEFAULT_255_1_234
10
12.4785036
20
-0.362042
40
0.1852521
50
210.3789793
51
238.4008143
0
ARC
8
DEFAULT_255_1_234
10
12.4765558
20
-0.3573624
40
0.1882621
50
239.6520629
51
265.9793761
0
ARC
8
DEFAULT_255_1_234
10
12.4850758
20
-0.2901573
40
0.2559272
50
265.1315437
51
270.060332
0
ARC
8
DEFAULT_255_1_234
10
12.4879537
20
-0.3225466
40
0.2235528
50
269.3314664
51
287.2178029
0
ARC
8
DEFAULT_255_1_234
10
12.5017389
20
-0.3728721
40
0.1714108
50
287.7958004
51
329.080874
0
ARC
8
DEFAULT_255_1_234
10
12.4059846
20
-0.313107
40
0.2842745
50
328.6634704
51
343.3325132
0
ARC
8
DEFAULT_255_1_234
10
12.1886866
20
-0.2454137
40
0.5118644
50
343.0499468
51
351.9393422
0
ARC
8
DEFAULT_255_1_234
10
11.8420166
20
-0.1943051
40
0.8622784
50
351.8069023
51
357.7959224
0
ARC
8
DEFAULT_255_1_234
10
11.5184722
20
-0.1775279
40
1.1862365
50
357.5871873
51
359.2677531
0
LINE
8
DEFAULT_255_1_234
10
13.0821035
20
0.5181211
11
13.2812906
21
0.5181211
0
LINE
8
DEFAULT_255_1_234
10
13.2812906
20
0.5181211
11
13.6636013
21
-0.4360494
0
LINE
8
DEFAULT_255_1_234
10
13.6636013
20
-0.4360494
11
14.0459121
21
0.5181211
0
LINE
8
DEFAULT_255_1_234
10
14.0459121
20
0.5181211
11
14.2459023
21
0.5181211
0
LINE
8
DEFAULT_255_1_234
10
14.2459023
20
0.5181211
11
14.2459023
21
-0.6513
0
LINE
8
DEFAULT_255_1_234
10
14.2459023
20
-0.6513
11
14.091693
21
-0.6513
0
LINE
8
DEFAULT_255_1_234
10
14.091693
20
-0.6513
11
14.091693
21
-0.1959004
0
LINE
8
DEFAULT_255_1_234
10
14.091693
20
-0.1959004
11
14.1061501
21
0.2956419
0
LINE
8
DEFAULT_255_1_234
10
14.1061501
20
0.2956419
11
13.722233
21
-0.6513
0
LINE
8
DEFAULT_255_1_234
10
13.722233
20
-0.6513
11
13.6041665
21
-0.6513
0
LINE
8
DEFAULT_255_1_234
10
13.6041665
20
-0.6513
11
13.2210525
21
0.2932324
0
LINE
8
DEFAULT_255_1_234
10
13.2210525
20
0.2932324
11
13.2363128
21
-0.1959004
0
LINE
8
DEFAULT_255_1_234
10
13.2363128
20
-0.1959004
11
13.2363128
21
-0.6513
0
LINE
8
DEFAULT_255_1_234
10
13.2363128
20
-0.6513
11
13.0821035
21
-0.6513
0
LINE
8
DEFAULT_255_1_234
10
13.0821035
20
-0.6513
11
13.0821035
21
0.5181211
0
LINE
8
DEFAULT_255_1_234
10
15.200876
20
-0.6513
11
14.9470731
21
-0.1782306
0
LINE
8
DEFAULT_255_1_234
10
14.9470731
20
-0.1782306
11
14.6723876
21
-0.1782306
0
LINE
8
DEFAULT_255_1_234
10
14.6723876
20
-0.1782306
11
14.6723876
21
-0.6513
0
LINE
8
DEFAULT_255_1_234
10
14.6723876
20
-0.6513
11
14.5173751
21
-0.6513
0
LINE
8
DEFAULT_255_1_234
10
14.5173751
20
-0.6513
11
14.5173751
21
0.5181211
0
LINE
8
DEFAULT_255_1_234
10
14.5173751
20
0.5181211
11
14.9045049
21
0.5181211
0
LINE
8
DEFAULT_255_1_234
10
15.0916444
20
-0.1453005
11
15.3663298
21
-0.6416619
0
LINE
8
DEFAULT_255_1_234
10
15.3663298
20
-0.6416619
11
15.3663298
21
-0.6513
0
LINE
8
DEFAULT_255_1_234
10
15.3663298
20
-0.6513
11
15.200876
21
-0.6513
0
LINE
8
DEFAULT_255_1_234
10
14.6723876
20
0.3912196
11
14.6723876
21
-0.0521323
0
LINE
8
DEFAULT_255_1_234
10
14.6723876
20
-0.0521323
11
14.9093239
21
-0.0521323
0
LINE
8
DEFAULT_255_1_234
10
14.9085208
20
0.3912196
11
14.6723876
21
0.3912196
0
ARC
8
DEFAULT_255_1_234
10
14.9086688
20
-0.1780239
40
0.6961575
50
80.653586
51
90.3427061
0
ARC
8
DEFAULT_255_1_234
10
14.9506163
20
0.0682348
40
0.4463577
50
65.6987447
51
80.8329603
0
ARC
8
DEFAULT_255_1_234
10
14.9983804
20
0.1777322
40
0.3269094
50
50.0017161
51
65.4305835
0
ARC
8
DEFAULT_255_1_234
10
15.0202268
20
0.2072482
40
0.2902647
50
11.628416
51
49.5603263
0
ARC
8
DEFAULT_255_1_234
10
14.8666604
20
0.1697299
40
0.4482792
50
359.5655735
51
12.3691
0
ARC
8
DEFAULT_255_1_234
10
14.9743464
20
0.1634644
40
0.3405924
50
341.9983148
51
0.4822259
0
ARC
8
DEFAULT_255_1_234
10
15.0138304
20
0.1527471
40
0.2997359
50
323.8609373
51
341.61416
0
ARC
8
DEFAULT_255_1_234
10
14.9836548
20
0.1760484
40
0.3378487
50
296.7018614
51
323.6876402
0
ARC
8
DEFAULT_255_1_234
10
14.9395443
20
0.2549235
40
0.4281516
50
290.8086567
51
297.2323311
0
ARC
8
DEFAULT_255_1_234
10
14.9118973
20
0.3072351
40
0.3593766
50
269.589728
51
281.8058135
0
ARC
8
DEFAULT_255_1_234
10
14.9369872
20
0.1924743
40
0.2419125
50
281.5501019
51
303.9357432
0
ARC
8
DEFAULT_255_1_234
10
14.950706
20
0.1686936
40
0.2145323
50
304.4415616
51
311.2106213
0
ARC
8
DEFAULT_255_1_234
10
14.9639165
20
0.1547632
40
0.1953505
50
310.9875673
51
356.2715578
0
ARC
8
DEFAULT_255_1_234
10
14.8882814
20
0.1660422
40
0.2716331
50
354.9348262
51
0.0609027
0
ARC
8
DEFAULT_255_1_234
10
14.8695688
20
0.1687435
40
0.2903554
50
359.5239371
51
12.8808918
0
ARC
8
DEFAULT_255_1_234
10
14.9673243
20
0.1926728
40
0.1897315
50
12.4173452
51
43.1022135
0
ARC
8
DEFAULT_255_1_234
10
14.9734848
20
0.1963724
40
0.1827118
50
43.5751728
51
48.203944
0
ARC
8
DEFAULT_255_1_234
10
14.956534
20
0.1742302
40
0.2105272
50
48.7809703
51
72.6969569
0
ARC
8
DEFAULT_255_1_234
10
14.9210965
20
0.066682
40
0.3237537
50
72.3702241
51
84.8791103
0
ARC
8
DEFAULT_255_1_234
10
14.9063441
20
-0.0675231
40
0.4587478
50
84.5400526
51
89.7281406
0
LINE
8
DEFAULT_255_1_234
10
16.0249324
20
0.5181211
11
15.5374059
21
-0.7516967
0
LINE
8
DEFAULT_255_1_234
10
15.5374059
20
-0.7516967
11
15.4097012
21
-0.7516967
0
LINE
8
DEFAULT_255_1_234
10
15.4097012
20
-0.7516967
11
15.8980309
21
0.5181211
0
LINE
8
DEFAULT_255_1_234
10
15.8980309
20
0.5181211
11
16.0249324
21
0.5181211
0
LINE
8
DEFAULT_255_1_234
10
16.8698712
20
0.0153343
11
16.8698712
21
-0.110764
0
LINE
8
DEFAULT_255_1_234
10
16.8698712
20
-0.110764
11
16.3630686
21
-0.110764
0
LINE
8
DEFAULT_255_1_234
10
16.3630686
20
-0.110764
11
16.3630686
21
-0.5252017
0
LINE
8
DEFAULT_255_1_234
10
16.3630686
20
-0.5252017
11
16.951795
21
-0.5252017
0
LINE
8
DEFAULT_255_1_234
10
16.951795
20
-0.5252017
11
16.951795
21
-0.6513
0
LINE
8
DEFAULT_255_1_234
10
16.951795
20
-0.6513
11
16.2088592
21
-0.6513
0
LINE
8
DEFAULT_255_1_234
10
16.2088592
20
-0.6513
11
16.2088592
21
0.5181211
0
LINE
8
DEFAULT_255_1_234
10
16.2088592
20
0.5181211
11
16.9437632
21
0.5181211
0
LINE
8
DEFAULT_255_1_234
10
16.9437632
20
0.5181211
11
16.9437632
21
0.3912196
0
LINE
8
DEFAULT_255_1_234
10
16.9437632
20
0.3912196
11
16.3630686
21
0.3912196
0
LINE
8
DEFAULT_255_1_234
10
16.3630686
20
0.3912196
11
16.3630686
21
0.0153343
0
LINE
8
DEFAULT_255_1_234
10
16.3630686
20
0.0153343
11
16.8698712
21
0.0153343
0
LINE
8
DEFAULT_255_1_234
10
17.9196194
20
0.1799849
11
17.7646069
21
0.1799849
0
LINE
8
DEFAULT_255_1_234
10
17.072271
20
-0.3123606
11
17.2272836
21
-0.3123606
0
ARC
8
DEFAULT_255_1_234
10
17.8304882
20
1.0746768
40
1.252368
50
248.9199003
51
254.1439814
0
ARC
8
DEFAULT_255_1_234
10
17.6624377
20
0.6420234
40
0.788226
50
241.633709
51
249.0064503
0
ARC
8
DEFAULT_255_1_234
10
17.5095771
20
0.3619317
40
0.4691427
50
230.498225
51
241.8087113
0
ARC
8
DEFAULT_255_1_234
10
17.4311345
20
0.2619906
40
0.3421437
50
227.4064532
51
229.9881192
0
ARC
8
DEFAULT_255_1_234
10
17.3823866
20
0.2144088
40
0.2741476
50
200.6781896
51
228.1763934
0
ARC
8
DEFAULT_255_1_234
10
17.3896176
20
0.2129077
40
0.2804109
50
179.5061581
51
199.8694617
0
ARC
8
DEFAULT_255_1_234
10
17.3886928
20
0.220321
40
0.2795204
50
132.4834203
51
181.0242172
0
ARC
8
DEFAULT_255_1_234
10
17.4482511
20
0.1640704
40
0.3612768
50
129.2532479
51
133.4242687
0
ARC
8
DEFAULT_255_1_234
10
17.462896
20
0.1420965
40
0.3875675
50
101.98776
51
128.8742646
0
ARC
8
DEFAULT_255_1_234
10
17.5027571
20
-0.0300259
40
0.5642249
50
89.5906553
51
102.3169264
0
ARC
8
DEFAULT_255_1_234
10
17.5098063
20
0.0018148
40
0.5323783
50
77.2360837
51
90.3248275
0
ARC
8
DEFAULT_255_1_234
10
17.5305142
20
0.09854
40
0.4334697
50
63.837784
51
77.0809408
0
ARC
8
DEFAULT_255_1_234
10
17.5582904
20
0.1502911
40
0.3747796
50
45.9864267
51
64.1607727
0
ARC
8
DEFAULT_255_1_234
10
17.5843785
20
0.1800866
40
0.3352302
50
32.2747395
51
45.6547121
0
ARC
8
DEFAULT_255_1_234
10
17.5910226
20
0.181988
40
0.328603
50
359.6507365
51
32.6130309
0
ARC
8
DEFAULT_255_1_234
10
17.4967321
20
0.182466
40
0.2678863
50
359.469343
51
14.9832209
0
ARC
8
DEFAULT_255_1_234
10
17.5672383
20
0.2013539
40
0.1948938
50
14.9781179
51
48.2004265
0
ARC
8
DEFAULT_255_1_234
10
17.5508028
20
0.1806983
40
0.2212521
50
48.5927837
51
74.1241538
0
ARC
8
DEFAULT_255_1_234
10
17.5174517
20
0.0706248
40
0.3362561
50
73.7888341
51
86.6652678
0
ARC
8
DEFAULT_255_1_234
10
17.5072083
20
-0.0501119
40
0.4573953
50
86.2640471
51
90.0526343
0
ARC
8
DEFAULT_255_1_234
10
17.5043795
20
-0.0105808
40
0.4178709
50
89.6697524
51
99.2309573
0
ARC
8
DEFAULT_255_1_234
10
17.4801246
20
0.1338964
40
0.2713749
50
99.069534
51
113.7658566
0
ARC
8
DEFAULT_255_1_234
10
17.4527437
20
0.1984677
40
0.2012469
50
114.0401004
51
127.9850673
0
ARC
8
DEFAULT_255_1_234
10
17.4287001
20
0.228073
40
0.1631167
50
127.7287463
51
176.7105154
0
ARC
8
DEFAULT_255_1_234
10
17.4965719
20
0.2179693
40
0.2315392
50
175.1779447
51
180.0581938
0
ARC
8
DEFAULT_255_1_234
10
17.4122565
20
0.2167428
40
0.1472271
50
179.6142195
51
228.1246017
0
ARC
8
DEFAULT_255_1_234
10
17.4564234
20
0.2576308
40
0.2072299
50
226.5779593
51
230.8800004
0
ARC
8
DEFAULT_255_1_234
10
17.5035313
20
0.3201636
40
0.2854818
50
231.4635071
51
241.9260842
0
ARC
8
DEFAULT_255_1_234
10
17.6232491
20
0.54048
40
0.53622
50
241.7178533
51
248.3259551
0
ARC
8
DEFAULT_255_1_234
10
17.7617863
20
0.8837064
40
0.9063478
50
248.2007737
51
252.4528373
0
ARC
8
DEFAULT_255_1_234
10
17.8821587
20
1.2558441
40
1.2974635
50
252.3391078
51
254.3469452
0
ARC
8
DEFAULT_255_1_234
10
17.127929
20
-1.4418852
40
1.5037162
50
71.0197183
51
74.4087047
0
ARC
8
DEFAULT_255_1_234
10
17.2973975
20
-0.9526889
40
0.9859993
50
66.1847285
51
71.086374
0
ARC
8
DEFAULT_255_1_234
10
17.4530288
20
-0.60228
40
0.6025855
50
59.3536294
51
66.2691831
0
ARC
8
DEFAULT_255_1_234
10
17.541894
20
-0.4519391
40
0.4279449
50
49.1020879
51
59.3293958
0
ARC
8
DEFAULT_255_1_234
10
17.623768
20
-0.3586166
40
0.3038015
50
32.7919921
51
49.2505539
0
ARC
8
DEFAULT_255_1_234
10
17.655877
20
-0.3357809
40
0.264448
50
31.1181161
51
32.4005348
0
ARC
8
DEFAULT_255_1_234
10
17.6470308
20
-0.3393221
40
0.2738556
50
8.1116974
51
30.7958831
0
ARC
8
DEFAULT_255_1_234
10
17.5659976
20
-0.3531247
40
0.3560327
50
359.8389159
51
8.4706516
0
ARC
8
DEFAULT_255_1_234
10
17.6285767
20
-0.3579863
40
0.2934776
50
337.4731098
51
0.7537279
0
ARC
8
DEFAULT_255_1_234
10
17.6464462
20
-0.3599613
40
0.2762607
50
307.5917067
51
336.4315538
0
ARC
8
DEFAULT_255_1_234
10
17.600429
20
-0.3086898
40
0.3449979
50
307.6551545
51
308.4529766
0
ARC
8
DEFAULT_255_1_234
10
17.5774009
20
-0.273175
40
0.3871988
50
284.3734338
51
307.1424381
0
ARC
8
DEFAULT_255_1_234
10
17.5278839
20
-0.0910068
40
0.5759636
50
272.4382747
51
284.646547
0
ARC
8
DEFAULT_255_1_234
10
17.5152048
20
0.0889893
40
0.7563528
50
269.9708387
51
272.8178037
0
ARC
8
DEFAULT_255_1_234
10
17.5109087
20
-0.1148284
40
0.5525489
50
248.2707594
51
270.4055579
0
ARC
8
DEFAULT_255_1_234
10
17.5054829
20
-0.1338808
40
0.5328452
50
246.1383403
51
248.0542782
0
ARC
8
DEFAULT_255_1_234
10
17.4636207
20
-0.2218157
40
0.4355005
50
233.1670131
51
246.4950969
0
ARC
8
DEFAULT_255_1_234
10
17.4082112
20
-0.2966188
40
0.3424126
50
215.3403242
51
233.0843104
0
ARC
8
DEFAULT_255_1_234
10
17.3809544
20
-0.3164451
40
0.3087104
50
179.2419209
51
215.2648451
0
ARC
8
DEFAULT_255_1_234
10
17.4577138
20
-0.3150334
40
0.2304457
50
179.335461
51
199.1045811
0
ARC
8
DEFAULT_255_1_234
10
17.4244814
20
-0.3237234
40
0.1962176
50
199.8828939
51
232.7063202
0
ARC
8
DEFAULT_255_1_234
10
17.4717082
20
-0.2643212
40
0.2720938
50
232.3738199
51
255.5136649
0
ARC
8
DEFAULT_255_1_234
10
17.5057949
20
-0.1399165
40
0.4010747
50
255.2446292
51
267.5320849
0
ARC
8
DEFAULT_255_1_234
10
17.5145572
20
-0.0166298
40
0.5246356
50
267.1557994
51
270.0286766
0
ARC
8
DEFAULT_255_1_234
10
17.5173345
20
-0.061005
40
0.4802668
50
269.7000017
51
278.1660162
0
ARC
8
DEFAULT_255_1_234
10
17.542935
20
-0.2340485
40
0.3053425
50
278.0231263
51
290.625471
0
ARC
8
DEFAULT_255_1_234
10
17.5777037
20
-0.3267975
40
0.206291
50
290.6619762
51
307.0370976
0
ARC
8
DEFAULT_255_1_234
10
17.6077426
20
-0.3636496
40
0.1587906
50
306.3943566
51
355.3030547
0
ARC
8
DEFAULT_255_1_234
10
17.5565357
20
-0.3559887
40
0.2104809
50
354.3660432
51
0.0698737
0
ARC
8
DEFAULT_255_1_234
10
17.5707702
20
-0.3537383
40
0.1962563
50
359.417946
51
16.1971788
0
ARC
8
DEFAULT_255_1_234
10
17.6163013
20
-0.3412582
40
0.149053
50
16.4723299
51
52.6262157
0
ARC
8
DEFAULT_255_1_234
10
17.5342067
20
-0.4496567
40
0.2850296
50
52.7386432
51
62.4979148
0
ARC
8
DEFAULT_255_1_234
10
17.3957144
20
-0.7102717
40
0.5801521
50
62.2515216
51
68.1220564
0
ARC
8
DEFAULT_255_1_234
10
17.2237054
20
-1.1330128
40
1.0365451
50
68.0062803
51
71.8053402
0
ARC
8
DEFAULT_255_1_234
10
17.0441426
20
-1.6715242
40
1.6042013
50
71.7183119
51
73.9258742
0
LINE
8
DEFAULT_255_1_234
10
18.4055396
20
-0.0938974
11
18.4055396
21
-0.2151766
0
LINE
8
DEFAULT_255_1_234
10
18.4055396
20
-0.2151766
11
18.0135908
21
-0.2151766
0
LINE
8
DEFAULT_255_1_234
10
18.0135908
20
-0.2151766
11
18.0135908
21
-0.0938974
0
LINE
8
DEFAULT_255_1_234
10
18.0135908
20
-0.0938974
11
18.4055396
21
-0.0938974
0
LINE
8
DEFAULT_255_1_234
10
19.3010784
20
-0.5300208
11
19.3010784
21
-0.6513
0
LINE
8
DEFAULT_255_1_234
10
19.3010784
20
-0.6513
11
18.5348506
21
-0.6513
0
LINE
8
DEFAULT_255_1_234
10
18.5348506
20
-0.6513
11
18.5348506
21
-0.5444779
0
LINE
8
DEFAULT_255_1_234
10
18.5348506
20
-0.5444779
11
18.9396502
21
-0.0947005
0
LINE
8
DEFAULT_255_1_234
10
18.6609489
20
0.1735595
11
18.5123617
21
0.1735595
0
LINE
8
DEFAULT_255_1_234
10
19.0271961
20
-0.1902782
11
18.7139583
21
-0.5300208
0
LINE
8
DEFAULT_255_1_234
10
18.7139583
20
-0.5300208
11
19.3010784
21
-0.5300208
0
ARC
8
DEFAULT_255_1_234
10
17.5906335
20
1.0982527
40
1.8008286
50
318.5132453
51
320.7828378
0
ARC
8
DEFAULT_255_1_234
10
18.119331
20
0.6679426
40
1.1191493
50
320.7372736
51
323.9737074
0
ARC
8
DEFAULT_255_1_234
10
18.5113166
20
0.3839361
40
0.6350923
50
323.8961724
51
328.6421089
0
ARC
8
DEFAULT_255_1_234
10
18.7159762
20
0.2577031
40
0.3946393
50
328.8299013
51
331.789948
0
ARC
8
DEFAULT_255_1_234
10
18.815694
20
0.2062509
40
0.2824501
50
331.4255242
51
352.9364833
0
ARC
8
DEFAULT_255_1_234
10
18.8293441
20
0.2031976
40
0.2685315
50
353.2248685
51
0.0169286
0
ARC
8
DEFAULT_255_1_234
10
18.8503317
20
0.205495
40
0.2475536
50
359.4866256
51
15.9339782
0
ARC
8
DEFAULT_255_1_234
10
18.9010303
20
0.2191286
40
0.1950618
50
16.1714718
51
43.5284424
0
ARC
8
DEFAULT_255_1_234
10
18.9087611
20
0.2268573
40
0.184134
50
43.4415429
51
83.1661404
0
ARC
8
DEFAULT_255_1_234
10
18.8953529
20
0.1531771
40
0.258926
50
82.160215
51
90.1505798
0
ARC
8
DEFAULT_255_1_234
10
18.8921957
20
0.0994865
40
0.3126255
50
89.5460705
51
102.5418777
0
ARC
8
DEFAULT_255_1_234
10
18.8679043
20
0.2025665
40
0.2067346
50
102.1739365
51
129.2061916
0
ARC
8
DEFAULT_255_1_234
10
18.8600115
20
0.2150094
40
0.1921118
50
129.7279328
51
135.7542026
0
ARC
8
DEFAULT_255_1_234
10
18.8721642
20
0.2053045
40
0.2075944
50
136.175737
51
166.3674722
0
ARC
8
DEFAULT_255_1_234
10
18.9728562
20
0.1783182
40
0.3118201
50
165.9092917
51
178.8683903
0
ARC
8
DEFAULT_255_1_234
10
19.0593423
20
0.1736179
40
0.3983935
50
178.438168
51
180.0083905
0
ARC
8
DEFAULT_255_1_234
10
18.9192025
20
0.1775231
40
0.4068601
50
163.2878735
51
180.5581814
0
ARC
8
DEFAULT_255_1_234
10
18.8390286
20
0.199584
40
0.3237344
50
133.454115
51
162.9470031
0
ARC
8
DEFAULT_255_1_234
10
18.8568828
20
0.1806
40
0.349795
50
100.7869394
51
133.4384016
0
ARC
8
DEFAULT_255_1_234
10
18.8916599
20
0.0257319
40
0.5084616
50
89.6605301
51
101.3704185
0
ARC
8
DEFAULT_255_1_234
10
18.8982938
20
0.0318496
40
0.502348
50
78.2171172
51
90.4130393
0
ARC
8
DEFAULT_255_1_234
10
18.9338016
20
0.1942637
40
0.3361092
50
55.9268222
51
78.4888551
0
ARC
8
DEFAULT_255_1_234
10
18.9534457
20
0.2281324
40
0.2970617
50
47.9292255
51
55.4054003
0
ARC
8
DEFAULT_255_1_234
10
18.9636017
20
0.2384502
40
0.2825983
50
4.3347696
51
48.0560701
0
ARC
8
DEFAULT_255_1_234
10
18.8540411
20
0.2214601
40
0.393225
50
359.925209
51
5.5967654
0
ARC
8
DEFAULT_255_1_234
10
18.8969303
20
0.2270816
40
0.3503892
50
337.8914096
51
358.9967724
0
ARC
8
DEFAULT_255_1_234
10
18.6255715
20
0.3317706
40
0.6412172
50
326.9135351
51
338.3505194
0
ARC
8
DEFAULT_255_1_234
10
18.2270018
20
0.5872284
40
1.1146189
50
319.6472867
51
327.095818
0
ARC
8
DEFAULT_255_1_234
10
17.8437022
20
0.9034
40
1.6114559
50
317.2586784
51
319.9046139
0
LINE
8
DEFAULT_255_1_234
10
20.2544458
20
-0.6513
11
20.1428046
21
-0.3460939
0
LINE
8
DEFAULT_255_1_234
10
20.1428046
20
-0.3460939
11
19.6528686
21
-0.3460939
0
LINE
8
DEFAULT_255_1_234
10
19.6528686
20
-0.3460939
11
19.5428337
21
-0.6513
0
LINE
8
DEFAULT_255_1_234
10
19.5428337
20
-0.6513
11
19.3838053
21
-0.6513
0
LINE
8
DEFAULT_255_1_234
10
19.3838053
20
-0.6513
11
19.83037
21
0.5181211
0
LINE
8
DEFAULT_255_1_234
10
19.83037
20
0.5181211
11
19.9653032
21
0.5181211
0
LINE
8
DEFAULT_255_1_234
10
19.9653032
20
0.5181211
11
20.412671
21
-0.6513
0
LINE
8
DEFAULT_255_1_234
10
20.412671
20
-0.6513
11
20.2544458
21
-0.6513
0
LINE
8
DEFAULT_255_1_234
10
19.8978366
20
0.3277689
11
19.6994526
21
-0.2191925
0
LINE
8
DEFAULT_255_1_234
10
19.6994526
20
-0.2191925
11
20.0970237
21
-0.2191925
0
LINE
8
DEFAULT_255_1_234
10
20.0970237
20
-0.2191925
11
19.8978366
21
0.3277689
0
LINE
8
DEFAULT_255_1_234
10
20.8937721
20
-0.6513
11
20.5700931
21
-0.6513
0
LINE
8
DEFAULT_255_1_234
10
20.5700931
20
-0.6513
11
20.5700931
21
0.5181211
0
LINE
8
DEFAULT_255_1_234
10
20.5700931
20
0.5181211
11
20.9001975
21
0.5181211
0
LINE
8
DEFAULT_255_1_234
10
21.4158351
20
-0.0272339
11
21.4158351
21
-0.1019291
0
LINE
8
DEFAULT_255_1_234
10
20.9042134
20
0.3912196
11
20.7243024
21
0.3912196
0
LINE
8
DEFAULT_255_1_234
10
20.7243024
20
0.3912196
11
20.7243024
21
-0.5252017
0
LINE
8
DEFAULT_255_1_234
10
20.7243024
20
-0.5252017
11
20.8865436
21
-0.5252017
0
LINE
8
DEFAULT_255_1_234
10
21.2632321
20
-0.0987164
11
21.2632321
21
-0.0304466
0
ARC
8
DEFAULT_255_1_234
10
20.9040918
20
-0.0684106
40
0.5865446
50
75.4101064
51
90.3804066
0
ARC
8
DEFAULT_255_1_234
10
20.9270431
20
0.0272492
40
0.4881916
50
60.145586
51
75.1888407
0
ARC
8
DEFAULT_255_1_234
10
20.9429207
20
0.0549199
40
0.4562893
50
26.5253612
51
60.1450928
0
ARC
8
DEFAULT_255_1_234
10
20.8308956
20
-0.0044842
40
0.5830602
50
7.4030428
51
26.8320788
0
ARC
8
DEFAULT_255_1_234
10
20.6714713
20
-0.0293196
40
0.7443669
50
0.1605367
51
7.7176192
0
ARC
8
DEFAULT_255_1_234
10
20.6878617
20
-0.1057566
40
0.7279835
50
348.7289388
51
0.3012466
0
ARC
8
DEFAULT_255_1_234
10
20.8535047
20
-0.1386614
40
0.559104
50
333.0706509
51
348.7181832
0
ARC
8
DEFAULT_255_1_234
10
20.9501805
20
-0.1911681
40
0.4491417
50
299.2531685
51
333.4571258
0
ARC
8
DEFAULT_255_1_234
10
20.9140945
20
-0.1226172
40
0.5265881
50
278.107187
51
299.0339503
0
ARC
8
DEFAULT_255_1_234
10
20.8885024
20
0.0281216
40
0.679442
50
270.4443897
51
278.4511052
0
ARC
8
DEFAULT_255_1_234
10
20.8905854
20
-0.0647787
40
0.4604407
50
269.4970433
51
284.0205042
0
ARC
8
DEFAULT_255_1_234
10
20.9261155
20
-0.2013022
40
0.3193797
50
283.7700273
51
318.1555492
0
ARC
8
DEFAULT_255_1_234
10
20.8923913
20
-0.1760633
40
0.3613588
50
318.7415601
51
343.6873628
0
ARC
8
DEFAULT_255_1_234
10
20.7119936
20
-0.1197168
40
0.5503313
50
343.3325091
51
355.8548958
0
ARC
8
DEFAULT_255_1_234
10
20.502162
20
-0.0997681
40
0.7610708
50
355.4988528
51
0.0791727
0
ARC
8
DEFAULT_255_1_234
10
20.5804243
20
-0.026222
40
0.6828208
50
359.6455037
51
9.8607896
0
ARC
8
DEFAULT_255_1_234
10
20.8164941
20
0.0164099
40
0.4429406
50
9.6571907
51
26.1932807
0
ARC
8
DEFAULT_255_1_234
10
20.909293
20
0.0595118
40
0.3406537
50
26.5777228
51
40.1532208
0
ARC
8
DEFAULT_255_1_234
10
20.9348656
20
0.0794619
40
0.308246
50
40.3840491
51
80.1431104
0
ARC
8
DEFAULT_255_1_234
10
20.9021774
20
-0.0654667
40
0.4566909
50
79.2152159
51
89.7445637
0
LINE
8
DEFAULT_255_1_234
10
12.017785
20
62.8297391
11
12.017785
21
62.7036408
0
LINE
8
DEFAULT_255_1_234
10
12.017785
20
62.7036408
11
11.5270458
21
62.7036408
0
LINE
8
DEFAULT_255_1_234
10
11.5270458
20
62.7036408
11
11.5270458
21
62.1872
0
LINE
8
DEFAULT_255_1_234
10
11.5270458
20
62.1872
11
11.3728364
21
62.1872
0
LINE
8
DEFAULT_255_1_234
10
11.3728364
20
62.1872
11
11.3728364
21
63.3566211
0
LINE
8
DEFAULT_255_1_234
10
11.3728364
20
63.3566211
11
12.0972992
21
63.3566211
0
LINE
8
DEFAULT_255_1_234
10
12.0972992
20
63.3566211
11
12.0972992
21
63.2297196
0
LINE
8
DEFAULT_255_1_234
10
12.0972992
20
63.2297196
11
11.5270458
21
63.2297196
0
LINE
8
DEFAULT_255_1_234
10
11.5270458
20
63.2297196
11
11.5270458
21
62.8297391
0
LINE
8
DEFAULT_255_1_234
10
11.5270458
20
62.8297391
11
12.017785
21
62.8297391
0
LINE
8
DEFAULT_255_1_234
10
13.4651042
20
63.0184849
11
13.3100917
21
63.0184849
0
LINE
8
DEFAULT_255_1_234
10
12.6177558
20
62.5261394
11
12.7727684
21
62.5261394
0
ARC
8
DEFAULT_255_1_234
10
13.3759729
20
63.9131768
40
1.252368
50
248.9199003
51
254.1439814
0
ARC
8
DEFAULT_255_1_234
10
13.2079224
20
63.4805234
40
0.788226
50
241.633709
51
249.0064503
0
ARC
8
DEFAULT_255_1_234
10
13.0550619
20
63.2004317
40
0.4691427
50
230.498225
51
241.8087113
0
ARC
8
DEFAULT_255_1_234
10
12.9766193
20
63.1004906
40
0.3421437
50
227.4064532
51
229.9881192
0
ARC
8
DEFAULT_255_1_234
10
12.9278713
20
63.0529088
40
0.2741476
50
200.6781896
51
228.1763934
0
ARC
8
DEFAULT_255_1_234
10
12.9351024
20
63.0514077
40
0.2804109
50
179.5061581
51
199.8694617
0
ARC
8
DEFAULT_255_1_234
10
12.9341776
20
63.058821
40
0.2795204
50
132.4834203
51
181.0242172
0
ARC
8
DEFAULT_255_1_234
10
12.9937358
20
63.0025704
40
0.3612768
50
129.2532479
51
133.4242687
0
ARC
8
DEFAULT_255_1_234
10
13.0083808
20
62.9805965
40
0.3875675
50
101.98776
51
128.8742646
0
ARC
8
DEFAULT_255_1_234
10
13.0482418
20
62.8084741
40
0.5642249
50
89.5906553
51
102.3169264
0
ARC
8
DEFAULT_255_1_234
10
13.0552911
20
62.8403148
40
0.5323783
50
77.2360837
51
90.3248275
0
ARC
8
DEFAULT_255_1_234
10
13.075999
20
62.93704
40
0.4334697
50
63.837784
51
77.0809408
0
ARC
8
DEFAULT_255_1_234
10
13.1037751
20
62.9887911
40
0.3747796
50
45.9864267
51
64.1607727
0
ARC
8
DEFAULT_255_1_234
10
13.1298633
20
63.0185866
40
0.3352302
50
32.2747395
51
45.6547121
0
ARC
8
DEFAULT_255_1_234
10
13.1365073
20
63.020488
40
0.328603
50
359.6507365
51
32.6130309
0
ARC
8
DEFAULT_255_1_234
10
13.0422169
20
63.020966
40
0.2678863
50
359.469343
51
14.9832209
0
ARC
8
DEFAULT_255_1_234
10
13.1127231
20
63.0398539
40
0.1948938
50
14.9781179
51
48.2004265
0
ARC
8
DEFAULT_255_1_234
10
13.0962875
20
63.0191983
40
0.2212521
50
48.5927837
51
74.1241538
0
ARC
8
DEFAULT_255_1_234
10
13.0629365
20
62.9091248
40
0.3362561
50
73.7888341
51
86.6652678
0
ARC
8
DEFAULT_255_1_234
10
13.052693
20
62.7883881
40
0.4573953
50
86.2640471
51
90.0526343
0
ARC
8
DEFAULT_255_1_234
10
13.0498643
20
62.8279192
40
0.4178709
50
89.6697524
51
99.2309573
0
ARC
8
DEFAULT_255_1_234
10
13.0256094
20
62.9723964
40
0.2713749
50
99.069534
51
113.7658566
0
ARC
8
DEFAULT_255_1_234
10
12.9982285
20
63.0369677
40
0.2012469
50
114.0401004
51
127.9850673
0
ARC
8
DEFAULT_255_1_234
10
12.9741849
20
63.066573
40
0.1631167
50
127.7287463
51
176.7105154
0
ARC
8
DEFAULT_255_1_234
10
13.0420566
20
63.0564693
40
0.2315392
50
175.1779447
51
180.0581938
0
ARC
8
DEFAULT_255_1_234
10
12.9577413
20
63.0552428
40
0.1472271
50
179.6142195
51
228.1246017
0
ARC
8
DEFAULT_255_1_234
10
13.0019082
20
63.0961308
40
0.2072299
50
226.5779593
51
230.8800004
0
ARC
8
DEFAULT_255_1_234
10
13.049016
20
63.1586636
40
0.2854818
50
231.4635071
51
241.9260842
0
ARC
8
DEFAULT_255_1_234
10
13.1687338
20
63.37898
40
0.53622
50
241.7178533
51
248.3259551
0
ARC
8
DEFAULT_255_1_234
10
13.307271
20
63.7222064
40
0.9063478
50
248.2007737
51
252.4528373
0
ARC
8
DEFAULT_255_1_234
10
13.4276435
20
64.0943441
40
1.2974635
50
252.3391078
51
254.3469452
0
ARC
8
DEFAULT_255_1_234
10
12.6734138
20
61.3966148
40
1.5037162
50
71.0197183
51
74.4087047
0
ARC
8
DEFAULT_255_1_234
10
12.8428823
20
61.8858111
40
0.9859993
50
66.1847285
51
71.086374
0
ARC
8
DEFAULT_255_1_234
10
12.9985135
20
62.23622
40
0.6025855
50
59.3536294
51
66.2691831
0
ARC
8
DEFAULT_255_1_234
10
13.0873788
20
62.3865609
40
0.4279449
50
49.1020879
51
59.3293958
0
ARC
8
DEFAULT_255_1_234
10
13.1692528
20
62.4798834
40
0.3038015
50
32.7919921
51
49.2505539
0
ARC
8
DEFAULT_255_1_234
10
13.2013618
20
62.5027191
40
0.264448
50
31.1181161
51
32.4005348
0
ARC
8
DEFAULT_255_1_234
10
13.1925155
20
62.4991779
40
0.2738556
50
8.1116974
51
30.7958831
0
ARC
8
DEFAULT_255_1_234
10
13.1114823
20
62.4853753
40
0.3560327
50
359.8389159
51
8.4706516
0
ARC
8
DEFAULT_255_1_234
10
13.1740615
20
62.4805137
40
0.2934776
50
337.4731098
51
0.7537279
0
ARC
8
DEFAULT_255_1_234
10
13.191931
20
62.4785387
40
0.2762607
50
307.5917067
51
336.4315538
0
ARC
8
DEFAULT_255_1_234
10
13.1459138
20
62.5298102
40
0.3449979
50
307.6551545
51
308.4529766
0
ARC
8
DEFAULT_255_1_234
10
13.1228857
20
62.565325
40
0.3871988
50
284.3734338
51
307.1424381
0
ARC
8
DEFAULT_255_1_234
10
13.0733687
20
62.7474932
40
0.5759636
50
272.4382747
51
284.646547
0
ARC
8
DEFAULT_255_1_234
10
13.0606895
20
62.9274893
40
0.7563528
50
269.9708387
51
272.8178037
0
ARC
8
DEFAULT_255_1_234
10
13.0563935
20
62.7236716
40
0.5525489
50
248.2707594
51
270.4055579
0
ARC
8
DEFAULT_255_1_234
10
13.0509676
20
62.7046192
40
0.5328452
50
246.1383403
51
248.0542782
0
ARC
8
DEFAULT_255_1_234
10
13.0091055
20
62.6166843
40
0.4355005
50
233.1670131
51
246.4950969
0
ARC
8
DEFAULT_255_1_234
10
12.953696
20
62.5418812
40
0.3424126
50
215.3403242
51
233.0843104
0
ARC
8
DEFAULT_255_1_234
10
12.9264391
20
62.5220549
40
0.3087104
50
179.2419209
51
215.2648451
0
ARC
8
DEFAULT_255_1_234
10
13.0031985
20
62.5234666
40
0.2304457
50
179.335461
51
199.1045811
0
ARC
8
DEFAULT_255_1_234
10
12.9699662
20
62.5147766
40
0.1962176
50
199.8828939
51
232.7063202
0
ARC
8
DEFAULT_255_1_234
10
13.017193
20
62.5741788
40
0.2720938
50
232.3738199
51
255.5136649
0
ARC
8
DEFAULT_255_1_234
10
13.0512797
20
62.6985835
40
0.4010747
50
255.2446292
51
267.5320849
0
ARC
8
DEFAULT_255_1_234
10
13.060042
20
62.8218702
40
0.5246356
50
267.1557994
51
270.0286766
0
ARC
8
DEFAULT_255_1_234
10
13.0628192
20
62.777495
40
0.4802668
50
269.7000017
51
278.1660162
0
ARC
8
DEFAULT_255_1_234
10
13.0884197
20
62.6044515
40
0.3053425
50
278.0231263
51
290.625471
0
ARC
8
DEFAULT_255_1_234
10
13.1231884
20
62.5117025
40
0.206291
50
290.6619762
51
307.0370976
0
ARC
8
DEFAULT_255_1_234
10
13.1532274
20
62.4748504
40
0.1587906
50
306.3943566
51
355.3030547
0
ARC
8
DEFAULT_255_1_234
10
13.1020205
20
62.4825113
40
0.2104809
50
354.3660432
51
0.0698737
0
ARC
8
DEFAULT_255_1_234
10
13.116255
20
62.4847617
40
0.1962563
50
359.417946
51
16.1971788
0
ARC
8
DEFAULT_255_1_234
10
13.161786
20
62.4972418
40
0.149053
50
16.4723299
51
52.6262157
0
ARC
8
DEFAULT_255_1_234
10
13.0796914
20
62.3888433
40
0.2850296
50
52.7386432
51
62.4979148
0
ARC
8
DEFAULT_255_1_234
10
12.9411991
20
62.1282283
40
0.5801521
50
62.2515216
51
68.1220564
0
ARC
8
DEFAULT_255_1_234
10
12.7691902
20
61.7054872
40
1.0365451
50
68.0062803
51
71.8053402
0
ARC
8
DEFAULT_255_1_234
10
12.5896274
20
61.1669758
40
1.6042013
50
71.7183119
51
73.9258742
0
LINE
8
DEFAULT_255_1_234
10
13.6040533
20
62.5976218
11
13.6040533
21
62.6249297
0
LINE
8
DEFAULT_255_1_234
10
14.3413668
20
62.6409932
11
14.3413668
21
62.5791488
0
LINE
8
DEFAULT_255_1_234
10
14.3413668
20
62.5791488
11
13.7526404
21
62.5791488
0
LINE
8
DEFAULT_255_1_234
10
14.2393638
20
62.4096792
11
14.3301224
21
62.3389999
0
LINE
8
DEFAULT_255_1_234
10
13.7574595
20
62.7012313
11
14.1927797
21
62.7012313
0
LINE
8
DEFAULT_255_1_234
10
14.1927797
20
62.7012313
11
14.1927797
21
62.7124757
0
ARC
8
DEFAULT_255_1_234
10
13.9979898
20
62.6087332
40
0.4376191
50
252.3266134
51
270.5810217
0
ARC
8
DEFAULT_255_1_234
10
13.9774987
20
62.5346644
40
0.3608374
50
223.3000567
51
251.8561855
0
ARC
8
DEFAULT_255_1_234
10
13.9986348
20
62.5551937
40
0.3902993
50
190.9374509
51
223.3654032
0
ARC
8
DEFAULT_255_1_234
10
14.171132
20
62.5941885
40
0.5670891
50
179.6531105
51
191.4989439
0
ARC
8
DEFAULT_255_1_234
10
14.1833332
20
62.6281417
40
0.5792888
50
167.4007466
51
180.3176909
0
ARC
8
DEFAULT_255_1_234
10
14.0781394
20
62.6503885
40
0.471777
50
154.1835823
51
167.250763
0
ARC
8
DEFAULT_255_1_234
10
14.0149861
20
62.6836417
40
0.4004528
50
134.3149965
51
154.5315275
0
ARC
8
DEFAULT_255_1_234
10
13.9932356
20
62.7027228
40
0.371612
50
122.8616532
51
133.9707695
0
ARC
8
DEFAULT_255_1_234
10
13.982893
20
62.7249703
40
0.3473289
50
89.8249009
51
123.4199222
0
ARC
8
DEFAULT_255_1_234
10
13.9878971
20
62.6602967
40
0.4120197
50
74.7876118
51
90.5482747
0
ARC
8
DEFAULT_255_1_234
10
14.0172715
20
62.768803
40
0.2996077
50
39.8178249
51
74.7633718
0
ARC
8
DEFAULT_255_1_234
10
13.9660035
20
62.7288351
40
0.3645855
50
16.8990863
51
39.4829761
0
ARC
8
DEFAULT_255_1_234
10
13.7765331
20
62.6681526
40
0.5635218
50
4.9636328
51
17.2026414
0
ARC
8
DEFAULT_255_1_234
10
13.5347401
20
62.642634
40
0.8066286
50
359.8834553
51
5.2834307
0
ARC
8
DEFAULT_255_1_234
10
14.1384926
20
62.5857803
40
0.3859091
50
180.9846213
51
194.9401313
0
ARC
8
DEFAULT_255_1_234
10
14.0335204
20
62.5570849
40
0.2770883
50
194.80314
51
222.0412631
0
ARC
8
DEFAULT_255_1_234
10
14.0031085
20
62.5269116
40
0.2343055
50
221.5417084
51
268.8614402
0
ARC
8
DEFAULT_255_1_234
10
14.010408
20
62.5945686
40
0.3021528
50
267.732405
51
270.0097136
0
ARC
8
DEFAULT_255_1_234
10
14.012189
20
62.6147105
40
0.3222994
50
269.6924892
51
280.4117579
0
ARC
8
DEFAULT_255_1_234
10
14.0298297
20
62.5228193
40
0.2287344
50
280.2255091
51
298.6338936
0
ARC
8
DEFAULT_255_1_234
10
14.0415089
20
62.4984223
40
0.2017294
50
299.0430333
51
300.4643464
0
ARC
8
DEFAULT_255_1_234
10
13.9735094
20
62.6118038
40
0.3339357
50
300.6577328
51
322.0378878
0
ARC
8
DEFAULT_255_1_234
10
13.9384633
20
62.6422021
40
0.3802736
50
321.6750233
51
322.3046845
0
ARC
8
DEFAULT_255_1_234
10
14.0315595
20
62.525537
40
0.3520454
50
276.9728461
51
328.0035423
0
ARC
8
DEFAULT_255_1_234
10
14.0038648
20
62.6735841
40
0.5024498
50
269.8361028
51
278.0581756
0
ARC
8
DEFAULT_255_1_234
10
13.9811385
20
62.7480757
40
0.202159
50
89.2018686
51
117.2851756
0
ARC
8
DEFAULT_255_1_234
10
13.9864554
20
62.7438752
40
0.2083484
50
118.0551165
51
137.4540413
0
ARC
8
DEFAULT_255_1_234
10
14.0239294
20
62.7098304
40
0.2589774
50
137.5109581
51
158.8516286
0
ARC
8
DEFAULT_255_1_234
10
14.137713
20
62.6639074
40
0.38167
50
158.5845963
51
170.1721436
0
ARC
8
DEFAULT_255_1_234
10
14.2546519
20
62.6406823
40
0.5008657
50
169.8376422
51
173.0566086
0
ARC
8
DEFAULT_255_1_234
10
13.7849593
20
62.6917509
40
0.4083467
50
2.9091802
51
12.8847116
0
ARC
8
DEFAULT_255_1_234
10
13.9220269
20
62.7240101
40
0.2675383
50
12.6957781
51
28.6404489
0
ARC
8
DEFAULT_255_1_234
10
13.976194
20
62.7520458
40
0.2065654
50
29.0169854
51
41.1487595
0
ARC
8
DEFAULT_255_1_234
10
13.9964725
20
62.7697003
40
0.1796786
50
41.1646065
51
85.0013516
0
ARC
8
DEFAULT_255_1_234
10
13.9843822
20
62.6962431
40
0.2539726
50
83.7280015
51
90.0964893
0
LINE
8
DEFAULT_255_1_234
10
14.933306
20
63.0610531
11
14.933306
21
62.9229072
0
LINE
8
DEFAULT_255_1_234
10
14.6618332
20
62.8040375
11
14.6618332
21
62.1872
0
LINE
8
DEFAULT_255_1_234
10
14.6618332
20
62.1872
11
14.513246
21
62.1872
0
LINE
8
DEFAULT_255_1_234
10
14.513246
20
62.1872
11
14.513246
21
63.0562341
0
LINE
8
DEFAULT_255_1_234
10
14.513246
20
63.0562341
11
14.6578173
21
63.0562341
0
LINE
8
DEFAULT_255_1_234
10
14.6578173
20
63.0562341
11
14.6602269
21
62.9558374
0
ARC
8
DEFAULT_255_1_234
10
14.8666465
20
62.5169342
40
0.4114092
50
80.6754243
51
86.8932892
0
ARC
8
DEFAULT_255_1_234
10
14.8605999
20
62.42017
40
0.5083596
50
86.8038578
51
90.0431435
0
ARC
8
DEFAULT_255_1_234
10
14.856898
20
62.6658866
40
0.2626638
50
89.2759698
51
106.6213787
0
ARC
8
DEFAULT_255_1_234
10
14.8364544
20
62.740183
40
0.1856317
50
107.1346045
51
157.6458115
0
ARC
8
DEFAULT_255_1_234
10
14.9056146
20
62.7018311
40
0.2643398
50
155.6586782
51
157.2539184
0
ARC
8
DEFAULT_255_1_234
10
14.8851348
20
62.8187157
40
0.2634121
50
127.8165941
51
148.6302098
0
ARC
8
DEFAULT_255_1_234
10
14.8597817
20
62.8447218
40
0.2273596
50
91.3329982
51
126.7875809
0
ARC
8
DEFAULT_255_1_234
10
14.8673757
20
62.7732195
40
0.299078
50
89.986594
51
92.4688449
0
ARC
8
DEFAULT_255_1_234
10
14.8682152
20
62.8007078
40
0.2715908
50
85.3589899
51
90.1623399
0
ARC
8
DEFAULT_255_1_234
10
14.8766668
20
62.9011164
40
0.1708278
50
78.401942
51
85.4594656
0
ARC
8
DEFAULT_255_1_234
10
14.8911552
20
62.9702236
40
0.1002194
50
67.7858312
51
78.5728455
0
ARC
8
DEFAULT_255_1_234
10
14.9019404
20
62.9981887
40
0.0702548
50
63.4835954
51
67.3062642
0
LINE
8
DEFAULT_255_1_234
10
15.2312834
20
63.0562341
11
15.2312834
21
62.1872
0
LINE
8
DEFAULT_255_1_234
10
15.2312834
20
62.1872
11
15.0826963
21
62.1872
0
LINE
8
DEFAULT_255_1_234
10
15.0826963
20
62.1872
11
15.0826963
21
63.0562341
0
LINE
8
DEFAULT_255_1_234
10
15.0826963
20
63.0562341
11
15.2312834
21
63.0562341
0
ARC
8
DEFAULT_255_1_234
10
15.1685112
20
63.2876889
40
0.097867
50
161.415052
51
180.5526306
0
ARC
8
DEFAULT_255_1_234
10
15.156089
20
63.2911077
40
0.0850062
50
138.1827368
51
160.9307106
0
ARC
8
DEFAULT_255_1_234
10
15.1450835
20
63.3006588
40
0.0704362
50
104.6368899
51
138.0039868
0
ARC
8
DEFAULT_255_1_234
10
15.155799
20
63.2639963
40
0.1086221
50
92.0600725
51
105.2189128
0
ARC
8
DEFAULT_255_1_234
10
15.1581338
20
63.2297117
40
0.1429728
50
89.9756393
51
92.5012496
0
ARC
8
DEFAULT_255_1_234
10
15.1591358
20
63.2522731
40
0.1204151
50
78.0235316
51
90.4478182
0
ARC
8
DEFAULT_255_1_234
10
15.168345
20
63.2936295
40
0.0780493
50
55.051506
51
78.3369085
0
ARC
8
DEFAULT_255_1_234
10
15.1733724
20
63.3020711
40
0.0682538
50
42.0501187
51
54.4513741
0
ARC
8
DEFAULT_255_1_234
10
15.1598591
20
63.2896798
40
0.0865878
50
1.7497075
51
42.1496013
0
ARC
8
DEFAULT_255_1_234
10
15.1343924
20
63.2867738
40
0.1121515
50
359.9852656
51
2.8364544
0
ARC
8
DEFAULT_255_1_234
10
15.1509916
20
63.2858229
40
0.0955566
50
342.1070653
51
0.552888
0
ARC
8
DEFAULT_255_1_234
10
15.1652614
20
63.2818904
40
0.0807713
50
316.7107116
51
341.6516965
0
ARC
8
DEFAULT_255_1_234
10
15.1719651
20
63.2758823
40
0.0717724
50
285.4397031
51
316.5324284
0
ARC
8
DEFAULT_255_1_234
10
15.1609568
20
63.3124554
40
0.1099597
50
272.3547054
51
285.8953117
0
ARC
8
DEFAULT_255_1_234
10
15.1582726
20
63.3490048
40
0.1465932
50
269.9695369
51
272.8160237
0
ARC
8
DEFAULT_255_1_234
10
15.1572907
20
63.3270863
40
0.1246779
50
258.8431134
51
270.4153935
0
ARC
8
DEFAULT_255_1_234
10
15.1482949
20
63.2835414
40
0.0802162
50
238.5431189
51
259.1288175
0
ARC
8
DEFAULT_255_1_234
10
15.1414834
20
63.2711856
40
0.0661247
50
222.5062634
51
237.9906969
0
ARC
8
DEFAULT_255_1_234
10
15.1542422
20
63.2827889
40
0.0833707
50
184.1069131
51
222.460413
0
ARC
8
DEFAULT_255_1_234
10
15.1811662
20
63.2866349
40
0.1105176
50
179.9429482
51
185.0960898
0
LINE
8
DEFAULT_255_1_234
10
15.4312737
20
62.5976218
11
15.4312737
21
62.6249297
0
LINE
8
DEFAULT_255_1_234
10
16.1685873
20
62.6409932
11
16.1685873
21
62.5791488
0
LINE
8
DEFAULT_255_1_234
10
16.1685873
20
62.5791488
11
15.5798609
21
62.5791488
0
LINE
8
DEFAULT_255_1_234
10
16.0665842
20
62.4096792
11
16.1573429
21
62.3389999
0
LINE
8
DEFAULT_255_1_234
10
15.5846799
20
62.7012313
11
16.0200001
21
62.7012313
0
LINE
8
DEFAULT_255_1_234
10
16.0200001
20
62.7012313
11
16.0200001
21
62.7124757
0
ARC
8
DEFAULT_255_1_234
10
15.8252102
20
62.6087332
40
0.4376191
50
252.3266134
51
270.5810217
0
ARC
8
DEFAULT_255_1_234
10
15.8047192
20
62.5346644
40
0.3608374
50
223.3000567
51
251.8561855
0
ARC
8
DEFAULT_255_1_234
10
15.8258552
20
62.5551937
40
0.3902993
50
190.9374509
51
223.3654032
0
ARC
8
DEFAULT_255_1_234
10
15.9983524
20
62.5941885
40
0.5670891
50
179.6531105
51
191.4989439
0
ARC
8
DEFAULT_255_1_234
10
16.0105537
20
62.6281417
40
0.5792888
50
167.4007466
51
180.3176909
0
ARC
8
DEFAULT_255_1_234
10
15.9053598
20
62.6503885
40
0.471777
50
154.1835823
51
167.250763
0
ARC
8
DEFAULT_255_1_234
10
15.8422066
20
62.6836417
40
0.4004528
50
134.3149965
51
154.5315275
0
ARC
8
DEFAULT_255_1_234
10
15.8204561
20
62.7027228
40
0.371612
50
122.8616532
51
133.9707695
0
ARC
8
DEFAULT_255_1_234
10
15.8101135
20
62.7249703
40
0.3473289
50
89.8249009
51
123.4199222
0
ARC
8
DEFAULT_255_1_234
10
15.8151176
20
62.6602967
40
0.4120197
50
74.7876118
51
90.5482747
0
ARC
8
DEFAULT_255_1_234
10
15.8444919
20
62.768803
40
0.2996077
50
39.8178249
51
74.7633718
0
ARC
8
DEFAULT_255_1_234
10
15.7932239
20
62.7288351
40
0.3645855
50
16.8990863
51
39.4829761
0
ARC
8
DEFAULT_255_1_234
10
15.6037536
20
62.6681526
40
0.5635218
50
4.9636328
51
17.2026414
0
ARC
8
DEFAULT_255_1_234
10
15.3619606
20
62.642634
40
0.8066286
50
359.8834553
51
5.2834307
0
ARC
8
DEFAULT_255_1_234
10
15.9657131
20
62.5857803
40
0.3859091
50
180.9846213
51
194.9401313
0
ARC
8
DEFAULT_255_1_234
10
15.8607408
20
62.5570849
40
0.2770883
50
194.80314
51
222.0412631
0
ARC
8
DEFAULT_255_1_234
10
15.830329
20
62.5269116
40
0.2343055
50
221.5417084
51
268.8614402
0
ARC
8
DEFAULT_255_1_234
10
15.8376285
20
62.5945686
40
0.3021528
50
267.732405
51
270.0097136
0
ARC
8
DEFAULT_255_1_234
10
15.8394095
20
62.6147105
40
0.3222994
50
269.6924892
51
280.4117579
0
ARC
8
DEFAULT_255_1_234
10
15.8570502
20
62.5228193
40
0.2287344
50
280.2255091
51
298.6338936
0
ARC
8
DEFAULT_255_1_234
10
15.8687294
20
62.4984223
40
0.2017294
50
299.0430333
51
300.4643464
0
ARC
8
DEFAULT_255_1_234
10
15.8007299
20
62.6118038
40
0.3339357
50
300.6577328
51
322.0378878
0
ARC
8
DEFAULT_255_1_234
10
15.7656838
20
62.6422021
40
0.3802736
50
321.6750233
51
322.3046845
0
ARC
8
DEFAULT_255_1_234
10
15.8587799
20
62.525537
40
0.3520454
50
276.9728461
51
328.0035423
0
ARC
8
DEFAULT_255_1_234
10
15.8310852
20
62.6735841
40
0.5024498
50
269.8361028
51
278.0581756
0
ARC
8
DEFAULT_255_1_234
10
15.808359
20
62.7480757
40
0.202159
50
89.2018686
51
117.2851756
0
ARC
8
DEFAULT_255_1_234
10
15.8136759
20
62.7438752
40
0.2083484
50
118.0551165
51
137.4540413
0
ARC
8
DEFAULT_255_1_234
10
15.8511499
20
62.7098304
40
0.2589774
50
137.5109581
51
158.8516286
0
ARC
8
DEFAULT_255_1_234
10
15.9649334
20
62.6639074
40
0.38167
50
158.5845963
51
170.1721436
0
ARC
8
DEFAULT_255_1_234
10
16.0818723
20
62.6406823
40
0.5008657
50
169.8376422
51
173.0566086
0
ARC
8
DEFAULT_255_1_234
10
15.6121797
20
62.6917509
40
0.4083467
50
2.9091802
51
12.8847116
0
ARC
8
DEFAULT_255_1_234
10
15.7492474
20
62.7240101
40
0.2675383
50
12.6957781
51
28.6404489
0
ARC
8
DEFAULT_255_1_234
10
15.8034145
20
62.7520458
40
0.2065654
50
29.0169854
51
41.1487595
0
ARC
8
DEFAULT_255_1_234
10
15.823693
20
62.7697003
40
0.1796786
50
41.1646065
51
85.0013516
0
ARC
8
DEFAULT_255_1_234
10
15.8116027
20
62.6962431
40
0.2539726
50
83.7280015
51
90.0964893
0
LINE
8
DEFAULT_255_1_234
10
16.9870214
20
62.8008248
11
16.8376311
21
62.8008248
0
LINE
8
DEFAULT_255_1_234
10
16.3043237
20
62.4546569
11
16.4529108
21
62.4546569
0
ARC
8
DEFAULT_255_1_234
10
16.718813
20
62.4191959
40
0.1276617
50
359.3334982
51
18.5871358
0
ARC
8
DEFAULT_255_1_234
10
16.7396767
20
62.4247133
40
0.1061371
50
19.3540742
51
54.6485071
0
ARC
8
DEFAULT_255_1_234
10
16.6892669
20
62.3551919
40
0.1920087
50
54.3827097
51
65.0622807
0
ARC
8
DEFAULT_255_1_234
10
16.6124065
20
62.19349
40
0.3710447
50
64.8282493
51
71.4200025
0
ARC
8
DEFAULT_255_1_234
10
16.5221941
20
61.9288107
40
0.6506741
50
71.3164301
51
75.8006402
0
ARC
8
DEFAULT_255_1_234
10
16.4380761
20
61.6047561
40
0.9854641
50
75.6809531
51
78.0061883
0
ARC
8
DEFAULT_255_1_234
10
16.8829294
20
63.702677
40
1.1591028
50
254.6901892
51
258.0466452
0
ARC
8
DEFAULT_255_1_234
10
16.7791202
20
63.3267781
40
0.7691345
50
249.9010773
51
254.755261
0
ARC
8
DEFAULT_255_1_234
10
16.6787544
20
63.0541982
40
0.478665
50
243.3097214
51
249.9709442
0
ARC
8
DEFAULT_255_1_234
10
16.6158565
20
62.9287778
40
0.3383568
50
234.4047477
51
243.2862168
0
ARC
8
DEFAULT_255_1_234
10
16.5536089
20
62.8428232
40
0.2322322
50
220.8667099
51
234.5493881
0
ARC
8
DEFAULT_255_1_234
10
16.519403
20
62.8116817
40
0.1859923
50
214.3062465
51
220.5065136
0
ARC
8
DEFAULT_255_1_234
10
16.5168109
20
62.808588
40
0.1821108
50
186.912965
51
213.9618616
0
ARC
8
DEFAULT_255_1_234
10
16.5700204
20
62.8172009
40
0.2359799
50
179.8808832
51
187.4339886
0
ARC
8
DEFAULT_255_1_234
10
16.5545337
20
62.8192088
40
0.2204978
50
132.005434
51
180.3942919
0
ARC
8
DEFAULT_255_1_234
10
16.6201951
20
62.7586083
40
0.3095791
50
129.2319861
51
133.5302299
0
ARC
8
DEFAULT_255_1_234
10
16.6255459
20
62.7491928
40
0.3202615
50
100.4410011
51
128.9081242
0
ARC
8
DEFAULT_255_1_234
10
16.6529343
20
62.6206455
40
0.4516583
50
89.6985377
51
100.9026564
0
ARC
8
DEFAULT_255_1_234
10
16.6586384
20
62.6046166
40
0.4676928
50
77.6965325
51
90.4076836
0
ARC
8
DEFAULT_255_1_234
10
16.6917369
20
62.7473413
40
0.3211988
50
50.7276602
51
78.0399361
0
ARC
8
DEFAULT_255_1_234
10
16.7361827
20
62.7991296
40
0.2529778
50
25.7545084
51
51.0957453
0
ARC
8
DEFAULT_255_1_234
10
16.7363052
20
62.8041206
40
0.250738
50
359.2468627
51
24.7394243
0
ARC
8
DEFAULT_255_1_234
10
16.7078504
20
62.8012664
40
0.1297815
50
359.8050318
51
45.1544908
0
ARC
8
DEFAULT_255_1_234
10
16.6671646
20
62.7664794
40
0.1831883
50
43.8047702
51
49.6271585
0
ARC
8
DEFAULT_255_1_234
10
16.6679547
20
62.7665678
40
0.18261
50
49.7980766
51
82.1218353
0
ARC
8
DEFAULT_255_1_234
10
16.6560519
20
62.7018998
40
0.2483163
50
81.4465357
51
90.1710293
0
ARC
8
DEFAULT_255_1_234
10
16.6536122
20
62.649288
40
0.300932
50
89.6766211
51
99.1264602
0
ARC
8
DEFAULT_255_1_234
10
16.6364584
20
62.7526537
40
0.1961547
50
98.968313
51
113.4570237
0
ARC
8
DEFAULT_255_1_234
10
16.6168669
20
62.7994965
40
0.1453859
50
113.722589
51
127.4763106
0
ARC
8
DEFAULT_255_1_234
10
16.6000315
20
62.8195124
40
0.1192639
50
126.9083309
51
150.3165862
0
ARC
8
DEFAULT_255_1_234
10
16.5952648
20
62.8245981
40
0.112623
50
151.3635175
51
180.0701457
0
ARC
8
DEFAULT_255_1_234
10
16.6261432
20
62.822499
40
0.1435149
50
179.2169974
51
179.9954013
0
ARC
8
DEFAULT_255_1_234
10
16.5900489
20
62.8212056
40
0.1074286
50
179.3040112
51
198.4225446
0
ARC
8
DEFAULT_255_1_234
10
16.5708623
20
62.8162127
40
0.0876573
50
199.2895851
51
238.6034594
0
ARC
8
DEFAULT_255_1_234
10
16.631147
20
62.910845
40
0.1998512
50
237.9846301
51
246.8744712
0
ARC
8
DEFAULT_255_1_234
10
16.7169415
20
63.1071205
40
0.4140547
50
246.6234531
51
251.8168941
0
ARC
8
DEFAULT_255_1_234
10
16.8199958
20
63.4165905
40
0.7402308
50
251.713434
51
255.0778414
0
ARC
8
DEFAULT_255_1_234
10
16.9399221
20
63.8632563
40
1.2027155
50
255.0367487
51
257.4705983
0
ARC
8
DEFAULT_255_1_234
10
16.4291231
20
61.5618863
40
1.1546601
50
73.6837552
51
77.5016755
0
ARC
8
DEFAULT_255_1_234
10
16.5380005
20
61.9318581
40
0.7690009
50
68.7044154
51
73.7249639
0
ARC
8
DEFAULT_255_1_234
10
16.6283026
20
62.1645654
40
0.5193873
50
63.590599
51
68.6626804
0
ARC
8
DEFAULT_255_1_234
10
16.7054045
20
62.3183123
40
0.3473927
50
54.7106439
51
63.7013633
0
ARC
8
DEFAULT_255_1_234
10
16.76785
20
62.40554
40
0.2401192
50
41.0622434
51
54.8487496
0
ARC
8
DEFAULT_255_1_234
10
16.8019886
20
62.4368592
40
0.1938094
50
34.4950568
51
40.7105546
0
ARC
8
DEFAULT_255_1_234
10
16.8066693
20
62.4417078
40
0.1872106
50
9.3763373
51
34.0833615
0
ARC
8
DEFAULT_255_1_234
10
16.7413564
20
62.4291728
40
0.2536988
50
359.7694872
51
9.7663171
0
ARC
8
DEFAULT_255_1_234
10
16.7611065
20
62.4248764
40
0.2339696
50
335.8654732
51
0.8022045
0
ARC
8
DEFAULT_255_1_234
10
16.7686109
20
62.4262197
40
0.2277108
50
307.7357725
51
334.7849066
0
ARC
8
DEFAULT_255_1_234
10
16.7285285
20
62.4712645
40
0.2878951
50
307.0241536
51
308.5578354
0
ARC
8
DEFAULT_255_1_234
10
16.7027616
20
62.5098801
40
0.3342515
50
282.9362969
51
306.5646424
0
ARC
8
DEFAULT_255_1_234
10
16.6665914
20
62.6566108
40
0.4853615
50
271.1026298
51
283.2200835
0
ARC
8
DEFAULT_255_1_234
10
16.6602157
20
62.7807418
40
0.6096052
50
269.9919117
51
271.4772449
0
ARC
8
DEFAULT_255_1_234
10
16.6575913
20
62.6729436
40
0.5018135
50
259.0723564
51
270.289833
0
ARC
8
DEFAULT_255_1_234
10
16.6363645
20
62.5612271
40
0.388099
50
245.4963068
51
259.0227342
0
ARC
8
DEFAULT_255_1_234
10
16.6085601
20
62.5030615
40
0.3236422
50
228.9684658
51
245.7044727
0
ARC
8
DEFAULT_255_1_234
10
16.5820045
20
62.4703575
40
0.2815426
50
214.4011705
51
228.6759915
0
ARC
8
DEFAULT_255_1_234
10
16.5530785
20
62.454529
40
0.2487548
50
179.9705531
51
215.1572795
0
ARC
8
DEFAULT_255_1_234
10
16.6231385
20
62.4618806
40
0.1703809
50
182.4299387
51
203.0329699
0
ARC
8
DEFAULT_255_1_234
10
16.6047043
20
62.4562396
40
0.1512226
50
203.798802
51
232.548466
0
ARC
8
DEFAULT_255_1_234
10
16.6323564
20
62.4913826
40
0.1959374
50
232.3782728
51
256.3934612
0
ARC
8
DEFAULT_255_1_234
10
16.6553926
20
62.5803842
40
0.2878639
50
256.104506
51
268.4626716
0
ARC
8
DEFAULT_255_1_234
10
16.660041
20
62.6600487
40
0.3676329
50
268.0715632
51
270.0138206
0
ARC
8
DEFAULT_255_1_234
10
16.6618935
20
62.6328083
40
0.3403971
50
269.7031147
51
278.8341955
0
ARC
8
DEFAULT_255_1_234
10
16.6801028
20
62.5197876
40
0.2259217
50
278.6728789
51
292.8232582
0
ARC
8
DEFAULT_255_1_234
10
16.7001566
20
62.4696449
40
0.171929
50
293.1452328
51
303.6655899
0
ARC
8
DEFAULT_255_1_234
10
16.7266445
20
62.4320204
40
0.1259367
50
303.1248165
51
321.742847
0
ARC
8
DEFAULT_255_1_234
10
16.7452325
20
62.4157156
40
0.1012531
50
322.4748573
51
1.1291126
0
LINE
8
DEFAULT_255_2_778
10
10.5738396
20
64.7118073
11
9.3932396
21
64.7118073
0
LINE
8
DEFAULT_255_2_778
10
9.3932396
20
64.7118073
11
9.9837396
21
65.7344073
0
LINE
8
DEFAULT_255_2_778
10
9.9837396
20
65.7344073
11
11.1643396
21
65.7344073
0
LINE
8
DEFAULT_255_2_778
10
11.1643396
20
65.7344073
11
10.5738396
21
64.7118073
0
LINE
8
DEFAULT_255_2_778
10
10.5738396
20
64.7118073
11
10.5738396
21
64.7118073
0
LINE
8
DEFAULT_255_2_778
10
11.7546396
20
64.7118073
11
12.9354396
21
64.7118073
0
LINE
8
DEFAULT_255_2_778
10
12.9354396
20
64.7118073
11
12.3451396
21
65.7344073
0
LINE
8
DEFAULT_255_2_778
10
12.3451396
20
65.7344073
11
11.1643396
21
65.7344073
0
LINE
8
DEFAULT_255_2_778
10
11.1643396
20
65.7344073
11
11.7546396
21
64.7118073
0
LINE
8
DEFAULT_255_2_778
10
11.7546396
20
64.7118073
11
11.7546396
21
64.7118073
0
LINE
8
DEFAULT_255_2_778
10
11.7545823
20
66.7570146
11
11.1642823
21
67.7796146
0
LINE
8
DEFAULT_255_2_778
10
11.1642823
20
67.7796146
11
10.5737823
21
66.7570146
0
LINE
8
DEFAULT_255_2_778
10
10.5737823
20
66.7570146
11
11.1642823
21
65.7344146
0
LINE
8
DEFAULT_255_2_778
10
11.1642823
20
65.7344146
11
11.7545823
21
66.7570146
0
LINE
8
DEFAULT_255_2_778
10
11.7545823
20
66.7570146
11
11.7545823
21
66.7570146
0
ARC
8
DEFAULT_255_2_778
10
16.5183731
20
66.4032426
40
0.5650491
50
268.7543645
51
289.1417717
0
ARC
8
DEFAULT_255_2_778
10
16.606208
20
66.1480531
40
0.2951681
50
289.2776255
51
3.7648372
0
ARC
8
DEFAULT_255_2_778
10
16.3901618
20
66.1746085
40
0.5106278
50
359.1949826
51
0.0020862
0
ARC
8
DEFAULT_255_2_778
10
16.547449
20
66.1605832
40
0.1541914
50
280.2616216
51
358.5297855
0
ARC
8
DEFAULT_255_2_778
10
16.5080075
20
66.273155
40
0.2726346
50
269.5969454
51
284.2065679
0
ARC
8
DEFAULT_255_2_778
10
16.4981967
20
66.2575316
40
0.2571258
50
246.5290903
51
271.7590909
0
ARC
8
DEFAULT_255_2_778
10
16.4527148
20
66.1495009
40
0.1399248
50
188.1071678
51
245.9934684
0
ARC
8
DEFAULT_255_2_778
10
16.4829007
20
66.1564617
40
0.1708111
50
179.9445314
51
188.990814
0
ARC
8
DEFAULT_255_2_778
10
16.4924507
20
66.1632849
40
0.3763411
50
178.2272621
51
205.8283807
0
ARC
8
DEFAULT_255_2_778
10
16.4132476
20
66.1455833
40
0.2979176
50
209.4028057
51
263.0375728
0
ARC
8
DEFAULT_255_2_778
10
16.5005111
20
66.5202629
40
0.6816586
50
259.5722942
51
270.4689037
0
ARC
8
DEFAULT_255_2_778
10
17.411252
20
66.5764767
40
0.1217154
50
2.0482843
51
87.015299
0
ARC
8
DEFAULT_255_2_778
10
17.4060617
20
66.5808852
40
0.126828
50
353.0600847
51
359.9737428
0
ARC
8
DEFAULT_255_2_778
10
17.4110442
20
66.5777555
40
0.1215295
50
270.5739762
51
354.2410513
0
ARC
8
DEFAULT_255_2_778
10
17.4065059
20
66.6139297
40
0.1578027
50
269.9941256
51
272.0902921
0
ARC
8
DEFAULT_255_2_778
10
17.414084
20
66.1630295
40
0.1400686
50
358.2807293
51
95.6106825
0
ARC
8
DEFAULT_255_2_778
10
17.4103233
20
66.1591963
40
0.1437669
50
266.9962473
51
359.8528392
0
ARC
8
DEFAULT_255_2_778
10
17.4725249
20
66.1994988
40
0.3335288
50
268.2414507
51
302.0223478
0
ARC
8
DEFAULT_255_2_778
10
17.5091261
20
66.124183
40
0.2504234
50
304.0600275
51
2.0468005
0
ARC
8
DEFAULT_255_2_778
10
17.4832788
20
66.1308521
40
0.2761203
50
0.4720601
51
65.8403529
0
ARC
8
DEFAULT_255_2_778
10
17.5191655
20
66.1956061
40
0.2024466
50
67.606893
51
75.8693222
0
ARC
8
DEFAULT_255_2_778
10
17.5042026
20
66.603222
40
0.2208874
50
286.9473417
51
358.0074963
0
ARC
8
DEFAULT_255_2_778
10
17.4710866
20
66.6120045
40
0.2544031
50
356.2897886
51
0.0050857
0
ARC
8
DEFAULT_255_2_778
10
17.497262
20
66.6170946
40
0.2282839
50
358.7280137
51
81.8073164
0
ARC
8
DEFAULT_255_2_778
10
17.4216369
20
66.3656283
40
0.4895182
50
77.2355086
51
90.5088275
0
ARC
8
DEFAULT_255_2_778
10
17.5842742
20
65.4011263
40
0.130243
50
89.9974494
51
92.6776592
0
ARC
8
DEFAULT_255_2_778
10
17.5843316
20
65.4016872
40
0.129682
50
45.0880141
51
90.022782
0
ARC
8
DEFAULT_255_2_778
10
17.5844118
20
65.401719
40
0.1296029
50
0.001866
51
45.1031959
0
ARC
8
DEFAULT_255_2_778
10
17.5845123
20
65.4017202
40
0.1295026
50
357.4803735
51
0.0013544
0
ARC
8
DEFAULT_255_2_778
10
17.5901979
20
65.3978512
40
0.1237052
50
339.8672523
51
359.1550732
0
ARC
8
DEFAULT_255_2_778
10
17.5794513
20
65.3950079
40
0.1329691
50
272.0853006
51
342.6124646
0
ARC
8
DEFAULT_255_2_778
10
17.6596145
20
65.4332661
40
0.2575135
50
286.787355
51
290.6121696
0
ARC
8
DEFAULT_255_2_778
10
17.6689461
20
65.4189533
40
0.24086
50
289.7330405
51
342.3216972
0
ARC
8
DEFAULT_255_2_778
10
17.641261
20
65.4237954
40
0.268735
50
343.130572
51
0.3905272
0
ARC
8
DEFAULT_255_2_778
10
17.6578783
20
65.4411767
40
0.2525904
50
356.4706028
51
80.1788963
0
ARC
8
DEFAULT_255_2_778
10
17.5921649
20
65.2142163
40
0.4881286
50
77.1212301
51
90.4900821
0
ARC
8
DEFAULT_255_2_778
10
17.5166337
20
64.916536
40
0.1865405
50
50.1507009
51
92.9634648
0
ARC
8
DEFAULT_255_2_778
10
17.5301354
20
64.9448678
40
0.1563319
50
12.621233
51
47.2950617
0
ARC
8
DEFAULT_255_2_778
10
16.8485884
20
64.8119726
40
0.8506657
50
2.8173892
51
11.3253986
0
ARC
8
DEFAULT_255_2_778
10
-29.2295733
20
61.3156175
40
47.060992
50
4.3048394
51
4.3117143
0
ARC
8
DEFAULT_255_2_778
10
18.5500859
20
64.888084
40
0.8523717
50
182.6850102
51
191.2954256
0
ARC
8
DEFAULT_255_2_778
10
17.9656837
20
64.7817399
40
0.2586603
50
193.5512904
51
195.3825538
0
ARC
8
DEFAULT_255_2_778
10
19.3415679
20
65.0393916
40
1.4608773
50
182.5958701
51
192.9049706
0
ARC
8
DEFAULT_255_2_778
10
17.6207606
20
64.9677215
40
0.261487
50
1.2064311
51
30.4123358
0
ARC
8
DEFAULT_255_2_778
10
17.6663626
20
64.982776
40
0.2147766
50
33.1081154
51
71.7312197
0
LINE
8
DEFAULT_255_2_778
10
13.4657897
20
65.1473271
11
13.9385897
21
65.1473271
0
LINE
8
DEFAULT_255_2_778
10
13.9385897
20
65.1473271
11
13.9385897
21
65.3187271
0
LINE
8
DEFAULT_255_2_778
10
13.9385897
20
65.3187271
11
13.4657897
21
65.3187271
0
LINE
8
DEFAULT_255_2_778
10
13.4657897
20
65.3187271
11
13.4657897
21
65.5296271
0
LINE
8
DEFAULT_255_2_778
10
13.4657897
20
65.5296271
11
13.9977897
21
65.5296271
0
LINE
8
DEFAULT_255_2_778
10
13.9977897
20
65.5296271
11
13.9977897
21
65.7010271
0
LINE
8
DEFAULT_255_2_778
10
13.9977897
20
65.7010271
11
13.4657897
21
65.7010271
0
LINE
8
DEFAULT_255_2_778
10
13.4657897
20
65.7010271
11
13.2651897
21
65.7010271
0
LINE
8
DEFAULT_255_2_778
10
13.2651897
20
65.7010271
11
13.2651897
21
65.5296271
0
LINE
8
DEFAULT_255_2_778
10
13.2651897
20
65.5296271
11
13.2651897
21
64.8832271
0
LINE
8
DEFAULT_255_2_778
10
13.2651897
20
64.8832271
11
13.2651897
21
64.7117271
0
LINE
8
DEFAULT_255_2_778
10
13.2651897
20
64.7117271
11
13.4657897
21
64.7117271
0
LINE
8
DEFAULT_255_2_778
10
13.4657897
20
64.7117271
11
14.0118897
21
64.7117271
0
LINE
8
DEFAULT_255_2_778
10
14.0118897
20
64.7117271
11
14.0118897
21
64.8832271
0
LINE
8
DEFAULT_255_2_778
10
14.0118897
20
64.8832271
11
13.4657897
21
64.8832271
0
LINE
8
DEFAULT_255_2_778
10
13.4657897
20
64.8832271
11
13.4657897
21
65.1470271
0
LINE
8
DEFAULT_255_2_778
10
13.4657897
20
65.1470271
11
13.4657897
21
65.1473271
0
LINE
8
DEFAULT_255_2_778
10
13.4519897
20
66.6014271
11
13.6620897
21
65.8661271
0
LINE
8
DEFAULT_255_2_778
10
13.6620897
20
65.8661271
11
13.6704897
21
65.8661271
0
LINE
8
DEFAULT_255_2_778
10
13.6704897
20
65.8661271
11
13.8464897
21
65.8661271
0
LINE
8
DEFAULT_255_2_778
10
13.8464897
20
65.8661271
11
13.8546897
21
65.8661271
0
LINE
8
DEFAULT_255_2_778
10
13.8546897
20
65.8661271
11
14.0647897
21
66.6014271
0
LINE
8
DEFAULT_255_2_778
10
14.0647897
20
66.6014271
11
14.0647897
21
65.8661271
0
LINE
8
DEFAULT_255_2_778
10
14.0647897
20
65.8661271
11
14.2515897
21
65.8661271
0
LINE
8
DEFAULT_255_2_778
10
14.2515897
20
65.8661271
11
14.2515897
21
66.8554271
0
LINE
8
DEFAULT_255_2_778
10
14.2515897
20
66.8554271
11
14.1496897
21
66.8554271
0
LINE
8
DEFAULT_255_2_778
10
14.1496897
20
66.8554271
11
14.0615897
21
66.8554271
0
LINE
8
DEFAULT_255_2_778
10
14.0615897
20
66.8554271
11
13.9655897
21
66.8554271
0
LINE
8
DEFAULT_255_2_778
10
13.9655897
20
66.8554271
11
13.7583897
21
66.1611271
0
LINE
8
DEFAULT_255_2_778
10
13.7583897
20
66.1611271
11
13.5511897
21
66.8554271
0
LINE
8
DEFAULT_255_2_778
10
13.5511897
20
66.8554271
11
13.4551897
21
66.8554271
0
LINE
8
DEFAULT_255_2_778
10
13.4551897
20
66.8554271
11
13.3669897
21
66.8554271
0
LINE
8
DEFAULT_255_2_778
10
13.3669897
20
66.8554271
11
13.2651897
21
66.8554271
0
LINE
8
DEFAULT_255_2_778
10
13.2651897
20
66.8554271
11
13.2651897
21
65.8661271
0
LINE
8
DEFAULT_255_2_778
10
13.2651897
20
65.8661271
11
13.4519897
21
65.8661271
0
LINE
8
DEFAULT_255_2_778
10
13.4519897
20
65.8661271
11
13.4519897
21
66.6014271
0
LINE
8
DEFAULT_255_2_778
10
13.4519897
20
66.6014271
11
13.4519897
21
66.6014271
0
LINE
8
DEFAULT_255_2_778
10
18.0056897
20
66.8554271
11
17.8064897
21
66.8554271
0
LINE
8
DEFAULT_255_2_778
10
17.8064897
20
66.8554271
11
17.8064897
21
65.8661271
0
LINE
8
DEFAULT_255_2_778
10
17.8064897
20
65.8661271
11
18.0056897
21
65.8661271
0
LINE
8
DEFAULT_255_2_778
10
18.0056897
20
65.8661271
11
18.0056897
21
66.8554271
0
LINE
8
DEFAULT_255_2_778
10
18.0056897
20
66.8554271
11
18.0056897
21
66.8554271
0
LINE
8
DEFAULT_255_2_778
10
18.1681897
20
65.7013271
11
17.9689897
21
65.7013271
0
LINE
8
DEFAULT_255_2_778
10
17.9689897
20
65.7013271
11
17.9689897
21
64.7120271
0
LINE
8
DEFAULT_255_2_778
10
17.9689897
20
64.7120271
11
18.1681897
21
64.7120271
0
LINE
8
DEFAULT_255_2_778
10
18.1681897
20
64.7120271
11
18.1681897
21
65.7013271
0
LINE
8
DEFAULT_255_2_778
10
18.1681897
20
65.7013271
11
18.1681897
21
65.7013271
0
LINE
8
DEFAULT_255_2_778
10
19.9765897
20
66.8554271
11
19.7773897
21
66.8554271
0
LINE
8
DEFAULT_255_2_778
10
19.7773897
20
66.8554271
11
19.7773897
21
65.8661271
0
LINE
8
DEFAULT_255_2_778
10
19.7773897
20
65.8661271
11
19.9765897
21
65.8661271
0
LINE
8
DEFAULT_255_2_778
10
19.9765897
20
65.8661271
11
19.9765897
21
66.8554271
0
LINE
8
DEFAULT_255_2_778
10
19.9765897
20
66.8554271
11
19.9765897
21
66.8554271
0
LINE
8
DEFAULT_255_2_778
10
14.5298897
20
66.8554271
11
14.3306897
21
66.8554271
0
LINE
8
DEFAULT_255_2_778
10
14.3306897
20
66.8554271
11
14.3306897
21
65.8661271
0
LINE
8
DEFAULT_255_2_778
10
14.3306897
20
65.8661271
11
14.5298897
21
65.8661271
0
LINE
8
DEFAULT_255_2_778
10
14.5298897
20
65.8661271
11
14.5298897
21
66.8554271
0
LINE
8
DEFAULT_255_2_778
10
14.5298897
20
66.8554271
11
14.5298897
21
66.8554271
0
LINE
8
DEFAULT_255_2_778
10
19.4989897
20
66.4694271
11
19.1029897
21
66.4694271
0
LINE
8
DEFAULT_255_2_778
10
19.1029897
20
66.4694271
11
19.1029897
21
66.8551271
0
LINE
8
DEFAULT_255_2_778
10
19.1029897
20
66.8551271
11
18.9068897
21
66.8551271
0
LINE
8
DEFAULT_255_2_778
10
18.9068897
20
66.8551271
11
18.9068897
21
65.8661271
0
LINE
8
DEFAULT_255_2_778
10
18.9068897
20
65.8661271
11
19.1029897
21
65.8661271
0
LINE
8
DEFAULT_255_2_778
10
19.1029897
20
65.8661271
11
19.1029897
21
66.2979271
0
LINE
8
DEFAULT_255_2_778
10
19.1029897
20
66.2979271
11
19.4989897
21
66.2979271
0
LINE
8
DEFAULT_255_2_778
10
19.4989897
20
66.2979271
11
19.4989897
21
65.8661271
0
LINE
8
DEFAULT_255_2_778
10
19.4989897
20
65.8661271
11
19.6950897
21
65.8661271
0
LINE
8
DEFAULT_255_2_778
10
19.6950897
20
65.8661271
11
19.6950897
21
66.8551271
0
LINE
8
DEFAULT_255_2_778
10
19.6950897
20
66.8551271
11
19.4989897
21
66.8551271
0
LINE
8
DEFAULT_255_2_778
10
19.4989897
20
66.8551271
11
19.4989897
21
66.4694271
0
LINE
8
DEFAULT_255_2_778
10
19.4989897
20
66.4694271
11
19.4989897
21
66.4694271
0
LINE
8
DEFAULT_255_2_778
10
14.8246897
20
65.8661271
11
15.0280897
21
65.8661271
0
LINE
8
DEFAULT_255_2_778
10
15.0280897
20
65.8661271
11
15.0280897
21
66.6840271
0
LINE
8
DEFAULT_255_2_778
10
15.0280897
20
66.6840271
11
15.2696897
21
66.6840271
0
LINE
8
DEFAULT_255_2_778
10
15.2696897
20
66.6840271
11
15.2696897
21
66.8554271
0
LINE
8
DEFAULT_255_2_778
10
15.2696897
20
66.8554271
11
15.0280897
21
66.8554271
0
LINE
8
DEFAULT_255_2_778
10
15.0280897
20
66.8554271
11
14.8246897
21
66.8554271
0
LINE
8
DEFAULT_255_2_778
10
14.8246897
20
66.8554271
11
14.5830897
21
66.8554271
0
LINE
8
DEFAULT_255_2_778
10
14.5830897
20
66.8554271
11
14.5830897
21
66.6840271
0
LINE
8
DEFAULT_255_2_778
10
14.5830897
20
66.6840271
11
14.8246897
21
66.6840271
0
LINE
8
DEFAULT_255_2_778
10
14.8246897
20
66.6840271
11
14.8246897
21
65.8661271
0
LINE
8
DEFAULT_255_2_778
10
14.8246897
20
65.8661271
11
14.8246897
21
65.8661271
0
LINE
8
DEFAULT_255_2_778
10
16.6422897
20
64.7120271
11
16.8454897
21
64.7120271
0
LINE
8
DEFAULT_255_2_778
10
16.8454897
20
64.7120271
11
16.8454897
21
65.5298271
0
LINE
8
DEFAULT_255_2_778
10
16.8454897
20
65.5298271
11
17.0873897
21
65.5298271
0
LINE
8
DEFAULT_255_2_778
10
17.0873897
20
65.5298271
11
17.0873897
21
65.7016271
0
LINE
8
DEFAULT_255_2_778
10
17.0873897
20
65.7016271
11
16.8454897
21
65.7016271
0
LINE
8
DEFAULT_255_2_778
10
16.8454897
20
65.7016271
11
16.6422897
21
65.7016271
0
LINE
8
DEFAULT_255_2_778
10
16.6422897
20
65.7016271
11
16.4004897
21
65.7016271
0
LINE
8
DEFAULT_255_2_778
10
16.4004897
20
65.7016271
11
16.4004897
21
65.5298271
0
LINE
8
DEFAULT_255_2_778
10
16.4004897
20
65.5298271
11
16.6422897
21
65.5298271
0
LINE
8
DEFAULT_255_2_778
10
16.6422897
20
65.5298271
11
16.6422897
21
64.7120271
0
LINE
8
DEFAULT_255_2_778
10
16.6422897
20
64.7120271
11
16.6422897
21
64.7120271
0
LINE
8
DEFAULT_255_2_778
10
16.9007897
20
66.1746271
11
16.9007897
21
66.8551271
0
LINE
8
DEFAULT_255_2_778
10
16.9007897
20
66.8551271
11
16.7015897
21
66.8551271
0
LINE
8
DEFAULT_255_2_778
10
16.7015897
20
66.8551271
11
16.7015897
21
66.1566271
0
LINE
8
DEFAULT_255_2_778
10
16.3120897
20
66.1566271
11
16.3120897
21
66.8551271
0
LINE
8
DEFAULT_255_2_778
10
16.3120897
20
66.8551271
11
16.1162897
21
66.8551271
0
LINE
8
DEFAULT_255_2_778
10
16.1162897
20
66.8551271
11
16.1162897
21
66.1749271
0
LINE
8
DEFAULT_255_2_778
10
15.0000897
20
65.1473271
11
15.4730897
21
65.1473271
0
LINE
8
DEFAULT_255_2_778
10
15.4730897
20
65.1473271
11
15.4730897
21
65.3187271
0
LINE
8
DEFAULT_255_2_778
10
15.4730897
20
65.3187271
11
15.0000897
21
65.3187271
0
LINE
8
DEFAULT_255_2_778
10
15.0000897
20
65.3187271
11
15.0000897
21
65.5296271
0
LINE
8
DEFAULT_255_2_778
10
15.0000897
20
65.5296271
11
15.5320897
21
65.5296271
0
LINE
8
DEFAULT_255_2_778
10
15.5320897
20
65.5296271
11
15.5320897
21
65.7010271
0
LINE
8
DEFAULT_255_2_778
10
15.5320897
20
65.7010271
11
15.0000897
21
65.7010271
0
LINE
8
DEFAULT_255_2_778
10
15.0000897
20
65.7010271
11
14.7997897
21
65.7010271
0
LINE
8
DEFAULT_255_2_778
10
14.7997897
20
65.7010271
11
14.7997897
21
65.5296271
0
LINE
8
DEFAULT_255_2_778
10
14.7997897
20
65.5296271
11
14.7997897
21
64.8832271
0
LINE
8
DEFAULT_255_2_778
10
14.7997897
20
64.8832271
11
14.7997897
21
64.7117271
0
LINE
8
DEFAULT_255_2_778
10
14.7997897
20
64.7117271
11
15.0000897
21
64.7117271
0
LINE
8
DEFAULT_255_2_778
10
15.0000897
20
64.7117271
11
15.5461897
21
64.7117271
0
LINE
8
DEFAULT_255_2_778
10
15.5461897
20
64.7117271
11
15.5461897
21
64.8832271
0
LINE
8
DEFAULT_255_2_778
10
15.5461897
20
64.8832271
11
15.0000897
21
64.8832271
0
LINE
8
DEFAULT_255_2_778
10
15.0000897
20
64.8832271
11
15.0000897
21
65.1470271
0
LINE
8
DEFAULT_255_2_778
10
15.0000897
20
65.1470271
11
15.0000897
21
65.1473271
0
LINE
8
DEFAULT_255_2_778
10
17.4064897
20
66.4561271
11
17.1690897
21
66.4561271
0
LINE
8
DEFAULT_255_2_778
10
17.1690897
20
66.4561271
11
17.1690897
21
66.6977271
0
LINE
8
DEFAULT_255_2_778
10
17.1690897
20
66.6977271
11
17.4175897
21
66.6977271
0
LINE
8
DEFAULT_255_2_778
10
17.4175897
20
66.6977271
11
17.4175897
21
66.6980271
0
LINE
8
DEFAULT_255_2_778
10
17.4027897
20
66.0153271
11
17.1690897
21
66.0153271
0
LINE
8
DEFAULT_255_2_778
10
17.1690897
20
66.0153271
11
17.1690897
21
66.3024271
0
LINE
8
DEFAULT_255_2_778
10
17.1690897
20
66.3024271
11
17.4003897
21
66.3024271
0
LINE
8
DEFAULT_255_2_778
10
17.1767897
20
65.8661271
11
17.4622897
21
65.8661271
0
LINE
8
DEFAULT_255_2_778
10
17.4172897
20
66.8551271
11
17.1770897
21
66.8551271
0
LINE
8
DEFAULT_255_2_778
10
17.1770897
20
66.8551271
11
16.9722897
21
66.8551271
0
LINE
8
DEFAULT_255_2_778
10
16.9722897
20
66.8551271
11
16.9711897
21
66.8551271
0
LINE
8
DEFAULT_255_2_778
10
16.9711897
20
66.8551271
11
16.9711897
21
65.8661271
0
LINE
8
DEFAULT_255_2_778
10
16.9711897
20
65.8661271
11
16.9722897
21
65.8661271
0
LINE
8
DEFAULT_255_2_778
10
16.9722897
20
65.8661271
11
17.1770897
21
65.8661271
0
LINE
8
DEFAULT_255_2_778
10
17.1770897
20
65.8661271
11
17.1767897
21
65.8661271
0
LINE
8
DEFAULT_255_2_778
10
17.3368897
20
65.2618271
11
17.3368897
21
65.5312271
0
LINE
8
DEFAULT_255_2_778
10
17.3368897
20
65.5312271
11
17.5781897
21
65.5312271
0
LINE
8
DEFAULT_255_2_778
10
17.5842897
20
65.2621271
11
17.3370897
21
65.2621271
0
LINE
8
DEFAULT_255_2_778
10
17.3370897
20
65.2621271
11
17.3368897
21
65.2618271
0
LINE
8
DEFAULT_255_2_778
10
17.5879897
20
65.7023271
11
17.3368897
21
65.7023271
0
LINE
8
DEFAULT_255_2_778
10
17.3368897
20
65.7023271
11
17.1383897
21
65.7023271
0
LINE
8
DEFAULT_255_2_778
10
17.1383897
20
65.7023271
11
17.1362897
21
65.7023271
0
LINE
8
DEFAULT_255_2_778
10
17.1362897
20
65.7023271
11
17.1362897
21
64.7131271
0
LINE
8
DEFAULT_255_2_778
10
17.1362897
20
64.7131271
11
17.3368897
21
64.7131271
0
LINE
8
DEFAULT_255_2_778
10
17.3368897
20
64.7131271
11
17.3368897
21
65.1028271
0
LINE
8
DEFAULT_255_2_778
10
17.3368897
20
65.1028271
11
17.5069897
21
65.1028271
0
LINE
8
DEFAULT_255_2_778
10
17.7162897
20
64.7131271
11
17.9175897
21
64.7131271
0
LINE
8
DEFAULT_255_2_778
10
14.2763897
20
65.7013271
11
14.0760897
21
65.7013271
0
LINE
8
DEFAULT_255_2_778
10
14.0760897
20
65.7013271
11
14.0760897
21
64.8835271
0
LINE
8
DEFAULT_255_2_778
10
14.0760897
20
64.8835271
11
14.0760897
21
64.7120271
0
LINE
8
DEFAULT_255_2_778
10
14.0760897
20
64.7120271
11
14.2763897
21
64.7120271
0
LINE
8
DEFAULT_255_2_778
10
14.2763897
20
64.7120271
11
14.7428897
21
64.7120271
0
LINE
8
DEFAULT_255_2_778
10
14.7428897
20
64.7120271
11
14.7428897
21
64.8835271
0
LINE
8
DEFAULT_255_2_778
10
14.7428897
20
64.8835271
11
14.2763897
21
64.8835271
0
LINE
8
DEFAULT_255_2_778
10
14.2763897
20
64.8835271
11
14.2763897
21
65.7013271
0
LINE
8
DEFAULT_255_2_778
10
14.2763897
20
65.7013271
11
14.2763897
21
65.7013271
0
ARC
8
DEFAULT_255_2_778
10
15.4584271
20
65.3271969
40
0.9681224
50
72.4822103
51
81.3184214
0
ARC
8
DEFAULT_255_2_778
10
15.7160297
20
66.1038918
40
0.1503783
50
28.8883513
51
77.0092434
0
ARC
8
DEFAULT_255_2_778
10
15.7432379
20
66.1328196
40
0.113238
50
358.9917455
51
22.7117017
0
ARC
8
DEFAULT_255_2_778
10
15.7394861
20
66.1369918
40
0.1171346
50
289.2958104
51
356.9831562
0
ARC
8
DEFAULT_255_2_778
10
15.6668261
20
66.2944882
40
0.2902651
50
268.4665462
51
292.5613311
0
ARC
8
DEFAULT_255_2_778
10
15.6496856
20
66.2354179
40
0.2312808
50
236.4956947
51
272.3225735
0
ARC
8
DEFAULT_255_2_778
10
15.6106646
20
66.1671839
40
0.1529307
50
178.9722202
51
234.5742435
0
ARC
8
DEFAULT_255_2_778
10
15.5656113
20
66.1576079
40
0.3002058
50
177.6481608
51
245.5596397
0
ARC
8
DEFAULT_255_2_778
10
15.6409971
20
66.3298561
40
0.488217
50
245.8690375
51
267.169035
0
ARC
8
DEFAULT_255_2_778
10
15.6671503
20
66.5808916
40
0.7403648
50
266.1069867
51
270.0547972
0
ARC
8
DEFAULT_255_2_778
10
15.6772894
20
66.4121135
40
0.5716642
50
269.0547216
51
287.7147747
0
ARC
8
DEFAULT_255_2_778
10
15.7598889
20
66.1664091
40
0.3125017
50
286.995984
51
325.1221533
0
ARC
8
DEFAULT_255_2_778
10
15.7678294
20
66.149861
40
0.2966627
50
326.8673922
51
0.8625726
0
ARC
8
DEFAULT_255_2_778
10
15.7898286
20
66.1584409
40
0.2746606
50
359.1417932
51
76.9739731
0
ARC
8
DEFAULT_255_2_778
10
15.6705461
20
65.8775719
40
0.577616
50
71.7185727
51
79.1315439
0
ARC
8
DEFAULT_255_2_778
10
14.2492968
20
58.523967
40
8.0673056
50
79.0662148
51
79.6216572
0
ARC
8
DEFAULT_255_2_778
10
16.4356585
20
70.4016581
40
4.0099443
50
259.1227669
51
259.4665204
0
ARC
8
DEFAULT_255_2_778
10
15.7836732
20
67.1066142
40
0.6513291
50
249.9945768
51
260.7485895
0
ARC
8
DEFAULT_255_2_778
10
15.5880401
20
66.5955999
40
0.1046098
50
178.6705173
51
254.9333545
0
ARC
8
DEFAULT_255_2_778
10
15.6049957
20
66.5921688
40
0.1216785
50
93.288632
51
177.2403935
0
ARC
8
DEFAULT_255_2_778
10
15.6585677
20
66.4051752
40
0.3143588
50
89.6189463
51
101.1057977
0
ARC
8
DEFAULT_255_2_778
10
15.6722733
20
66.517016
40
0.2028439
50
53.5634072
51
93.2825843
0
ARC
8
DEFAULT_255_2_778
10
15.7018505
20
66.5752144
40
0.1388739
50
357.1985816
51
49.1152298
0
ARC
8
DEFAULT_255_2_778
10
15.7254907
20
66.5684274
40
0.3087677
50
359.9999335
51
2.3703878
0
ARC
8
DEFAULT_255_2_778
10
15.7353555
20
66.5699337
40
0.298851
50
2.1600756
51
60.1092229
0
ARC
8
DEFAULT_255_2_778
10
15.6766212
20
66.4633133
40
0.4205645
50
60.4106856
51
86.1444419
0
ARC
8
DEFAULT_255_2_778
10
15.6536151
20
66.2866228
40
0.5985046
50
85.0843314
51
90.0628677
0
ARC
8
DEFAULT_255_2_778
10
15.6529718
20
66.4100466
40
0.4750804
50
90.001616
51
92.2300394
0
ARC
8
DEFAULT_255_2_778
10
15.6281193
20
66.515187
40
0.3696351
50
89.0131319
51
149.6364996
0
ARC
8
DEFAULT_255_2_778
10
15.5505461
20
66.5874055
40
0.2671974
50
154.5962367
51
180.4885883
0
ARC
8
DEFAULT_255_2_778
10
15.5651524
20
66.585884
40
0.281795
50
180.1539064
51
255.1120325
0
ARC
8
DEFAULT_255_2_778
10
15.7094242
20
66.908732
40
0.6333958
50
249.9962237
51
260.4976723
0
ARC
8
DEFAULT_255_2_778
10
18.2470963
20
65.3283351
40
0.967002
50
72.4685023
51
81.3064395
0
ARC
8
DEFAULT_255_2_778
10
18.5045397
20
66.103927
40
0.1503535
50
28.8782248
51
76.9904304
0
ARC
8
DEFAULT_255_2_778
10
18.5317197
20
66.1328189
40
0.1132561
50
358.9922779
51
22.7082666
0
ARC
8
DEFAULT_255_2_778
10
18.5280402
20
66.1369088
40
0.1170763
50
289.2761556
51
357.0223042
0
ARC
8
DEFAULT_255_2_778
10
18.4553612
20
66.2947836
40
0.2905613
50
268.4611814
51
292.5289055
0
ARC
8
DEFAULT_255_2_778
10
18.4381801
20
66.2363175
40
0.2321799
50
236.6698634
51
272.3149402
0
ARC
8
DEFAULT_255_2_778
10
18.39878
20
66.1671762
40
0.1528464
50
178.9687581
51
234.7686008
0
ARC
8
DEFAULT_255_2_778
10
18.3540113
20
66.1576079
40
0.3002058
50
177.6481608
51
245.5596397
0
ARC
8
DEFAULT_255_2_778
10
18.4293971
20
66.3298561
40
0.488217
50
245.8690375
51
267.169035
0
ARC
8
DEFAULT_255_2_778
10
18.4555503
20
66.5808916
40
0.7403648
50
266.1069867
51
270.0547972
0
ARC
8
DEFAULT_255_2_778
10
18.4656836
20
66.4127451
40
0.5722957
50
269.0563423
51
287.7048702
0
ARC
8
DEFAULT_255_2_778
10
18.548344
20
66.1667682
40
0.312856
50
286.9832601
51
325.0871916
0
ARC
8
DEFAULT_255_2_778
10
18.5567708
20
66.1498856
40
0.2964208
50
326.8311942
51
0.8585267
0
ARC
8
DEFAULT_255_2_778
10
18.5785756
20
66.1585282
40
0.2746149
50
359.1234265
51
76.9343785
0
ARC
8
DEFAULT_255_2_778
10
18.4596421
20
65.8786965
40
0.5764934
50
71.6999697
51
79.1198353
0
ARC
8
DEFAULT_255_2_778
10
17.0173657
20
58.4019392
40
8.1910887
50
79.0843627
51
79.6321368
0
ARC
8
DEFAULT_255_2_778
10
19.2200266
20
70.3814177
40
3.9892176
50
259.1314419
51
259.4772924
0
ARC
8
DEFAULT_255_2_778
10
18.5723251
20
67.1060131
40
0.6507003
50
249.9919323
51
260.7592458
0
ARC
8
DEFAULT_255_2_778
10
18.376901
20
66.5955546
40
0.1045718
50
178.6452075
51
254.9151907
0
ARC
8
DEFAULT_255_2_778
10
18.3939581
20
66.5921016
40
0.121744
50
93.2745253
51
177.21023
0
ARC
8
DEFAULT_255_2_778
10
18.4475726
20
66.4050052
40
0.3145287
50
89.6200387
51
101.1027534
0
ARC
8
DEFAULT_255_2_778
10
18.4613489
20
66.5183453
40
0.2015212
50
53.1490002
51
93.3256649
0
ARC
8
DEFAULT_255_2_778
10
18.4902753
20
66.5751519
40
0.1391457
50
357.2298288
51
48.6469881
0
ARC
8
DEFAULT_255_2_778
10
18.5137232
20
66.5684226
40
0.3092351
50
0.0008291
51
2.3676985
0
ARC
8
DEFAULT_255_2_778
10
18.5240744
20
66.5699868
40
0.2988304
50
2.1500394
51
60.0956838
0
ARC
8
DEFAULT_255_2_778
10
18.4654399
20
66.4634909
40
0.4203859
50
60.40452
51
86.1455285
0
ARC
8
DEFAULT_255_2_778
10
18.4424157
20
66.2866686
40
0.5984588
50
85.0841409
51
90.0629301
0
ARC
8
DEFAULT_255_2_778
10
18.4417778
20
66.4096392
40
0.4754878
50
90.0023409
51
92.3231329
0
ARC
8
DEFAULT_255_2_778
10
18.4167555
20
66.5149604
40
0.3698206
50
89.1093915
51
149.6400816
0
ARC
8
DEFAULT_255_2_778
10
18.338761
20
66.5873917
40
0.2669122
50
154.6001925
51
180.486137
0
ARC
8
DEFAULT_255_2_778
10
18.3537607
20
66.5860152
40
0.2819037
50
180.1805176
51
255.132702
0
ARC
8
DEFAULT_255_2_778
10
18.4982264
20
66.9092784
40
0.6339516
50
250.0026216
51
260.4967164
0
ARC
8
DEFAULT_255_2_778
10
16.008917
20
65.1164283
40
0.2519711
50
190.2626864
51
267.3480013
0
ARC
8
DEFAULT_255_2_778
10
16.2443543
20
65.2077548
40
0.5022041
50
179.6723028
51
195.7380858
0
ARC
8
DEFAULT_255_2_778
10
16.1790511
20
65.2232671
40
0.4370755
50
148.7005643
51
181.6572045
0
ARC
8
DEFAULT_255_2_778
10
15.9957576
20
65.3333723
40
0.2232598
50
89.6148479
51
148.4074796
0
ARC
8
DEFAULT_255_2_778
10
16.0060936
20
65.355449
40
0.201372
50
41.9769772
51
92.5146611
0
ARC
8
DEFAULT_255_2_778
10
15.9522078
20
65.3177523
40
0.2667646
50
15.1848537
51
40.2549591
0
ARC
8
DEFAULT_255_2_778
10
16.028123
20
65.3280326
40
0.3935735
50
8.7091682
51
82.0550801
0
ARC
8
DEFAULT_255_2_778
10
15.9931241
20
65.1815871
40
0.543642
50
80.5350289
51
90.1544743
0
ARC
8
DEFAULT_255_2_778
10
15.9818804
20
65.2702192
40
0.4551129
50
88.7689246
51
119.6437418
0
ARC
8
DEFAULT_255_2_778
10
16.0077717
20
65.2739647
40
0.4653013
50
122.644121
51
173.3997839
0
ARC
8
DEFAULT_255_2_778
10
16.2711934
20
65.2096568
40
0.7351371
50
170.7798304
51
180.1348114
0
ARC
8
DEFAULT_255_2_778
10
16.1377257
20
65.1942615
40
0.6018225
50
178.6988735
51
210.5289552
0
ARC
8
DEFAULT_255_2_778
10
15.970325
20
65.1034953
40
0.4115783
50
211.4828222
51
265.8686737
0
ARC
8
DEFAULT_255_2_778
10
15.9909864
20
65.2282011
40
0.5375742
50
264.6297133
51
270.0503073
0
ARC
8
DEFAULT_255_2_778
10
16.0020995
20
65.1600749
40
0.4695684
50
268.7014824
51
300.1403067
0
ARC
8
DEFAULT_255_2_778
10
16.0350333
20
65.0816852
40
0.385394
50
301.7580058
51
353.77968
0
ARC
8
DEFAULT_255_2_778
10
16.0012256
20
65.0760219
40
0.2113379
50
268.8430278
51
350.1661143
0
ARC
8
DEFAULT_255_2_778
10
18.6896799
20
65.1163824
40
0.2519281
50
190.2538303
51
267.3332171
0
ARC
8
DEFAULT_255_2_778
10
18.9252249
20
65.2077581
40
0.5022746
50
179.672724
51
195.7362088
0
ARC
8
DEFAULT_255_2_778
10
18.8600432
20
65.2232917
40
0.4372682
50
148.7196987
51
181.6596982
0
ARC
8
DEFAULT_255_2_778
10
18.676443
20
65.3334906
40
0.2231415
50
89.6108896
51
148.4244661
0
ARC
8
DEFAULT_255_2_778
10
18.686876
20
65.355467
40
0.2013576
50
42.5913083
51
92.5383066
0
ARC
8
DEFAULT_255_2_778
10
18.6345542
20
65.3190973
40
0.2646316
50
15.0085433
51
40.7215892
0
ARC
8
DEFAULT_255_2_778
10
18.708623
20
65.3280326
40
0.3935735
50
8.7091682
51
82.0550801
0
ARC
8
DEFAULT_255_2_778
10
18.6736241
20
65.1815871
40
0.543642
50
80.5350289
51
90.1544743
0
ARC
8
DEFAULT_255_2_778
10
18.6623804
20
65.2702192
40
0.4551129
50
88.7689246
51
119.6437418
0
ARC
8
DEFAULT_255_2_778
10
18.6882717
20
65.2739647
40
0.4653013
50
122.644121
51
173.3997839
0
ARC
8
DEFAULT_255_2_778
10
18.9516934
20
65.2096568
40
0.7351371
50
170.7798304
51
180.1348114
0
ARC
8
DEFAULT_255_2_778
10
18.8177822
20
65.19432
40
0.6013778
50
178.7034849
51
210.5604279
0
ARC
8
DEFAULT_255_2_778
10
18.6511312
20
65.1038377
40
0.4119265
50
211.5090145
51
265.8592607
0
ARC
8
DEFAULT_255_2_778
10
18.6716883
20
65.2279521
40
0.5373252
50
264.628472
51
270.0501277
0
ARC
8
DEFAULT_255_2_778
10
18.682837
20
65.1598685
40
0.4693629
50
268.6963312
51
300.2191972
0
ARC
8
DEFAULT_255_2_778
10
18.7155684
20
65.0819124
40
0.3856821
50
301.8465101
51
353.7503927
0
ARC
8
DEFAULT_255_2_778
10
18.6820648
20
65.0758604
40
0.2111733
50
268.8857714
51
350.2028431
0
LINE
8
DEFAULT_255_2_778
10
15.4577584
20
66.1699271
11
15.2656584
21
66.1699271
0
LINE
8
DEFAULT_255_2_778
10
15.8405584
20
66.5684271
11
16.0342584
21
66.5684271
0
LINE
8
DEFAULT_255_2_778
10
18.2459584
20
66.1699271
11
18.0540584
21
66.1699271
0
LINE
8
DEFAULT_255_2_778
10
18.6292584
20
66.5684271
11
18.8229584
21
66.5684271
0
LINE
8
DEFAULT_255_2_778
10
16.2096584
20
65.3876271
11
16.4171584
21
65.3876271
0
LINE
8
DEFAULT_255_2_778
10
16.4181584
20
65.0399271
11
16.2094584
21
65.0399271
0
LINE
8
DEFAULT_255_2_778
10
18.8901584
20
65.3876271
11
19.0976584
21
65.3876271
0
LINE
8
DEFAULT_255_2_778
10
19.0989584
20
65.0399271
11
18.8901584
21
65.0399271
0
LINE
8
DEFAULT_255_2_778
10
9.3932417
20
52.784333
11
10.7161417
21
52.784333
0
LINE
8
DEFAULT_255_2_778
10
10.7161417
20
52.784333
11
10.7161417
21
31.617633
0
LINE
8
DEFAULT_255_2_778
10
9.3932834
20
31.6177333
11
12.0390834
21
31.6177333
0
LINE
8
DEFAULT_255_2_778
10
12.0390834
20
31.6177333
11
12.0390834
21
26.3260333
0
LINE
8
DEFAULT_255_2_778
10
12.0390834
20
26.3260333
11
9.3932834
21
26.3260333
0
LINE
8
DEFAULT_255_2_778
10
9.3932834
20
26.3260333
11
9.3932834
21
31.6177333
0
ARC
8
DEFAULT_255_2_778_1
10
13.1928591
20
26.428477
40
4.816461
50
120.9442904
51
122.351755
0
ARC
8
DEFAULT_255_2_778_1
10
12.7462523
20
27.1321039
40
3.9830657
50
122.3407904
51
124.1946752
0
ARC
8
DEFAULT_255_2_778_1
10
12.3063464
20
27.7786306
40
3.2010724
50
124.1855758
51
126.4338849
0
ARC
8
DEFAULT_255_2_778_1
10
11.9204129
20
28.3013611
40
2.5513094
50
126.4326926
51
128.8877368
0
ARC
8
DEFAULT_255_2_778_1
10
11.5855968
20
28.7157658
40
2.0185498
50
128.8749205
51
131.8726567
0
ARC
8
DEFAULT_255_2_778_1
10
11.2884677
20
29.0467854
40
1.5737356
50
131.8616166
51
135.4168838
0
ARC
8
DEFAULT_255_2_778_1
10
11.025668
20
29.3049765
40
1.2053256
50
135.3893975
51
139.9687014
0
ARC
8
DEFAULT_255_2_778_1
10
10.7927889
20
29.4998102
40
0.9016937
50
139.9301659
51
145.9260426
0
ARC
8
DEFAULT_255_2_778_1
10
10.596654
20
29.6318104
40
0.6652776
50
145.8787362
51
153.8146208
0
ARC
8
DEFAULT_255_2_778_1
10
10.4445553
20
29.7061797
40
0.4959714
50
153.770634
51
164.3484794
0
ARC
8
DEFAULT_255_2_778_1
10
10.3432387
20
29.7343786
40
0.3908039
50
164.3220276
51
179.8083066
0
ARC
8
DEFAULT_255_2_778_1
10
10.3642789
20
29.742515
40
0.4118985
50
180.9499449
51
213.8111542
0
ARC
8
DEFAULT_255_2_778_1
10
10.6401828
20
29.9120896
40
0.73561
50
212.8271214
51
224.258472
0
ARC
8
DEFAULT_255_2_778_1
10
11.0230335
20
30.2814236
40
1.267567
50
224.1376218
51
231.4508261
0
ARC
8
DEFAULT_255_2_778_1
10
11.6657195
20
31.0844168
40
2.2960809
50
231.3955893
51
236.1256478
0
ARC
8
DEFAULT_255_2_778_1
10
13.4980223
20
33.8309293
40
5.5976905
50
236.2233172
51
239.1314682
0
ARC
8
DEFAULT_255_2_778_1
10
25.447927
20
53.5586568
40
28.6623793
50
238.8606853
51
239.0711101
0
ARC
8
DEFAULT_255_2_778_1
10
6.2757281
20
21.4615653
40
8.7248518
50
57.2420924
51
59.4062964
0
ARC
8
DEFAULT_255_2_778_1
10
9.5034241
20
26.4925102
40
2.747542
50
52.8289294
51
57.079028
0
ARC
8
DEFAULT_255_2_778_1
10
10.2780783
20
27.5128488
40
1.466457
50
46.3041868
51
52.8596521
0
ARC
8
DEFAULT_255_2_778_1
10
10.7103073
20
27.9629842
40
0.8424061
50
36.2174211
51
46.4090895
0
ARC
8
DEFAULT_255_2_778_1
10
10.9948088
20
28.1678128
40
0.4918609
50
17.400375
51
36.5489745
0
ARC
8
DEFAULT_255_2_778_1
10
11.1088994
20
28.2076754
40
0.3710912
50
0.0676858
51
16.7951297
0
ARC
8
DEFAULT_255_2_778_1
10
11.0878613
20
28.2095428
40
0.3921317
50
343.8035191
51
359.7912046
0
ARC
8
DEFAULT_255_2_778_1
10
10.9815912
20
28.2400167
40
0.5026844
50
333.2506233
51
343.8465691
0
ARC
8
DEFAULT_255_2_778_1
10
10.8277757
20
28.3167313
40
0.6745679
50
325.6600948
51
333.3122657
0
ARC
8
DEFAULT_255_2_778_1
10
10.6323344
20
28.4495296
40
0.9108568
50
319.7560915
51
325.6976089
0
ARC
8
DEFAULT_255_2_778_1
10
10.404199
20
28.6413002
40
1.2088854
50
315.4577584
51
319.8037947
0
ARC
8
DEFAULT_255_2_778_1
10
10.1408127
20
28.9001507
40
1.5781764
50
311.7298824
51
315.4670864
0
ARC
8
DEFAULT_255_2_778_1
10
9.8317879
20
29.2457074
40
2.0417554
50
308.723055
51
311.7470879
0
ARC
8
DEFAULT_255_2_778_1
10
9.477589
20
29.6869492
40
2.6075745
50
306.1165163
51
308.7300151
0
ARC
8
DEFAULT_255_2_778_1
10
9.0746091
20
30.2382523
40
3.2904564
50
303.9559446
51
306.1266333
0
ARC
8
DEFAULT_255_2_778_1
10
8.6630432
20
30.847515
40
4.0257023
50
302.3733397
51
303.9712246
0
ARC
8
DEFAULT_255_2_778_1
10
8.2434347
20
31.5090058
40
4.8090549
50
300.9434827
51
302.3758078
0
LINE
8
DEFAULT_255_2_778
10
10.7161417
20
26.326033
11
10.7161417
21
5.159333
0
LINE
8
DEFAULT_255_2_778
10
10.7161417
20
5.159333
11
9.3932417
21
5.159333
0
LINE
8
DEFAULT_255_1_234
10
4.8781119
20
60.3241792
11
4.8781119
21
60.2029
0
LINE
8
DEFAULT_255_1_234
10
4.8781119
20
60.2029
11
4.111884
21
60.2029
0
LINE
8
DEFAULT_255_1_234
10
4.111884
20
60.2029
11
4.111884
21
60.3097221
0
LINE
8
DEFAULT_255_1_234
10
4.111884
20
60.3097221
11
4.5166836
21
60.7594995
0
LINE
8
DEFAULT_255_1_234
10
4.2379823
20
61.0277595
11
4.0893952
21
61.0277595
0
LINE
8
DEFAULT_255_1_234
10
4.6042296
20
60.6639218
11
4.2909918
21
60.3241792
0
LINE
8
DEFAULT_255_1_234
10
4.2909918
20
60.3241792
11
4.8781119
21
60.3241792
0
ARC
8
DEFAULT_255_1_234
10
3.167667
20
61.9524527
40
1.8008286
50
318.5132453
51
320.7828378
0
ARC
8
DEFAULT_255_1_234
10
3.6963644
20
61.5221426
40
1.1191493
50
320.7372736
51
323.9737074
0
ARC
8
DEFAULT_255_1_234
10
4.0883501
20
61.2381361
40
0.6350923
50
323.8961724
51
328.6421089
0
ARC
8
DEFAULT_255_1_234
10
4.2930096
20
61.1119031
40
0.3946393
50
328.8299013
51
331.789948
0
ARC
8
DEFAULT_255_1_234
10
4.3927274
20
61.0604509
40
0.2824501
50
331.4255242
51
352.9364833
0
ARC
8
DEFAULT_255_1_234
10
4.4063775
20
61.0573976
40
0.2685315
50
353.2248685
51
0.0169286
0
ARC
8
DEFAULT_255_1_234
10
4.4273652
20
61.059695
40
0.2475536
50
359.4866256
51
15.9339782
0
ARC
8
DEFAULT_255_1_234
10
4.4780637
20
61.0733286
40
0.1950618
50
16.1714718
51
43.5284424
0
ARC
8
DEFAULT_255_1_234
10
4.4857946
20
61.0810573
40
0.184134
50
43.4415429
51
83.1661404
0
ARC
8
DEFAULT_255_1_234
10
4.4723864
20
61.0073771
40
0.258926
50
82.160215
51
90.1505798
0
ARC
8
DEFAULT_255_1_234
10
4.4692291
20
60.9536865
40
0.3126255
50
89.5460705
51
102.5418777
0
ARC
8
DEFAULT_255_1_234
10
4.4449377
20
61.0567665
40
0.2067346
50
102.1739365
51
129.2061916
0
ARC
8
DEFAULT_255_1_234
10
4.4370449
20
61.0692094
40
0.1921118
50
129.7279328
51
135.7542026
0
ARC
8
DEFAULT_255_1_234
10
4.4491977
20
61.0595045
40
0.2075944
50
136.175737
51
166.3674722
0
ARC
8
DEFAULT_255_1_234
10
4.5498896
20
61.0325182
40
0.3118201
50
165.9092917
51
178.8683903
0
ARC
8
DEFAULT_255_1_234
10
4.6363757
20
61.0278179
40
0.3983935
50
178.438168
51
180.0083905
0
ARC
8
DEFAULT_255_1_234
10
4.4962359
20
61.0317231
40
0.4068601
50
163.2878735
51
180.5581814
0
ARC
8
DEFAULT_255_1_234
10
4.4160621
20
61.053784
40
0.3237344
50
133.454115
51
162.9470031
0
ARC
8
DEFAULT_255_1_234
10
4.4339162
20
61.0348
40
0.349795
50
100.7869394
51
133.4384016
0
ARC
8
DEFAULT_255_1_234
10
4.4686934
20
60.8799319
40
0.5084616
50
89.6605301
51
101.3704185
0
ARC
8
DEFAULT_255_1_234
10
4.4753273
20
60.8860496
40
0.502348
50
78.2171172
51
90.4130393
0
ARC
8
DEFAULT_255_1_234
10
4.5108351
20
61.0484637
40
0.3361092
50
55.9268222
51
78.4888551
0
ARC
8
DEFAULT_255_1_234
10
4.5304791
20
61.0823324
40
0.2970617
50
47.9292255
51
55.4054003
0
ARC
8
DEFAULT_255_1_234
10
4.5406352
20
61.0926502
40
0.2825983
50
4.3347696
51
48.0560701
0
ARC
8
DEFAULT_255_1_234
10
4.4310745
20
61.0756601
40
0.393225
50
359.925209
51
5.5967654
0
ARC
8
DEFAULT_255_1_234
10
4.4739637
20
61.0812816
40
0.3503892
50
337.8914096
51
358.9967724
0
ARC
8
DEFAULT_255_1_234
10
4.2026049
20
61.1859706
40
0.6412172
50
326.9135351
51
338.3505194
0
ARC
8
DEFAULT_255_1_234
10
3.8040353
20
61.4414284
40
1.1146189
50
319.6472867
51
327.095818
0
ARC
8
DEFAULT_255_1_234
10
3.4207356
20
61.7576
40
1.6114559
50
317.2586784
51
319.9046139
0
LINE
8
DEFAULT_255_1_234
10
5.6628127
20
61.3723211
11
5.6628127
21
60.595652
0
LINE
8
DEFAULT_255_1_234
10
5.6628127
20
60.595652
11
5.8250538
21
60.595652
0
LINE
8
DEFAULT_255_1_234
10
5.8250538
20
60.595652
11
5.8250538
21
60.4743728
0
LINE
8
DEFAULT_255_1_234
10
5.8250538
20
60.4743728
11
5.6628127
21
60.4743728
0
LINE
8
DEFAULT_255_1_234
10
5.6628127
20
60.4743728
11
5.6628127
21
60.2029
0
LINE
8
DEFAULT_255_1_234
10
5.6628127
20
60.2029
11
5.5134224
21
60.2029
0
LINE
8
DEFAULT_255_1_234
10
5.5134224
20
60.2029
11
5.5134224
21
60.4743728
0
LINE
8
DEFAULT_255_1_234
10
5.5134224
20
60.4743728
11
4.9809181
21
60.4743728
0
LINE
8
DEFAULT_255_1_234
10
4.9809181
20
60.4743728
11
4.9809181
21
60.5619187
0
LINE
8
DEFAULT_255_1_234
10
4.9809181
20
60.5619187
11
5.5045875
21
61.3723211
0
LINE
8
DEFAULT_255_1_234
10
5.5045875
20
61.3723211
11
5.6628127
21
61.3723211
0
LINE
8
DEFAULT_255_1_234
10
5.4957525
20
61.1369912
11
5.1495846
21
60.595652
0
LINE
8
DEFAULT_255_1_234
10
5.1495846
20
60.595652
11
5.5134224
21
60.595652
0
LINE
8
DEFAULT_255_1_234
10
5.5134224
20
60.595652
11
5.5134224
21
61.1691181
0
LINE
8
DEFAULT_255_1_234
10
5.5134224
20
61.1691181
11
5.4957525
21
61.1369912
0
LINE
8
DEFAULT_255_1_234
10
6.4001263
20
61.1715276
11
6.4001263
21
60.8301788
0
LINE
8
DEFAULT_255_1_234
10
6.4001263
20
60.8301788
11
6.7262148
21
60.8301788
0
LINE
8
DEFAULT_255_1_234
10
6.7262148
20
60.8301788
11
6.7262148
21
60.6896233
0
LINE
8
DEFAULT_255_1_234
10
6.7262148
20
60.6896233
11
6.4001263
21
60.6896233
0
LINE
8
DEFAULT_255_1_234
10
6.4001263
20
60.6896233
11
6.4001263
21
60.3201634
0
LINE
8
DEFAULT_255_1_234
10
6.4001263
20
60.3201634
11
6.2507359
21
60.3201634
0
LINE
8
DEFAULT_255_1_234
10
6.2507359
20
60.3201634
11
6.2507359
21
60.6896233
0
LINE
8
DEFAULT_255_1_234
10
6.2507359
20
60.6896233
11
5.9246474
21
60.6896233
0
LINE
8
DEFAULT_255_1_234
10
5.9246474
20
60.6896233
11
5.9246474
21
60.8301788
0
LINE
8
DEFAULT_255_1_234
10
5.9246474
20
60.8301788
11
6.2507359
21
60.8301788
0
LINE
8
DEFAULT_255_1_234
10
6.2507359
20
60.8301788
11
6.2507359
21
61.1715276
0
LINE
8
DEFAULT_255_1_234
10
6.2507359
20
61.1715276
11
6.4001263
21
61.1715276
0
LINE
8
DEFAULT_255_1_234
10
4.8483119
20
4.7616792
11
4.8483119
21
4.6404
0
LINE
8
DEFAULT_255_1_234
10
4.8483119
20
4.6404
11
4.082084
21
4.6404
0
LINE
8
DEFAULT_255_1_234
10
4.082084
20
4.6404
11
4.082084
21
4.7472221
0
LINE
8
DEFAULT_255_1_234
10
4.082084
20
4.7472221
11
4.4868836
21
5.1969995
0
LINE
8
DEFAULT_255_1_234
10
4.2081823
20
5.4652595
11
4.0595952
21
5.4652595
0
LINE
8
DEFAULT_255_1_234
10
4.5744296
20
5.1014218
11
4.2611918
21
4.7616792
0
LINE
8
DEFAULT_255_1_234
10
4.2611918
20
4.7616792
11
4.8483119
21
4.7616792
0
ARC
8
DEFAULT_255_1_234
10
3.137867
20
6.3899527
40
1.8008286
50
318.5132453
51
320.7828378
0
ARC
8
DEFAULT_255_1_234
10
3.6665644
20
5.9596426
40
1.1191493
50
320.7372736
51
323.9737074
0
ARC
8
DEFAULT_255_1_234
10
4.0585501
20
5.6756361
40
0.6350923
50
323.8961724
51
328.6421089
0
ARC
8
DEFAULT_255_1_234
10
4.2632096
20
5.5494031
40
0.3946393
50
328.8299013
51
331.789948
0
ARC
8
DEFAULT_255_1_234
10
4.3629274
20
5.4979509
40
0.2824501
50
331.4255242
51
352.9364833
0
ARC
8
DEFAULT_255_1_234
10
4.3765775
20
5.4948976
40
0.2685315
50
353.2248685
51
0.0169286
0
ARC
8
DEFAULT_255_1_234
10
4.3975652
20
5.497195
40
0.2475536
50
359.4866256
51
15.9339782
0
ARC
8
DEFAULT_255_1_234
10
4.4482637
20
5.5108286
40
0.1950618
50
16.1714718
51
43.5284424
0
ARC
8
DEFAULT_255_1_234
10
4.4559946
20
5.5185573
40
0.184134
50
43.4415429
51
83.1661404
0
ARC
8
DEFAULT_255_1_234
10
4.4425864
20
5.4448771
40
0.258926
50
82.160215
51
90.1505798
0
ARC
8
DEFAULT_255_1_234
10
4.4394291
20
5.3911865
40
0.3126255
50
89.5460705
51
102.5418777
0
ARC
8
DEFAULT_255_1_234
10
4.4151377
20
5.4942665
40
0.2067346
50
102.1739365
51
129.2061916
0
ARC
8
DEFAULT_255_1_234
10
4.4072449
20
5.5067094
40
0.1921118
50
129.7279328
51
135.7542026
0
ARC
8
DEFAULT_255_1_234
10
4.4193977
20
5.4970045
40
0.2075944
50
136.175737
51
166.3674722
0
ARC
8
DEFAULT_255_1_234
10
4.5200896
20
5.4700182
40
0.3118201
50
165.9092917
51
178.8683903
0
ARC
8
DEFAULT_255_1_234
10
4.6065757
20
5.4653179
40
0.3983935
50
178.438168
51
180.0083905
0
ARC
8
DEFAULT_255_1_234
10
4.4664359
20
5.4692231
40
0.4068601
50
163.2878735
51
180.5581814
0
ARC
8
DEFAULT_255_1_234
10
4.3862621
20
5.491284
40
0.3237344
50
133.454115
51
162.9470031
0
ARC
8
DEFAULT_255_1_234
10
4.4041162
20
5.4723
40
0.349795
50
100.7869394
51
133.4384016
0
ARC
8
DEFAULT_255_1_234
10
4.4388934
20
5.3174319
40
0.5084616
50
89.6605301
51
101.3704185
0
ARC
8
DEFAULT_255_1_234
10
4.4455273
20
5.3235496
40
0.502348
50
78.2171172
51
90.4130393
0
ARC
8
DEFAULT_255_1_234
10
4.4810351
20
5.4859637
40
0.3361092
50
55.9268222
51
78.4888551
0
ARC
8
DEFAULT_255_1_234
10
4.5006791
20
5.5198324
40
0.2970617
50
47.9292255
51
55.4054003
0
ARC
8
DEFAULT_255_1_234
10
4.5108352
20
5.5301502
40
0.2825983
50
4.3347696
51
48.0560701
0
ARC
8
DEFAULT_255_1_234
10
4.4012745
20
5.5131601
40
0.393225
50
359.925209
51
5.5967654
0
ARC
8
DEFAULT_255_1_234
10
4.4441637
20
5.5187816
40
0.3503892
50
337.8914096
51
358.9967724
0
ARC
8
DEFAULT_255_1_234
10
4.1728049
20
5.6234706
40
0.6412172
50
326.9135351
51
338.3505194
0
ARC
8
DEFAULT_255_1_234
10
3.7742353
20
5.8789284
40
1.1146189
50
319.6472867
51
327.095818
0
ARC
8
DEFAULT_255_1_234
10
3.3909356
20
6.1951
40
1.6114559
50
317.2586784
51
319.9046139
0
LINE
8
DEFAULT_255_1_234
10
5.2097401
20
5.8098211
11
5.2097401
21
4.6404
0
LINE
8
DEFAULT_255_1_234
10
5.2097401
20
4.6404
11
5.0555307
21
4.6404
0
LINE
8
DEFAULT_255_1_234
10
5.0555307
20
4.6404
11
5.0555307
21
5.8098211
0
LINE
8
DEFAULT_255_1_234
10
5.0555307
20
5.8098211
11
5.2097401
21
5.8098211
0
LINE
8
DEFAULT_255_1_234
10
5.8940442
20
5.6090276
11
5.8940442
21
5.2676788
0
LINE
8
DEFAULT_255_1_234
10
5.8940442
20
5.2676788
11
6.2201328
21
5.2676788
0
LINE
8
DEFAULT_255_1_234
10
6.2201328
20
5.2676788
11
6.2201328
21
5.1271233
0
LINE
8
DEFAULT_255_1_234
10
6.2201328
20
5.1271233
11
5.8940442
21
5.1271233
0
LINE
8
DEFAULT_255_1_234
10
5.8940442
20
5.1271233
11
5.8940442
21
4.7576634
0
LINE
8
DEFAULT_255_1_234
10
5.8940442
20
4.7576634
11
5.7446539
21
4.7576634
0
LINE
8
DEFAULT_255_1_234
10
5.7446539
20
4.7576634
11
5.7446539
21
5.1271233
0
LINE
8
DEFAULT_255_1_234
10
5.7446539
20
5.1271233
11
5.4185653
21
5.1271233
0
LINE
8
DEFAULT_255_1_234
10
5.4185653
20
5.1271233
11
5.4185653
21
5.2676788
0
LINE
8
DEFAULT_255_1_234
10
5.4185653
20
5.2676788
11
5.7446539
21
5.2676788
0
LINE
8
DEFAULT_255_1_234
10
5.7446539
20
5.2676788
11
5.7446539
21
5.6090276
0
LINE
8
DEFAULT_255_1_234
10
5.7446539
20
5.6090276
11
5.8940442
21
5.6090276
0
LINE
8
DEFAULT_255_1_234
10
4.9419119
20
12.6991792
11
4.9419119
21
12.5779
0
LINE
8
DEFAULT_255_1_234
10
4.9419119
20
12.5779
11
4.175684
21
12.5779
0
LINE
8
DEFAULT_255_1_234
10
4.175684
20
12.5779
11
4.175684
21
12.6847221
0
LINE
8
DEFAULT_255_1_234
10
4.175684
20
12.6847221
11
4.5804836
21
13.1344995
0
LINE
8
DEFAULT_255_1_234
10
4.3017823
20
13.4027595
11
4.1531952
21
13.4027595
0
LINE
8
DEFAULT_255_1_234
10
4.6680296
20
13.0389218
11
4.3547918
21
12.6991792
0
LINE
8
DEFAULT_255_1_234
10
4.3547918
20
12.6991792
11
4.9419119
21
12.6991792
0
ARC
8
DEFAULT_255_1_234
10
3.231467
20
14.3274527
40
1.8008286
50
318.5132453
51
320.7828378
0
ARC
8
DEFAULT_255_1_234
10
3.7601644
20
13.8971426
40
1.1191493
50
320.7372736
51
323.9737074
0
ARC
8
DEFAULT_255_1_234
10
4.1521501
20
13.6131361
40
0.6350923
50
323.8961724
51
328.6421089
0
ARC
8
DEFAULT_255_1_234
10
4.3568096
20
13.4869031
40
0.3946393
50
328.8299013
51
331.789948
0
ARC
8
DEFAULT_255_1_234
10
4.4565274
20
13.4354509
40
0.2824501
50
331.4255242
51
352.9364833
0
ARC
8
DEFAULT_255_1_234
10
4.4701775
20
13.4323976
40
0.2685315
50
353.2248685
51
0.0169286
0
ARC
8
DEFAULT_255_1_234
10
4.4911652
20
13.434695
40
0.2475536
50
359.4866256
51
15.9339782
0
ARC
8
DEFAULT_255_1_234
10
4.5418637
20
13.4483286
40
0.1950618
50
16.1714718
51
43.5284424
0
ARC
8
DEFAULT_255_1_234
10
4.5495946
20
13.4560573
40
0.184134
50
43.4415429
51
83.1661404
0
ARC
8
DEFAULT_255_1_234
10
4.5361864
20
13.3823771
40
0.258926
50
82.160215
51
90.1505798
0
ARC
8
DEFAULT_255_1_234
10
4.5330291
20
13.3286865
40
0.3126255
50
89.5460705
51
102.5418777
0
ARC
8
DEFAULT_255_1_234
10
4.5087377
20
13.4317665
40
0.2067346
50
102.1739365
51
129.2061916
0
ARC
8
DEFAULT_255_1_234
10
4.5008449
20
13.4442094
40
0.1921118
50
129.7279328
51
135.7542026
0
ARC
8
DEFAULT_255_1_234
10
4.5129977
20
13.4345045
40
0.2075944
50
136.175737
51
166.3674722
0
ARC
8
DEFAULT_255_1_234
10
4.6136896
20
13.4075182
40
0.3118201
50
165.9092917
51
178.8683903
0
ARC
8
DEFAULT_255_1_234
10
4.7001757
20
13.4028179
40
0.3983935
50
178.438168
51
180.0083905
0
ARC
8
DEFAULT_255_1_234
10
4.5600359
20
13.4067231
40
0.4068601
50
163.2878735
51
180.5581814
0
ARC
8
DEFAULT_255_1_234
10
4.4798621
20
13.428784
40
0.3237344
50
133.454115
51
162.9470031
0
ARC
8
DEFAULT_255_1_234
10
4.4977162
20
13.4098
40
0.349795
50
100.7869394
51
133.4384016
0
ARC
8
DEFAULT_255_1_234
10
4.5324934
20
13.2549319
40
0.5084616
50
89.6605301
51
101.3704185
0
ARC
8
DEFAULT_255_1_234
10
4.5391273
20
13.2610496
40
0.502348
50
78.2171172
51
90.4130393
0
ARC
8
DEFAULT_255_1_234
10
4.5746351
20
13.4234637
40
0.3361092
50
55.9268222
51
78.4888551
0
ARC
8
DEFAULT_255_1_234
10
4.5942791
20
13.4573324
40
0.2970617
50
47.9292255
51
55.4054003
0
ARC
8
DEFAULT_255_1_234
10
4.6044352
20
13.4676502
40
0.2825983
50
4.3347696
51
48.0560701
0
ARC
8
DEFAULT_255_1_234
10
4.4948745
20
13.4506601
40
0.393225
50
359.925209
51
5.5967654
0
ARC
8
DEFAULT_255_1_234
10
4.5377637
20
13.4562816
40
0.3503892
50
337.8914096
51
358.9967724
0
ARC
8
DEFAULT_255_1_234
10
4.2664049
20
13.5609706
40
0.6412172
50
326.9135351
51
338.3505194
0
ARC
8
DEFAULT_255_1_234
10
3.8678353
20
13.8164284
40
1.1146189
50
319.6472867
51
327.095818
0
ARC
8
DEFAULT_255_1_234
10
3.4845356
20
14.1326
40
1.6114559
50
317.2586784
51
319.9046139
0
LINE
8
DEFAULT_255_1_234
10
5.1925021
20
13.7473211
11
5.5250161
21
12.7827093
0
LINE
8
DEFAULT_255_1_234
10
5.5250161
20
12.7827093
11
5.8591364
21
13.7473211
0
LINE
8
DEFAULT_255_1_234
10
5.8591364
20
13.7473211
11
6.0278029
21
13.7473211
0
LINE
8
DEFAULT_255_1_234
10
6.0278029
20
13.7473211
11
5.594089
21
12.5779
0
LINE
8
DEFAULT_255_1_234
10
5.594089
20
12.5779
11
5.4575495
21
12.5779
0
LINE
8
DEFAULT_255_1_234
10
5.4575495
20
12.5779
11
5.0246388
21
13.7473211
0
LINE
8
DEFAULT_255_1_234
10
5.0246388
20
13.7473211
11
5.1925021
21
13.7473211
0
LINE
8
DEFAULT_255_1_234
10
6.3498756
20
13.7473211
11
6.3498756
21
12.5779
0
LINE
8
DEFAULT_255_1_234
10
6.3498756
20
12.5779
11
6.1956662
21
12.5779
0
LINE
8
DEFAULT_255_1_234
10
6.1956662
20
12.5779
11
6.1956662
21
13.7473211
0
LINE
8
DEFAULT_255_1_234
10
6.1956662
20
13.7473211
11
6.3498756
21
13.7473211
0
LINE
8
DEFAULT_255_1_234
10
6.9177195
20
13.1353026
11
6.9177195
21
13.0140234
0
LINE
8
DEFAULT_255_1_234
10
6.9177195
20
13.0140234
11
6.5257707
21
13.0140234
0
LINE
8
DEFAULT_255_1_234
10
6.5257707
20
13.0140234
11
6.5257707
21
13.1353026
0
LINE
8
DEFAULT_255_1_234
10
6.5257707
20
13.1353026
11
6.9177195
21
13.1353026
0
LINE
8
DEFAULT_255_1_234
10
4.8866119
20
20.6366792
11
4.8866119
21
20.5154
0
LINE
8
DEFAULT_255_1_234
10
4.8866119
20
20.5154
11
4.120384
21
20.5154
0
LINE
8
DEFAULT_255_1_234
10
4.120384
20
20.5154
11
4.120384
21
20.6222221
0
LINE
8
DEFAULT_255_1_234
10
4.120384
20
20.6222221
11
4.5251836
21
21.0719995
0
LINE
8
DEFAULT_255_1_234
10
4.2464823
20
21.3402595
11
4.0978952
21
21.3402595
0
LINE
8
DEFAULT_255_1_234
10
4.6127296
20
20.9764218
11
4.2994918
21
20.6366792
0
LINE
8
DEFAULT_255_1_234
10
4.2994918
20
20.6366792
11
4.8866119
21
20.6366792
0
ARC
8
DEFAULT_255_1_234
10
3.176167
20
22.2649527
40
1.8008286
50
318.5132453
51
320.7828378
0
ARC
8
DEFAULT_255_1_234
10
3.7048644
20
21.8346426
40
1.1191493
50
320.7372736
51
323.9737074
0
ARC
8
DEFAULT_255_1_234
10
4.0968501
20
21.5506361
40
0.6350923
50
323.8961724
51
328.6421089
0
ARC
8
DEFAULT_255_1_234
10
4.3015096
20
21.4244031
40
0.3946393
50
328.8299013
51
331.789948
0
ARC
8
DEFAULT_255_1_234
10
4.4012274
20
21.3729509
40
0.2824501
50
331.4255242
51
352.9364833
0
ARC
8
DEFAULT_255_1_234
10
4.4148775
20
21.3698976
40
0.2685315
50
353.2248685
51
0.0169286
0
ARC
8
DEFAULT_255_1_234
10
4.4358652
20
21.372195
40
0.2475536
50
359.4866256
51
15.9339782
0
ARC
8
DEFAULT_255_1_234
10
4.4865637
20
21.3858286
40
0.1950618
50
16.1714718
51
43.5284424
0
ARC
8
DEFAULT_255_1_234
10
4.4942946
20
21.3935573
40
0.184134
50
43.4415429
51
83.1661404
0
ARC
8
DEFAULT_255_1_234
10
4.4808864
20
21.3198771
40
0.258926
50
82.160215
51
90.1505798
0
ARC
8
DEFAULT_255_1_234
10
4.4777291
20
21.2661865
40
0.3126255
50
89.5460705
51
102.5418777
0
ARC
8
DEFAULT_255_1_234
10
4.4534377
20
21.3692665
40
0.2067346
50
102.1739365
51
129.2061916
0
ARC
8
DEFAULT_255_1_234
10
4.4455449
20
21.3817094
40
0.1921118
50
129.7279328
51
135.7542026
0
ARC
8
DEFAULT_255_1_234
10
4.4576977
20
21.3720045
40
0.2075944
50
136.175737
51
166.3674722
0
ARC
8
DEFAULT_255_1_234
10
4.5583896
20
21.3450182
40
0.3118201
50
165.9092917
51
178.8683903
0
ARC
8
DEFAULT_255_1_234
10
4.6448757
20
21.3403179
40
0.3983935
50
178.438168
51
180.0083905
0
ARC
8
DEFAULT_255_1_234
10
4.5047359
20
21.3442231
40
0.4068601
50
163.2878735
51
180.5581814
0
ARC
8
DEFAULT_255_1_234
10
4.4245621
20
21.366284
40
0.3237344
50
133.454115
51
162.9470031
0
ARC
8
DEFAULT_255_1_234
10
4.4424162
20
21.3473
40
0.349795
50
100.7869394
51
133.4384016
0
ARC
8
DEFAULT_255_1_234
10
4.4771934
20
21.1924319
40
0.5084616
50
89.6605301
51
101.3704185
0
ARC
8
DEFAULT_255_1_234
10
4.4838273
20
21.1985496
40
0.502348
50
78.2171172
51
90.4130393
0
ARC
8
DEFAULT_255_1_234
10
4.5193351
20
21.3609637
40
0.3361092
50
55.9268222
51
78.4888551
0
ARC
8
DEFAULT_255_1_234
10
4.5389791
20
21.3948324
40
0.2970617
50
47.9292255
51
55.4054003
0
ARC
8
DEFAULT_255_1_234
10
4.5491352
20
21.4051502
40
0.2825983
50
4.3347696
51
48.0560701
0
ARC
8
DEFAULT_255_1_234
10
4.4395745
20
21.3881601
40
0.393225
50
359.925209
51
5.5967654
0
ARC
8
DEFAULT_255_1_234
10
4.4824637
20
21.3937816
40
0.3503892
50
337.8914096
51
358.9967724
0
ARC
8
DEFAULT_255_1_234
10
4.2111049
20
21.4984706
40
0.6412172
50
326.9135351
51
338.3505194
0
ARC
8
DEFAULT_255_1_234
10
3.8125353
20
21.7539284
40
1.1146189
50
319.6472867
51
327.095818
0
ARC
8
DEFAULT_255_1_234
10
3.4292356
20
22.0701
40
1.6114559
50
317.2586784
51
319.9046139
0
LINE
8
DEFAULT_255_1_234
10
5.1372021
20
21.6848211
11
5.4697161
21
20.7202093
0
LINE
8
DEFAULT_255_1_234
10
5.4697161
20
20.7202093
11
5.8038364
21
21.6848211
0
LINE
8
DEFAULT_255_1_234
10
5.8038364
20
21.6848211
11
5.9725029
21
21.6848211
0
LINE
8
DEFAULT_255_1_234
10
5.9725029
20
21.6848211
11
5.538789
21
20.5154
0
LINE
8
DEFAULT_255_1_234
10
5.538789
20
20.5154
11
5.4022495
21
20.5154
0
LINE
8
DEFAULT_255_1_234
10
5.4022495
20
20.5154
11
4.9693388
21
21.6848211
0
LINE
8
DEFAULT_255_1_234
10
4.9693388
20
21.6848211
11
5.1372021
21
21.6848211
0
LINE
8
DEFAULT_255_1_234
10
6.5315119
20
21.4840276
11
6.5315119
21
21.1426788
0
LINE
8
DEFAULT_255_1_234
10
6.5315119
20
21.1426788
11
6.8576004
21
21.1426788
0
LINE
8
DEFAULT_255_1_234
10
6.8576004
20
21.1426788
11
6.8576004
21
21.0021233
0
LINE
8
DEFAULT_255_1_234
10
6.8576004
20
21.0021233
11
6.5315119
21
21.0021233
0
LINE
8
DEFAULT_255_1_234
10
6.5315119
20
21.0021233
11
6.5315119
21
20.6326634
0
LINE
8
DEFAULT_255_1_234
10
6.5315119
20
20.6326634
11
6.3821215
21
20.6326634
0
LINE
8
DEFAULT_255_1_234
10
6.3821215
20
20.6326634
11
6.3821215
21
21.0021233
0
LINE
8
DEFAULT_255_1_234
10
6.3821215
20
21.0021233
11
6.056033
21
21.0021233
0
LINE
8
DEFAULT_255_1_234
10
6.056033
20
21.0021233
11
6.056033
21
21.1426788
0
LINE
8
DEFAULT_255_1_234
10
6.056033
20
21.1426788
11
6.3821215
21
21.1426788
0
LINE
8
DEFAULT_255_1_234
10
6.3821215
20
21.1426788
11
6.3821215
21
21.4840276
0
LINE
8
DEFAULT_255_1_234
10
6.3821215
20
21.4840276
11
6.5315119
21
21.4840276
0
LINE
8
DEFAULT_255_1_234
10
4.749285
20
29.0954391
11
4.749285
21
28.9693408
0
LINE
8
DEFAULT_255_1_234
10
4.749285
20
28.9693408
11
4.2585458
21
28.9693408
0
LINE
8
DEFAULT_255_1_234
10
4.2585458
20
28.9693408
11
4.2585458
21
28.4529
0
LINE
8
DEFAULT_255_1_234
10
4.2585458
20
28.4529
11
4.1043364
21
28.4529
0
LINE
8
DEFAULT_255_1_234
10
4.1043364
20
28.4529
11
4.1043364
21
29.6223211
0
LINE
8
DEFAULT_255_1_234
10
4.1043364
20
29.6223211
11
4.8287992
21
29.6223211
0
LINE
8
DEFAULT_255_1_234
10
4.8287992
20
29.6223211
11
4.8287992
21
29.4954196
0
LINE
8
DEFAULT_255_1_234
10
4.8287992
20
29.4954196
11
4.2585458
21
29.4954196
0
LINE
8
DEFAULT_255_1_234
10
4.2585458
20
29.4954196
11
4.2585458
21
29.0954391
0
LINE
8
DEFAULT_255_1_234
10
4.2585458
20
29.0954391
11
4.749285
21
29.0954391
0
LINE
8
DEFAULT_255_1_234
10
5.876941
20
29.035201
11
5.876941
21
28.6063062
0
LINE
8
DEFAULT_255_1_234
10
4.97578
20
28.9813884
11
4.97578
21
29.0833915
0
LINE
8
DEFAULT_255_1_234
10
5.876941
20
29.2793659
11
5.7227316
21
29.2793659
0
LINE
8
DEFAULT_255_1_234
10
5.1307925
20
29.0874073
11
5.1307925
21
28.9918296
0
LINE
8
DEFAULT_255_1_234
10
5.7235348
20
28.6472681
11
5.7235348
21
28.9099059
0
LINE
8
DEFAULT_255_1_234
10
5.7235348
20
28.9099059
11
5.4528652
21
28.9099059
0
LINE
8
DEFAULT_255_1_234
10
5.4528652
20
28.9099059
11
5.4528652
21
29.035201
0
LINE
8
DEFAULT_255_1_234
10
5.4528652
20
29.035201
11
5.876941
21
29.035201
0
ARC
8
DEFAULT_255_1_234
10
5.5937916
20
28.8056396
40
0.3462765
50
295.8437914
51
324.8549609
0
ARC
8
DEFAULT_255_1_234
10
5.5521883
20
28.8809567
40
0.4322211
50
291.5695085
51
296.4549398
0
ARC
8
DEFAULT_255_1_234
10
5.5011135
20
29.0174275
40
0.5779178
50
278.6622409
51
291.3045483
0
ARC
8
DEFAULT_255_1_234
10
5.4671626
20
29.2322408
40
0.7953952
50
270.020006
51
278.7494541
0
ARC
8
DEFAULT_255_1_234
10
5.463355
20
29.3639036
40
0.927067
50
269.9969998
51
270.2524872
0
ARC
8
DEFAULT_255_1_234
10
5.4595264
20
28.9555589
40
0.5187361
50
253.5786322
51
270.4175299
0
ARC
8
DEFAULT_255_1_234
10
5.442192
20
28.8884236
40
0.4494451
50
238.8203306
51
253.2788235
0
ARC
8
DEFAULT_255_1_234
10
5.4402293
20
28.8833231
40
0.4440665
50
206.7883783
51
238.6962764
0
ARC
8
DEFAULT_255_1_234
10
5.5176203
20
28.9297405
40
0.5341121
50
206.1129412
51
207.4916643
0
ARC
8
DEFAULT_255_1_234
10
5.5773118
20
28.9551488
40
0.5989041
50
188.6921119
51
205.7821245
0
ARC
8
DEFAULT_255_1_234
10
5.762948
20
28.986723
40
0.7871862
50
180.3882829
51
188.9219216
0
ARC
8
DEFAULT_255_1_234
10
5.8857294
20
29.0890464
40
0.909967
50
170.2024264
51
180.3560651
0
ARC
8
DEFAULT_255_1_234
10
5.5693812
20
29.1456237
40
0.5886083
50
154.2857445
51
170.3893044
0
ARC
8
DEFAULT_255_1_234
10
5.4412015
20
29.204295
40
0.4476743
50
139.8401567
51
153.9332699
0
ARC
8
DEFAULT_255_1_234
10
5.4052751
20
29.2330577
40
0.4016697
50
98.4190291
51
139.6707122
0
ARC
8
DEFAULT_255_1_234
10
5.4432268
20
29.0485328
40
0.5898566
50
89.7659205
51
99.4415478
0
ARC
8
DEFAULT_255_1_234
10
5.4497518
20
29.0550844
40
0.5833147
50
78.0551672
51
90.4042112
0
ARC
8
DEFAULT_255_1_234
10
5.4902028
20
29.2369644
40
0.3970055
50
54.6380464
51
78.3339173
0
ARC
8
DEFAULT_255_1_234
10
5.5092084
20
29.2689795
40
0.3599102
50
50.031736
51
54.1558201
0
ARC
8
DEFAULT_255_1_234
10
5.4984871
20
29.2593766
40
0.3741624
50
18.1092409
51
49.7180913
0
ARC
8
DEFAULT_255_1_234
10
5.3528071
20
29.2060089
40
0.5292424
50
7.9672797
51
18.6984571
0
ARC
8
DEFAULT_255_1_234
10
5.367855
20
29.2183504
40
0.3600838
50
9.7557294
51
27.3215714
0
ARC
8
DEFAULT_255_1_234
10
5.4806021
20
29.2746912
40
0.2340608
50
27.7361077
51
84.5257964
0
ARC
8
DEFAULT_255_1_234
10
5.4478408
20
29.110364
40
0.4011215
50
82.106034
51
90.2001166
0
ARC
8
DEFAULT_255_1_234
10
5.4428625
20
29.1611215
40
0.3503799
50
89.4150119
51
105.5823402
0
ARC
8
DEFAULT_255_1_234
10
5.4171623
20
29.2546867
40
0.2533503
50
105.6678618
51
144.2648758
0
ARC
8
DEFAULT_255_1_234
10
5.5064879
20
29.1911289
40
0.3629787
50
144.3561283
51
162.8564086
0
ARC
8
DEFAULT_255_1_234
10
5.7148788
20
29.1242017
40
0.5818441
50
162.6076014
51
173.6780284
0
ARC
8
DEFAULT_255_1_234
10
6.0209931
20
29.086989
40
0.8902007
50
173.4670142
51
179.9730753
0
ARC
8
DEFAULT_255_1_234
10
5.8301603
20
28.987626
40
0.6993804
50
179.6556203
51
190.0080463
0
ARC
8
DEFAULT_255_1_234
10
5.5985432
20
28.9451375
40
0.4639066
50
189.8116607
51
206.6796816
0
ARC
8
DEFAULT_255_1_234
10
5.5140584
20
28.9057503
40
0.3707421
50
207.1031645
51
217.7074368
0
ARC
8
DEFAULT_255_1_234
10
5.4506273
20
28.8505559
40
0.2868417
50
216.7345547
51
265.6812148
0
ARC
8
DEFAULT_255_1_234
10
5.4637064
20
28.9409855
40
0.3780509
50
264.7366618
51
270.0611241
0
ARC
8
DEFAULT_255_1_234
10
5.4660327
20
29.2250111
40
0.662079
50
269.8335834
51
276.0539546
0
ARC
8
DEFAULT_255_1_234
10
5.4867331
20
29.034856
40
0.4708016
50
275.9894168
51
284.4615085
0
ARC
8
DEFAULT_255_1_234
10
5.5065338
20
28.9515663
40
0.3852094
50
284.7034461
51
286.4953897
0
ARC
8
DEFAULT_255_1_234
10
5.5472352
20
28.8204965
40
0.2479842
50
286.0770838
51
304.2625829
0
ARC
8
DEFAULT_255_1_234
10
5.5605766
20
28.7986594
40
0.2224291
50
304.5891602
51
317.1073298
0
LINE
8
DEFAULT_255_1_234
10
4.5704137
20
37.5654433
11
4.5704137
21
36.3904
0
LINE
8
DEFAULT_255_1_234
10
4.5704137
20
36.3904
11
4.4210234
21
36.3904
0
LINE
8
DEFAULT_255_1_234
10
4.4210234
20
36.3904
11
4.4210234
21
37.3807133
0
LINE
8
DEFAULT_255_1_234
10
4.4210234
20
37.3807133
11
4.1214396
21
37.2706785
0
LINE
8
DEFAULT_255_1_234
10
4.1214396
20
37.2706785
11
4.1214396
21
37.4056117
0
LINE
8
DEFAULT_255_1_234
10
4.1214396
20
37.4056117
11
4.5471217
21
37.5654433
0
LINE
8
DEFAULT_255_1_234
10
4.5471217
20
37.5654433
11
4.5704137
21
37.5654433
0
LINE
8
DEFAULT_255_1_234
10
5.2097401
20
37.5598211
11
5.2097401
21
36.3904
0
LINE
8
DEFAULT_255_1_234
10
5.2097401
20
36.3904
11
5.0555307
21
36.3904
0
LINE
8
DEFAULT_255_1_234
10
5.0555307
20
36.3904
11
5.0555307
21
37.5598211
0
LINE
8
DEFAULT_255_1_234
10
5.0555307
20
37.5598211
11
5.2097401
21
37.5598211
0
LINE
8
DEFAULT_255_1_234
10
5.8940442
20
37.3590276
11
5.8940442
21
37.0176788
0
LINE
8
DEFAULT_255_1_234
10
5.8940442
20
37.0176788
11
6.2201328
21
37.0176788
0
LINE
8
DEFAULT_255_1_234
10
6.2201328
20
37.0176788
11
6.2201328
21
36.8771233
0
LINE
8
DEFAULT_255_1_234
10
6.2201328
20
36.8771233
11
5.8940442
21
36.8771233
0
LINE
8
DEFAULT_255_1_234
10
5.8940442
20
36.8771233
11
5.8940442
21
36.5076634
0
LINE
8
DEFAULT_255_1_234
10
5.8940442
20
36.5076634
11
5.7446539
21
36.5076634
0
LINE
8
DEFAULT_255_1_234
10
5.7446539
20
36.5076634
11
5.7446539
21
36.8771233
0
LINE
8
DEFAULT_255_1_234
10
5.7446539
20
36.8771233
11
5.4185653
21
36.8771233
0
LINE
8
DEFAULT_255_1_234
10
5.4185653
20
36.8771233
11
5.4185653
21
37.0176788
0
LINE
8
DEFAULT_255_1_234
10
5.4185653
20
37.0176788
11
5.7446539
21
37.0176788
0
LINE
8
DEFAULT_255_1_234
10
5.7446539
20
37.0176788
11
5.7446539
21
37.3590276
0
LINE
8
DEFAULT_255_1_234
10
5.7446539
20
37.3590276
11
5.8940442
21
37.3590276
0
LINE
8
DEFAULT_255_1_234
10
4.6640137
20
45.5029433
11
4.6640137
21
44.3279
0
LINE
8
DEFAULT_255_1_234
10
4.6640137
20
44.3279
11
4.5146234
21
44.3279
0
LINE
8
DEFAULT_255_1_234
10
4.5146234
20
44.3279
11
4.5146234
21
45.3182133
0
LINE
8
DEFAULT_255_1_234
10
4.5146234
20
45.3182133
11
4.2150396
21
45.2081785
0
LINE
8
DEFAULT_255_1_234
10
4.2150396
20
45.2081785
11
4.2150396
21
45.3431117
0
LINE
8
DEFAULT_255_1_234
10
4.2150396
20
45.3431117
11
4.6407217
21
45.5029433
0
LINE
8
DEFAULT_255_1_234
10
4.6407217
20
45.5029433
11
4.6640137
21
45.5029433
0
LINE
8
DEFAULT_255_1_234
10
5.1925021
20
45.4973211
11
5.5250161
21
44.5327093
0
LINE
8
DEFAULT_255_1_234
10
5.5250161
20
44.5327093
11
5.8591364
21
45.4973211
0
LINE
8
DEFAULT_255_1_234
10
5.8591364
20
45.4973211
11
6.0278029
21
45.4973211
0
LINE
8
DEFAULT_255_1_234
10
6.0278029
20
45.4973211
11
5.594089
21
44.3279
0
LINE
8
DEFAULT_255_1_234
10
5.594089
20
44.3279
11
5.4575495
21
44.3279
0
LINE
8
DEFAULT_255_1_234
10
5.4575495
20
44.3279
11
5.0246388
21
45.4973211
0
LINE
8
DEFAULT_255_1_234
10
5.0246388
20
45.4973211
11
5.1925021
21
45.4973211
0
LINE
8
DEFAULT_255_1_234
10
6.3498756
20
45.4973211
11
6.3498756
21
44.3279
0
LINE
8
DEFAULT_255_1_234
10
6.3498756
20
44.3279
11
6.1956662
21
44.3279
0
LINE
8
DEFAULT_255_1_234
10
6.1956662
20
44.3279
11
6.1956662
21
45.4973211
0
LINE
8
DEFAULT_255_1_234
10
6.1956662
20
45.4973211
11
6.3498756
21
45.4973211
0
LINE
8
DEFAULT_255_1_234
10
6.9177195
20
44.8853026
11
6.9177195
21
44.7640234
0
LINE
8
DEFAULT_255_1_234
10
6.9177195
20
44.7640234
11
6.5257707
21
44.7640234
0
LINE
8
DEFAULT_255_1_234
10
6.5257707
20
44.7640234
11
6.5257707
21
44.8853026
0
LINE
8
DEFAULT_255_1_234
10
6.5257707
20
44.8853026
11
6.9177195
21
44.8853026
0
LINE
8
DEFAULT_255_1_234
10
4.6087137
20
53.4404433
11
4.6087137
21
52.2654
0
LINE
8
DEFAULT_255_1_234
10
4.6087137
20
52.2654
11
4.4593234
21
52.2654
0
LINE
8
DEFAULT_255_1_234
10
4.4593234
20
52.2654
11
4.4593234
21
53.2557133
0
LINE
8
DEFAULT_255_1_234
10
4.4593234
20
53.2557133
11
4.1597396
21
53.1456785
0
LINE
8
DEFAULT_255_1_234
10
4.1597396
20
53.1456785
11
4.1597396
21
53.2806117
0
LINE
8
DEFAULT_255_1_234
10
4.1597396
20
53.2806117
11
4.5854217
21
53.4404433
0
LINE
8
DEFAULT_255_1_234
10
4.5854217
20
53.4404433
11
4.6087137
21
53.4404433
0
LINE
8
DEFAULT_255_1_234
10
5.1372021
20
53.4348211
11
5.4697161
21
52.4702093
0
LINE
8
DEFAULT_255_1_234
10
5.4697161
20
52.4702093
11
5.8038364
21
53.4348211
0
LINE
8
DEFAULT_255_1_234
10
5.8038364
20
53.4348211
11
5.9725029
21
53.4348211
0
LINE
8
DEFAULT_255_1_234
10
5.9725029
20
53.4348211
11
5.538789
21
52.2654
0
LINE
8
DEFAULT_255_1_234
10
5.538789
20
52.2654
11
5.4022495
21
52.2654
0
LINE
8
DEFAULT_255_1_234
10
5.4022495
20
52.2654
11
4.9693388
21
53.4348211
0
LINE
8
DEFAULT_255_1_234
10
4.9693388
20
53.4348211
11
5.1372021
21
53.4348211
0
LINE
8
DEFAULT_255_1_234
10
6.5315119
20
53.2340276
11
6.5315119
21
52.8926788
0
LINE
8
DEFAULT_255_1_234
10
6.5315119
20
52.8926788
11
6.8576004
21
52.8926788
0
LINE
8
DEFAULT_255_1_234
10
6.8576004
20
52.8926788
11
6.8576004
21
52.7521233
0
LINE
8
DEFAULT_255_1_234
10
6.8576004
20
52.7521233
11
6.5315119
21
52.7521233
0
LINE
8
DEFAULT_255_1_234
10
6.5315119
20
52.7521233
11
6.5315119
21
52.3826634
0
LINE
8
DEFAULT_255_1_234
10
6.5315119
20
52.3826634
11
6.3821215
21
52.3826634
0
LINE
8
DEFAULT_255_1_234
10
6.3821215
20
52.3826634
11
6.3821215
21
52.7521233
0
LINE
8
DEFAULT_255_1_234
10
6.3821215
20
52.7521233
11
6.056033
21
52.7521233
0
LINE
8
DEFAULT_255_1_234
10
6.056033
20
52.7521233
11
6.056033
21
52.8926788
0
LINE
8
DEFAULT_255_1_234
10
6.056033
20
52.8926788
11
6.3821215
21
52.8926788
0
LINE
8
DEFAULT_255_1_234
10
6.3821215
20
52.8926788
11
6.3821215
21
53.2340276
0
LINE
8
DEFAULT_255_1_234
10
6.3821215
20
53.2340276
11
6.5315119
21
53.2340276
0
LINE
8
DEFAULT_255_1_234
10
22.8308119
20
60.3241792
11
22.8308119
21
60.2029
0
LINE
8
DEFAULT_255_1_234
10
22.8308119
20
60.2029
11
22.064584
21
60.2029
0
LINE
8
DEFAULT_255_1_234
10
22.064584
20
60.2029
11
22.064584
21
60.3097221
0
LINE
8
DEFAULT_255_1_234
10
22.064584
20
60.3097221
11
22.4693836
21
60.7594995
0
LINE
8
DEFAULT_255_1_234
10
22.1906823
20
61.0277595
11
22.0420952
21
61.0277595
0
LINE
8
DEFAULT_255_1_234
10
22.5569296
20
60.6639218
11
22.2436918
21
60.3241792
0
LINE
8
DEFAULT_255_1_234
10
22.2436918
20
60.3241792
11
22.8308119
21
60.3241792
0
ARC
8
DEFAULT_255_1_234
10
21.120367
20
61.9524527
40
1.8008286
50
318.5132453
51
320.7828378
0
ARC
8
DEFAULT_255_1_234
10
21.6490644
20
61.5221426
40
1.1191493
50
320.7372736
51
323.9737074
0
ARC
8
DEFAULT_255_1_234
10
22.0410501
20
61.2381361
40
0.6350923
50
323.8961724
51
328.6421089
0
ARC
8
DEFAULT_255_1_234
10
22.2457096
20
61.1119031
40
0.3946393
50
328.8299013
51
331.789948
0
ARC
8
DEFAULT_255_1_234
10
22.3454274
20
61.0604509
40
0.2824501
50
331.4255242
51
352.9364833
0
ARC
8
DEFAULT_255_1_234
10
22.3590775
20
61.0573976
40
0.2685315
50
353.2248685
51
0.0169286
0
ARC
8
DEFAULT_255_1_234
10
22.3800652
20
61.059695
40
0.2475536
50
359.4866256
51
15.9339782
0
ARC
8
DEFAULT_255_1_234
10
22.4307637
20
61.0733286
40
0.1950618
50
16.1714718
51
43.5284424
0
ARC
8
DEFAULT_255_1_234
10
22.4384946
20
61.0810573
40
0.184134
50
43.4415429
51
83.1661404
0
ARC
8
DEFAULT_255_1_234
10
22.4250864
20
61.0073771
40
0.258926
50
82.160215
51
90.1505798
0
ARC
8
DEFAULT_255_1_234
10
22.4219291
20
60.9536865
40
0.3126255
50
89.5460705
51
102.5418777
0
ARC
8
DEFAULT_255_1_234
10
22.3976377
20
61.0567665
40
0.2067346
50
102.1739365
51
129.2061916
0
ARC
8
DEFAULT_255_1_234
10
22.3897449
20
61.0692094
40
0.1921118
50
129.7279328
51
135.7542026
0
ARC
8
DEFAULT_255_1_234
10
22.4018977
20
61.0595045
40
0.2075944
50
136.175737
51
166.3674722
0
ARC
8
DEFAULT_255_1_234
10
22.5025896
20
61.0325182
40
0.3118201
50
165.9092917
51
178.8683903
0
ARC
8
DEFAULT_255_1_234
10
22.5890757
20
61.0278179
40
0.3983935
50
178.438168
51
180.0083905
0
ARC
8
DEFAULT_255_1_234
10
22.4489359
20
61.0317231
40
0.4068601
50
163.2878735
51
180.5581814
0
ARC
8
DEFAULT_255_1_234
10
22.3687621
20
61.053784
40
0.3237344
50
133.454115
51
162.9470031
0
ARC
8
DEFAULT_255_1_234
10
22.3866162
20
61.0348
40
0.349795
50
100.7869394
51
133.4384016
0
ARC
8
DEFAULT_255_1_234
10
22.4213934
20
60.8799319
40
0.5084616
50
89.6605301
51
101.3704185
0
ARC
8
DEFAULT_255_1_234
10
22.4280273
20
60.8860496
40
0.502348
50
78.2171172
51
90.4130393
0
ARC
8
DEFAULT_255_1_234
10
22.4635351
20
61.0484637
40
0.3361092
50
55.9268222
51
78.4888551
0
ARC
8
DEFAULT_255_1_234
10
22.4831791
20
61.0823324
40
0.2970617
50
47.9292255
51
55.4054003
0
ARC
8
DEFAULT_255_1_234
10
22.4933352
20
61.0926502
40
0.2825983
50
4.3347696
51
48.0560701
0
ARC
8
DEFAULT_255_1_234
10
22.3837745
20
61.0756601
40
0.393225
50
359.925209
51
5.5967654
0
ARC
8
DEFAULT_255_1_234
10
22.4266637
20
61.0812816
40
0.3503892
50
337.8914096
51
358.9967724
0
ARC
8
DEFAULT_255_1_234
10
22.1553049
20
61.1859706
40
0.6412172
50
326.9135351
51
338.3505194
0
ARC
8
DEFAULT_255_1_234
10
21.7567353
20
61.4414284
40
1.1146189
50
319.6472867
51
327.095818
0
ARC
8
DEFAULT_255_1_234
10
21.3734356
20
61.7576
40
1.6114559
50
317.2586784
51
319.9046139
0
LINE
8
DEFAULT_255_1_234
10
23.6155127
20
61.3723211
11
23.6155127
21
60.595652
0
LINE
8
DEFAULT_255_1_234
10
23.6155127
20
60.595652
11
23.7777538
21
60.595652
0
LINE
8
DEFAULT_255_1_234
10
23.7777538
20
60.595652
11
23.7777538
21
60.4743728
0
LINE
8
DEFAULT_255_1_234
10
23.7777538
20
60.4743728
11
23.6155127
21
60.4743728
0
LINE
8
DEFAULT_255_1_234
10
23.6155127
20
60.4743728
11
23.6155127
21
60.2029
0
LINE
8
DEFAULT_255_1_234
10
23.6155127
20
60.2029
11
23.4661224
21
60.2029
0
LINE
8
DEFAULT_255_1_234
10
23.4661224
20
60.2029
11
23.4661224
21
60.4743728
0
LINE
8
DEFAULT_255_1_234
10
23.4661224
20
60.4743728
11
22.9336181
21
60.4743728
0
LINE
8
DEFAULT_255_1_234
10
22.9336181
20
60.4743728
11
22.9336181
21
60.5619187
0
LINE
8
DEFAULT_255_1_234
10
22.9336181
20
60.5619187
11
23.4572875
21
61.3723211
0
LINE
8
DEFAULT_255_1_234
10
23.4572875
20
61.3723211
11
23.6155127
21
61.3723211
0
LINE
8
DEFAULT_255_1_234
10
23.4484525
20
61.1369912
11
23.1022846
21
60.595652
0
LINE
8
DEFAULT_255_1_234
10
23.1022846
20
60.595652
11
23.4661224
21
60.595652
0
LINE
8
DEFAULT_255_1_234
10
23.4661224
20
60.595652
11
23.4661224
21
61.1691181
0
LINE
8
DEFAULT_255_1_234
10
23.4661224
20
61.1691181
11
23.4484525
21
61.1369912
0
LINE
8
DEFAULT_255_1_234
10
24.2363661
20
60.7603026
11
24.2363661
21
60.6390234
0
LINE
8
DEFAULT_255_1_234
10
24.2363661
20
60.6390234
11
23.8444172
21
60.6390234
0
LINE
8
DEFAULT_255_1_234
10
23.8444172
20
60.6390234
11
23.8444172
21
60.7603026
0
LINE
8
DEFAULT_255_1_234
10
23.8444172
20
60.7603026
11
24.2363661
21
60.7603026
0
ENDSEC
0
EOF