0
SECTION
2
HEADER
9
$MEASUREMENT
70
1
0
ENDSEC
0
SECTION
2
TABLES
0
TABLE
2
LTYPE
0
LTYPE
72
65
70
64
2
CONTINUOUS
3
______
73
0
40
0
0
ENDTAB
0
TABLE
2
LAYER
0
LAYER
2
DEFAULT_255_2_778
70
0
62
255
6
CONTINUOUS
0
LAYER
2
DEFAULT_255_1_388
70
0
62
255
6
CONTINUOUS
0
LAYER
2
DEFAULT_255_2_778_1
70
0
62
255
6
CONTINUOUS
0
ENDTAB
0
ENDSEC
0
SECTION
2
ENTITIES
0
ARC
8
DEFAULT_255_2_778
10
3.5700693
20
67.8676531
40
0.7914215
50
129.1312896
51
180.1450914
0
ARC
8
DEFAULT_255_2_778
10
3.5703345
20
67.8681402
40
0.7912112
50
89.854026
51
129.1684493
0
ARC
8
DEFAULT_255_2_778
10
25.7993937
20
67.8678268
40
0.7915249
50
39.4792447
51
90.147911
0
ARC
8
DEFAULT_255_2_778
10
25.7999935
20
67.8676734
40
0.7911595
50
359.8533901
51
39.5154338
0
ARC
8
DEFAULT_255_2_778
10
25.7996693
20
-1.9863991
40
0.7914836
50
309.4761667
51
0.1482649
0
ARC
8
DEFAULT_255_2_778
10
25.799398
20
-1.9868302
40
0.7913235
50
269.8517415
51
309.511178
0
ARC
8
DEFAULT_255_2_778
10
3.570342
20
-1.986772
40
0.7913815
50
219.1282118
51
270.1454017
0
ARC
8
DEFAULT_255_2_778
10
3.5700247
20
-1.9863896
40
0.7913769
50
179.8524075
51
219.1641908
0
LINE
8
DEFAULT_255_2_778
10
3.5723503
20
68.659349
11
25.7973503
21
68.659349
0
LINE
8
DEFAULT_255_2_778
10
26.5911503
20
67.865649
11
26.5911503
21
-1.984351
0
LINE
8
DEFAULT_255_2_778
10
25.7973503
20
-2.778151
11
3.5723503
21
-2.778151
0
LINE
8
DEFAULT_255_2_778
10
2.7786503
20
-1.984351
11
2.7786503
21
67.865649
0
LINE
8
DEFAULT_255_1_388
10
9.3960646
20
0.0830516
11
9.3960646
21
-0.0588081
0
LINE
8
DEFAULT_255_1_388
10
9.3960646
20
-0.0588081
11
8.8439868
21
-0.0588081
0
LINE
8
DEFAULT_255_1_388
10
8.8439868
20
-0.0588081
11
8.8439868
21
-0.6398
0
LINE
8
DEFAULT_255_1_388
10
8.8439868
20
-0.6398
11
8.6705024
21
-0.6398
0
LINE
8
DEFAULT_255_1_388
10
8.6705024
20
-0.6398
11
8.6705024
21
0.6757898
0
LINE
8
DEFAULT_255_1_388
10
8.6705024
20
0.6757898
11
9.4855175
21
0.6757898
0
LINE
8
DEFAULT_255_1_388
10
9.4855175
20
0.6757898
11
9.4855175
21
0.5330267
0
LINE
8
DEFAULT_255_1_388
10
9.4855175
20
0.5330267
11
8.8439868
21
0.5330267
0
LINE
8
DEFAULT_255_1_388
10
8.8439868
20
0.5330267
11
8.8439868
21
0.0830516
0
LINE
8
DEFAULT_255_1_388
10
8.8439868
20
0.0830516
11
9.3960646
21
0.0830516
0
LINE
8
DEFAULT_255_1_388
10
9.8053793
20
0.6757898
11
10.1225305
21
0.1716009
0
LINE
8
DEFAULT_255_1_388
10
10.1225305
20
0.1716009
11
10.4378745
21
0.6757898
0
LINE
8
DEFAULT_255_1_388
10
10.4378745
20
0.6757898
11
10.64208
21
0.6757898
0
LINE
8
DEFAULT_255_1_388
10
10.64208
20
0.6757898
11
10.2264404
21
0.0234163
0
LINE
8
DEFAULT_255_1_388
10
10.2264404
20
0.0234163
11
10.6520192
21
-0.6398
0
LINE
8
DEFAULT_255_1_388
10
10.6520192
20
-0.6398
11
10.4460065
21
-0.6398
0
LINE
8
DEFAULT_255_1_388
10
10.4460065
20
-0.6398
11
10.1225305
21
-0.1265754
0
LINE
8
DEFAULT_255_1_388
10
10.1225305
20
-0.1265754
11
9.7972473
21
-0.6398
0
LINE
8
DEFAULT_255_1_388
10
9.7972473
20
-0.6398
11
9.5921381
21
-0.6398
0
LINE
8
DEFAULT_255_1_388
10
9.5921381
20
-0.6398
11
10.0186206
21
0.0234163
0
LINE
8
DEFAULT_255_1_388
10
10.0186206
20
0.0234163
11
9.6020773
21
0.6757898
0
LINE
8
DEFAULT_255_1_388
10
9.6020773
20
0.6757898
11
9.8053793
21
0.6757898
0
LINE
8
DEFAULT_255_1_388
10
11.0532019
20
-0.0371225
11
11.0532019
21
0.0993157
0
LINE
8
DEFAULT_255_1_388
10
11.0532019
20
0.0993157
11
11.1787973
21
0.0993157
0
LINE
8
DEFAULT_255_1_388
10
10.9646525
20
0.3306282
11
10.7974931
21
0.3306282
0
LINE
8
DEFAULT_255_1_388
10
10.7857468
20
-0.2928312
11
10.9538098
21
-0.2928312
0
LINE
8
DEFAULT_255_1_388
10
11.1787973
20
-0.0371225
11
11.0532019
21
-0.0371225
0
ARC
8
DEFAULT_255_1_388
10
11.17552
20
0.4809922
40
0.3816905
50
270.491971
51
281.8953028
0
ARC
8
DEFAULT_255_1_388
10
11.2026627
20
0.3570199
40
0.2547877
50
281.6690378
51
301.2943765
0
ARC
8
DEFAULT_255_1_388
10
11.2218078
20
0.3219926
40
0.2149197
50
301.7834992
51
311.754567
0
ARC
8
DEFAULT_255_1_388
10
11.2321119
20
0.310565
40
0.1995326
50
311.7325027
51
354.2803031
0
ARC
8
DEFAULT_255_1_388
10
11.1503535
20
0.324628
40
0.2823461
50
353.0941646
51
0.1174696
0
ARC
8
DEFAULT_255_1_388
10
11.0985093
20
0.3299874
40
0.3342238
50
359.1804452
51
15.0452323
0
ARC
8
DEFAULT_255_1_388
10
11.2499152
20
0.3741546
40
0.1765747
50
13.957816
51
77.6713812
0
ARC
8
DEFAULT_255_1_388
10
11.2064387
20
0.2183464
40
0.3381982
50
76.111571
51
90.7028736
0
ARC
8
DEFAULT_255_1_388
10
11.1997799
20
0.249125
40
0.3074046
50
89.5321574
51
103.5319393
0
ARC
8
DEFAULT_255_1_388
10
11.1772183
20
0.3390443
40
0.2147041
50
103.2930114
51
133.5619756
0
ARC
8
DEFAULT_255_1_388
10
11.1722125
20
0.3457351
40
0.2064084
50
133.8349761
51
173.5343225
0
ARC
8
DEFAULT_255_1_388
10
11.2535782
20
0.3313144
40
0.2889266
50
172.5097183
51
180.1360699
0
ARC
8
DEFAULT_255_1_388
10
11.1465546
20
0.335188
40
0.3490913
50
155.3483706
51
180.7484035
0
ARC
8
DEFAULT_255_1_388
10
11.1410522
20
0.3319519
40
0.3454798
50
131.5745177
51
154.4799474
0
ARC
8
DEFAULT_255_1_388
10
11.1762804
20
0.2963422
40
0.3955058
50
96.9874487
51
131.9690874
0
ARC
8
DEFAULT_255_1_388
10
11.2009697
20
0.1562407
40
0.537622
50
89.8592909
51
97.7827481
0
ARC
8
DEFAULT_255_1_388
10
11.2063806
20
0.126736
40
0.5671399
50
78.3654493
51
90.4132586
0
ARC
8
DEFAULT_255_1_388
10
11.2466447
20
0.3133918
40
0.3762034
50
56.6229818
51
78.6387103
0
ARC
8
DEFAULT_255_1_388
10
11.2708276
20
0.3556846
40
0.3275964
50
47.0254604
51
56.085558
0
ARC
8
DEFAULT_255_1_388
10
11.2730527
20
0.3601189
40
0.3228382
50
10.9207523
51
46.777927
0
ARC
8
DEFAULT_255_1_388
10
11.1196121
20
0.3246401
40
0.4802559
50
359.6364235
51
11.6087615
0
ARC
8
DEFAULT_255_1_388
10
11.3260287
20
0.3229404
40
0.273833
50
332.3549969
51
359.7179765
0
ARC
8
DEFAULT_255_1_388
10
11.2528687
20
0.3576285
40
0.3547505
50
325.2332381
51
332.8746682
0
ARC
8
DEFAULT_255_1_388
10
11.270027
20
0.3456763
40
0.3338396
50
292.9803892
51
325.2391113
0
ARC
8
DEFAULT_255_1_388
10
11.2389466
20
0.4061679
40
0.4016959
50
292.542178
51
293.6931461
0
ARC
8
DEFAULT_255_1_388
10
11.2833038
20
-0.3203964
40
0.372079
50
57.643292
51
72.8626085
0
ARC
8
DEFAULT_255_1_388
10
11.3231873
20
-0.2557727
40
0.2961455
50
36.7246661
51
57.4701329
0
ARC
8
DEFAULT_255_1_388
10
11.3219029
20
-0.254353
40
0.2963321
50
8.054535
51
36.3561529
0
ARC
8
DEFAULT_255_1_388
10
11.2248702
20
-0.2717927
40
0.3948682
50
359.8316595
51
8.5873361
0
ARC
8
DEFAULT_255_1_388
10
11.1826176
20
-0.277203
40
0.4371398
50
343.9831631
51
0.557075
0
ARC
8
DEFAULT_255_1_388
10
11.2823226
20
-0.3045037
40
0.3337749
50
311.6358204
51
343.7652116
0
ARC
8
DEFAULT_255_1_388
10
11.2397479
20
-0.2565045
40
0.3979351
50
279.7829743
51
311.625622
0
ARC
8
DEFAULT_255_1_388
10
11.2058615
20
-0.0948358
40
0.5630417
50
269.7285092
51
280.3857694
0
ARC
8
DEFAULT_255_1_388
10
11.1988928
20
-0.0994759
40
0.5584119
50
256.6827433
51
270.4412869
0
ARC
8
DEFAULT_255_1_388
10
11.1607914
20
-0.2552302
40
0.3980715
50
229.4223821
51
256.8554507
0
ARC
8
DEFAULT_255_1_388
10
11.1141468
20
-0.3077317
40
0.3278564
50
181.8183354
51
229.6455015
0
ARC
8
DEFAULT_255_1_388
10
11.2311077
20
-0.2930175
40
0.4453611
50
179.9760419
51
183.2330638
0
ARC
8
DEFAULT_255_1_388
10
11.2117629
20
-0.2953219
40
0.2579652
50
179.4467996
51
196.2871626
0
ARC
8
DEFAULT_255_1_388
10
11.1569083
20
-0.3103291
40
0.2011057
50
196.5661293
51
227.7059371
0
ARC
8
DEFAULT_255_1_388
10
11.175369
20
-0.2896845
40
0.2287994
50
227.7653015
51
257.8763321
0
ARC
8
DEFAULT_255_1_388
10
11.2006773
20
-0.1836039
40
0.3378385
50
257.4583525
51
270.4267406
0
ARC
8
DEFAULT_255_1_388
10
11.2058023
20
-0.150977
40
0.3704652
50
269.5965319
51
280.8788143
0
ARC
8
DEFAULT_255_1_388
10
11.2316251
20
-0.2799471
40
0.2389415
50
280.6347277
51
299.8594068
0
ARC
8
DEFAULT_255_1_388
10
11.2531021
20
-0.3207264
40
0.19289
50
300.3575552
51
314.5515667
0
ARC
8
DEFAULT_255_1_388
10
11.2437696
20
-0.3138975
40
0.204312
50
315.0730962
51
345.0429362
0
ARC
8
DEFAULT_255_1_388
10
11.1399204
20
-0.2836461
40
0.31246
50
344.598526
51
357.9270698
0
ARC
8
DEFAULT_255_1_388
10
11.0389509
20
-0.2767295
40
0.4136265
50
357.4755098
51
0.0224936
0
ARC
8
DEFAULT_255_1_388
10
11.1542386
20
-0.2739901
40
0.2983498
50
359.5051035
51
13.4236939
0
ARC
8
DEFAULT_255_1_388
10
11.2517476
20
-0.2490363
40
0.1977186
50
12.9497905
51
48.7550905
0
ARC
8
DEFAULT_255_1_388
10
11.2312398
20
-0.2770627
40
0.2323321
50
49.509109
51
72.1832965
0
ARC
8
DEFAULT_255_1_388
10
11.1909866
20
-0.3965368
40
0.358397
50
71.9008458
51
84.3555134
0
ARC
8
DEFAULT_255_1_388
10
11.1728261
20
-0.5497288
40
0.512641
50
84.019632
51
89.3326067
0
LINE
8
DEFAULT_255_1_388
10
12.6443789
20
0.6757898
11
12.8187668
21
0.6757898
0
LINE
8
DEFAULT_255_1_388
10
12.8187668
20
0.6757898
11
12.8187668
21
-0.218739
0
LINE
8
DEFAULT_255_1_388
10
12.386863
20
-0.6560642
11
12.3407812
21
-0.6578713
0
LINE
8
DEFAULT_255_1_388
10
11.8664099
20
-0.2205461
11
11.8664099
21
0.6757898
0
LINE
8
DEFAULT_255_1_388
10
11.8664099
20
0.6757898
11
12.0380871
21
0.6757898
0
LINE
8
DEFAULT_255_1_388
10
12.0380871
20
0.6757898
11
12.0380871
21
-0.2151247
0
LINE
8
DEFAULT_255_1_388
10
12.6443789
20
-0.2160283
11
12.6443789
21
0.6757898
0
ARC
8
DEFAULT_255_1_388
10
12.3290466
20
-0.220973
40
0.4897252
50
343.0897723
51
0.2613727
0
ARC
8
DEFAULT_255_1_388
10
12.4222438
20
-0.246973
40
0.3930016
50
315.3344451
51
342.7642569
0
ARC
8
DEFAULT_255_1_388
10
12.3970933
20
-0.2208915
40
0.4292244
50
284.6605441
51
315.2183439
0
ARC
8
DEFAULT_255_1_388
10
12.3458713
20
-0.0469492
40
0.6104926
50
273.8500371
51
285.1796441
0
ARC
8
DEFAULT_255_1_388
10
12.3359778
20
-0.0085238
40
0.6493653
50
257.6315393
51
270.4238259
0
ARC
8
DEFAULT_255_1_388
10
12.2881861
20
-0.2134085
40
0.4390079
50
230.6086859
51
257.9965362
0
ARC
8
DEFAULT_255_1_388
10
12.2735919
20
-0.2363357
40
0.4120404
50
227.745033
51
230.1538266
0
ARC
8
DEFAULT_255_1_388
10
12.2582449
20
-0.2547747
40
0.3880742
50
189.2524335
51
227.5915299
0
ARC
8
DEFAULT_255_1_388
10
12.429432
20
-0.2179265
40
0.5630282
50
180.2665782
51
190.1525221
0
ARC
8
DEFAULT_255_1_388
10
12.4544048
20
-0.2182746
40
0.4163296
50
179.566507
51
191.9954402
0
ARC
8
DEFAULT_255_1_388
10
12.3162736
20
-0.2490849
40
0.274815
50
191.6974619
51
215.1403758
0
ARC
8
DEFAULT_255_1_388
10
12.2895129
20
-0.2650311
40
0.2437647
50
215.6958251
51
224.8509274
0
ARC
8
DEFAULT_255_1_388
10
12.2957605
20
-0.2560984
40
0.2545012
50
225.2846515
51
255.0110023
0
ARC
8
DEFAULT_255_1_388
10
12.3322051
20
-0.1307983
40
0.384974
50
254.5945979
51
267.9129427
0
ARC
8
DEFAULT_255_1_388
10
12.3405744
20
-0.0090556
40
0.506956
50
267.4687563
51
270.0233681
0
ARC
8
DEFAULT_255_1_388
10
12.343974
20
-0.0750712
40
0.440952
50
269.5851384
51
281.1845308
0
ARC
8
DEFAULT_255_1_388
10
12.3753344
20
-0.2272531
40
0.2855802
50
280.9345159
51
300.9740496
0
ARC
8
DEFAULT_255_1_388
10
12.3992524
20
-0.2712872
40
0.2355257
50
301.4982546
51
315.1468616
0
ARC
8
DEFAULT_255_1_388
10
12.383002
20
-0.2579512
40
0.2564594
50
315.5952932
51
345.6679188
0
ARC
8
DEFAULT_255_1_388
10
12.2570577
20
-0.2228765
40
0.3871766
50
345.2525685
51
358.6303941
0
ARC
8
DEFAULT_255_1_388
10
12.1426967
20
-0.2161305
40
0.5016822
50
358.1723541
51
0.0116795
0
LINE
8
DEFAULT_255_1_388
10
13.4142158
20
-0.0127263
11
13.4142158
21
-0.1491645
0
LINE
8
DEFAULT_255_1_388
10
13.4142158
20
-0.1491645
11
12.9732763
21
-0.1491645
0
LINE
8
DEFAULT_255_1_388
10
12.9732763
20
-0.1491645
11
12.9732763
21
-0.0127263
0
LINE
8
DEFAULT_255_1_388
10
12.9732763
20
-0.0127263
11
13.4142158
21
-0.0127263
0
LINE
8
DEFAULT_255_1_388
10
13.8027485
20
-0.0371225
11
13.8027485
21
0.0993157
0
LINE
8
DEFAULT_255_1_388
10
13.8027485
20
0.0993157
11
13.9283439
21
0.0993157
0
LINE
8
DEFAULT_255_1_388
10
13.7141992
20
0.3306282
11
13.5470397
21
0.3306282
0
LINE
8
DEFAULT_255_1_388
10
13.5352934
20
-0.2928312
11
13.7033564
21
-0.2928312
0
LINE
8
DEFAULT_255_1_388
10
13.9283439
20
-0.0371225
11
13.8027485
21
-0.0371225
0
ARC
8
DEFAULT_255_1_388
10
13.9250666
20
0.4809922
40
0.3816905
50
270.491971
51
281.8953028
0
ARC
8
DEFAULT_255_1_388
10
13.9522093
20
0.3570199
40
0.2547877
50
281.6690378
51
301.2943765
0
ARC
8
DEFAULT_255_1_388
10
13.9713544
20
0.3219926
40
0.2149197
50
301.7834992
51
311.754567
0
ARC
8
DEFAULT_255_1_388
10
13.9816586
20
0.310565
40
0.1995326
50
311.7325027
51
354.2803031
0
ARC
8
DEFAULT_255_1_388
10
13.8999002
20
0.324628
40
0.2823461
50
353.0941646
51
0.1174696
0
ARC
8
DEFAULT_255_1_388
10
13.8480559
20
0.3299874
40
0.3342238
50
359.1804452
51
15.0452323
0
ARC
8
DEFAULT_255_1_388
10
13.9994618
20
0.3741546
40
0.1765747
50
13.957816
51
77.6713812
0
ARC
8
DEFAULT_255_1_388
10
13.9559854
20
0.2183464
40
0.3381982
50
76.111571
51
90.7028736
0
ARC
8
DEFAULT_255_1_388
10
13.9493266
20
0.249125
40
0.3074046
50
89.5321574
51
103.5319393
0
ARC
8
DEFAULT_255_1_388
10
13.9267649
20
0.3390443
40
0.2147041
50
103.2930114
51
133.5619756
0
ARC
8
DEFAULT_255_1_388
10
13.9217591
20
0.3457351
40
0.2064084
50
133.8349761
51
173.5343225
0
ARC
8
DEFAULT_255_1_388
10
14.0031248
20
0.3313144
40
0.2889266
50
172.5097183
51
180.1360699
0
ARC
8
DEFAULT_255_1_388
10
13.8961012
20
0.335188
40
0.3490913
50
155.3483706
51
180.7484035
0
ARC
8
DEFAULT_255_1_388
10
13.8905988
20
0.3319519
40
0.3454798
50
131.5745177
51
154.4799474
0
ARC
8
DEFAULT_255_1_388
10
13.925827
20
0.2963422
40
0.3955058
50
96.9874487
51
131.9690874
0
ARC
8
DEFAULT_255_1_388
10
13.9505163
20
0.1562407
40
0.537622
50
89.8592909
51
97.7827481
0
ARC
8
DEFAULT_255_1_388
10
13.9559272
20
0.126736
40
0.5671399
50
78.3654493
51
90.4132586
0
ARC
8
DEFAULT_255_1_388
10
13.9961913
20
0.3133918
40
0.3762034
50
56.6229818
51
78.6387103
0
ARC
8
DEFAULT_255_1_388
10
14.0203743
20
0.3556846
40
0.3275964
50
47.0254604
51
56.085558
0
ARC
8
DEFAULT_255_1_388
10
14.0225994
20
0.3601189
40
0.3228382
50
10.9207523
51
46.777927
0
ARC
8
DEFAULT_255_1_388
10
13.8691587
20
0.3246401
40
0.4802559
50
359.6364235
51
11.6087615
0
ARC
8
DEFAULT_255_1_388
10
14.0755753
20
0.3229404
40
0.273833
50
332.3549969
51
359.7179765
0
ARC
8
DEFAULT_255_1_388
10
14.0024154
20
0.3576285
40
0.3547505
50
325.2332381
51
332.8746682
0
ARC
8
DEFAULT_255_1_388
10
14.0195737
20
0.3456763
40
0.3338396
50
292.9803892
51
325.2391113
0
ARC
8
DEFAULT_255_1_388
10
13.9884932
20
0.4061679
40
0.4016959
50
292.542178
51
293.6931461
0
ARC
8
DEFAULT_255_1_388
10
14.0328504
20
-0.3203964
40
0.372079
50
57.643292
51
72.8626085
0
ARC
8
DEFAULT_255_1_388
10
14.0727339
20
-0.2557727
40
0.2961455
50
36.7246661
51
57.4701329
0
ARC
8
DEFAULT_255_1_388
10
14.0714496
20
-0.254353
40
0.2963321
50
8.054535
51
36.3561529
0
ARC
8
DEFAULT_255_1_388
10
13.9744168
20
-0.2717927
40
0.3948682
50
359.8316595
51
8.5873361
0
ARC
8
DEFAULT_255_1_388
10
13.9321642
20
-0.277203
40
0.4371398
50
343.9831631
51
0.557075
0
ARC
8
DEFAULT_255_1_388
10
14.0318692
20
-0.3045037
40
0.3337749
50
311.6358204
51
343.7652116
0
ARC
8
DEFAULT_255_1_388
10
13.9892946
20
-0.2565045
40
0.3979351
50
279.7829743
51
311.625622
0
ARC
8
DEFAULT_255_1_388
10
13.9554081
20
-0.0948358
40
0.5630417
50
269.7285092
51
280.3857694
0
ARC
8
DEFAULT_255_1_388
10
13.9484394
20
-0.0994759
40
0.5584119
50
256.6827433
51
270.4412869
0
ARC
8
DEFAULT_255_1_388
10
13.910338
20
-0.2552302
40
0.3980715
50
229.4223821
51
256.8554507
0
ARC
8
DEFAULT_255_1_388
10
13.8636934
20
-0.3077317
40
0.3278564
50
181.8183354
51
229.6455015
0
ARC
8
DEFAULT_255_1_388
10
13.9806543
20
-0.2930175
40
0.4453611
50
179.9760419
51
183.2330638
0
ARC
8
DEFAULT_255_1_388
10
13.9613096
20
-0.2953219
40
0.2579652
50
179.4467996
51
196.2871626
0
ARC
8
DEFAULT_255_1_388
10
13.9064549
20
-0.3103291
40
0.2011057
50
196.5661293
51
227.7059371
0
ARC
8
DEFAULT_255_1_388
10
13.9249156
20
-0.2896845
40
0.2287994
50
227.7653015
51
257.8763321
0
ARC
8
DEFAULT_255_1_388
10
13.950224
20
-0.1836039
40
0.3378385
50
257.4583525
51
270.4267406
0
ARC
8
DEFAULT_255_1_388
10
13.9553489
20
-0.150977
40
0.3704652
50
269.5965319
51
280.8788143
0
ARC
8
DEFAULT_255_1_388
10
13.9811717
20
-0.2799471
40
0.2389415
50
280.6347277
51
299.8594068
0
ARC
8
DEFAULT_255_1_388
10
14.0026487
20
-0.3207264
40
0.19289
50
300.3575552
51
314.5515667
0
ARC
8
DEFAULT_255_1_388
10
13.9933163
20
-0.3138975
40
0.204312
50
315.0730962
51
345.0429362
0
ARC
8
DEFAULT_255_1_388
10
13.889467
20
-0.2836461
40
0.31246
50
344.598526
51
357.9270698
0
ARC
8
DEFAULT_255_1_388
10
13.7884975
20
-0.2767295
40
0.4136265
50
357.4755098
51
0.0224936
0
ARC
8
DEFAULT_255_1_388
10
13.9037853
20
-0.2739901
40
0.2983498
50
359.5051035
51
13.4236939
0
ARC
8
DEFAULT_255_1_388
10
14.0012942
20
-0.2490363
40
0.1977186
50
12.9497905
51
48.7550905
0
ARC
8
DEFAULT_255_1_388
10
13.9807864
20
-0.2770627
40
0.2323321
50
49.509109
51
72.1832965
0
ARC
8
DEFAULT_255_1_388
10
13.9405333
20
-0.3965368
40
0.358397
50
71.9008458
51
84.3555134
0
ARC
8
DEFAULT_255_1_388
10
13.9223727
20
-0.5497288
40
0.512641
50
84.019632
51
89.3326067
0
LINE
8
DEFAULT_255_1_388
10
15.4942211
20
-0.6398
11
15.3686257
21
-0.2964455
0
LINE
8
DEFAULT_255_1_388
10
15.3686257
20
-0.2964455
11
14.8174514
21
-0.2964455
0
LINE
8
DEFAULT_255_1_388
10
14.8174514
20
-0.2964455
11
14.693663
21
-0.6398
0
LINE
8
DEFAULT_255_1_388
10
14.693663
20
-0.6398
11
14.5147573
21
-0.6398
0
LINE
8
DEFAULT_255_1_388
10
14.5147573
20
-0.6398
11
15.0171391
21
0.6757898
0
LINE
8
DEFAULT_255_1_388
10
15.0171391
20
0.6757898
11
15.1689379
21
0.6757898
0
LINE
8
DEFAULT_255_1_388
10
15.1689379
20
0.6757898
11
15.6722233
21
-0.6398
0
LINE
8
DEFAULT_255_1_388
10
15.6722233
20
-0.6398
11
15.4942211
21
-0.6398
0
LINE
8
DEFAULT_255_1_388
10
15.0930385
20
0.4616451
11
14.8698581
21
-0.1536823
0
LINE
8
DEFAULT_255_1_388
10
14.8698581
20
-0.1536823
11
15.3171225
21
-0.1536823
0
LINE
8
DEFAULT_255_1_388
10
15.3171225
20
-0.1536823
11
15.0930385
21
0.4616451
0
LINE
8
DEFAULT_255_1_388
10
16.1709909
20
-0.0127263
11
16.1709909
21
-0.1491645
0
LINE
8
DEFAULT_255_1_388
10
16.1709909
20
-0.1491645
11
15.7300515
21
-0.1491645
0
LINE
8
DEFAULT_255_1_388
10
15.7300515
20
-0.1491645
11
15.7300515
21
-0.0127263
0
LINE
8
DEFAULT_255_1_388
10
15.7300515
20
-0.0127263
11
16.1709909
21
-0.0127263
0
LINE
8
DEFAULT_255_1_388
10
17.2118972
20
-0.6398
11
17.0863017
21
-0.2964455
0
LINE
8
DEFAULT_255_1_388
10
17.0863017
20
-0.2964455
11
16.5351274
21
-0.2964455
0
LINE
8
DEFAULT_255_1_388
10
16.5351274
20
-0.2964455
11
16.4113391
21
-0.6398
0
LINE
8
DEFAULT_255_1_388
10
16.4113391
20
-0.6398
11
16.2324333
21
-0.6398
0
LINE
8
DEFAULT_255_1_388
10
16.2324333
20
-0.6398
11
16.7348151
21
0.6757898
0
LINE
8
DEFAULT_255_1_388
10
16.7348151
20
0.6757898
11
16.886614
21
0.6757898
0
LINE
8
DEFAULT_255_1_388
10
16.886614
20
0.6757898
11
17.3898994
21
-0.6398
0
LINE
8
DEFAULT_255_1_388
10
17.3898994
20
-0.6398
11
17.2118972
21
-0.6398
0
LINE
8
DEFAULT_255_1_388
10
16.8107146
20
0.4616451
11
16.5875341
21
-0.1536823
0
LINE
8
DEFAULT_255_1_388
10
16.5875341
20
-0.1536823
11
17.0347985
21
-0.1536823
0
LINE
8
DEFAULT_255_1_388
10
17.0347985
20
-0.1536823
11
16.8107146
21
0.4616451
0
LINE
8
DEFAULT_255_1_388
10
17.9311345
20
-0.6398
11
17.566998
21
-0.6398
0
LINE
8
DEFAULT_255_1_388
10
17.566998
20
-0.6398
11
17.566998
21
0.6757898
0
LINE
8
DEFAULT_255_1_388
10
17.566998
20
0.6757898
11
17.938363
21
0.6757898
0
LINE
8
DEFAULT_255_1_388
10
18.5184514
20
0.0622696
11
18.5184514
21
-0.0217619
0
LINE
8
DEFAULT_255_1_388
10
17.9428808
20
0.5330267
11
17.7404824
21
0.5330267
0
LINE
8
DEFAULT_255_1_388
10
17.7404824
20
0.5330267
11
17.7404824
21
-0.4979404
0
LINE
8
DEFAULT_255_1_388
10
17.7404824
20
-0.4979404
11
17.9230024
21
-0.4979404
0
LINE
8
DEFAULT_255_1_388
10
18.3467741
20
-0.0181477
11
18.3467741
21
0.0586553
0
ARC
8
DEFAULT_255_1_388
10
17.9427425
20
0.0159436
40
0.6598608
50
75.4100343
51
90.3802731
0
ARC
8
DEFAULT_255_1_388
10
17.968567
20
0.1235691
40
0.5492049
50
60.1455157
51
75.1889627
0
ARC
8
DEFAULT_255_1_388
10
17.9864262
20
0.1546914
40
0.5133226
50
26.525419
51
60.1451222
0
ARC
8
DEFAULT_255_1_388
10
17.8604048
20
0.0878642
40
0.6559324
50
7.4029944
51
26.832209
0
ARC
8
DEFAULT_255_1_388
10
17.6810445
20
0.0599229
40
0.8374103
50
0.1605597
51
7.7176135
0
ARC
8
DEFAULT_255_1_388
10
17.6994845
20
-0.0260679
40
0.8189782
50
348.7289744
51
0.30125
0
ARC
8
DEFAULT_255_1_388
10
17.8858309
20
-0.0630844
40
0.628991
50
333.0706936
51
348.7181455
0
ARC
8
DEFAULT_255_1_388
10
17.9945937
20
-0.1221551
40
0.5052808
50
299.2531435
51
333.4571133
0
ARC
8
DEFAULT_255_1_388
10
17.9539968
20
-0.0450371
40
0.5924066
50
278.1072193
51
299.0340218
0
ARC
8
DEFAULT_255_1_388
10
17.9252017
20
0.1245979
40
0.7644209
50
270.4446841
51
278.4508355
0
ARC
8
DEFAULT_255_1_388
10
17.9275501
20
0.02003
40
0.5179903
50
269.4969684
51
284.0204874
0
ARC
8
DEFAULT_255_1_388
10
17.9675219
20
-0.1335585
40
0.3592968
50
283.7699076
51
318.1557121
0
ARC
8
DEFAULT_255_1_388
10
17.9295764
20
-0.1051601
40
0.4065308
50
318.7417595
51
343.687252
0
ARC
8
DEFAULT_255_1_388
10
17.7266343
20
-0.0417725
40
0.6191194
50
343.3324891
51
355.8548594
0
ARC
8
DEFAULT_255_1_388
10
17.4905381
20
-0.0193281
40
0.856237
50
355.4988754
51
0.0789913
0
ARC
8
DEFAULT_255_1_388
10
17.578618
20
0.063408
40
0.7681709
50
359.6455047
51
9.8607559
0
ARC
8
DEFAULT_255_1_388
10
17.8441903
20
0.1113664
40
0.498312
50
9.6573037
51
26.1931522
0
ARC
8
DEFAULT_255_1_388
10
17.9485978
20
0.1598587
40
0.3832303
50
26.5777895
51
40.1533752
0
ARC
8
DEFAULT_255_1_388
10
17.9773643
20
0.182302
40
0.3467742
50
40.3839958
51
80.1430923
0
ARC
8
DEFAULT_255_1_388
10
17.9405899
20
0.0192486
40
0.5137832
50
79.2153636
51
89.7445174
0
LINE
8
DEFAULT_255_1_388
10
19.263892
20
-0.1247683
11
18.9539694
21
-0.1247683
0
LINE
8
DEFAULT_255_1_388
10
18.9539694
20
-0.1247683
11
18.9539694
21
-0.6398
0
LINE
8
DEFAULT_255_1_388
10
18.9539694
20
-0.6398
11
18.7804851
21
-0.6398
0
LINE
8
DEFAULT_255_1_388
10
18.7804851
20
-0.6398
11
18.7804851
21
0.6757898
0
LINE
8
DEFAULT_255_1_388
10
18.7804851
20
0.6757898
11
19.2656992
21
0.6757898
0
LINE
8
DEFAULT_255_1_388
10
18.9539694
20
0.5330267
11
18.9539694
21
0.0170914
0
LINE
8
DEFAULT_255_1_388
10
18.9539694
20
0.0170914
11
19.2656992
21
0.0170914
0
LINE
8
DEFAULT_255_1_388
10
19.2756384
20
0.5330267
11
18.9539694
21
0.5330267
0
ARC
8
DEFAULT_255_1_388
10
19.2704365
20
-0.0058666
40
0.6816729
50
78.8380084
51
90.398184
0
ARC
8
DEFAULT_255_1_388
10
19.3172395
20
0.2214796
40
0.449571
50
58.9633273
51
79.0810717
0
ARC
8
DEFAULT_255_1_388
10
19.351178
20
0.2844823
40
0.3781049
50
48.0194715
51
58.4475592
0
ARC
8
DEFAULT_255_1_388
10
19.36116
20
0.2940818
40
0.3642936
50
3.3374546
51
48.1766642
0
ARC
8
DEFAULT_255_1_388
10
19.2226407
20
0.2741581
40
0.5038766
50
359.9483251
51
4.6822857
0
ARC
8
DEFAULT_255_1_388
10
19.236633
20
0.2693779
40
0.4899031
50
346.1879032
51
0.5059221
0
ARC
8
DEFAULT_255_1_388
10
19.3895121
20
0.2296763
40
0.3319729
50
310.8832219
51
346.5426612
0
ARC
8
DEFAULT_255_1_388
10
19.354797
20
0.2765853
40
0.3901853
50
286.6925305
51
310.228778
0
ARC
8
DEFAULT_255_1_388
10
19.29077
20
0.4779585
40
0.6014737
50
274.6848219
51
287.0247342
0
ARC
8
DEFAULT_255_1_388
10
19.2654248
20
0.7264088
40
0.8511785
50
269.8968222
51
275.0192639
0
ARC
8
DEFAULT_255_1_388
10
19.2685242
20
0.4926144
40
0.4755314
50
269.6596206
51
279.4150542
0
ARC
8
DEFAULT_255_1_388
10
19.29747
20
0.3248945
40
0.3053379
50
279.2050006
51
294.9901776
0
ARC
8
DEFAULT_255_1_388
10
19.3301334
20
0.2520353
40
0.2255036
50
295.2886769
51
311.2912669
0
ARC
8
DEFAULT_255_1_388
10
19.3381075
20
0.2401938
40
0.2113522
50
311.7853512
51
347.2860549
0
ARC
8
DEFAULT_255_1_388
10
19.2274237
20
0.268643
40
0.3256011
50
346.6891629
51
0.1057086
0
ARC
8
DEFAULT_255_1_388
10
19.1351697
20
0.2719247
40
0.417863
50
359.63239
51
359.9961329
0
ARC
8
DEFAULT_255_1_388
10
19.2516302
20
0.2746987
40
0.3014155
50
359.4673371
51
15.5931159
0
ARC
8
DEFAULT_255_1_388
10
19.3219364
20
0.2936937
40
0.2285918
50
15.7441779
51
46.620186
0
ARC
8
DEFAULT_255_1_388
10
19.3053124
20
0.2745361
40
0.2539359
50
46.8628482
51
75.6676625
0
ARC
8
DEFAULT_255_1_388
10
19.2722181
20
0.1554243
40
0.3775415
50
75.2763152
51
88.2916439
0
ARC
8
DEFAULT_255_1_388
10
19.265618
20
0.0552097
40
0.4779221
50
87.8589087
51
88.7986197
0
LINE
8
DEFAULT_255_1_388
10
11.7490646
20
62.9216516
11
11.7490646
21
62.7797919
0
LINE
8
DEFAULT_255_1_388
10
11.7490646
20
62.7797919
11
11.1969868
21
62.7797919
0
LINE
8
DEFAULT_255_1_388
10
11.1969868
20
62.7797919
11
11.1969868
21
62.1988
0
LINE
8
DEFAULT_255_1_388
10
11.1969868
20
62.1988
11
11.0235024
21
62.1988
0
LINE
8
DEFAULT_255_1_388
10
11.0235024
20
62.1988
11
11.0235024
21
63.5143898
0
LINE
8
DEFAULT_255_1_388
10
11.0235024
20
63.5143898
11
11.8385175
21
63.5143898
0
LINE
8
DEFAULT_255_1_388
10
11.8385175
20
63.5143898
11
11.8385175
21
63.3716267
0
LINE
8
DEFAULT_255_1_388
10
11.8385175
20
63.3716267
11
11.1969868
21
63.3716267
0
LINE
8
DEFAULT_255_1_388
10
11.1969868
20
63.3716267
11
11.1969868
21
62.9216516
0
LINE
8
DEFAULT_255_1_388
10
11.1969868
20
62.9216516
11
11.7490646
21
62.9216516
0
LINE
8
DEFAULT_255_1_388
10
13.3772878
20
63.1339892
11
13.2028999
21
63.1339892
0
LINE
8
DEFAULT_255_1_388
10
12.4240273
20
62.5801042
11
12.5984152
21
62.5801042
0
ARC
8
DEFAULT_255_1_388
10
13.2769726
20
64.1403821
40
1.4087688
50
248.9196578
51
254.1442424
0
ARC
8
DEFAULT_255_1_388
10
13.0879606
20
63.6537805
40
0.8867498
50
241.6337352
51
249.0064643
0
ARC
8
DEFAULT_255_1_388
10
12.9159919
20
63.3386764
40
0.5277799
50
230.4982261
51
241.8087583
0
ARC
8
DEFAULT_255_1_388
10
12.827769
20
63.2262686
40
0.3849419
50
227.4062979
51
229.9877433
0
ARC
8
DEFAULT_255_1_388
10
12.7729037
20
63.1727155
40
0.3084129
50
200.6782127
51
228.1765252
0
ARC
8
DEFAULT_255_1_388
10
12.7810406
20
63.1710277
40
0.315461
50
179.506278
51
199.8695278
0
ARC
8
DEFAULT_255_1_388
10
12.7799994
20
63.1793671
40
0.3144584
50
132.4834401
51
181.0242352
0
ARC
8
DEFAULT_255_1_388
10
12.8469199
20
63.1161788
40
0.4063094
50
129.2526113
51
133.4249077
0
ARC
8
DEFAULT_255_1_388
10
12.8634791
20
63.0913619
40
0.436014
50
101.9878945
51
128.8741833
0
ARC
8
DEFAULT_255_1_388
10
12.9083207
20
62.897736
40
0.6347415
50
89.5906376
51
102.3170567
0
ARC
8
DEFAULT_255_1_388
10
12.9162518
20
62.9335586
40
0.5989122
50
77.2359491
51
90.3248968
0
ARC
8
DEFAULT_255_1_388
10
12.9395449
20
63.0423554
40
0.4876594
50
63.8379856
51
77.0808925
0
ARC
8
DEFAULT_255_1_388
10
12.9707983
20
63.1005882
40
0.4216191
50
45.9863127
51
64.1608798
0
ARC
8
DEFAULT_255_1_388
10
13.0001376
20
63.134099
40
0.3771394
50
32.2747934
51
45.6544796
0
ARC
8
DEFAULT_255_1_388
10
13.0076183
20
63.1362426
40
0.3696765
50
359.6507495
51
32.6129943
0
ARC
8
DEFAULT_255_1_388
10
12.9015365
20
63.1367788
40
0.3013762
50
359.469654
51
14.983205
0
ARC
8
DEFAULT_255_1_388
10
12.9808617
20
63.1580288
40
0.2192542
50
14.9781954
51
48.2004799
0
ARC
8
DEFAULT_255_1_388
10
12.9623728
20
63.1347937
40
0.2489048
50
48.5926661
51
74.1242559
0
ARC
8
DEFAULT_255_1_388
10
12.9248531
20
63.0109607
40
0.3782845
50
73.7889321
51
86.6653996
0
ARC
8
DEFAULT_255_1_388
10
12.9133345
20
62.8751955
40
0.5145025
50
86.2642725
51
90.0533288
0
ARC
8
DEFAULT_255_1_388
10
12.9101438
20
62.9196376
40
0.4700681
50
89.669455
51
99.2313411
0
ARC
8
DEFAULT_255_1_388
10
12.8828598
20
63.0821401
40
0.3052945
50
99.0695987
51
113.7659242
0
ARC
8
DEFAULT_255_1_388
10
12.8520592
20
63.1547772
40
0.226407
50
114.0402885
51
127.9848946
0
ARC
8
DEFAULT_255_1_388
10
12.8250068
20
63.1880884
40
0.1835045
50
127.7287217
51
176.7106493
0
ARC
8
DEFAULT_255_1_388
10
12.9013734
20
63.176721
40
0.2604907
50
175.1780759
51
180.0581213
0
ARC
8
DEFAULT_255_1_388
10
12.8065077
20
63.1753411
40
0.1656287
50
179.6140658
51
228.124674
0
ARC
8
DEFAULT_255_1_388
10
12.8562435
20
63.221394
40
0.2332038
50
226.5785315
51
230.8792476
0
ARC
8
DEFAULT_255_1_388
10
12.9091921
20
63.2916908
40
0.3211664
50
231.4636401
51
241.9261664
0
ARC
8
DEFAULT_255_1_388
10
13.0438705
20
63.5395349
40
0.6032345
50
241.7177136
51
248.3259138
0
ARC
8
DEFAULT_255_1_388
10
13.1997299
20
63.9256771
40
1.0196417
50
248.2007377
51
252.4527713
0
ARC
8
DEFAULT_255_1_388
10
13.3350826
20
64.3441092
40
1.4594143
50
252.3388938
51
254.347037
0
ARC
8
DEFAULT_255_1_388
10
12.4866127
20
61.3093095
40
1.6917621
50
71.0197462
51
74.4085467
0
ARC
8
DEFAULT_255_1_388
10
12.6773214
20
61.8598144
40
1.1091618
50
66.1845203
51
71.086519
0
ARC
8
DEFAULT_255_1_388
10
12.8523763
20
62.2539439
40
0.6779073
50
59.3537334
51
66.269255
0
ARC
8
DEFAULT_255_1_388
10
12.9523489
20
62.4230777
40
0.4814366
50
49.1021732
51
59.3294421
0
ARC
8
DEFAULT_255_1_388
10
13.0444478
20
62.5280575
40
0.3417875
50
32.7924183
51
49.2503526
0
ARC
8
DEFAULT_255_1_388
10
13.0794092
20
62.5530311
40
0.2988789
50
31.121225
51
32.3977355
0
ARC
8
DEFAULT_255_1_388
10
13.070627
20
62.5497728
40
0.3080861
50
8.1116803
51
30.7958224
0
ARC
8
DEFAULT_255_1_388
10
12.9794615
20
62.5342437
40
0.4005385
50
359.8390945
51
8.4707348
0
ARC
8
DEFAULT_255_1_388
10
13.0498663
20
62.5287751
40
0.3301608
50
337.4732479
51
0.7538283
0
ARC
8
DEFAULT_255_1_388
10
13.0699688
20
62.5265554
40
0.3107929
50
307.5917028
51
336.4313755
0
ARC
8
DEFAULT_255_1_388
10
13.0188746
20
62.5833509
40
0.3870096
50
307.6560665
51
308.4561779
0
ARC
8
DEFAULT_255_1_388
10
12.9922962
20
62.6241832
40
0.435591
50
284.3733666
51
307.1426212
0
ARC
8
DEFAULT_255_1_388
10
12.9365857
20
62.8291391
40
0.6479685
50
272.4384566
51
284.6464689
0
ARC
8
DEFAULT_255_1_388
10
12.9223241
20
63.0315434
40
0.8508149
50
269.9708517
51
272.8180721
0
ARC
8
DEFAULT_255_1_388
10
12.9174924
20
62.8023283
40
0.6216151
50
248.2707343
51
270.4054609
0
ARC
8
DEFAULT_255_1_388
10
12.9113796
20
62.7808673
40
0.5994203
50
246.1380358
51
248.054058
0
ARC
8
DEFAULT_255_1_388
10
12.8642938
20
62.6819705
40
0.4899388
50
233.1671897
51
246.4951656
0
ARC
8
DEFAULT_255_1_388
10
12.8019573
20
62.5978137
40
0.3852115
50
215.3403381
51
233.084328
0
ARC
8
DEFAULT_255_1_388
10
12.7712937
20
62.5755093
40
0.3472969
50
179.2419235
51
215.2648426
0
ARC
8
DEFAULT_255_1_388
10
12.8576488
20
62.5770979
40
0.259251
50
179.3355796
51
199.1045873
0
ARC
8
DEFAULT_255_1_388
10
12.820263
20
62.5673223
40
0.2207454
50
199.8830064
51
232.7061328
0
ARC
8
DEFAULT_255_1_388
10
12.8733904
20
62.6341456
40
0.306101
50
232.3736206
51
255.5136621
0
ARC
8
DEFAULT_255_1_388
10
12.911741
20
62.7741177
40
0.4512213
50
255.2447928
51
267.5318292
0
ARC
8
DEFAULT_255_1_388
10
12.9215877
20
62.9127709
40
0.5901825
50
267.1564563
51
270.0294721
0
ARC
8
DEFAULT_255_1_388
10
12.9247203
20
62.8628623
40
0.5402814
50
269.6999944
51
278.1662446
0
ARC
8
DEFAULT_255_1_388
10
12.953523
20
62.6681974
40
0.3435003
50
278.0229022
51
290.6255326
0
ARC
8
DEFAULT_255_1_388
10
12.9926397
20
62.5638547
40
0.2320666
50
290.6616368
51
307.0374127
0
ARC
8
DEFAULT_255_1_388
10
13.0264297
20
62.522404
40
0.1786372
50
306.3942078
51
355.303191
0
ARC
8
DEFAULT_255_1_388
10
12.968859
20
62.5310186
40
0.2367516
50
354.3662092
51
0.0709489
0
ARC
8
DEFAULT_255_1_388
10
12.9848458
20
62.5335561
40
0.2207761
50
359.4175379
51
16.1975911
0
ARC
8
DEFAULT_255_1_388
10
13.0360576
20
62.5475954
40
0.1676828
50
16.4721294
51
52.6261798
0
ARC
8
DEFAULT_255_1_388
10
12.9437084
20
62.4256606
40
0.3206412
50
52.7381828
51
62.4979144
0
ARC
8
DEFAULT_255_1_388
10
12.7878836
20
62.1324236
40
0.6527035
50
62.2517425
51
68.1219454
0
ARC
8
DEFAULT_255_1_388
10
12.5944324
20
61.6569951
40
1.1659797
50
68.006043
51
71.8055127
0
ARC
8
DEFAULT_255_1_388
10
12.3924232
20
61.0511723
40
1.8045908
50
71.718361
51
73.9260743
0
LINE
8
DEFAULT_255_1_388
10
13.5336044
20
62.6605214
11
13.5336044
21
62.6912426
0
LINE
8
DEFAULT_255_1_388
10
14.3630766
20
62.7093139
11
14.3630766
21
62.6397395
0
LINE
8
DEFAULT_255_1_388
10
14.3630766
20
62.6397395
11
13.7007639
21
62.6397395
0
LINE
8
DEFAULT_255_1_388
10
14.2483239
20
62.4490874
11
14.3504267
21
62.3695737
0
LINE
8
DEFAULT_255_1_388
10
13.7061853
20
62.7770813
11
14.1959172
21
62.7770813
0
LINE
8
DEFAULT_255_1_388
10
14.1959172
20
62.7770813
11
14.1959172
21
62.7897312
0
ARC
8
DEFAULT_255_1_388
10
13.9767805
20
62.673021
40
0.4923176
50
252.326534
51
270.5809615
0
ARC
8
DEFAULT_255_1_388
10
13.953727
20
62.589694
40
0.4059384
50
223.3000488
51
251.8562489
0
ARC
8
DEFAULT_255_1_388
10
13.977505
20
62.6127898
40
0.4390832
50
190.9374369
51
223.3654369
0
ARC
8
DEFAULT_255_1_388
10
14.1715728
20
62.6566598
40
0.63798
50
179.6531919
51
191.4988561
0
ARC
8
DEFAULT_255_1_388
10
14.1852755
20
62.6948571
40
0.6516811
50
167.4005523
51
180.3177836
0
ARC
8
DEFAULT_255_1_388
10
14.0669426
20
62.7198853
40
0.5307402
50
154.1835149
51
167.2508278
0
ARC
8
DEFAULT_255_1_388
10
13.9959017
20
62.7572925
40
0.4505076
50
134.3150225
51
154.5315008
0
ARC
8
DEFAULT_255_1_388
10
13.9714352
20
62.778755
40
0.4180662
50
122.8617482
51
133.9707159
0
ARC
8
DEFAULT_255_1_388
10
13.9597959
20
62.8037882
40
0.3907416
50
89.8248474
51
123.4199325
0
ARC
8
DEFAULT_255_1_388
10
13.9654257
20
62.7310352
40
0.4635141
50
74.7874349
51
90.5482648
0
ARC
8
DEFAULT_255_1_388
10
13.9984721
20
62.8530987
40
0.3370565
50
39.8178888
51
74.7634383
0
ARC
8
DEFAULT_255_1_388
10
13.9407963
20
62.8081356
40
0.4101553
50
16.8990848
51
39.4830125
0
ARC
8
DEFAULT_255_1_388
10
13.7276578
20
62.7398711
40
0.6339427
50
4.9634768
51
17.2027767
0
ARC
8
DEFAULT_255_1_388
10
13.4555983
20
62.71116
40
0.9074803
50
359.8834402
51
5.2832409
0
ARC
8
DEFAULT_255_1_388
10
14.134834
20
62.6471981
40
0.4341343
50
180.9844233
51
194.9402766
0
ARC
8
DEFAULT_255_1_388
10
14.0167506
20
62.614917
40
0.3117211
50
194.8030557
51
222.0412897
0
ARC
8
DEFAULT_255_1_388
10
13.9825378
20
62.5809715
40
0.2635903
50
221.541578
51
268.8616004
0
ARC
8
DEFAULT_255_1_388
10
13.9907499
20
62.657028
40
0.3398611
50
267.7321071
51
270.009808
0
ARC
8
DEFAULT_255_1_388
10
13.9927562
20
62.6797178
40
0.3625561
50
269.6921218
51
280.4122297
0
ARC
8
DEFAULT_255_1_388
10
14.0125974
20
62.5763767
40
0.2573323
50
280.2257165
51
298.633539
0
ARC
8
DEFAULT_255_1_388
10
14.0251388
20
62.5499578
40
0.2281403
50
299.0485543
51
300.4624141
0
ARC
8
DEFAULT_255_1_388
10
13.9492368
20
62.6764796
40
0.3756797
50
300.6578578
51
322.037749
0
ARC
8
DEFAULT_255_1_388
10
13.9121889
20
62.7088266
40
0.4247956
50
321.671786
51
322.3059078
0
ARC
8
DEFAULT_255_1_388
10
14.0145452
20
62.5794267
40
0.3960488
50
276.9729088
51
328.0035579
0
ARC
8
DEFAULT_255_1_388
10
13.9833923
20
62.7459609
40
0.5652345
50
269.8358003
51
278.0581296
0
ARC
8
DEFAULT_255_1_388
10
13.9578222
20
62.829782
40
0.2274263
50
89.2017936
51
117.2852353
0
ARC
8
DEFAULT_255_1_388
10
13.9637972
20
62.8250637
40
0.2343798
50
118.0546404
51
137.4544511
0
ARC
8
DEFAULT_255_1_388
10
14.0059616
20
62.7867556
40
0.2913471
50
137.5109688
51
158.8516701
0
ARC
8
DEFAULT_255_1_388
10
14.1339717
20
62.7350902
40
0.4293804
50
158.5845496
51
170.1719753
0
ARC
8
DEFAULT_255_1_388
10
14.2656052
20
62.7089519
40
0.5635533
50
169.8378964
51
173.0563877
0
ARC
8
DEFAULT_255_1_388
10
13.7371336
20
62.7664187
40
0.4593755
50
2.9089079
51
12.88469
0
ARC
8
DEFAULT_255_1_388
10
13.8913255
20
62.8027082
40
0.3009753
50
12.6957404
51
28.6405841
0
ARC
8
DEFAULT_255_1_388
10
13.9522752
20
62.8342577
40
0.232366
50
29.016559
51
41.1492981
0
ARC
8
DEFAULT_255_1_388
10
13.9750731
20
62.854108
40
0.2021373
50
41.1646967
51
85.001362
0
ARC
8
DEFAULT_255_1_388
10
13.9614735
20
62.7714775
40
0.2857091
50
83.728216
51
90.0968824
0
LINE
8
DEFAULT_255_1_388
10
15.0290036
20
63.1818781
11
15.0290036
21
63.026465
0
LINE
8
DEFAULT_255_1_388
10
14.7235988
20
62.8927375
11
14.7235988
21
62.1988
0
LINE
8
DEFAULT_255_1_388
10
14.7235988
20
62.1988
11
14.5564394
21
62.1988
0
LINE
8
DEFAULT_255_1_388
10
14.5564394
20
62.1988
11
14.5564394
21
63.1764567
0
LINE
8
DEFAULT_255_1_388
10
14.5564394
20
63.1764567
11
14.719081
21
63.1764567
0
LINE
8
DEFAULT_255_1_388
10
14.719081
20
63.1764567
11
14.7217917
21
63.0635112
0
ARC
8
DEFAULT_255_1_388
10
14.9540196
20
62.5698068
40
0.4627735
50
80.6751522
51
86.893806
0
ARC
8
DEFAULT_255_1_388
10
14.9472026
20
62.4606103
40
0.5721798
50
86.8046851
51
90.0423898
0
ARC
8
DEFAULT_255_1_388
10
14.9430445
20
62.7373197
40
0.2954939
50
89.2758283
51
106.6212906
0
ARC
8
DEFAULT_255_1_388
10
14.920047
20
62.8209009
40
0.2088351
50
107.1347109
51
157.6456887
0
ARC
8
DEFAULT_255_1_388
10
14.9968532
20
62.7781908
40
0.296292
50
155.6557383
51
157.256838
0
ARC
8
DEFAULT_255_1_388
10
14.9748147
20
62.9092472
40
0.296341
50
127.8167201
51
148.6300223
0
ARC
8
DEFAULT_255_1_388
10
14.9462894
20
62.9385066
40
0.2557782
50
91.3329934
51
126.7875218
0
ARC
8
DEFAULT_255_1_388
10
14.9548281
20
62.8581718
40
0.3363561
50
89.9858247
51
92.4688453
0
ARC
8
DEFAULT_255_1_388
10
14.9557774
20
62.8890114
40
0.3055179
50
85.3587643
51
90.1624243
0
ARC
8
DEFAULT_255_1_388
10
14.9652839
20
63.0019458
40
0.1921848
50
78.4019195
51
85.4592653
0
ARC
8
DEFAULT_255_1_388
10
14.98159
20
63.0797142
40
0.1127267
50
67.7849217
51
78.573798
0
ARC
8
DEFAULT_255_1_388
10
14.9937534
20
63.1112374
40
0.0789473
50
63.4805074
51
67.3074739
0
LINE
8
DEFAULT_255_1_388
10
15.364226
20
63.1764567
11
15.364226
21
62.1988
0
LINE
8
DEFAULT_255_1_388
10
15.364226
20
62.1988
11
15.1970666
21
62.1988
0
LINE
8
DEFAULT_255_1_388
10
15.1970666
20
62.1988
11
15.1970666
21
63.1764567
0
LINE
8
DEFAULT_255_1_388
10
15.1970666
20
63.1764567
11
15.364226
21
63.1764567
0
ARC
8
DEFAULT_255_1_388
10
15.2936028
20
63.4368428
40
0.1100948
50
161.4148232
51
180.5532607
0
ARC
8
DEFAULT_255_1_388
10
15.2796338
20
63.4406875
40
0.0956324
50
138.1830164
51
160.9307633
0
ARC
8
DEFAULT_255_1_388
10
15.2672525
20
63.4514313
40
0.0792417
50
104.6371663
51
138.0036136
0
ARC
8
DEFAULT_255_1_388
10
15.2793064
20
63.4101963
40
0.1221906
50
92.0601206
51
105.2198859
0
ARC
8
DEFAULT_255_1_388
10
15.2819428
20
63.3713583
40
0.161103
50
89.9790681
51
92.5006086
0
ARC
8
DEFAULT_255_1_388
10
15.2830604
20
63.3969998
40
0.1354654
50
78.0234649
51
90.4478111
0
ARC
8
DEFAULT_255_1_388
10
15.2934188
20
63.4435203
40
0.0878096
50
55.0521508
51
78.336297
0
ARC
8
DEFAULT_255_1_388
10
15.2990723
20
63.4530168
40
0.0767913
50
42.0506198
51
54.4508489
0
ARC
8
DEFAULT_255_1_388
10
15.2838756
20
63.4390821
40
0.0974091
50
1.7493657
51
42.1498724
0
ARC
8
DEFAULT_255_1_388
10
15.2552661
20
63.4358166
40
0.1261276
50
359.9832635
51
2.8353994
0
ARC
8
DEFAULT_255_1_388
10
15.2739071
20
63.4347412
40
0.1074916
50
342.1062453
51
0.5535864
0
ARC
8
DEFAULT_255_1_388
10
15.2899495
20
63.4303197
40
0.0908695
50
316.7110111
51
341.6513114
0
ARC
8
DEFAULT_255_1_388
10
15.2974927
20
63.4235607
40
0.0807447
50
285.4398289
51
316.5320129
0
ARC
8
DEFAULT_255_1_388
10
15.2851098
20
63.4647023
40
0.1237022
50
272.3543902
51
285.8951677
0
ARC
8
DEFAULT_255_1_388
10
15.2820808
20
63.5062742
40
0.1653687
50
269.9725761
51
272.8112722
0
ARC
8
DEFAULT_255_1_388
10
15.280986
20
63.4811727
40
0.1402709
50
258.8433431
51
270.4148607
0
ARC
8
DEFAULT_255_1_388
10
15.270864
20
63.4321739
40
0.0902407
50
238.54281
51
259.1289544
0
ARC
8
DEFAULT_255_1_388
10
15.2631962
20
63.4182694
40
0.0743817
50
222.5056676
51
237.9918132
0
ARC
8
DEFAULT_255_1_388
10
15.2775555
20
63.4313295
40
0.0937918
50
184.1070774
51
222.4604165
0
ARC
8
DEFAULT_255_1_388
10
15.3077969
20
63.4356538
40
0.1242838
50
179.9419581
51
185.0970785
0
LINE
8
DEFAULT_255_1_388
10
15.5892136
20
62.6605214
11
15.5892136
21
62.6912426
0
LINE
8
DEFAULT_255_1_388
10
16.4186857
20
62.7093139
11
16.4186857
21
62.6397395
0
LINE
8
DEFAULT_255_1_388
10
16.4186857
20
62.6397395
11
15.756373
21
62.6397395
0
LINE
8
DEFAULT_255_1_388
10
16.3039331
20
62.4490874
11
16.4060358
21
62.3695737
0
LINE
8
DEFAULT_255_1_388
10
15.7617944
20
62.7770813
11
16.2515263
21
62.7770813
0
LINE
8
DEFAULT_255_1_388
10
16.2515263
20
62.7770813
11
16.2515263
21
62.7897312
0
ARC
8
DEFAULT_255_1_388
10
16.0323897
20
62.673021
40
0.4923176
50
252.326534
51
270.5809615
0
ARC
8
DEFAULT_255_1_388
10
16.0093361
20
62.589694
40
0.4059384
50
223.3000488
51
251.8562489
0
ARC
8
DEFAULT_255_1_388
10
16.0331141
20
62.6127898
40
0.4390832
50
190.9374369
51
223.3654369
0
ARC
8
DEFAULT_255_1_388
10
16.2271819
20
62.6566598
40
0.63798
50
179.6531919
51
191.4988561
0
ARC
8
DEFAULT_255_1_388
10
16.2408846
20
62.6948571
40
0.6516811
50
167.4005523
51
180.3177836
0
ARC
8
DEFAULT_255_1_388
10
16.1225517
20
62.7198853
40
0.5307402
50
154.1835149
51
167.2508278
0
ARC
8
DEFAULT_255_1_388
10
16.0515108
20
62.7572925
40
0.4505076
50
134.3150225
51
154.5315008
0
ARC
8
DEFAULT_255_1_388
10
16.0270443
20
62.778755
40
0.4180662
50
122.8617482
51
133.9707159
0
ARC
8
DEFAULT_255_1_388
10
16.0154051
20
62.8037882
40
0.3907416
50
89.8248474
51
123.4199325
0
ARC
8
DEFAULT_255_1_388
10
16.0210349
20
62.7310352
40
0.4635141
50
74.7874349
51
90.5482648
0
ARC
8
DEFAULT_255_1_388
10
16.0540813
20
62.8530987
40
0.3370565
50
39.8178888
51
74.7634383
0
ARC
8
DEFAULT_255_1_388
10
15.9964055
20
62.8081356
40
0.4101553
50
16.8990848
51
39.4830125
0
ARC
8
DEFAULT_255_1_388
10
15.7832669
20
62.7398711
40
0.6339427
50
4.9634768
51
17.2027767
0
ARC
8
DEFAULT_255_1_388
10
15.5112074
20
62.71116
40
0.9074803
50
359.8834402
51
5.2832409
0
ARC
8
DEFAULT_255_1_388
10
16.1904432
20
62.6471981
40
0.4341343
50
180.9844233
51
194.9402766
0
ARC
8
DEFAULT_255_1_388
10
16.0723597
20
62.614917
40
0.3117211
50
194.8030557
51
222.0412897
0
ARC
8
DEFAULT_255_1_388
10
16.038147
20
62.5809715
40
0.2635903
50
221.541578
51
268.8616004
0
ARC
8
DEFAULT_255_1_388
10
16.046359
20
62.657028
40
0.3398611
50
267.7321071
51
270.009808
0
ARC
8
DEFAULT_255_1_388
10
16.0483654
20
62.6797178
40
0.3625561
50
269.6921218
51
280.4122297
0
ARC
8
DEFAULT_255_1_388
10
16.0682065
20
62.5763767
40
0.2573323
50
280.2257165
51
298.633539
0
ARC
8
DEFAULT_255_1_388
10
16.0807479
20
62.5499578
40
0.2281403
50
299.0485543
51
300.4624141
0
ARC
8
DEFAULT_255_1_388
10
16.0048459
20
62.6764796
40
0.3756797
50
300.6578578
51
322.037749
0
ARC
8
DEFAULT_255_1_388
10
15.9677981
20
62.7088266
40
0.4247956
50
321.671786
51
322.3059078
0
ARC
8
DEFAULT_255_1_388
10
16.0701544
20
62.5794267
40
0.3960488
50
276.9729088
51
328.0035579
0
ARC
8
DEFAULT_255_1_388
10
16.0390014
20
62.7459609
40
0.5652345
50
269.8358003
51
278.0581296
0
ARC
8
DEFAULT_255_1_388
10
16.0134313
20
62.829782
40
0.2274263
50
89.2017936
51
117.2852353
0
ARC
8
DEFAULT_255_1_388
10
16.0194064
20
62.8250637
40
0.2343798
50
118.0546404
51
137.4544511
0
ARC
8
DEFAULT_255_1_388
10
16.0615707
20
62.7867556
40
0.2913471
50
137.5109688
51
158.8516701
0
ARC
8
DEFAULT_255_1_388
10
16.1895808
20
62.7350902
40
0.4293804
50
158.5845496
51
170.1719753
0
ARC
8
DEFAULT_255_1_388
10
16.3212144
20
62.7089519
40
0.5635533
50
169.8378964
51
173.0563877
0
ARC
8
DEFAULT_255_1_388
10
15.7927427
20
62.7664187
40
0.4593755
50
2.9089079
51
12.88469
0
ARC
8
DEFAULT_255_1_388
10
15.9469347
20
62.8027082
40
0.3009753
50
12.6957404
51
28.6405841
0
ARC
8
DEFAULT_255_1_388
10
16.0078844
20
62.8342577
40
0.232366
50
29.016559
51
41.1492981
0
ARC
8
DEFAULT_255_1_388
10
16.0306823
20
62.854108
40
0.2021373
50
41.1646967
51
85.001362
0
ARC
8
DEFAULT_255_1_388
10
16.0170827
20
62.7714775
40
0.2857091
50
83.728216
51
90.0968824
0
LINE
8
DEFAULT_255_1_388
10
17.3394179
20
62.8891232
11
17.1713549
21
62.8891232
0
LINE
8
DEFAULT_255_1_388
10
16.5713881
20
62.499687
11
16.7385476
21
62.499687
0
ARC
8
DEFAULT_255_1_388
10
17.037684
20
62.4597935
40
0.1436198
50
359.3335374
51
18.5869869
0
ARC
8
DEFAULT_255_1_388
10
17.061158
20
62.4660015
40
0.1194022
50
19.3538149
51
54.6486387
0
ARC
8
DEFAULT_255_1_388
10
17.0044567
20
62.3878077
40
0.2159877
50
54.3821575
51
65.0627557
0
ARC
8
DEFAULT_255_1_388
10
16.9179914
20
62.2059032
40
0.4173927
50
64.8282172
51
71.4204388
0
ARC
8
DEFAULT_255_1_388
10
16.816481
20
61.9080782
40
0.7320403
50
71.3166092
51
75.8005927
0
ARC
8
DEFAULT_255_1_388
10
16.7218695
20
61.5435881
40
1.108605
50
75.6810806
51
78.0063886
0
ARC
8
DEFAULT_255_1_388
10
17.2223284
20
63.903753
40
1.3040363
50
254.69024
51
258.0465557
0
ARC
8
DEFAULT_255_1_388
10
17.1055153
20
63.4807742
40
0.8652254
50
249.9010634
51
254.7555005
0
ARC
8
DEFAULT_255_1_388
10
16.9926205
20
63.174168
40
0.5384962
50
243.3097375
51
249.970939
0
ARC
8
DEFAULT_255_1_388
10
16.9218619
20
63.0330721
40
0.380652
50
234.4047808
51
243.2861752
0
ARC
8
DEFAULT_255_1_388
10
16.8518255
20
62.9363645
40
0.2612502
50
220.8665526
51
234.5497192
0
ARC
8
DEFAULT_255_1_388
10
16.8133254
20
62.9013203
40
0.2092097
50
214.3063391
51
220.5075055
0
ARC
8
DEFAULT_255_1_388
10
16.8104368
20
62.8978577
40
0.2048755
50
186.9131438
51
213.9617385
0
ARC
8
DEFAULT_255_1_388
10
16.8702758
20
62.9075431
40
0.2654563
50
179.8802037
51
187.4338578
0
ARC
8
DEFAULT_255_1_388
10
16.8528722
20
62.9098049
40
0.2480581
50
132.0053393
51
180.3942351
0
ARC
8
DEFAULT_255_1_388
10
16.9267635
20
62.8415997
40
0.3483116
50
129.2317021
51
133.5294826
0
ARC
8
DEFAULT_255_1_388
10
16.9327604
20
62.8310383
40
0.360291
50
100.440976
51
128.9081567
0
ARC
8
DEFAULT_255_1_388
10
16.9635722
20
62.6864357
40
0.5080996
50
89.6985063
51
100.9029043
0
ARC
8
DEFAULT_255_1_388
10
16.9699876
20
62.6683739
40
0.5261675
50
77.6967144
51
90.4074623
0
ARC
8
DEFAULT_255_1_388
10
17.0072229
20
62.8289503
40
0.3613511
50
50.7278431
51
78.0397473
0
ARC
8
DEFAULT_255_1_388
10
17.0572272
20
62.8872173
40
0.2845966
50
25.754382
51
51.0957456
0
ARC
8
DEFAULT_255_1_388
10
17.0573639
20
62.8928311
40
0.2820785
50
359.2468358
51
24.7393861
0
ARC
8
DEFAULT_255_1_388
10
17.0253526
20
62.8896204
40
0.1460032
50
359.8048924
51
45.1543866
0
ARC
8
DEFAULT_255_1_388
10
16.979526
20
62.8504291
40
0.2061641
50
43.8053172
51
49.625485
0
ARC
8
DEFAULT_255_1_388
10
16.9804702
20
62.8505849
40
0.2054344
50
49.7979696
51
82.121802
0
ARC
8
DEFAULT_255_1_388
10
16.9670785
20
62.7778473
40
0.2793404
50
81.4458692
51
90.1707936
0
ARC
8
DEFAULT_255_1_388
10
16.9643362
20
62.7186478
40
0.3385438
50
89.6768097
51
99.1267111
0
ARC
8
DEFAULT_255_1_388
10
16.9450344
20
62.8349405
40
0.2206627
50
98.9679878
51
113.4573418
0
ARC
8
DEFAULT_255_1_388
10
16.9230024
20
62.8876193
40
0.1635691
50
113.7230234
51
127.4758155
0
ARC
8
DEFAULT_255_1_388
10
16.9040606
20
62.9101433
40
0.1341757
50
126.9086647
51
150.3160891
0
ARC
8
DEFAULT_255_1_388
10
16.8986937
20
62.915868
40
0.1266992
50
151.363328
51
180.0701537
0
ARC
8
DEFAULT_255_1_388
10
16.9297158
20
62.913523
40
0.1577364
50
179.2045432
51
180.0012892
0
ARC
8
DEFAULT_255_1_388
10
16.8928269
20
62.9120515
40
0.1208564
50
179.3040542
51
198.4225767
0
ARC
8
DEFAULT_255_1_388
10
16.8712411
20
62.9064337
40
0.0986126
50
199.2893055
51
238.6036855
0
ARC
8
DEFAULT_255_1_388
10
16.9390504
20
63.0128752
40
0.2248082
50
237.9844191
51
246.8751643
0
ARC
8
DEFAULT_255_1_388
10
17.0355364
20
63.2335861
40
0.4656832
50
246.6226408
51
251.8174794
0
ARC
8
DEFAULT_255_1_388
10
17.1515831
20
63.5820909
40
0.8329993
50
251.7140983
51
255.0775146
0
ARC
8
DEFAULT_255_1_388
10
17.2865356
20
64.0847708
40
1.3534786
50
255.0370864
51
257.4701577
0
ARC
8
DEFAULT_255_1_388
10
16.7117901
20
61.4953535
40
1.298957
50
73.6835762
51
77.5015749
0
ARC
8
DEFAULT_255_1_388
10
16.8342815
20
61.9115699
40
0.8650912
50
68.7042835
51
73.7249997
0
ARC
8
DEFAULT_255_1_388
10
16.9358379
20
62.1732853
40
0.584363
50
63.5907059
51
68.6622978
0
ARC
8
DEFAULT_255_1_388
10
17.022612
20
62.3463157
40
0.3907955
50
54.7106507
51
63.7018033
0
ARC
8
DEFAULT_255_1_388
10
17.0928507
20
62.4444287
40
0.2701345
50
41.0624597
51
54.8488532
0
ARC
8
DEFAULT_255_1_388
10
17.1312286
20
62.4796439
40
0.2180695
50
34.4952722
51
40.7097584
0
ARC
8
DEFAULT_255_1_388
10
17.1365251
20
62.4851204
40
0.2106083
50
9.3761233
51
34.0834046
0
ARC
8
DEFAULT_255_1_388
10
17.063038
20
62.4710174
40
0.2854177
50
359.7695264
51
9.7660556
0
ARC
8
DEFAULT_255_1_388
10
17.0852673
20
62.4661841
40
0.2632121
50
335.8653103
51
0.8022272
0
ARC
8
DEFAULT_255_1_388
10
17.0937078
20
62.4676951
40
0.2561728
50
307.7357819
51
334.7849324
0
ARC
8
DEFAULT_255_1_388
10
17.0491719
20
62.5176553
40
0.3229737
50
307.0217048
51
308.5596894
0
ARC
8
DEFAULT_255_1_388
10
17.0196304
20
62.5618063
40
0.3760237
50
282.9361285
51
306.5649033
0
ARC
8
DEFAULT_255_1_388
10
16.9789365
20
62.7268871
40
0.5460314
50
271.1026197
51
283.2199962
0
ARC
8
DEFAULT_255_1_388
10
16.9717554
20
62.8669744
40
0.6862456
50
269.9926344
51
271.4770056
0
ARC
8
DEFAULT_255_1_388
10
16.9688124
20
62.7452633
40
0.5645418
50
259.0723633
51
270.2897324
0
ARC
8
DEFAULT_255_1_388
10
16.9449349
20
62.6195887
40
0.4366198
50
245.4965026
51
259.0225745
0
ARC
8
DEFAULT_255_1_388
10
16.9136565
20
62.5541491
40
0.3641037
50
228.9686619
51
245.7042678
0
ARC
8
DEFAULT_255_1_388
10
16.883784
20
62.5173573
40
0.3167435
50
214.4015391
51
228.6759028
0
ARC
8
DEFAULT_255_1_388
10
16.8512337
20
62.4995429
40
0.2798456
50
179.9704983
51
215.1574389
0
ARC
8
DEFAULT_255_1_388
10
16.930055
20
62.5078148
40
0.1916798
50
182.430239
51
203.0329751
0
ARC
8
DEFAULT_255_1_388
10
16.9093146
20
62.5014675
40
0.1701248
50
203.7987464
51
232.5483345
0
ARC
8
DEFAULT_255_1_388
10
16.940423
20
62.5410049
40
0.2204299
50
232.3784541
51
256.3934343
0
ARC
8
DEFAULT_255_1_388
10
16.9663377
20
62.6411359
40
0.3238512
50
256.1048329
51
268.4627478
0
ARC
8
DEFAULT_255_1_388
10
16.9715797
20
62.7315297
40
0.4143627
50
268.0734924
51
270.0121004
0
ARC
8
DEFAULT_255_1_388
10
16.9736515
20
62.7001191
40
0.3829573
50
269.7031202
51
278.8338867
0
ARC
8
DEFAULT_255_1_388
10
16.9941379
20
62.5729553
40
0.2541568
50
278.6727378
51
292.82331
0
ARC
8
DEFAULT_255_1_388
10
17.0166926
20
62.5165546
40
0.1934264
50
293.1457581
51
303.6656964
0
ARC
8
DEFAULT_255_1_388
10
17.0464999
20
62.4742159
40
0.1416713
50
303.1245849
51
321.7434683
0
ARC
8
DEFAULT_255_1_388
10
17.067408
20
62.455878
40
0.1139081
50
322.4747616
51
1.1293039
0
LINE
8
DEFAULT_255_2_778
10
10.5738396
20
64.7118073
11
9.3932396
21
64.7118073
0
LINE
8
DEFAULT_255_2_778
10
9.3932396
20
64.7118073
11
9.9837396
21
65.7344073
0
LINE
8
DEFAULT_255_2_778
10
9.9837396
20
65.7344073
11
11.1643396
21
65.7344073
0
LINE
8
DEFAULT_255_2_778
10
11.1643396
20
65.7344073
11
10.5738396
21
64.7118073
0
LINE
8
DEFAULT_255_2_778
10
10.5738396
20
64.7118073
11
10.5738396
21
64.7118073
0
LINE
8
DEFAULT_255_2_778
10
11.7546396
20
64.7118073
11
12.9354396
21
64.7118073
0
LINE
8
DEFAULT_255_2_778
10
12.9354396
20
64.7118073
11
12.3451396
21
65.7344073
0
LINE
8
DEFAULT_255_2_778
10
12.3451396
20
65.7344073
11
11.1643396
21
65.7344073
0
LINE
8
DEFAULT_255_2_778
10
11.1643396
20
65.7344073
11
11.7546396
21
64.7118073
0
LINE
8
DEFAULT_255_2_778
10
11.7546396
20
64.7118073
11
11.7546396
21
64.7118073
0
LINE
8
DEFAULT_255_2_778
10
11.7545823
20
66.7570146
11
11.1642823
21
67.7796146
0
LINE
8
DEFAULT_255_2_778
10
11.1642823
20
67.7796146
11
10.5737823
21
66.7570146
0
LINE
8
DEFAULT_255_2_778
10
10.5737823
20
66.7570146
11
11.1642823
21
65.7344146
0
LINE
8
DEFAULT_255_2_778
10
11.1642823
20
65.7344146
11
11.7545823
21
66.7570146
0
LINE
8
DEFAULT_255_2_778
10
11.7545823
20
66.7570146
11
11.7545823
21
66.7570146
0
ARC
8
DEFAULT_255_2_778
10
16.5183731
20
66.4032426
40
0.5650491
50
268.7543645
51
289.1417717
0
ARC
8
DEFAULT_255_2_778
10
16.606208
20
66.1480531
40
0.2951681
50
289.2776255
51
3.7648372
0
ARC
8
DEFAULT_255_2_778
10
16.3901618
20
66.1746085
40
0.5106278
50
359.1949826
51
0.0020862
0
ARC
8
DEFAULT_255_2_778
10
16.547449
20
66.1605832
40
0.1541914
50
280.2616216
51
358.5297855
0
ARC
8
DEFAULT_255_2_778
10
16.5080075
20
66.273155
40
0.2726346
50
269.5969454
51
284.2065679
0
ARC
8
DEFAULT_255_2_778
10
16.4981883
20
66.2573788
40
0.2569732
50
246.5218562
51
271.7619895
0
ARC
8
DEFAULT_255_2_778
10
16.4527498
20
66.1494164
40
0.1398527
50
188.0764216
51
245.9747848
0
ARC
8
DEFAULT_255_2_778
10
16.4833113
20
66.1564608
40
0.1711218
50
179.9443312
51
188.9740498
0
ARC
8
DEFAULT_255_2_778
10
16.4924507
20
66.1632849
40
0.3763411
50
178.2272621
51
205.8283807
0
ARC
8
DEFAULT_255_2_778
10
16.4132476
20
66.1455833
40
0.2979176
50
209.4028057
51
263.0375728
0
ARC
8
DEFAULT_255_2_778
10
16.5005111
20
66.5202629
40
0.6816586
50
259.5722942
51
270.4689037
0
ARC
8
DEFAULT_255_2_778
10
17.411252
20
66.5764767
40
0.1217154
50
2.0482843
51
87.015299
0
ARC
8
DEFAULT_255_2_778
10
17.4057913
20
66.5808868
40
0.1270984
50
353.0742102
51
359.9730821
0
ARC
8
DEFAULT_255_2_778
10
17.4111345
20
66.5776717
40
0.1214332
50
270.7420557
51
354.2761882
0
ARC
8
DEFAULT_255_2_778
10
17.4065072
20
66.6142509
40
0.1581238
50
269.9936646
51
272.2471507
0
ARC
8
DEFAULT_255_2_778
10
17.414084
20
66.1630295
40
0.1400686
50
358.2807293
51
95.6106825
0
ARC
8
DEFAULT_255_2_778
10
17.4103233
20
66.1591963
40
0.1437669
50
266.9962473
51
359.8528392
0
ARC
8
DEFAULT_255_2_778
10
17.4725249
20
66.1994988
40
0.3335288
50
268.2414507
51
302.0223478
0
ARC
8
DEFAULT_255_2_778
10
17.5091261
20
66.124183
40
0.2504234
50
304.0600275
51
2.0468005
0
ARC
8
DEFAULT_255_2_778
10
17.4835388
20
66.130988
40
0.2758592
50
0.4442832
51
66.1293704
0
ARC
8
DEFAULT_255_2_778
10
17.5193244
20
66.195936
40
0.202088
50
67.956084
51
75.8901834
0
ARC
8
DEFAULT_255_2_778
10
17.5042026
20
66.603222
40
0.2208874
50
286.9473417
51
358.0074963
0
ARC
8
DEFAULT_255_2_778
10
17.4710866
20
66.6120045
40
0.2544031
50
356.2897886
51
0.0050857
0
ARC
8
DEFAULT_255_2_778
10
17.497262
20
66.6170946
40
0.2282839
50
358.7280137
51
81.8073164
0
ARC
8
DEFAULT_255_2_778
10
17.4216369
20
66.3656283
40
0.4895182
50
77.2355086
51
90.5088275
0
ARC
8
DEFAULT_255_2_778
10
17.5842747
20
65.4010989
40
0.1302704
50
89.9972707
51
92.6773048
0
ARC
8
DEFAULT_255_2_778
10
17.5844071
20
65.40187
40
0.1294993
50
45.0546048
51
90.0558451
0
ARC
8
DEFAULT_255_2_778
10
17.5844118
20
65.401719
40
0.1296029
50
0.001866
51
45.1031959
0
ARC
8
DEFAULT_255_2_778
10
17.5845123
20
65.4017202
40
0.1295026
50
357.4803735
51
0.0013544
0
ARC
8
DEFAULT_255_2_778
10
17.5901979
20
65.3978512
40
0.1237052
50
339.8672523
51
359.1550732
0
ARC
8
DEFAULT_255_2_778
10
17.5794513
20
65.3950079
40
0.1329691
50
272.0853006
51
342.6124646
0
ARC
8
DEFAULT_255_2_778
10
17.6596145
20
65.4332661
40
0.2575135
50
286.787355
51
290.6121696
0
ARC
8
DEFAULT_255_2_778
10
17.6689461
20
65.4189533
40
0.24086
50
289.7330405
51
342.3216972
0
ARC
8
DEFAULT_255_2_778
10
17.641261
20
65.4237954
40
0.268735
50
343.130572
51
0.3905272
0
ARC
8
DEFAULT_255_2_778
10
17.6578783
20
65.4411767
40
0.2525904
50
356.4706028
51
80.1788963
0
ARC
8
DEFAULT_255_2_778
10
17.5921649
20
65.2142163
40
0.4881286
50
77.1212301
51
90.4900821
0
ARC
8
DEFAULT_255_2_778
10
17.5166337
20
64.916536
40
0.1865405
50
50.1507009
51
92.9634648
0
ARC
8
DEFAULT_255_2_778
10
17.5301354
20
64.9448678
40
0.1563319
50
12.621233
51
47.2950617
0
ARC
8
DEFAULT_255_2_778
10
16.8485884
20
64.8119726
40
0.8506657
50
2.8173892
51
11.3253986
0
ARC
8
DEFAULT_255_2_778
10
-29.2295733
20
61.3156175
40
47.060992
50
4.3048394
51
4.3117143
0
ARC
8
DEFAULT_255_2_778
10
18.5500859
20
64.888084
40
0.8523717
50
182.6850102
51
191.2954256
0
ARC
8
DEFAULT_255_2_778
10
17.9656837
20
64.7817399
40
0.2586603
50
193.5512904
51
195.3825538
0
ARC
8
DEFAULT_255_2_778
10
19.3507425
20
65.0406408
40
1.4700994
50
182.6283124
51
192.8725697
0
ARC
8
DEFAULT_255_2_778
10
17.6207606
20
64.9677215
40
0.261487
50
1.2064311
51
30.4123358
0
ARC
8
DEFAULT_255_2_778
10
17.6663626
20
64.982776
40
0.2147766
50
33.1081154
51
71.7312197
0
LINE
8
DEFAULT_255_2_778
10
13.4657897
20
65.1473271
11
13.9385897
21
65.1473271
0
LINE
8
DEFAULT_255_2_778
10
13.9385897
20
65.1473271
11
13.9385897
21
65.3187271
0
LINE
8
DEFAULT_255_2_778
10
13.9385897
20
65.3187271
11
13.4657897
21
65.3187271
0
LINE
8
DEFAULT_255_2_778
10
13.4657897
20
65.3187271
11
13.4657897
21
65.5296271
0
LINE
8
DEFAULT_255_2_778
10
13.4657897
20
65.5296271
11
13.9977897
21
65.5296271
0
LINE
8
DEFAULT_255_2_778
10
13.9977897
20
65.5296271
11
13.9977897
21
65.7010271
0
LINE
8
DEFAULT_255_2_778
10
13.9977897
20
65.7010271
11
13.4657897
21
65.7010271
0
LINE
8
DEFAULT_255_2_778
10
13.4657897
20
65.7010271
11
13.2651897
21
65.7010271
0
LINE
8
DEFAULT_255_2_778
10
13.2651897
20
65.7010271
11
13.2651897
21
65.5296271
0
LINE
8
DEFAULT_255_2_778
10
13.2651897
20
65.5296271
11
13.2651897
21
64.8832271
0
LINE
8
DEFAULT_255_2_778
10
13.2651897
20
64.8832271
11
13.2651897
21
64.7117271
0
LINE
8
DEFAULT_255_2_778
10
13.2651897
20
64.7117271
11
13.4657897
21
64.7117271
0
LINE
8
DEFAULT_255_2_778
10
13.4657897
20
64.7117271
11
14.0118897
21
64.7117271
0
LINE
8
DEFAULT_255_2_778
10
14.0118897
20
64.7117271
11
14.0118897
21
64.8832271
0
LINE
8
DEFAULT_255_2_778
10
14.0118897
20
64.8832271
11
13.4657897
21
64.8832271
0
LINE
8
DEFAULT_255_2_778
10
13.4657897
20
64.8832271
11
13.4657897
21
65.1470271
0
LINE
8
DEFAULT_255_2_778
10
13.4657897
20
65.1470271
11
13.4657897
21
65.1473271
0
LINE
8
DEFAULT_255_2_778
10
13.4519897
20
66.6014271
11
13.6620897
21
65.8661271
0
LINE
8
DEFAULT_255_2_778
10
13.6620897
20
65.8661271
11
13.6704897
21
65.8661271
0
LINE
8
DEFAULT_255_2_778
10
13.6704897
20
65.8661271
11
13.8464897
21
65.8661271
0
LINE
8
DEFAULT_255_2_778
10
13.8464897
20
65.8661271
11
13.8546897
21
65.8661271
0
LINE
8
DEFAULT_255_2_778
10
13.8546897
20
65.8661271
11
14.0647897
21
66.6014271
0
LINE
8
DEFAULT_255_2_778
10
14.0647897
20
66.6014271
11
14.0647897
21
65.8661271
0
LINE
8
DEFAULT_255_2_778
10
14.0647897
20
65.8661271
11
14.2515897
21
65.8661271
0
LINE
8
DEFAULT_255_2_778
10
14.2515897
20
65.8661271
11
14.2515897
21
66.8554271
0
LINE
8
DEFAULT_255_2_778
10
14.2515897
20
66.8554271
11
14.1496897
21
66.8554271
0
LINE
8
DEFAULT_255_2_778
10
14.1496897
20
66.8554271
11
14.0615897
21
66.8554271
0
LINE
8
DEFAULT_255_2_778
10
14.0615897
20
66.8554271
11
13.9655897
21
66.8554271
0
LINE
8
DEFAULT_255_2_778
10
13.9655897
20
66.8554271
11
13.7583897
21
66.1611271
0
LINE
8
DEFAULT_255_2_778
10
13.7583897
20
66.1611271
11
13.5511897
21
66.8554271
0
LINE
8
DEFAULT_255_2_778
10
13.5511897
20
66.8554271
11
13.4551897
21
66.8554271
0
LINE
8
DEFAULT_255_2_778
10
13.4551897
20
66.8554271
11
13.3670897
21
66.8554271
0
LINE
8
DEFAULT_255_2_778
10
13.3670897
20
66.8554271
11
13.2651897
21
66.8554271
0
LINE
8
DEFAULT_255_2_778
10
13.2651897
20
66.8554271
11
13.2651897
21
65.8661271
0
LINE
8
DEFAULT_255_2_778
10
13.2651897
20
65.8661271
11
13.4519897
21
65.8661271
0
LINE
8
DEFAULT_255_2_778
10
13.4519897
20
65.8661271
11
13.4519897
21
66.6014271
0
LINE
8
DEFAULT_255_2_778
10
13.4519897
20
66.6014271
11
13.4519897
21
66.6014271
0
LINE
8
DEFAULT_255_2_778
10
18.0057897
20
66.8554271
11
17.8064897
21
66.8554271
0
LINE
8
DEFAULT_255_2_778
10
17.8064897
20
66.8554271
11
17.8064897
21
65.8661271
0
LINE
8
DEFAULT_255_2_778
10
17.8064897
20
65.8661271
11
18.0057897
21
65.8661271
0
LINE
8
DEFAULT_255_2_778
10
18.0057897
20
65.8661271
11
18.0057897
21
66.8554271
0
LINE
8
DEFAULT_255_2_778
10
18.0057897
20
66.8554271
11
18.0057897
21
66.8554271
0
LINE
8
DEFAULT_255_2_778
10
18.1681897
20
65.7013271
11
17.9689897
21
65.7013271
0
LINE
8
DEFAULT_255_2_778
10
17.9689897
20
65.7013271
11
17.9689897
21
64.7120271
0
LINE
8
DEFAULT_255_2_778
10
17.9689897
20
64.7120271
11
18.1681897
21
64.7120271
0
LINE
8
DEFAULT_255_2_778
10
18.1681897
20
64.7120271
11
18.1681897
21
65.7013271
0
LINE
8
DEFAULT_255_2_778
10
18.1681897
20
65.7013271
11
18.1681897
21
65.7013271
0
LINE
8
DEFAULT_255_2_778
10
19.9765897
20
66.8554271
11
19.7773897
21
66.8554271
0
LINE
8
DEFAULT_255_2_778
10
19.7773897
20
66.8554271
11
19.7773897
21
65.8661271
0
LINE
8
DEFAULT_255_2_778
10
19.7773897
20
65.8661271
11
19.9765897
21
65.8661271
0
LINE
8
DEFAULT_255_2_778
10
19.9765897
20
65.8661271
11
19.9765897
21
66.8554271
0
LINE
8
DEFAULT_255_2_778
10
19.9765897
20
66.8554271
11
19.9765897
21
66.8554271
0
LINE
8
DEFAULT_255_2_778
10
14.5298897
20
66.8554271
11
14.3306897
21
66.8554271
0
LINE
8
DEFAULT_255_2_778
10
14.3306897
20
66.8554271
11
14.3306897
21
65.8661271
0
LINE
8
DEFAULT_255_2_778
10
14.3306897
20
65.8661271
11
14.5298897
21
65.8661271
0
LINE
8
DEFAULT_255_2_778
10
14.5298897
20
65.8661271
11
14.5298897
21
66.8554271
0
LINE
8
DEFAULT_255_2_778
10
14.5298897
20
66.8554271
11
14.5298897
21
66.8554271
0
LINE
8
DEFAULT_255_2_778
10
19.4989897
20
66.4694271
11
19.1029897
21
66.4694271
0
LINE
8
DEFAULT_255_2_778
10
19.1029897
20
66.4694271
11
19.1029897
21
66.8551271
0
LINE
8
DEFAULT_255_2_778
10
19.1029897
20
66.8551271
11
18.9068897
21
66.8551271
0
LINE
8
DEFAULT_255_2_778
10
18.9068897
20
66.8551271
11
18.9068897
21
65.8661271
0
LINE
8
DEFAULT_255_2_778
10
18.9068897
20
65.8661271
11
19.1029897
21
65.8661271
0
LINE
8
DEFAULT_255_2_778
10
19.1029897
20
65.8661271
11
19.1029897
21
66.2979271
0
LINE
8
DEFAULT_255_2_778
10
19.1029897
20
66.2979271
11
19.4989897
21
66.2979271
0
LINE
8
DEFAULT_255_2_778
10
19.4989897
20
66.2979271
11
19.4989897
21
65.8661271
0
LINE
8
DEFAULT_255_2_778
10
19.4989897
20
65.8661271
11
19.6950897
21
65.8661271
0
LINE
8
DEFAULT_255_2_778
10
19.6950897
20
65.8661271
11
19.6950897
21
66.8551271
0
LINE
8
DEFAULT_255_2_778
10
19.6950897
20
66.8551271
11
19.4989897
21
66.8551271
0
LINE
8
DEFAULT_255_2_778
10
19.4989897
20
66.8551271
11
19.4989897
21
66.4694271
0
LINE
8
DEFAULT_255_2_778
10
19.4989897
20
66.4694271
11
19.4989897
21
66.4694271
0
LINE
8
DEFAULT_255_2_778
10
14.8246897
20
65.8661271
11
15.0280897
21
65.8661271
0
LINE
8
DEFAULT_255_2_778
10
15.0280897
20
65.8661271
11
15.0280897
21
66.6840271
0
LINE
8
DEFAULT_255_2_778
10
15.0280897
20
66.6840271
11
15.2696897
21
66.6840271
0
LINE
8
DEFAULT_255_2_778
10
15.2696897
20
66.6840271
11
15.2696897
21
66.8554271
0
LINE
8
DEFAULT_255_2_778
10
15.2696897
20
66.8554271
11
15.0280897
21
66.8554271
0
LINE
8
DEFAULT_255_2_778
10
15.0280897
20
66.8554271
11
14.8246897
21
66.8554271
0
LINE
8
DEFAULT_255_2_778
10
14.8246897
20
66.8554271
11
14.5830897
21
66.8554271
0
LINE
8
DEFAULT_255_2_778
10
14.5830897
20
66.8554271
11
14.5830897
21
66.6840271
0
LINE
8
DEFAULT_255_2_778
10
14.5830897
20
66.6840271
11
14.8246897
21
66.6840271
0
LINE
8
DEFAULT_255_2_778
10
14.8246897
20
66.6840271
11
14.8246897
21
65.8661271
0
LINE
8
DEFAULT_255_2_778
10
14.8246897
20
65.8661271
11
14.8246897
21
65.8661271
0
LINE
8
DEFAULT_255_2_778
10
16.6422897
20
64.7120271
11
16.8454897
21
64.7120271
0
LINE
8
DEFAULT_255_2_778
10
16.8454897
20
64.7120271
11
16.8454897
21
65.5298271
0
LINE
8
DEFAULT_255_2_778
10
16.8454897
20
65.5298271
11
17.0873897
21
65.5298271
0
LINE
8
DEFAULT_255_2_778
10
17.0873897
20
65.5298271
11
17.0873897
21
65.7016271
0
LINE
8
DEFAULT_255_2_778
10
17.0873897
20
65.7016271
11
16.8454897
21
65.7016271
0
LINE
8
DEFAULT_255_2_778
10
16.8454897
20
65.7016271
11
16.6422897
21
65.7016271
0
LINE
8
DEFAULT_255_2_778
10
16.6422897
20
65.7016271
11
16.4004897
21
65.7016271
0
LINE
8
DEFAULT_255_2_778
10
16.4004897
20
65.7016271
11
16.4004897
21
65.5298271
0
LINE
8
DEFAULT_255_2_778
10
16.4004897
20
65.5298271
11
16.6422897
21
65.5298271
0
LINE
8
DEFAULT_255_2_778
10
16.6422897
20
65.5298271
11
16.6422897
21
64.7120271
0
LINE
8
DEFAULT_255_2_778
10
16.6422897
20
64.7120271
11
16.6422897
21
64.7120271
0
LINE
8
DEFAULT_255_2_778
10
16.9007897
20
66.1746271
11
16.9007897
21
66.8551271
0
LINE
8
DEFAULT_255_2_778
10
16.9007897
20
66.8551271
11
16.7015897
21
66.8551271
0
LINE
8
DEFAULT_255_2_778
10
16.7015897
20
66.8551271
11
16.7015897
21
66.1566271
0
LINE
8
DEFAULT_255_2_778
10
16.3121897
20
66.1566271
11
16.3121897
21
66.8551271
0
LINE
8
DEFAULT_255_2_778
10
16.3121897
20
66.8551271
11
16.1162897
21
66.8551271
0
LINE
8
DEFAULT_255_2_778
10
16.1162897
20
66.8551271
11
16.1162897
21
66.1749271
0
LINE
8
DEFAULT_255_2_778
10
15.0000897
20
65.1473271
11
15.4730897
21
65.1473271
0
LINE
8
DEFAULT_255_2_778
10
15.4730897
20
65.1473271
11
15.4730897
21
65.3187271
0
LINE
8
DEFAULT_255_2_778
10
15.4730897
20
65.3187271
11
15.0000897
21
65.3187271
0
LINE
8
DEFAULT_255_2_778
10
15.0000897
20
65.3187271
11
15.0000897
21
65.5296271
0
LINE
8
DEFAULT_255_2_778
10
15.0000897
20
65.5296271
11
15.5321897
21
65.5296271
0
LINE
8
DEFAULT_255_2_778
10
15.5321897
20
65.5296271
11
15.5321897
21
65.7010271
0
LINE
8
DEFAULT_255_2_778
10
15.5321897
20
65.7010271
11
15.0000897
21
65.7010271
0
LINE
8
DEFAULT_255_2_778
10
15.0000897
20
65.7010271
11
14.7997897
21
65.7010271
0
LINE
8
DEFAULT_255_2_778
10
14.7997897
20
65.7010271
11
14.7997897
21
65.5296271
0
LINE
8
DEFAULT_255_2_778
10
14.7997897
20
65.5296271
11
14.7997897
21
64.8832271
0
LINE
8
DEFAULT_255_2_778
10
14.7997897
20
64.8832271
11
14.7997897
21
64.7117271
0
LINE
8
DEFAULT_255_2_778
10
14.7997897
20
64.7117271
11
15.0000897
21
64.7117271
0
LINE
8
DEFAULT_255_2_778
10
15.0000897
20
64.7117271
11
15.5461897
21
64.7117271
0
LINE
8
DEFAULT_255_2_778
10
15.5461897
20
64.7117271
11
15.5461897
21
64.8832271
0
LINE
8
DEFAULT_255_2_778
10
15.5461897
20
64.8832271
11
15.0000897
21
64.8832271
0
LINE
8
DEFAULT_255_2_778
10
15.0000897
20
64.8832271
11
15.0000897
21
65.1470271
0
LINE
8
DEFAULT_255_2_778
10
15.0000897
20
65.1470271
11
15.0000897
21
65.1473271
0
LINE
8
DEFAULT_255_2_778
10
17.4064897
20
66.4561271
11
17.1690897
21
66.4561271
0
LINE
8
DEFAULT_255_2_778
10
17.1690897
20
66.4561271
11
17.1690897
21
66.6977271
0
LINE
8
DEFAULT_255_2_778
10
17.1690897
20
66.6977271
11
17.4175897
21
66.6977271
0
LINE
8
DEFAULT_255_2_778
10
17.4175897
20
66.6977271
11
17.4175897
21
66.6980271
0
LINE
8
DEFAULT_255_2_778
10
17.4027897
20
66.0153271
11
17.1690897
21
66.0153271
0
LINE
8
DEFAULT_255_2_778
10
17.1690897
20
66.0153271
11
17.1690897
21
66.3024271
0
LINE
8
DEFAULT_255_2_778
10
17.1690897
20
66.3024271
11
17.4003897
21
66.3024271
0
LINE
8
DEFAULT_255_2_778
10
17.1767897
20
65.8661271
11
17.4622897
21
65.8661271
0
LINE
8
DEFAULT_255_2_778
10
17.4172897
20
66.8551271
11
17.1770897
21
66.8551271
0
LINE
8
DEFAULT_255_2_778
10
17.1770897
20
66.8551271
11
16.9722897
21
66.8551271
0
LINE
8
DEFAULT_255_2_778
10
16.9722897
20
66.8551271
11
16.9711897
21
66.8551271
0
LINE
8
DEFAULT_255_2_778
10
16.9711897
20
66.8551271
11
16.9711897
21
65.8661271
0
LINE
8
DEFAULT_255_2_778
10
16.9711897
20
65.8661271
11
16.9722897
21
65.8661271
0
LINE
8
DEFAULT_255_2_778
10
16.9722897
20
65.8661271
11
17.1770897
21
65.8661271
0
LINE
8
DEFAULT_255_2_778
10
17.1770897
20
65.8661271
11
17.1767897
21
65.8661271
0
LINE
8
DEFAULT_255_2_778
10
17.3368897
20
65.2618271
11
17.3368897
21
65.5312271
0
LINE
8
DEFAULT_255_2_778
10
17.3368897
20
65.5312271
11
17.5781897
21
65.5312271
0
LINE
8
DEFAULT_255_2_778
10
17.5842897
20
65.2621271
11
17.3370897
21
65.2621271
0
LINE
8
DEFAULT_255_2_778
10
17.3370897
20
65.2621271
11
17.3368897
21
65.2618271
0
LINE
8
DEFAULT_255_2_778
10
17.5879897
20
65.7023271
11
17.3368897
21
65.7023271
0
LINE
8
DEFAULT_255_2_778
10
17.3368897
20
65.7023271
11
17.1383897
21
65.7023271
0
LINE
8
DEFAULT_255_2_778
10
17.1383897
20
65.7023271
11
17.1362897
21
65.7023271
0
LINE
8
DEFAULT_255_2_778
10
17.1362897
20
65.7023271
11
17.1362897
21
64.7131271
0
LINE
8
DEFAULT_255_2_778
10
17.1362897
20
64.7131271
11
17.3368897
21
64.7131271
0
LINE
8
DEFAULT_255_2_778
10
17.3368897
20
64.7131271
11
17.3368897
21
65.1028271
0
LINE
8
DEFAULT_255_2_778
10
17.3368897
20
65.1028271
11
17.5069897
21
65.1028271
0
LINE
8
DEFAULT_255_2_778
10
17.7162897
20
64.7131271
11
17.9175897
21
64.7131271
0
LINE
8
DEFAULT_255_2_778
10
14.2763897
20
65.7013271
11
14.0760897
21
65.7013271
0
LINE
8
DEFAULT_255_2_778
10
14.0760897
20
65.7013271
11
14.0760897
21
64.8835271
0
LINE
8
DEFAULT_255_2_778
10
14.0760897
20
64.8835271
11
14.0760897
21
64.7120271
0
LINE
8
DEFAULT_255_2_778
10
14.0760897
20
64.7120271
11
14.2763897
21
64.7120271
0
LINE
8
DEFAULT_255_2_778
10
14.2763897
20
64.7120271
11
14.7428897
21
64.7120271
0
LINE
8
DEFAULT_255_2_778
10
14.7428897
20
64.7120271
11
14.7428897
21
64.8835271
0
LINE
8
DEFAULT_255_2_778
10
14.7428897
20
64.8835271
11
14.2763897
21
64.8835271
0
LINE
8
DEFAULT_255_2_778
10
14.2763897
20
64.8835271
11
14.2763897
21
65.7013271
0
LINE
8
DEFAULT_255_2_778
10
14.2763897
20
65.7013271
11
14.2763897
21
65.7013271
0
ARC
8
DEFAULT_255_2_778
10
15.4584271
20
65.3271969
40
0.9681224
50
72.4822103
51
81.3184214
0
ARC
8
DEFAULT_255_2_778
10
15.7160297
20
66.1038918
40
0.1503783
50
28.8883513
51
77.0092434
0
ARC
8
DEFAULT_255_2_778
10
15.7432379
20
66.1328196
40
0.113238
50
358.9917455
51
22.7117017
0
ARC
8
DEFAULT_255_2_778
10
15.7394861
20
66.1369918
40
0.1171346
50
289.2958104
51
356.9831562
0
ARC
8
DEFAULT_255_2_778
10
15.6668261
20
66.2944882
40
0.2902651
50
268.4665462
51
292.5613311
0
ARC
8
DEFAULT_255_2_778
10
15.6496856
20
66.2354179
40
0.2312808
50
236.4956947
51
272.3225735
0
ARC
8
DEFAULT_255_2_778
10
15.6106646
20
66.1671839
40
0.1529307
50
178.9722202
51
234.5742435
0
ARC
8
DEFAULT_255_2_778
10
15.5656113
20
66.1576079
40
0.3002058
50
177.6481608
51
245.5596397
0
ARC
8
DEFAULT_255_2_778
10
15.6409971
20
66.3298561
40
0.488217
50
245.8690375
51
267.169035
0
ARC
8
DEFAULT_255_2_778
10
15.6671503
20
66.5808916
40
0.7403648
50
266.1069867
51
270.0547972
0
ARC
8
DEFAULT_255_2_778
10
15.6772894
20
66.4121135
40
0.5716642
50
269.0547216
51
287.7147747
0
ARC
8
DEFAULT_255_2_778
10
15.7598889
20
66.1664091
40
0.3125017
50
286.995984
51
325.1221533
0
ARC
8
DEFAULT_255_2_778
10
15.7678294
20
66.149861
40
0.2966627
50
326.8673922
51
0.8625726
0
ARC
8
DEFAULT_255_2_778
10
15.7898286
20
66.1584409
40
0.2746606
50
359.1417932
51
76.9739731
0
ARC
8
DEFAULT_255_2_778
10
15.6705461
20
65.8775719
40
0.577616
50
71.7185727
51
79.1315439
0
ARC
8
DEFAULT_255_2_778
10
14.2492968
20
58.523967
40
8.0673056
50
79.0662148
51
79.6216572
0
ARC
8
DEFAULT_255_2_778
10
16.4356585
20
70.4016581
40
4.0099443
50
259.1227669
51
259.4665204
0
ARC
8
DEFAULT_255_2_778
10
15.7836732
20
67.1066142
40
0.6513291
50
249.9945768
51
260.7485895
0
ARC
8
DEFAULT_255_2_778
10
15.5880401
20
66.5955999
40
0.1046098
50
178.6705173
51
254.9333545
0
ARC
8
DEFAULT_255_2_778
10
15.6049957
20
66.5921688
40
0.1216785
50
93.288632
51
177.2403935
0
ARC
8
DEFAULT_255_2_778
10
15.6585677
20
66.4051752
40
0.3143588
50
89.6189463
51
101.1057977
0
ARC
8
DEFAULT_255_2_778
10
15.6722733
20
66.517016
40
0.2028439
50
53.5634072
51
93.2825843
0
ARC
8
DEFAULT_255_2_778
10
15.7018505
20
66.5752144
40
0.1388739
50
357.1985816
51
49.1152298
0
ARC
8
DEFAULT_255_2_778
10
15.7254907
20
66.5684274
40
0.3087677
50
359.9999335
51
2.3703878
0
ARC
8
DEFAULT_255_2_778
10
15.7353555
20
66.5699337
40
0.298851
50
2.1600756
51
60.1092229
0
ARC
8
DEFAULT_255_2_778
10
15.6766212
20
66.4633133
40
0.4205645
50
60.4106856
51
86.1444419
0
ARC
8
DEFAULT_255_2_778
10
15.6536151
20
66.2866228
40
0.5985046
50
85.0843314
51
90.0628677
0
ARC
8
DEFAULT_255_2_778
10
15.6529718
20
66.4100466
40
0.4750804
50
90.001616
51
92.2300394
0
ARC
8
DEFAULT_255_2_778
10
15.6281193
20
66.515187
40
0.3696351
50
89.0131319
51
149.6364996
0
ARC
8
DEFAULT_255_2_778
10
15.5505461
20
66.5874055
40
0.2671974
50
154.5962367
51
180.4885883
0
ARC
8
DEFAULT_255_2_778
10
15.5651524
20
66.585884
40
0.281795
50
180.1539064
51
255.1120325
0
ARC
8
DEFAULT_255_2_778
10
15.7094242
20
66.908732
40
0.6333958
50
249.9962237
51
260.4976723
0
ARC
8
DEFAULT_255_2_778
10
18.2470963
20
65.3283351
40
0.967002
50
72.4685023
51
81.3064395
0
ARC
8
DEFAULT_255_2_778
10
18.5045397
20
66.103927
40
0.1503535
50
28.8782248
51
76.9904304
0
ARC
8
DEFAULT_255_2_778
10
18.5317197
20
66.1328189
40
0.1132561
50
358.9922779
51
22.7082666
0
ARC
8
DEFAULT_255_2_778
10
18.5280402
20
66.1369088
40
0.1170763
50
289.2761556
51
357.0223042
0
ARC
8
DEFAULT_255_2_778
10
18.4553612
20
66.2947836
40
0.2905613
50
268.4611814
51
292.5289055
0
ARC
8
DEFAULT_255_2_778
10
18.4381801
20
66.2363175
40
0.2321799
50
236.6698634
51
272.3149402
0
ARC
8
DEFAULT_255_2_778
10
18.39878
20
66.1671762
40
0.1528464
50
178.9687581
51
234.7686008
0
ARC
8
DEFAULT_255_2_778
10
18.3540113
20
66.1576079
40
0.3002058
50
177.6481608
51
245.5596397
0
ARC
8
DEFAULT_255_2_778
10
18.4293971
20
66.3298561
40
0.488217
50
245.8690375
51
267.169035
0
ARC
8
DEFAULT_255_2_778
10
18.4555503
20
66.5808916
40
0.7403648
50
266.1069867
51
270.0547972
0
ARC
8
DEFAULT_255_2_778
10
18.4656836
20
66.4127451
40
0.5722957
50
269.0563423
51
287.7048702
0
ARC
8
DEFAULT_255_2_778
10
18.548344
20
66.1667682
40
0.312856
50
286.9832601
51
325.0871916
0
ARC
8
DEFAULT_255_2_778
10
18.5567708
20
66.1498856
40
0.2964208
50
326.8311942
51
0.8585267
0
ARC
8
DEFAULT_255_2_778
10
18.5785756
20
66.1585282
40
0.2746149
50
359.1234265
51
76.9343785
0
ARC
8
DEFAULT_255_2_778
10
18.4596421
20
65.8786965
40
0.5764934
50
71.6999697
51
79.1198353
0
ARC
8
DEFAULT_255_2_778
10
17.0173657
20
58.4019392
40
8.1910887
50
79.0843627
51
79.6321368
0
ARC
8
DEFAULT_255_2_778
10
19.2200266
20
70.3814177
40
3.9892176
50
259.1314419
51
259.4772924
0
ARC
8
DEFAULT_255_2_778
10
18.5723251
20
67.1060131
40
0.6507003
50
249.9919323
51
260.7592458
0
ARC
8
DEFAULT_255_2_778
10
18.376901
20
66.5955546
40
0.1045718
50
178.6452075
51
254.9151907
0
ARC
8
DEFAULT_255_2_778
10
18.3939581
20
66.5921016
40
0.121744
50
93.2745253
51
177.21023
0
ARC
8
DEFAULT_255_2_778
10
18.4475726
20
66.4050052
40
0.3145287
50
89.6200387
51
101.1027534
0
ARC
8
DEFAULT_255_2_778
10
18.4613489
20
66.5183453
40
0.2015212
50
53.1490002
51
93.3256649
0
ARC
8
DEFAULT_255_2_778
10
18.4902753
20
66.5751519
40
0.1391457
50
357.2298288
51
48.6469881
0
ARC
8
DEFAULT_255_2_778
10
18.5137232
20
66.5684226
40
0.3092351
50
0.0008291
51
2.3676985
0
ARC
8
DEFAULT_255_2_778
10
18.5240744
20
66.5699868
40
0.2988304
50
2.1500394
51
60.0956838
0
ARC
8
DEFAULT_255_2_778
10
18.4654399
20
66.4634909
40
0.4203859
50
60.40452
51
86.1455285
0
ARC
8
DEFAULT_255_2_778
10
18.4424157
20
66.2866686
40
0.5984588
50
85.0841409
51
90.0629301
0
ARC
8
DEFAULT_255_2_778
10
18.4417778
20
66.4096392
40
0.4754878
50
90.0023409
51
92.3231329
0
ARC
8
DEFAULT_255_2_778
10
18.4167555
20
66.5149604
40
0.3698206
50
89.1093915
51
149.6400816
0
ARC
8
DEFAULT_255_2_778
10
18.338761
20
66.5873917
40
0.2669122
50
154.6001925
51
180.486137
0
ARC
8
DEFAULT_255_2_778
10
18.3537607
20
66.5860152
40
0.2819037
50
180.1805176
51
255.132702
0
ARC
8
DEFAULT_255_2_778
10
18.4982264
20
66.9092784
40
0.6339516
50
250.0026216
51
260.4967164
0
ARC
8
DEFAULT_255_2_778
10
16.008917
20
65.1164283
40
0.2519711
50
190.2626864
51
267.3480013
0
ARC
8
DEFAULT_255_2_778
10
16.2443543
20
65.2077548
40
0.5022041
50
179.6723028
51
195.7380858
0
ARC
8
DEFAULT_255_2_778
10
16.1790511
20
65.2232671
40
0.4370755
50
148.7005643
51
181.6572045
0
ARC
8
DEFAULT_255_2_778
10
15.9957576
20
65.3333723
40
0.2232598
50
89.6148479
51
148.4074796
0
ARC
8
DEFAULT_255_2_778
10
16.0060936
20
65.355449
40
0.201372
50
41.9769772
51
92.5146611
0
ARC
8
DEFAULT_255_2_778
10
15.9522078
20
65.3177523
40
0.2667646
50
15.1848537
51
40.2549591
0
ARC
8
DEFAULT_255_2_778
10
16.028123
20
65.3280326
40
0.3935735
50
8.7091682
51
82.0550801
0
ARC
8
DEFAULT_255_2_778
10
15.9931241
20
65.1815871
40
0.543642
50
80.5350289
51
90.1544743
0
ARC
8
DEFAULT_255_2_778
10
15.9818804
20
65.2702192
40
0.4551129
50
88.7689246
51
119.6437418
0
ARC
8
DEFAULT_255_2_778
10
16.0077717
20
65.2739647
40
0.4653013
50
122.644121
51
173.3997839
0
ARC
8
DEFAULT_255_2_778
10
16.2711934
20
65.2096568
40
0.7351371
50
170.7798304
51
180.1348114
0
ARC
8
DEFAULT_255_2_778
10
16.1377257
20
65.1942615
40
0.6018225
50
178.6988735
51
210.5289552
0
ARC
8
DEFAULT_255_2_778
10
15.970325
20
65.1034953
40
0.4115783
50
211.4828222
51
265.8686737
0
ARC
8
DEFAULT_255_2_778
10
15.9909864
20
65.2282011
40
0.5375742
50
264.6297133
51
270.0503073
0
ARC
8
DEFAULT_255_2_778
10
16.0020995
20
65.1600749
40
0.4695684
50
268.7014824
51
300.1403067
0
ARC
8
DEFAULT_255_2_778
10
16.0350333
20
65.0816852
40
0.385394
50
301.7580058
51
353.77968
0
ARC
8
DEFAULT_255_2_778
10
16.0012256
20
65.0760219
40
0.2113379
50
268.8430278
51
350.1661143
0
ARC
8
DEFAULT_255_2_778
10
18.6896799
20
65.1163824
40
0.2519281
50
190.2538303
51
267.3332171
0
ARC
8
DEFAULT_255_2_778
10
18.9252249
20
65.2077581
40
0.5022746
50
179.672724
51
195.7362088
0
ARC
8
DEFAULT_255_2_778
10
18.8600432
20
65.2232917
40
0.4372682
50
148.7196987
51
181.6596982
0
ARC
8
DEFAULT_255_2_778
10
18.676443
20
65.3334906
40
0.2231415
50
89.6108896
51
148.4244661
0
ARC
8
DEFAULT_255_2_778
10
18.686876
20
65.355467
40
0.2013576
50
42.5913083
51
92.5383066
0
ARC
8
DEFAULT_255_2_778
10
18.6345542
20
65.3190973
40
0.2646316
50
15.0085433
51
40.7215892
0
ARC
8
DEFAULT_255_2_778
10
18.708623
20
65.3280326
40
0.3935735
50
8.7091682
51
82.0550801
0
ARC
8
DEFAULT_255_2_778
10
18.6736241
20
65.1815871
40
0.543642
50
80.5350289
51
90.1544743
0
ARC
8
DEFAULT_255_2_778
10
18.6623804
20
65.2702192
40
0.4551129
50
88.7689246
51
119.6437418
0
ARC
8
DEFAULT_255_2_778
10
18.6882717
20
65.2739647
40
0.4653013
50
122.644121
51
173.3997839
0
ARC
8
DEFAULT_255_2_778
10
18.9516934
20
65.2096568
40
0.7351371
50
170.7798304
51
180.1348114
0
ARC
8
DEFAULT_255_2_778
10
18.8177822
20
65.19432
40
0.6013778
50
178.7034849
51
210.5604279
0
ARC
8
DEFAULT_255_2_778
10
18.6511312
20
65.1038377
40
0.4119265
50
211.5090145
51
265.8592607
0
ARC
8
DEFAULT_255_2_778
10
18.6716883
20
65.2279521
40
0.5373252
50
264.628472
51
270.0501277
0
ARC
8
DEFAULT_255_2_778
10
18.682837
20
65.1598685
40
0.4693629
50
268.6963312
51
300.2191972
0
ARC
8
DEFAULT_255_2_778
10
18.7155684
20
65.0819124
40
0.3856821
50
301.8465101
51
353.7503927
0
ARC
8
DEFAULT_255_2_778
10
18.6820648
20
65.0758604
40
0.2111733
50
268.8857714
51
350.2028431
0
LINE
8
DEFAULT_255_2_778
10
15.4577584
20
66.1699271
11
15.2656584
21
66.1699271
0
LINE
8
DEFAULT_255_2_778
10
15.8405584
20
66.5684271
11
16.0342584
21
66.5684271
0
LINE
8
DEFAULT_255_2_778
10
18.2459584
20
66.1699271
11
18.0540584
21
66.1699271
0
LINE
8
DEFAULT_255_2_778
10
18.6292584
20
66.5684271
11
18.8229584
21
66.5684271
0
LINE
8
DEFAULT_255_2_778
10
16.2096584
20
65.3876271
11
16.4171584
21
65.3876271
0
LINE
8
DEFAULT_255_2_778
10
16.4181584
20
65.0399271
11
16.2094584
21
65.0399271
0
LINE
8
DEFAULT_255_2_778
10
18.8901584
20
65.3876271
11
19.0976584
21
65.3876271
0
LINE
8
DEFAULT_255_2_778
10
19.0989584
20
65.0399271
11
18.8901584
21
65.0399271
0
LINE
8
DEFAULT_255_2_778
10
9.3932417
20
52.784333
11
10.7161417
21
52.784333
0
LINE
8
DEFAULT_255_2_778
10
10.7161417
20
52.784333
11
10.7161417
21
31.617633
0
LINE
8
DEFAULT_255_2_778
10
9.3932834
20
31.6177333
11
12.0390834
21
31.6177333
0
LINE
8
DEFAULT_255_2_778
10
12.0390834
20
31.6177333
11
12.0390834
21
26.3260333
0
LINE
8
DEFAULT_255_2_778
10
12.0390834
20
26.3260333
11
9.3932834
21
26.3260333
0
LINE
8
DEFAULT_255_2_778
10
9.3932834
20
26.3260333
11
9.3932834
21
31.6177333
0
ARC
8
DEFAULT_255_2_778_1
10
13.1928591
20
26.428477
40
4.816461
50
120.9442904
51
122.351755
0
ARC
8
DEFAULT_255_2_778_1
10
12.7462523
20
27.1321039
40
3.9830657
50
122.3407904
51
124.1946752
0
ARC
8
DEFAULT_255_2_778_1
10
12.3063464
20
27.7786306
40
3.2010724
50
124.1855758
51
126.4338849
0
ARC
8
DEFAULT_255_2_778_1
10
11.9204129
20
28.3013611
40
2.5513094
50
126.4326926
51
128.8877368
0
ARC
8
DEFAULT_255_2_778_1
10
11.5855968
20
28.7157658
40
2.0185498
50
128.8749205
51
131.8726567
0
ARC
8
DEFAULT_255_2_778_1
10
11.2884677
20
29.0467854
40
1.5737356
50
131.8616166
51
135.4168838
0
ARC
8
DEFAULT_255_2_778_1
10
11.025668
20
29.3049765
40
1.2053256
50
135.3893975
51
139.9687014
0
ARC
8
DEFAULT_255_2_778_1
10
10.7927889
20
29.4998102
40
0.9016937
50
139.9301659
51
145.9260426
0
ARC
8
DEFAULT_255_2_778_1
10
10.596654
20
29.6318104
40
0.6652776
50
145.8787362
51
153.8146208
0
ARC
8
DEFAULT_255_2_778_1
10
10.4445553
20
29.7061797
40
0.4959714
50
153.770634
51
164.3484794
0
ARC
8
DEFAULT_255_2_778_1
10
10.3432387
20
29.7343786
40
0.3908039
50
164.3220276
51
179.8083066
0
ARC
8
DEFAULT_255_2_778_1
10
10.3642789
20
29.742515
40
0.4118985
50
180.9499449
51
213.8111542
0
ARC
8
DEFAULT_255_2_778_1
10
10.6401828
20
29.9120896
40
0.73561
50
212.8271214
51
224.258472
0
ARC
8
DEFAULT_255_2_778_1
10
11.0230335
20
30.2814236
40
1.267567
50
224.1376218
51
231.4508261
0
ARC
8
DEFAULT_255_2_778_1
10
11.6657195
20
31.0844168
40
2.2960809
50
231.3955893
51
236.1256478
0
ARC
8
DEFAULT_255_2_778_1
10
13.4980223
20
33.8309293
40
5.5976905
50
236.2233172
51
239.1314682
0
ARC
8
DEFAULT_255_2_778_1
10
25.447927
20
53.5586568
40
28.6623793
50
238.8606853
51
239.0711101
0
ARC
8
DEFAULT_255_2_778_1
10
6.2757281
20
21.4615653
40
8.7248518
50
57.2420924
51
59.4062964
0
ARC
8
DEFAULT_255_2_778_1
10
9.5034241
20
26.4925102
40
2.747542
50
52.8289294
51
57.079028
0
ARC
8
DEFAULT_255_2_778_1
10
10.2780783
20
27.5128488
40
1.466457
50
46.3041868
51
52.8596521
0
ARC
8
DEFAULT_255_2_778_1
10
10.7103073
20
27.9629842
40
0.8424061
50
36.2174211
51
46.4090895
0
ARC
8
DEFAULT_255_2_778_1
10
10.9948088
20
28.1678128
40
0.4918609
50
17.400375
51
36.5489745
0
ARC
8
DEFAULT_255_2_778_1
10
11.1088994
20
28.2076754
40
0.3710912
50
0.0676858
51
16.7951297
0
ARC
8
DEFAULT_255_2_778_1
10
11.0878613
20
28.2095428
40
0.3921317
50
343.8035191
51
359.7912046
0
ARC
8
DEFAULT_255_2_778_1
10
10.9815912
20
28.2400167
40
0.5026844
50
333.2506233
51
343.8465691
0
ARC
8
DEFAULT_255_2_778_1
10
10.8277757
20
28.3167313
40
0.6745679
50
325.6600948
51
333.3122657
0
ARC
8
DEFAULT_255_2_778_1
10
10.6323344
20
28.4495296
40
0.9108568
50
319.7560915
51
325.6976089
0
ARC
8
DEFAULT_255_2_778_1
10
10.404199
20
28.6413002
40
1.2088854
50
315.4577584
51
319.8037947
0
ARC
8
DEFAULT_255_2_778_1
10
10.1408127
20
28.9001507
40
1.5781764
50
311.7298824
51
315.4670864
0
ARC
8
DEFAULT_255_2_778_1
10
9.8317879
20
29.2457074
40
2.0417554
50
308.723055
51
311.7470879
0
ARC
8
DEFAULT_255_2_778_1
10
9.477589
20
29.6869492
40
2.6075745
50
306.1165163
51
308.7300151
0
ARC
8
DEFAULT_255_2_778_1
10
9.0746091
20
30.2382523
40
3.2904564
50
303.9559446
51
306.1266333
0
ARC
8
DEFAULT_255_2_778_1
10
8.6630432
20
30.847515
40
4.0257023
50
302.3733397
51
303.9712246
0
ARC
8
DEFAULT_255_2_778_1
10
8.2434347
20
31.5090058
40
4.8090549
50
300.9434827
51
302.3758078
0
LINE
8
DEFAULT_255_2_778
10
10.7161335
20
26.3260993
11
10.7161335
21
5.1593993
0
LINE
8
DEFAULT_255_2_778
10
10.7161335
20
5.1593993
11
9.3932335
21
5.1593993
0
LINE
8
DEFAULT_255_2_778
10
19.9765335
20
52.7843993
11
18.6536335
21
52.7843993
0
LINE
8
DEFAULT_255_2_778
10
18.6536335
20
52.7843993
11
18.6536335
21
47.4926993
0
LINE
8
DEFAULT_255_2_778
10
17.3307834
20
47.4927333
11
19.9765834
21
47.4927333
0
LINE
8
DEFAULT_255_2_778
10
19.9765834
20
47.4927333
11
19.9765834
21
42.2010333
0
LINE
8
DEFAULT_255_2_778
10
19.9765834
20
42.2010333
11
17.3307834
21
42.2010333
0
LINE
8
DEFAULT_255_2_778
10
17.3307834
20
42.2010333
11
17.3307834
21
47.4927333
0
ARC
8
DEFAULT_255_2_778_1
10
21.1303591
20
42.303477
40
4.816461
50
120.9442904
51
122.351755
0
ARC
8
DEFAULT_255_2_778_1
10
20.6837523
20
43.0071039
40
3.9830657
50
122.3407904
51
124.1946752
0
ARC
8
DEFAULT_255_2_778_1
10
20.2438464
20
43.6536306
40
3.2010724
50
124.1855758
51
126.4338849
0
ARC
8
DEFAULT_255_2_778_1
10
19.8579129
20
44.1763611
40
2.5513094
50
126.4326926
51
128.8877368
0
ARC
8
DEFAULT_255_2_778_1
10
19.5230968
20
44.5907658
40
2.0185498
50
128.8749205
51
131.8726567
0
ARC
8
DEFAULT_255_2_778_1
10
19.2259677
20
44.9217854
40
1.5737356
50
131.8616166
51
135.4168838
0
ARC
8
DEFAULT_255_2_778_1
10
18.963168
20
45.1799765
40
1.2053256
50
135.3893975
51
139.9687014
0
ARC
8
DEFAULT_255_2_778_1
10
18.7302889
20
45.3748102
40
0.9016937
50
139.9301659
51
145.9260426
0
ARC
8
DEFAULT_255_2_778_1
10
18.534154
20
45.5068104
40
0.6652776
50
145.8787362
51
153.8146208
0
ARC
8
DEFAULT_255_2_778_1
10
18.3820553
20
45.5811797
40
0.4959714
50
153.770634
51
164.3484794
0
ARC
8
DEFAULT_255_2_778_1
10
18.2807387
20
45.6093786
40
0.3908039
50
164.3220276
51
179.8083066
0
ARC
8
DEFAULT_255_2_778_1
10
18.3017789
20
45.617515
40
0.4118985
50
180.9499449
51
213.8111542
0
ARC
8
DEFAULT_255_2_778_1
10
18.5776828
20
45.7870896
40
0.73561
50
212.8271214
51
224.258472
0
ARC
8
DEFAULT_255_2_778_1
10
18.9605335
20
46.1564236
40
1.267567
50
224.1376218
51
231.4508261
0
ARC
8
DEFAULT_255_2_778_1
10
19.6032195
20
46.9594168
40
2.2960809
50
231.3955893
51
236.1256478
0
ARC
8
DEFAULT_255_2_778_1
10
21.4355223
20
49.7059293
40
5.5976905
50
236.2233172
51
239.1314682
0
ARC
8
DEFAULT_255_2_778_1
10
33.385427
20
69.4336568
40
28.6623793
50
238.8606853
51
239.0711101
0
ARC
8
DEFAULT_255_2_778_1
10
14.2132281
20
37.3365653
40
8.7248518
50
57.2420924
51
59.4062964
0
ARC
8
DEFAULT_255_2_778_1
10
17.4409241
20
42.3675102
40
2.747542
50
52.8289294
51
57.079028
0
ARC
8
DEFAULT_255_2_778_1
10
18.2155783
20
43.3878488
40
1.466457
50
46.3041868
51
52.8596521
0
ARC
8
DEFAULT_255_2_778_1
10
18.6478073
20
43.8379842
40
0.8424061
50
36.2174211
51
46.4090895
0
ARC
8
DEFAULT_255_2_778_1
10
18.9323088
20
44.0428128
40
0.4918609
50
17.400375
51
36.5489745
0
ARC
8
DEFAULT_255_2_778_1
10
19.0463994
20
44.0826754
40
0.3710912
50
0.0676858
51
16.7951297
0
ARC
8
DEFAULT_255_2_778_1
10
19.0253613
20
44.0845428
40
0.3921317
50
343.8035191
51
359.7912046
0
ARC
8
DEFAULT_255_2_778_1
10
18.9190912
20
44.1150167
40
0.5026844
50
333.2506233
51
343.8465691
0
ARC
8
DEFAULT_255_2_778_1
10
18.7652757
20
44.1917313
40
0.6745679
50
325.6600948
51
333.3122657
0
ARC
8
DEFAULT_255_2_778_1
10
18.5698344
20
44.3245296
40
0.9108568
50
319.7560915
51
325.6976089
0
ARC
8
DEFAULT_255_2_778_1
10
18.341699
20
44.5163002
40
1.2088854
50
315.4577584
51
319.8037947
0
ARC
8
DEFAULT_255_2_778_1
10
18.0783127
20
44.7751507
40
1.5781764
50
311.7298824
51
315.4670864
0
ARC
8
DEFAULT_255_2_778_1
10
17.7692879
20
45.1207074
40
2.0417554
50
308.723055
51
311.7470879
0
ARC
8
DEFAULT_255_2_778_1
10
17.415089
20
45.5619492
40
2.6075745
50
306.1165163
51
308.7300151
0
ARC
8
DEFAULT_255_2_778_1
10
17.0121091
20
46.1132523
40
3.2904564
50
303.9559446
51
306.1266333
0
ARC
8
DEFAULT_255_2_778_1
10
16.6005432
20
46.722515
40
4.0257023
50
302.3733397
51
303.9712246
0
ARC
8
DEFAULT_255_2_778_1
10
16.1809347
20
47.3840058
40
4.8090549
50
300.9434827
51
302.3758078
0
LINE
8
DEFAULT_255_2_778
10
18.6536417
20
42.2010333
11
18.6536417
21
36.9093333
0
LINE
8
DEFAULT_255_2_778
10
18.6536417
20
36.9093333
11
19.9765417
21
36.9093333
0
LINE
8
DEFAULT_255_1_388
10
4.8123318
20
60.3508382
11
4.8123318
21
60.2144
0
LINE
8
DEFAULT_255_1_388
10
4.8123318
20
60.2144
11
3.9503313
21
60.2144
0
LINE
8
DEFAULT_255_1_388
10
3.9503313
20
60.2144
11
3.9503313
21
60.3345741
0
LINE
8
DEFAULT_255_1_388
10
3.9503313
20
60.3345741
11
4.4057278
21
60.8405702
0
LINE
8
DEFAULT_255_1_388
10
4.0921909
20
61.1423607
11
3.9250315
21
61.1423607
0
LINE
8
DEFAULT_255_1_388
10
4.5042163
20
60.733046
11
4.1518262
21
60.3508382
0
LINE
8
DEFAULT_255_1_388
10
4.1518262
20
60.3508382
11
4.8123318
21
60.3508382
0
ARC
8
DEFAULT_255_1_388
10
2.8881337
20
62.1825983
40
2.0258655
50
318.5132526
51
320.7829045
0
ARC
8
DEFAULT_255_1_388
10
3.4829294
20
61.6984929
40
1.2589638
50
320.7372878
51
323.9739031
0
ARC
8
DEFAULT_255_1_388
10
3.9238226
20
61.3790554
40
0.7145141
50
323.8962701
51
328.64194
0
ARC
8
DEFAULT_255_1_388
10
4.1540484
20
61.2370545
40
0.4440242
50
328.8294576
51
331.7891185
0
ARC
8
DEFAULT_255_1_388
10
4.2662804
20
61.1791374
40
0.3177517
50
331.4254512
51
352.9365785
0
ARC
8
DEFAULT_255_1_388
10
4.2815804
20
61.175705
40
0.3021496
50
353.2257659
51
0.0166158
0
ARC
8
DEFAULT_255_1_388
10
4.3052564
20
61.1782894
40
0.2784847
50
359.486299
51
15.9343185
0
ARC
8
DEFAULT_255_1_388
10
4.3622831
20
61.1936269
40
0.2194403
50
16.1712913
51
43.5286088
0
ARC
8
DEFAULT_255_1_388
10
4.3709776
20
61.2023191
40
0.2071504
50
43.4417391
51
83.1661095
0
ARC
8
DEFAULT_255_1_388
10
4.3558937
20
61.1194316
40
0.2912888
50
82.160179
51
90.1505708
0
ARC
8
DEFAULT_255_1_388
10
4.3523418
20
61.0590279
40
0.3517025
50
89.5460741
51
102.5418361
0
ARC
8
DEFAULT_255_1_388
10
4.3250138
20
61.1749933
40
0.2325748
50
102.1738499
51
129.206123
0
ARC
8
DEFAULT_255_1_388
10
4.3161592
20
61.1889664
40
0.2161591
50
129.72865
51
135.753947
0
ARC
8
DEFAULT_255_1_388
10
4.3298074
20
61.1780728
40
0.2335433
50
136.1757367
51
166.3673339
0
ARC
8
DEFAULT_255_1_388
10
4.4430762
20
61.1477148
40
0.3507873
50
165.9090694
51
178.8684636
0
ARC
8
DEFAULT_255_1_388
10
4.5406534
20
61.1424263
40
0.4484624
50
178.4391136
51
180.0083808
0
ARC
8
DEFAULT_255_1_388
10
4.3827235
20
61.1468197
40
0.4577138
50
163.2878482
51
180.5581842
0
ARC
8
DEFAULT_255_1_388
10
4.2925276
20
61.1716393
40
0.3641968
50
133.4540601
51
162.947111
0
ARC
8
DEFAULT_255_1_388
10
4.3126158
20
61.1502789
40
0.3935189
50
100.7869829
51
133.4382499
0
ARC
8
DEFAULT_255_1_388
10
4.3517403
20
60.9760399
40
0.5720313
50
89.660664
51
101.3702276
0
ARC
8
DEFAULT_255_1_388
10
4.3592012
20
60.9829263
40
0.5651495
50
78.2172678
51
90.412935
0
ARC
8
DEFAULT_255_1_388
10
4.3991478
20
61.1656511
40
0.378122
50
55.9269121
51
78.4888449
0
ARC
8
DEFAULT_255_1_388
10
4.4212193
20
61.2037187
40
0.3342379
50
47.929771
51
55.4049217
0
ARC
8
DEFAULT_255_1_388
10
4.4326723
20
61.2153618
40
0.3179217
50
4.334829
51
48.0560205
0
ARC
8
DEFAULT_255_1_388
10
4.3094525
20
61.1962487
40
0.442341
50
359.9251713
51
5.5971671
0
ARC
8
DEFAULT_255_1_388
10
4.357668
20
61.2025728
40
0.3941854
50
337.8914027
51
358.9967534
0
ARC
8
DEFAULT_255_1_388
10
4.052425
20
61.3203295
40
0.7213271
50
326.9132501
51
338.3508308
0
ARC
8
DEFAULT_255_1_388
10
3.6040362
20
61.6077105
40
1.2538973
50
319.6471833
51
327.0959558
0
ARC
8
DEFAULT_255_1_388
10
3.172702
20
61.963505
40
1.8129975
50
317.2588228
51
319.9045804
0
LINE
8
DEFAULT_255_1_388
10
5.6951143
20
61.5299898
11
5.6951143
21
60.656243
0
LINE
8
DEFAULT_255_1_388
10
5.6951143
20
60.656243
11
5.8776343
21
60.656243
0
LINE
8
DEFAULT_255_1_388
10
5.8776343
20
60.656243
11
5.8776343
21
60.5198048
0
LINE
8
DEFAULT_255_1_388
10
5.8776343
20
60.5198048
11
5.6951143
21
60.5198048
0
LINE
8
DEFAULT_255_1_388
10
5.6951143
20
60.5198048
11
5.6951143
21
60.2144
0
LINE
8
DEFAULT_255_1_388
10
5.6951143
20
60.2144
11
5.5270513
21
60.2144
0
LINE
8
DEFAULT_255_1_388
10
5.5270513
20
60.2144
11
5.5270513
21
60.5198048
0
LINE
8
DEFAULT_255_1_388
10
5.5270513
20
60.5198048
11
4.927988
21
60.5198048
0
LINE
8
DEFAULT_255_1_388
10
4.927988
20
60.5198048
11
4.927988
21
60.6182933
0
LINE
8
DEFAULT_255_1_388
10
4.927988
20
60.6182933
11
5.5171121
21
61.5299898
0
LINE
8
DEFAULT_255_1_388
10
5.5171121
20
61.5299898
11
5.6951143
21
61.5299898
0
LINE
8
DEFAULT_255_1_388
10
5.5071729
20
61.2652455
11
5.1177366
21
60.656243
0
LINE
8
DEFAULT_255_1_388
10
5.1177366
20
60.656243
11
5.5270513
21
60.656243
0
LINE
8
DEFAULT_255_1_388
10
5.5270513
20
60.656243
11
5.5270513
21
61.301388
0
LINE
8
DEFAULT_255_1_388
10
5.5270513
20
61.301388
11
5.5071729
21
61.2652455
0
LINE
8
DEFAULT_255_1_388
10
6.5245864
20
61.3040987
11
6.5245864
21
60.9200838
0
LINE
8
DEFAULT_255_1_388
10
6.5245864
20
60.9200838
11
6.8914336
21
60.9200838
0
LINE
8
DEFAULT_255_1_388
10
6.8914336
20
60.9200838
11
6.8914336
21
60.7619601
0
LINE
8
DEFAULT_255_1_388
10
6.8914336
20
60.7619601
11
6.5245864
21
60.7619601
0
LINE
8
DEFAULT_255_1_388
10
6.5245864
20
60.7619601
11
6.5245864
21
60.3463204
0
LINE
8
DEFAULT_255_1_388
10
6.5245864
20
60.3463204
11
6.3565234
21
60.3463204
0
LINE
8
DEFAULT_255_1_388
10
6.3565234
20
60.3463204
11
6.3565234
21
60.7619601
0
LINE
8
DEFAULT_255_1_388
10
6.3565234
20
60.7619601
11
5.9896763
21
60.7619601
0
LINE
8
DEFAULT_255_1_388
10
5.9896763
20
60.7619601
11
5.9896763
21
60.9200838
0
LINE
8
DEFAULT_255_1_388
10
5.9896763
20
60.9200838
11
6.3565234
21
60.9200838
0
LINE
8
DEFAULT_255_1_388
10
6.3565234
20
60.9200838
11
6.3565234
21
61.3040987
0
LINE
8
DEFAULT_255_1_388
10
6.3565234
20
61.3040987
11
6.5245864
21
61.3040987
0
LINE
8
DEFAULT_255_1_388
10
4.8129318
20
4.7883382
11
4.8129318
21
4.6519
0
LINE
8
DEFAULT_255_1_388
10
4.8129318
20
4.6519
11
3.9509313
21
4.6519
0
LINE
8
DEFAULT_255_1_388
10
3.9509313
20
4.6519
11
3.9509313
21
4.7720741
0
LINE
8
DEFAULT_255_1_388
10
3.9509313
20
4.7720741
11
4.4063278
21
5.2780702
0
LINE
8
DEFAULT_255_1_388
10
4.0927909
20
5.5798607
11
3.9256315
21
5.5798607
0
LINE
8
DEFAULT_255_1_388
10
4.5048163
20
5.170546
11
4.1524262
21
4.7883382
0
LINE
8
DEFAULT_255_1_388
10
4.1524262
20
4.7883382
11
4.8129318
21
4.7883382
0
ARC
8
DEFAULT_255_1_388
10
2.8887337
20
6.6200983
40
2.0258655
50
318.5132526
51
320.7829045
0
ARC
8
DEFAULT_255_1_388
10
3.4835294
20
6.1359929
40
1.2589638
50
320.7372878
51
323.9739031
0
ARC
8
DEFAULT_255_1_388
10
3.9244226
20
5.8165554
40
0.7145141
50
323.8962701
51
328.64194
0
ARC
8
DEFAULT_255_1_388
10
4.1546484
20
5.6745545
40
0.4440242
50
328.8294576
51
331.7891185
0
ARC
8
DEFAULT_255_1_388
10
4.2668804
20
5.6166374
40
0.3177517
50
331.4254512
51
352.9365785
0
ARC
8
DEFAULT_255_1_388
10
4.2821804
20
5.613205
40
0.3021496
50
353.2257659
51
0.0166158
0
ARC
8
DEFAULT_255_1_388
10
4.3058564
20
5.6157894
40
0.2784847
50
359.486299
51
15.9343185
0
ARC
8
DEFAULT_255_1_388
10
4.3628831
20
5.6311269
40
0.2194403
50
16.1712913
51
43.5286088
0
ARC
8
DEFAULT_255_1_388
10
4.3715776
20
5.6398191
40
0.2071504
50
43.4417391
51
83.1661095
0
ARC
8
DEFAULT_255_1_388
10
4.3564937
20
5.5569316
40
0.2912888
50
82.160179
51
90.1505708
0
ARC
8
DEFAULT_255_1_388
10
4.3529418
20
5.4965279
40
0.3517025
50
89.5460741
51
102.5418361
0
ARC
8
DEFAULT_255_1_388
10
4.3256138
20
5.6124933
40
0.2325748
50
102.1738499
51
129.206123
0
ARC
8
DEFAULT_255_1_388
10
4.3167592
20
5.6264664
40
0.2161591
50
129.72865
51
135.753947
0
ARC
8
DEFAULT_255_1_388
10
4.3304074
20
5.6155728
40
0.2335433
50
136.1757367
51
166.3673339
0
ARC
8
DEFAULT_255_1_388
10
4.4436762
20
5.5852148
40
0.3507873
50
165.9090694
51
178.8684636
0
ARC
8
DEFAULT_255_1_388
10
4.5412534
20
5.5799263
40
0.4484624
50
178.4391136
51
180.0083808
0
ARC
8
DEFAULT_255_1_388
10
4.3833235
20
5.5843197
40
0.4577138
50
163.2878482
51
180.5581842
0
ARC
8
DEFAULT_255_1_388
10
4.2931276
20
5.6091393
40
0.3641968
50
133.4540601
51
162.947111
0
ARC
8
DEFAULT_255_1_388
10
4.3132158
20
5.5877789
40
0.3935189
50
100.7869829
51
133.4382499
0
ARC
8
DEFAULT_255_1_388
10
4.3523403
20
5.4135399
40
0.5720313
50
89.660664
51
101.3702276
0
ARC
8
DEFAULT_255_1_388
10
4.3598012
20
5.4204263
40
0.5651495
50
78.2172678
51
90.412935
0
ARC
8
DEFAULT_255_1_388
10
4.3997478
20
5.6031511
40
0.378122
50
55.9269121
51
78.4888449
0
ARC
8
DEFAULT_255_1_388
10
4.4218193
20
5.6412187
40
0.3342379
50
47.929771
51
55.4049217
0
ARC
8
DEFAULT_255_1_388
10
4.4332723
20
5.6528618
40
0.3179217
50
4.334829
51
48.0560205
0
ARC
8
DEFAULT_255_1_388
10
4.3100525
20
5.6337487
40
0.442341
50
359.9251713
51
5.5971671
0
ARC
8
DEFAULT_255_1_388
10
4.358268
20
5.6400728
40
0.3941854
50
337.8914027
51
358.9967534
0
ARC
8
DEFAULT_255_1_388
10
4.053025
20
5.7578295
40
0.7213271
50
326.9132501
51
338.3508308
0
ARC
8
DEFAULT_255_1_388
10
3.6046362
20
6.0452105
40
1.2538973
50
319.6471833
51
327.0959558
0
ARC
8
DEFAULT_255_1_388
10
3.173302
20
6.401005
40
1.8129975
50
317.2588228
51
319.9045804
0
LINE
8
DEFAULT_255_1_388
10
5.2195358
20
5.9674898
11
5.2195358
21
4.6519
0
LINE
8
DEFAULT_255_1_388
10
5.2195358
20
4.6519
11
5.0460514
21
4.6519
0
LINE
8
DEFAULT_255_1_388
10
5.0460514
20
4.6519
11
5.0460514
21
5.9674898
0
LINE
8
DEFAULT_255_1_388
10
5.0460514
20
5.9674898
11
5.2195358
21
5.9674898
0
LINE
8
DEFAULT_255_1_388
10
5.9893727
20
5.7415987
11
5.9893727
21
5.3575838
0
LINE
8
DEFAULT_255_1_388
10
5.9893727
20
5.3575838
11
6.3562199
21
5.3575838
0
LINE
8
DEFAULT_255_1_388
10
6.3562199
20
5.3575838
11
6.3562199
21
5.1994601
0
LINE
8
DEFAULT_255_1_388
10
6.3562199
20
5.1994601
11
5.9893727
21
5.1994601
0
LINE
8
DEFAULT_255_1_388
10
5.9893727
20
5.1994601
11
5.9893727
21
4.7838204
0
LINE
8
DEFAULT_255_1_388
10
5.9893727
20
4.7838204
11
5.8213097
21
4.7838204
0
LINE
8
DEFAULT_255_1_388
10
5.8213097
20
4.7838204
11
5.8213097
21
5.1994601
0
LINE
8
DEFAULT_255_1_388
10
5.8213097
20
5.1994601
11
5.4544625
21
5.1994601
0
LINE
8
DEFAULT_255_1_388
10
5.4544625
20
5.1994601
11
5.4544625
21
5.3575838
0
LINE
8
DEFAULT_255_1_388
10
5.4544625
20
5.3575838
11
5.8213097
21
5.3575838
0
LINE
8
DEFAULT_255_1_388
10
5.8213097
20
5.3575838
11
5.8213097
21
5.7415987
0
LINE
8
DEFAULT_255_1_388
10
5.8213097
20
5.7415987
11
5.9893727
21
5.7415987
0
LINE
8
DEFAULT_255_1_388
10
4.9494318
20
12.7258382
11
4.9494318
21
12.5894
0
LINE
8
DEFAULT_255_1_388
10
4.9494318
20
12.5894
11
4.0874313
21
12.5894
0
LINE
8
DEFAULT_255_1_388
10
4.0874313
20
12.5894
11
4.0874313
21
12.7095741
0
LINE
8
DEFAULT_255_1_388
10
4.0874313
20
12.7095741
11
4.5428278
21
13.2155702
0
LINE
8
DEFAULT_255_1_388
10
4.2292909
20
13.5173607
11
4.0621315
21
13.5173607
0
LINE
8
DEFAULT_255_1_388
10
4.6413163
20
13.108046
11
4.2889262
21
12.7258382
0
LINE
8
DEFAULT_255_1_388
10
4.2889262
20
12.7258382
11
4.9494318
21
12.7258382
0
ARC
8
DEFAULT_255_1_388
10
3.0252337
20
14.5575983
40
2.0258655
50
318.5132526
51
320.7829045
0
ARC
8
DEFAULT_255_1_388
10
3.6200294
20
14.0734929
40
1.2589638
50
320.7372878
51
323.9739031
0
ARC
8
DEFAULT_255_1_388
10
4.0609226
20
13.7540554
40
0.7145141
50
323.8962701
51
328.64194
0
ARC
8
DEFAULT_255_1_388
10
4.2911484
20
13.6120545
40
0.4440242
50
328.8294576
51
331.7891185
0
ARC
8
DEFAULT_255_1_388
10
4.4033804
20
13.5541374
40
0.3177517
50
331.4254512
51
352.9365785
0
ARC
8
DEFAULT_255_1_388
10
4.4186804
20
13.550705
40
0.3021496
50
353.2257659
51
0.0166158
0
ARC
8
DEFAULT_255_1_388
10
4.4423564
20
13.5532894
40
0.2784847
50
359.486299
51
15.9343185
0
ARC
8
DEFAULT_255_1_388
10
4.4993831
20
13.5686269
40
0.2194403
50
16.1712913
51
43.5286088
0
ARC
8
DEFAULT_255_1_388
10
4.5080776
20
13.5773191
40
0.2071504
50
43.4417391
51
83.1661095
0
ARC
8
DEFAULT_255_1_388
10
4.4929937
20
13.4944316
40
0.2912888
50
82.160179
51
90.1505708
0
ARC
8
DEFAULT_255_1_388
10
4.4894418
20
13.4340279
40
0.3517025
50
89.5460741
51
102.5418361
0
ARC
8
DEFAULT_255_1_388
10
4.4621138
20
13.5499933
40
0.2325748
50
102.1738499
51
129.206123
0
ARC
8
DEFAULT_255_1_388
10
4.4532592
20
13.5639664
40
0.2161591
50
129.72865
51
135.753947
0
ARC
8
DEFAULT_255_1_388
10
4.4669074
20
13.5530728
40
0.2335433
50
136.1757367
51
166.3673339
0
ARC
8
DEFAULT_255_1_388
10
4.5801762
20
13.5227148
40
0.3507873
50
165.9090694
51
178.8684636
0
ARC
8
DEFAULT_255_1_388
10
4.6777534
20
13.5174263
40
0.4484624
50
178.4391136
51
180.0083808
0
ARC
8
DEFAULT_255_1_388
10
4.5198235
20
13.5218197
40
0.4577138
50
163.2878482
51
180.5581842
0
ARC
8
DEFAULT_255_1_388
10
4.4296276
20
13.5466393
40
0.3641968
50
133.4540601
51
162.947111
0
ARC
8
DEFAULT_255_1_388
10
4.4497158
20
13.5252789
40
0.3935189
50
100.7869829
51
133.4382499
0
ARC
8
DEFAULT_255_1_388
10
4.4888403
20
13.3510399
40
0.5720313
50
89.660664
51
101.3702276
0
ARC
8
DEFAULT_255_1_388
10
4.4963012
20
13.3579263
40
0.5651495
50
78.2172678
51
90.412935
0
ARC
8
DEFAULT_255_1_388
10
4.5362478
20
13.5406511
40
0.378122
50
55.9269121
51
78.4888449
0
ARC
8
DEFAULT_255_1_388
10
4.5583193
20
13.5787187
40
0.3342379
50
47.929771
51
55.4049217
0
ARC
8
DEFAULT_255_1_388
10
4.5697723
20
13.5903618
40
0.3179217
50
4.334829
51
48.0560205
0
ARC
8
DEFAULT_255_1_388
10
4.4465525
20
13.5712487
40
0.442341
50
359.9251713
51
5.5971671
0
ARC
8
DEFAULT_255_1_388
10
4.494768
20
13.5775728
40
0.3941854
50
337.8914027
51
358.9967534
0
ARC
8
DEFAULT_255_1_388
10
4.189525
20
13.6953295
40
0.7213271
50
326.9132501
51
338.3508308
0
ARC
8
DEFAULT_255_1_388
10
3.7411362
20
13.9827105
40
1.2538973
50
319.6471833
51
327.0959558
0
ARC
8
DEFAULT_255_1_388
10
3.309802
20
14.338505
40
1.8129975
50
317.2588228
51
319.9045804
0
LINE
8
DEFAULT_255_1_388
10
5.2313439
20
13.9049898
11
5.6054196
21
12.8198089
0
LINE
8
DEFAULT_255_1_388
10
5.6054196
20
12.8198089
11
5.9813024
21
13.9049898
0
LINE
8
DEFAULT_255_1_388
10
5.9813024
20
13.9049898
11
6.1710509
21
13.9049898
0
LINE
8
DEFAULT_255_1_388
10
6.1710509
20
13.9049898
11
5.6831261
21
12.5894
0
LINE
8
DEFAULT_255_1_388
10
5.6831261
20
12.5894
11
5.5295202
21
12.5894
0
LINE
8
DEFAULT_255_1_388
10
5.5295202
20
12.5894
11
5.0424989
21
13.9049898
0
LINE
8
DEFAULT_255_1_388
10
5.0424989
20
13.9049898
11
5.2313439
21
13.9049898
0
LINE
8
DEFAULT_255_1_388
10
6.5333803
20
13.9049898
11
6.5333803
21
12.5894
0
LINE
8
DEFAULT_255_1_388
10
6.5333803
20
12.5894
11
6.3598959
21
12.5894
0
LINE
8
DEFAULT_255_1_388
10
6.3598959
20
12.5894
11
6.3598959
21
13.9049898
0
LINE
8
DEFAULT_255_1_388
10
6.3598959
20
13.9049898
11
6.5333803
21
13.9049898
0
LINE
8
DEFAULT_255_1_388
10
7.1722003
20
13.2164737
11
7.1722003
21
13.0800355
0
LINE
8
DEFAULT_255_1_388
10
7.1722003
20
13.0800355
11
6.7312609
21
13.0800355
0
LINE
8
DEFAULT_255_1_388
10
6.7312609
20
13.0800355
11
6.7312609
21
13.2164737
0
LINE
8
DEFAULT_255_1_388
10
6.7312609
20
13.2164737
11
7.1722003
21
13.2164737
0
LINE
8
DEFAULT_255_1_388
10
4.8126318
20
20.6633382
11
4.8126318
21
20.5269
0
LINE
8
DEFAULT_255_1_388
10
4.8126318
20
20.5269
11
3.9506313
21
20.5269
0
LINE
8
DEFAULT_255_1_388
10
3.9506313
20
20.5269
11
3.9506313
21
20.6470741
0
LINE
8
DEFAULT_255_1_388
10
3.9506313
20
20.6470741
11
4.4060278
21
21.1530702
0
LINE
8
DEFAULT_255_1_388
10
4.0924909
20
21.4548607
11
3.9253315
21
21.4548607
0
LINE
8
DEFAULT_255_1_388
10
4.5045163
20
21.045546
11
4.1521262
21
20.6633382
0
LINE
8
DEFAULT_255_1_388
10
4.1521262
20
20.6633382
11
4.8126318
21
20.6633382
0
ARC
8
DEFAULT_255_1_388
10
2.8884337
20
22.4950983
40
2.0258655
50
318.5132526
51
320.7829045
0
ARC
8
DEFAULT_255_1_388
10
3.4832294
20
22.0109929
40
1.2589638
50
320.7372878
51
323.9739031
0
ARC
8
DEFAULT_255_1_388
10
3.9241226
20
21.6915554
40
0.7145141
50
323.8962701
51
328.64194
0
ARC
8
DEFAULT_255_1_388
10
4.1543484
20
21.5495545
40
0.4440242
50
328.8294576
51
331.7891185
0
ARC
8
DEFAULT_255_1_388
10
4.2665804
20
21.4916374
40
0.3177517
50
331.4254512
51
352.9365785
0
ARC
8
DEFAULT_255_1_388
10
4.2818804
20
21.488205
40
0.3021496
50
353.2257659
51
0.0166158
0
ARC
8
DEFAULT_255_1_388
10
4.3055564
20
21.4907894
40
0.2784847
50
359.486299
51
15.9343185
0
ARC
8
DEFAULT_255_1_388
10
4.3625831
20
21.5061269
40
0.2194403
50
16.1712913
51
43.5286088
0
ARC
8
DEFAULT_255_1_388
10
4.3712776
20
21.5148191
40
0.2071504
50
43.4417391
51
83.1661095
0
ARC
8
DEFAULT_255_1_388
10
4.3561937
20
21.4319316
40
0.2912888
50
82.160179
51
90.1505708
0
ARC
8
DEFAULT_255_1_388
10
4.3526418
20
21.3715279
40
0.3517025
50
89.5460741
51
102.5418361
0
ARC
8
DEFAULT_255_1_388
10
4.3253138
20
21.4874933
40
0.2325748
50
102.1738499
51
129.206123
0
ARC
8
DEFAULT_255_1_388
10
4.3164592
20
21.5014664
40
0.2161591
50
129.72865
51
135.753947
0
ARC
8
DEFAULT_255_1_388
10
4.3301074
20
21.4905728
40
0.2335433
50
136.1757367
51
166.3673339
0
ARC
8
DEFAULT_255_1_388
10
4.4433762
20
21.4602148
40
0.3507873
50
165.9090694
51
178.8684636
0
ARC
8
DEFAULT_255_1_388
10
4.5409534
20
21.4549263
40
0.4484624
50
178.4391136
51
180.0083808
0
ARC
8
DEFAULT_255_1_388
10
4.3830235
20
21.4593197
40
0.4577138
50
163.2878482
51
180.5581842
0
ARC
8
DEFAULT_255_1_388
10
4.2928276
20
21.4841393
40
0.3641968
50
133.4540601
51
162.947111
0
ARC
8
DEFAULT_255_1_388
10
4.3129158
20
21.4627789
40
0.3935189
50
100.7869829
51
133.4382499
0
ARC
8
DEFAULT_255_1_388
10
4.3520403
20
21.2885399
40
0.5720313
50
89.660664
51
101.3702276
0
ARC
8
DEFAULT_255_1_388
10
4.3595012
20
21.2954263
40
0.5651495
50
78.2172678
51
90.412935
0
ARC
8
DEFAULT_255_1_388
10
4.3994478
20
21.4781511
40
0.378122
50
55.9269121
51
78.4888449
0
ARC
8
DEFAULT_255_1_388
10
4.4215193
20
21.5162187
40
0.3342379
50
47.929771
51
55.4049217
0
ARC
8
DEFAULT_255_1_388
10
4.4329723
20
21.5278618
40
0.3179217
50
4.334829
51
48.0560205
0
ARC
8
DEFAULT_255_1_388
10
4.3097525
20
21.5087487
40
0.442341
50
359.9251713
51
5.5971671
0
ARC
8
DEFAULT_255_1_388
10
4.357968
20
21.5150728
40
0.3941854
50
337.8914027
51
358.9967534
0
ARC
8
DEFAULT_255_1_388
10
4.052725
20
21.6328295
40
0.7213271
50
326.9132501
51
338.3508308
0
ARC
8
DEFAULT_255_1_388
10
3.6043362
20
21.9202105
40
1.2538973
50
319.6471833
51
327.0959558
0
ARC
8
DEFAULT_255_1_388
10
3.173002
20
22.276005
40
1.8129975
50
317.2588228
51
319.9045804
0
LINE
8
DEFAULT_255_1_388
10
5.0945439
20
21.8424898
11
5.4686196
21
20.7573089
0
LINE
8
DEFAULT_255_1_388
10
5.4686196
20
20.7573089
11
5.8445024
21
21.8424898
0
LINE
8
DEFAULT_255_1_388
10
5.8445024
20
21.8424898
11
6.0342509
21
21.8424898
0
LINE
8
DEFAULT_255_1_388
10
6.0342509
20
21.8424898
11
5.5463261
21
20.5269
0
LINE
8
DEFAULT_255_1_388
10
5.5463261
20
20.5269
11
5.3927202
21
20.5269
0
LINE
8
DEFAULT_255_1_388
10
5.3927202
20
20.5269
11
4.9056989
21
21.8424898
0
LINE
8
DEFAULT_255_1_388
10
4.9056989
20
21.8424898
11
5.0945439
21
21.8424898
0
LINE
8
DEFAULT_255_1_388
10
6.6631318
20
21.6165987
11
6.6631318
21
21.2325838
0
LINE
8
DEFAULT_255_1_388
10
6.6631318
20
21.2325838
11
7.029979
21
21.2325838
0
LINE
8
DEFAULT_255_1_388
10
7.029979
20
21.2325838
11
7.029979
21
21.0744601
0
LINE
8
DEFAULT_255_1_388
10
7.029979
20
21.0744601
11
6.6631318
21
21.0744601
0
LINE
8
DEFAULT_255_1_388
10
6.6631318
20
21.0744601
11
6.6631318
21
20.6588204
0
LINE
8
DEFAULT_255_1_388
10
6.6631318
20
20.6588204
11
6.4950688
21
20.6588204
0
LINE
8
DEFAULT_255_1_388
10
6.4950688
20
20.6588204
11
6.4950688
21
21.0744601
0
LINE
8
DEFAULT_255_1_388
10
6.4950688
20
21.0744601
11
6.1282216
21
21.0744601
0
LINE
8
DEFAULT_255_1_388
10
6.1282216
20
21.0744601
11
6.1282216
21
21.2325838
0
LINE
8
DEFAULT_255_1_388
10
6.1282216
20
21.2325838
11
6.4950688
21
21.2325838
0
LINE
8
DEFAULT_255_1_388
10
6.4950688
20
21.2325838
11
6.4950688
21
21.6165987
0
LINE
8
DEFAULT_255_1_388
10
6.4950688
20
21.6165987
11
6.6631318
21
21.6165987
0
LINE
8
DEFAULT_255_1_388
10
4.7454646
20
29.1872516
11
4.7454646
21
29.0453919
0
LINE
8
DEFAULT_255_1_388
10
4.7454646
20
29.0453919
11
4.1933868
21
29.0453919
0
LINE
8
DEFAULT_255_1_388
10
4.1933868
20
29.0453919
11
4.1933868
21
28.4644
0
LINE
8
DEFAULT_255_1_388
10
4.1933868
20
28.4644
11
4.0199024
21
28.4644
0
LINE
8
DEFAULT_255_1_388
10
4.0199024
20
28.4644
11
4.0199024
21
29.7799898
0
LINE
8
DEFAULT_255_1_388
10
4.0199024
20
29.7799898
11
4.8349175
21
29.7799898
0
LINE
8
DEFAULT_255_1_388
10
4.8349175
20
29.7799898
11
4.8349175
21
29.6372267
0
LINE
8
DEFAULT_255_1_388
10
4.8349175
20
29.6372267
11
4.1933868
21
29.6372267
0
LINE
8
DEFAULT_255_1_388
10
4.1933868
20
29.6372267
11
4.1933868
21
29.1872516
0
LINE
8
DEFAULT_255_1_388
10
4.1933868
20
29.1872516
11
4.7454646
21
29.1872516
0
LINE
8
DEFAULT_255_1_388
10
6.0140691
20
29.1194842
11
6.0140691
21
28.6369808
0
LINE
8
DEFAULT_255_1_388
10
5.0002698
20
29.0589454
11
5.0002698
21
29.1736981
0
LINE
8
DEFAULT_255_1_388
10
6.0140691
20
29.3941678
11
5.8405848
21
29.3941678
0
LINE
8
DEFAULT_255_1_388
10
5.1746578
20
29.1782159
11
5.1746578
21
29.0706917
0
LINE
8
DEFAULT_255_1_388
10
5.8414883
20
28.6830626
11
5.8414883
21
28.9785282
0
LINE
8
DEFAULT_255_1_388
10
5.8414883
20
28.9785282
11
5.5369871
21
28.9785282
0
LINE
8
DEFAULT_255_1_388
10
5.5369871
20
28.9785282
11
5.5369871
21
29.1194842
0
LINE
8
DEFAULT_255_1_388
10
5.5369871
20
29.1194842
11
6.0140691
21
29.1194842
0
ARC
8
DEFAULT_255_1_388
10
5.6955292
20
28.8612284
40
0.3895571
50
295.8437277
51
324.8549962
0
ARC
8
DEFAULT_255_1_388
10
5.6487674
20
28.9458619
40
0.4861381
50
291.5691164
51
296.4556269
0
ARC
8
DEFAULT_255_1_388
10
5.5912677
20
29.0994801
40
0.6501442
50
278.6622213
51
291.3047061
0
ARC
8
DEFAULT_255_1_388
10
5.5530709
20
29.3411557
40
0.8948168
50
270.0200506
51
278.7494673
0
ARC
8
DEFAULT_255_1_388
10
5.5486913
20
29.5257453
40
1.0794166
50
270.0022372
51
270.2490917
0
ARC
8
DEFAULT_255_1_388
10
5.5444805
20
29.0298827
40
0.5835695
50
253.5785313
51
270.4175629
0
ARC
8
DEFAULT_255_1_388
10
5.5249801
20
28.9543625
40
0.5056241
50
238.8203954
51
253.2788387
0
ARC
8
DEFAULT_255_1_388
10
5.5227717
20
28.9486224
40
0.4995712
50
206.7883476
51
238.696262
0
ARC
8
DEFAULT_255_1_388
10
5.6103113
20
29.0010847
40
0.6014056
50
206.1137778
51
207.4912776
0
ARC
8
DEFAULT_255_1_388
10
5.6769949
20
29.0294284
40
0.6737692
50
188.6922336
51
205.782076
0
ARC
8
DEFAULT_255_1_388
10
5.8858308
20
29.0649455
40
0.8855812
50
180.3881972
51
188.9218085
0
ARC
8
DEFAULT_255_1_388
10
6.0239465
20
29.1800622
40
1.0236965
50
170.2024645
51
180.3561986
0
ARC
8
DEFAULT_255_1_388
10
5.6680616
20
29.2437101
40
0.6621746
50
154.2856519
51
170.3893388
0
ARC
8
DEFAULT_255_1_388
10
5.5238579
20
29.3097192
40
0.5036209
50
139.8400879
51
153.9334639
0
ARC
8
DEFAULT_255_1_388
10
5.4834483
20
29.3420716
40
0.4518751
50
98.4190017
51
139.6707015
0
ARC
8
DEFAULT_255_1_388
10
5.526145
20
29.1344755
40
0.6635912
50
89.7660128
51
99.4415389
0
ARC
8
DEFAULT_255_1_388
10
5.5334847
20
29.1418517
40
0.6562258
50
78.0552044
51
90.4042252
0
ARC
8
DEFAULT_255_1_388
10
5.578991
20
29.3464661
40
0.4466287
50
54.6380186
51
78.3338577
0
ARC
8
DEFAULT_255_1_388
10
5.6004209
20
29.3825444
40
0.4048184
50
50.0313964
51
54.1562739
0
ARC
8
DEFAULT_255_1_388
10
5.5883102
20
29.3716798
40
0.4209308
50
18.1092229
51
49.7179911
0
ARC
8
DEFAULT_255_1_388
10
5.4244183
20
29.3116399
40
0.5953982
50
7.967396
51
18.698492
0
ARC
8
DEFAULT_255_1_388
10
5.4413444
20
29.3255236
40
0.4050986
50
9.7558763
51
27.3214087
0
ARC
8
DEFAULT_255_1_388
10
5.5681908
20
29.3889087
40
0.2633168
50
27.736147
51
84.5257861
0
ARC
8
DEFAULT_255_1_388
10
5.5313318
20
29.2039988
40
0.4513019
50
82.1064239
51
90.1997295
0
ARC
8
DEFAULT_255_1_388
10
5.5257334
20
29.2611501
40
0.3941684
50
89.4148952
51
105.5824837
0
ARC
8
DEFAULT_255_1_388
10
5.4968215
20
29.3664043
40
0.2850167
50
105.6678541
51
144.2649156
0
ARC
8
DEFAULT_255_1_388
10
5.5973107
20
29.2949024
40
0.4083468
50
144.3560675
51
162.8564185
0
ARC
8
DEFAULT_255_1_388
10
5.831755
20
29.2196083
40
0.6545749
50
162.6076338
51
173.6779811
0
ARC
8
DEFAULT_255_1_388
10
6.1761665
20
29.1777422
40
1.0015089
50
173.4670996
51
179.9729015
0
ARC
8
DEFAULT_255_1_388
10
5.9614536
20
29.0659636
40
0.78681
50
179.6556955
51
190.007958
0
ARC
8
DEFAULT_255_1_388
10
5.7008817
20
29.018166
40
0.5218997
50
189.8117884
51
206.6795375
0
ARC
8
DEFAULT_255_1_388
10
5.6058263
20
28.9738514
40
0.4170788
50
207.1031171
51
217.7074698
0
ARC
8
DEFAULT_255_1_388
10
5.5344694
20
28.9117596
40
0.3226945
50
216.7345117
51
265.6812141
0
ARC
8
DEFAULT_255_1_388
10
5.5491836
20
29.013503
40
0.4253149
50
264.7367524
51
270.0610826
0
ARC
8
DEFAULT_255_1_388
10
5.5518021
20
29.3330173
40
0.7448321
50
269.8334494
51
276.0538364
0
ARC
8
DEFAULT_255_1_388
10
5.5750884
20
29.1190924
40
0.5296446
50
275.9894423
51
284.4615914
0
ARC
8
DEFAULT_255_1_388
10
5.5972397
20
29.025857
40
0.4338353
50
284.7038488
51
286.4938196
0
ARC
8
DEFAULT_255_1_388
10
5.6431546
20
28.8779371
40
0.2789738
50
286.0770429
51
304.2629628
0
ARC
8
DEFAULT_255_1_388
10
5.6581704
20
28.853368
40
0.2502188
50
304.5886247
51
317.1074126
0
LINE
8
DEFAULT_255_1_388
10
4.5002985
20
37.7238148
11
4.5002985
21
36.4019
0
LINE
8
DEFAULT_255_1_388
10
4.5002985
20
36.4019
11
4.3322355
21
36.4019
0
LINE
8
DEFAULT_255_1_388
10
4.3322355
20
36.4019
11
4.3322355
21
37.515995
0
LINE
8
DEFAULT_255_1_388
10
4.3322355
20
37.515995
11
3.995206
21
37.3922066
0
LINE
8
DEFAULT_255_1_388
10
3.995206
20
37.3922066
11
3.995206
21
37.5440055
0
LINE
8
DEFAULT_255_1_388
10
3.995206
20
37.5440055
11
4.4740951
21
37.7238148
0
LINE
8
DEFAULT_255_1_388
10
4.4740951
20
37.7238148
11
4.5002985
21
37.7238148
0
LINE
8
DEFAULT_255_1_388
10
5.2195358
20
37.7174898
11
5.2195358
21
36.4019
0
LINE
8
DEFAULT_255_1_388
10
5.2195358
20
36.4019
11
5.0460514
21
36.4019
0
LINE
8
DEFAULT_255_1_388
10
5.0460514
20
36.4019
11
5.0460514
21
37.7174898
0
LINE
8
DEFAULT_255_1_388
10
5.0460514
20
37.7174898
11
5.2195358
21
37.7174898
0
LINE
8
DEFAULT_255_1_388
10
5.9893727
20
37.4915987
11
5.9893727
21
37.1075838
0
LINE
8
DEFAULT_255_1_388
10
5.9893727
20
37.1075838
11
6.3562199
21
37.1075838
0
LINE
8
DEFAULT_255_1_388
10
6.3562199
20
37.1075838
11
6.3562199
21
36.9494601
0
LINE
8
DEFAULT_255_1_388
10
6.3562199
20
36.9494601
11
5.9893727
21
36.9494601
0
LINE
8
DEFAULT_255_1_388
10
5.9893727
20
36.9494601
11
5.9893727
21
36.5338204
0
LINE
8
DEFAULT_255_1_388
10
5.9893727
20
36.5338204
11
5.8213097
21
36.5338204
0
LINE
8
DEFAULT_255_1_388
10
5.8213097
20
36.5338204
11
5.8213097
21
36.9494601
0
LINE
8
DEFAULT_255_1_388
10
5.8213097
20
36.9494601
11
5.4544625
21
36.9494601
0
LINE
8
DEFAULT_255_1_388
10
5.4544625
20
36.9494601
11
5.4544625
21
37.1075838
0
LINE
8
DEFAULT_255_1_388
10
5.4544625
20
37.1075838
11
5.8213097
21
37.1075838
0
LINE
8
DEFAULT_255_1_388
10
5.8213097
20
37.1075838
11
5.8213097
21
37.4915987
0
LINE
8
DEFAULT_255_1_388
10
5.8213097
20
37.4915987
11
5.9893727
21
37.4915987
0
LINE
8
DEFAULT_255_1_388
10
4.6367985
20
45.6613148
11
4.6367985
21
44.3394
0
LINE
8
DEFAULT_255_1_388
10
4.6367985
20
44.3394
11
4.4687355
21
44.3394
0
LINE
8
DEFAULT_255_1_388
10
4.4687355
20
44.3394
11
4.4687355
21
45.453495
0
LINE
8
DEFAULT_255_1_388
10
4.4687355
20
45.453495
11
4.131706
21
45.3297066
0
LINE
8
DEFAULT_255_1_388
10
4.131706
20
45.3297066
11
4.131706
21
45.4815055
0
LINE
8
DEFAULT_255_1_388
10
4.131706
20
45.4815055
11
4.6105951
21
45.6613148
0
LINE
8
DEFAULT_255_1_388
10
4.6105951
20
45.6613148
11
4.6367985
21
45.6613148
0
LINE
8
DEFAULT_255_1_388
10
5.2313439
20
45.6549898
11
5.6054196
21
44.5698089
0
LINE
8
DEFAULT_255_1_388
10
5.6054196
20
44.5698089
11
5.9813024
21
45.6549898
0
LINE
8
DEFAULT_255_1_388
10
5.9813024
20
45.6549898
11
6.1710509
21
45.6549898
0
LINE
8
DEFAULT_255_1_388
10
6.1710509
20
45.6549898
11
5.6831261
21
44.3394
0
LINE
8
DEFAULT_255_1_388
10
5.6831261
20
44.3394
11
5.5295202
21
44.3394
0
LINE
8
DEFAULT_255_1_388
10
5.5295202
20
44.3394
11
5.0424989
21
45.6549898
0
LINE
8
DEFAULT_255_1_388
10
5.0424989
20
45.6549898
11
5.2313439
21
45.6549898
0
LINE
8
DEFAULT_255_1_388
10
6.5333803
20
45.6549898
11
6.5333803
21
44.3394
0
LINE
8
DEFAULT_255_1_388
10
6.5333803
20
44.3394
11
6.3598959
21
44.3394
0
LINE
8
DEFAULT_255_1_388
10
6.3598959
20
44.3394
11
6.3598959
21
45.6549898
0
LINE
8
DEFAULT_255_1_388
10
6.3598959
20
45.6549898
11
6.5333803
21
45.6549898
0
LINE
8
DEFAULT_255_1_388
10
7.1722003
20
44.9664737
11
7.1722003
21
44.8300355
0
LINE
8
DEFAULT_255_1_388
10
7.1722003
20
44.8300355
11
6.7312609
21
44.8300355
0
LINE
8
DEFAULT_255_1_388
10
6.7312609
20
44.8300355
11
6.7312609
21
44.9664737
0
LINE
8
DEFAULT_255_1_388
10
6.7312609
20
44.9664737
11
7.1722003
21
44.9664737
0
LINE
8
DEFAULT_255_1_388
10
4.4999985
20
53.5988148
11
4.4999985
21
52.2769
0
LINE
8
DEFAULT_255_1_388
10
4.4999985
20
52.2769
11
4.3319355
21
52.2769
0
LINE
8
DEFAULT_255_1_388
10
4.3319355
20
52.2769
11
4.3319355
21
53.390995
0
LINE
8
DEFAULT_255_1_388
10
4.3319355
20
53.390995
11
3.994906
21
53.2672066
0
LINE
8
DEFAULT_255_1_388
10
3.994906
20
53.2672066
11
3.994906
21
53.4190055
0
LINE
8
DEFAULT_255_1_388
10
3.994906
20
53.4190055
11
4.4737951
21
53.5988148
0
LINE
8
DEFAULT_255_1_388
10
4.4737951
20
53.5988148
11
4.4999985
21
53.5988148
0
LINE
8
DEFAULT_255_1_388
10
5.0945439
20
53.5924898
11
5.4686196
21
52.5073089
0
LINE
8
DEFAULT_255_1_388
10
5.4686196
20
52.5073089
11
5.8445024
21
53.5924898
0
LINE
8
DEFAULT_255_1_388
10
5.8445024
20
53.5924898
11
6.0342509
21
53.5924898
0
LINE
8
DEFAULT_255_1_388
10
6.0342509
20
53.5924898
11
5.5463261
21
52.2769
0
LINE
8
DEFAULT_255_1_388
10
5.5463261
20
52.2769
11
5.3927202
21
52.2769
0
LINE
8
DEFAULT_255_1_388
10
5.3927202
20
52.2769
11
4.9056989
21
53.5924898
0
LINE
8
DEFAULT_255_1_388
10
4.9056989
20
53.5924898
11
5.0945439
21
53.5924898
0
LINE
8
DEFAULT_255_1_388
10
6.6631318
20
53.3665987
11
6.6631318
21
52.9825838
0
LINE
8
DEFAULT_255_1_388
10
6.6631318
20
52.9825838
11
7.029979
21
52.9825838
0
LINE
8
DEFAULT_255_1_388
10
7.029979
20
52.9825838
11
7.029979
21
52.8244601
0
LINE
8
DEFAULT_255_1_388
10
7.029979
20
52.8244601
11
6.6631318
21
52.8244601
0
LINE
8
DEFAULT_255_1_388
10
6.6631318
20
52.8244601
11
6.6631318
21
52.4088204
0
LINE
8
DEFAULT_255_1_388
10
6.6631318
20
52.4088204
11
6.4950688
21
52.4088204
0
LINE
8
DEFAULT_255_1_388
10
6.4950688
20
52.4088204
11
6.4950688
21
52.8244601
0
LINE
8
DEFAULT_255_1_388
10
6.4950688
20
52.8244601
11
6.1282216
21
52.8244601
0
LINE
8
DEFAULT_255_1_388
10
6.1282216
20
52.8244601
11
6.1282216
21
52.9825838
0
LINE
8
DEFAULT_255_1_388
10
6.1282216
20
52.9825838
11
6.4950688
21
52.9825838
0
LINE
8
DEFAULT_255_1_388
10
6.4950688
20
52.9825838
11
6.4950688
21
53.3665987
0
LINE
8
DEFAULT_255_1_388
10
6.4950688
20
53.3665987
11
6.6631318
21
53.3665987
0
LINE
8
DEFAULT_255_1_388
10
22.7146318
20
60.3508382
11
22.7146318
21
60.2144
0
LINE
8
DEFAULT_255_1_388
10
22.7146318
20
60.2144
11
21.8526313
21
60.2144
0
LINE
8
DEFAULT_255_1_388
10
21.8526313
20
60.2144
11
21.8526313
21
60.3345741
0
LINE
8
DEFAULT_255_1_388
10
21.8526313
20
60.3345741
11
22.3080278
21
60.8405702
0
LINE
8
DEFAULT_255_1_388
10
21.9944909
20
61.1423607
11
21.8273315
21
61.1423607
0
LINE
8
DEFAULT_255_1_388
10
22.4065163
20
60.733046
11
22.0541262
21
60.3508382
0
LINE
8
DEFAULT_255_1_388
10
22.0541262
20
60.3508382
11
22.7146318
21
60.3508382
0
ARC
8
DEFAULT_255_1_388
10
20.7904337
20
62.1825983
40
2.0258655
50
318.5132526
51
320.7829045
0
ARC
8
DEFAULT_255_1_388
10
21.3852294
20
61.6984929
40
1.2589638
50
320.7372878
51
323.9739031
0
ARC
8
DEFAULT_255_1_388
10
21.8261226
20
61.3790554
40
0.7145141
50
323.8962701
51
328.64194
0
ARC
8
DEFAULT_255_1_388
10
22.0563484
20
61.2370545
40
0.4440242
50
328.8294576
51
331.7891185
0
ARC
8
DEFAULT_255_1_388
10
22.1685804
20
61.1791374
40
0.3177517
50
331.4254512
51
352.9365785
0
ARC
8
DEFAULT_255_1_388
10
22.1838804
20
61.175705
40
0.3021496
50
353.2257659
51
0.0166158
0
ARC
8
DEFAULT_255_1_388
10
22.2075564
20
61.1782894
40
0.2784847
50
359.486299
51
15.9343185
0
ARC
8
DEFAULT_255_1_388
10
22.2645831
20
61.1936269
40
0.2194403
50
16.1712913
51
43.5286088
0
ARC
8
DEFAULT_255_1_388
10
22.2732776
20
61.2023191
40
0.2071504
50
43.4417391
51
83.1661095
0
ARC
8
DEFAULT_255_1_388
10
22.2581937
20
61.1194316
40
0.2912888
50
82.160179
51
90.1505708
0
ARC
8
DEFAULT_255_1_388
10
22.2546418
20
61.0590279
40
0.3517025
50
89.5460741
51
102.5418361
0
ARC
8
DEFAULT_255_1_388
10
22.2273138
20
61.1749933
40
0.2325748
50
102.1738499
51
129.206123
0
ARC
8
DEFAULT_255_1_388
10
22.2184592
20
61.1889664
40
0.2161591
50
129.72865
51
135.753947
0
ARC
8
DEFAULT_255_1_388
10
22.2321074
20
61.1780728
40
0.2335433
50
136.1757367
51
166.3673339
0
ARC
8
DEFAULT_255_1_388
10
22.3453762
20
61.1477148
40
0.3507873
50
165.9090694
51
178.8684636
0
ARC
8
DEFAULT_255_1_388
10
22.4429534
20
61.1424263
40
0.4484624
50
178.4391136
51
180.0083808
0
ARC
8
DEFAULT_255_1_388
10
22.2850235
20
61.1468197
40
0.4577138
50
163.2878482
51
180.5581842
0
ARC
8
DEFAULT_255_1_388
10
22.1948276
20
61.1716393
40
0.3641968
50
133.4540601
51
162.947111
0
ARC
8
DEFAULT_255_1_388
10
22.2149158
20
61.1502789
40
0.3935189
50
100.7869829
51
133.4382499
0
ARC
8
DEFAULT_255_1_388
10
22.2540403
20
60.9760399
40
0.5720313
50
89.660664
51
101.3702276
0
ARC
8
DEFAULT_255_1_388
10
22.2615012
20
60.9829263
40
0.5651495
50
78.2172678
51
90.412935
0
ARC
8
DEFAULT_255_1_388
10
22.3014478
20
61.1656511
40
0.378122
50
55.9269121
51
78.4888449
0
ARC
8
DEFAULT_255_1_388
10
22.3235193
20
61.2037187
40
0.3342379
50
47.929771
51
55.4049217
0
ARC
8
DEFAULT_255_1_388
10
22.3349723
20
61.2153618
40
0.3179217
50
4.334829
51
48.0560205
0
ARC
8
DEFAULT_255_1_388
10
22.2117525
20
61.1962487
40
0.442341
50
359.9251713
51
5.5971671
0
ARC
8
DEFAULT_255_1_388
10
22.259968
20
61.2025728
40
0.3941854
50
337.8914027
51
358.9967534
0
ARC
8
DEFAULT_255_1_388
10
21.954725
20
61.3203295
40
0.7213271
50
326.9132501
51
338.3508308
0
ARC
8
DEFAULT_255_1_388
10
21.5063362
20
61.6077105
40
1.2538973
50
319.6471833
51
327.0959558
0
ARC
8
DEFAULT_255_1_388
10
21.075002
20
61.963505
40
1.8129975
50
317.2588228
51
319.9045804
0
LINE
8
DEFAULT_255_1_388
10
23.5974143
20
61.5299898
11
23.5974143
21
60.656243
0
LINE
8
DEFAULT_255_1_388
10
23.5974143
20
60.656243
11
23.7799343
21
60.656243
0
LINE
8
DEFAULT_255_1_388
10
23.7799343
20
60.656243
11
23.7799343
21
60.5198048
0
LINE
8
DEFAULT_255_1_388
10
23.7799343
20
60.5198048
11
23.5974143
21
60.5198048
0
LINE
8
DEFAULT_255_1_388
10
23.5974143
20
60.5198048
11
23.5974143
21
60.2144
0
LINE
8
DEFAULT_255_1_388
10
23.5974143
20
60.2144
11
23.4293513
21
60.2144
0
LINE
8
DEFAULT_255_1_388
10
23.4293513
20
60.2144
11
23.4293513
21
60.5198048
0
LINE
8
DEFAULT_255_1_388
10
23.4293513
20
60.5198048
11
22.830288
21
60.5198048
0
LINE
8
DEFAULT_255_1_388
10
22.830288
20
60.5198048
11
22.830288
21
60.6182933
0
LINE
8
DEFAULT_255_1_388
10
22.830288
20
60.6182933
11
23.4194121
21
61.5299898
0
LINE
8
DEFAULT_255_1_388
10
23.4194121
20
61.5299898
11
23.5974143
21
61.5299898
0
LINE
8
DEFAULT_255_1_388
10
23.4094729
20
61.2652455
11
23.0200366
21
60.656243
0
LINE
8
DEFAULT_255_1_388
10
23.0200366
20
60.656243
11
23.4293513
21
60.656243
0
LINE
8
DEFAULT_255_1_388
10
23.4293513
20
60.656243
11
23.4293513
21
61.301388
0
LINE
8
DEFAULT_255_1_388
10
23.4293513
20
61.301388
11
23.4094729
21
61.2652455
0
LINE
8
DEFAULT_255_1_388
10
24.2958696
20
60.8414737
11
24.2958696
21
60.7050355
0
LINE
8
DEFAULT_255_1_388
10
24.2958696
20
60.7050355
11
23.8549301
21
60.7050355
0
LINE
8
DEFAULT_255_1_388
10
23.8549301
20
60.7050355
11
23.8549301
21
60.8414737
0
LINE
8
DEFAULT_255_1_388
10
23.8549301
20
60.8414737
11
24.2958696
21
60.8414737
0
LINE
8
DEFAULT_255_1_388
10
22.2315901
20
37.0045775
11
22.2315901
21
37.1410157
0
LINE
8
DEFAULT_255_1_388
10
22.2315901
20
37.1410157
11
22.3571856
21
37.1410157
0
LINE
8
DEFAULT_255_1_388
10
22.1430408
20
37.3723282
11
21.9758814
21
37.3723282
0
LINE
8
DEFAULT_255_1_388
10
21.9641351
20
36.7488688
11
22.132198
21
36.7488688
0
LINE
8
DEFAULT_255_1_388
10
22.3571856
20
37.0045775
11
22.2315901
21
37.0045775
0
ARC
8
DEFAULT_255_1_388
10
22.3539082
20
37.5226922
40
0.3816905
50
270.491971
51
281.8953028
0
ARC
8
DEFAULT_255_1_388
10
22.3810509
20
37.3987199
40
0.2547877
50
281.6690378
51
301.2943765
0
ARC
8
DEFAULT_255_1_388
10
22.4001961
20
37.3636926
40
0.2149197
50
301.7834992
51
311.754567
0
ARC
8
DEFAULT_255_1_388
10
22.4105002
20
37.352265
40
0.1995326
50
311.7325027
51
354.2803031
0
ARC
8
DEFAULT_255_1_388
10
22.3287418
20
37.366328
40
0.2823461
50
353.0941646
51
0.1174696
0
ARC
8
DEFAULT_255_1_388
10
22.2768976
20
37.3716874
40
0.3342238
50
359.1804452
51
15.0452323
0
ARC
8
DEFAULT_255_1_388
10
22.4283034
20
37.4158546
40
0.1765747
50
13.957816
51
77.6713812
0
ARC
8
DEFAULT_255_1_388
10
22.384827
20
37.2600464
40
0.3381982
50
76.111571
51
90.7028736
0
ARC
8
DEFAULT_255_1_388
10
22.3781682
20
37.290825
40
0.3074046
50
89.5321574
51
103.5319393
0
ARC
8
DEFAULT_255_1_388
10
22.3556066
20
37.3807443
40
0.2147041
50
103.2930114
51
133.5619756
0
ARC
8
DEFAULT_255_1_388
10
22.3506007
20
37.3874351
40
0.2064084
50
133.8349761
51
173.5343225
0
ARC
8
DEFAULT_255_1_388
10
22.4319665
20
37.3730144
40
0.2889266
50
172.5097183
51
180.1360699
0
ARC
8
DEFAULT_255_1_388
10
22.3249429
20
37.376888
40
0.3490913
50
155.3483706
51
180.7484035
0
ARC
8
DEFAULT_255_1_388
10
22.3194404
20
37.3736519
40
0.3454798
50
131.5745177
51
154.4799474
0
ARC
8
DEFAULT_255_1_388
10
22.3546687
20
37.3380422
40
0.3955058
50
96.9874487
51
131.9690874
0
ARC
8
DEFAULT_255_1_388
10
22.379358
20
37.1979407
40
0.537622
50
89.8592909
51
97.7827481
0
ARC
8
DEFAULT_255_1_388
10
22.3847689
20
37.168436
40
0.5671399
50
78.3654493
51
90.4132586
0
ARC
8
DEFAULT_255_1_388
10
22.425033
20
37.3550918
40
0.3762034
50
56.6229818
51
78.6387103
0
ARC
8
DEFAULT_255_1_388
10
22.4492159
20
37.3973846
40
0.3275964
50
47.0254604
51
56.085558
0
ARC
8
DEFAULT_255_1_388
10
22.451441
20
37.4018189
40
0.3228382
50
10.9207523
51
46.777927
0
ARC
8
DEFAULT_255_1_388
10
22.2980004
20
37.3663401
40
0.4802559
50
359.6364235
51
11.6087615
0
ARC
8
DEFAULT_255_1_388
10
22.504417
20
37.3646404
40
0.273833
50
332.3549969
51
359.7179765
0
ARC
8
DEFAULT_255_1_388
10
22.431257
20
37.3993285
40
0.3547505
50
325.2332381
51
332.8746682
0
ARC
8
DEFAULT_255_1_388
10
22.4484153
20
37.3873763
40
0.3338396
50
292.9803892
51
325.2391113
0
ARC
8
DEFAULT_255_1_388
10
22.4173349
20
37.4478679
40
0.4016959
50
292.542178
51
293.6931461
0
ARC
8
DEFAULT_255_1_388
10
22.4616921
20
36.7213036
40
0.372079
50
57.643292
51
72.8626085
0
ARC
8
DEFAULT_255_1_388
10
22.5015755
20
36.7859273
40
0.2961455
50
36.7246661
51
57.4701329
0
ARC
8
DEFAULT_255_1_388
10
22.5002912
20
36.787347
40
0.2963321
50
8.054535
51
36.3561529
0
ARC
8
DEFAULT_255_1_388
10
22.4032585
20
36.7699073
40
0.3948682
50
359.8316595
51
8.5873361
0
ARC
8
DEFAULT_255_1_388
10
22.3610059
20
36.764497
40
0.4371398
50
343.9831631
51
0.557075
0
ARC
8
DEFAULT_255_1_388
10
22.4607108
20
36.7371963
40
0.3337749
50
311.6358204
51
343.7652116
0
ARC
8
DEFAULT_255_1_388
10
22.4181362
20
36.7851955
40
0.3979351
50
279.7829743
51
311.625622
0
ARC
8
DEFAULT_255_1_388
10
22.3842497
20
36.9468642
40
0.5630417
50
269.7285092
51
280.3857694
0
ARC
8
DEFAULT_255_1_388
10
22.377281
20
36.9422241
40
0.5584119
50
256.6827433
51
270.4412869
0
ARC
8
DEFAULT_255_1_388
10
22.3391797
20
36.7864698
40
0.3980715
50
229.4223821
51
256.8554507
0
ARC
8
DEFAULT_255_1_388
10
22.292535
20
36.7339683
40
0.3278564
50
181.8183354
51
229.6455015
0
ARC
8
DEFAULT_255_1_388
10
22.409496
20
36.7486825
40
0.4453611
50
179.9760419
51
183.2330638
0
ARC
8
DEFAULT_255_1_388
10
22.3901512
20
36.7463781
40
0.2579652
50
179.4467996
51
196.2871626
0
ARC
8
DEFAULT_255_1_388
10
22.3352966
20
36.7313709
40
0.2011057
50
196.5661293
51
227.7059371
0
ARC
8
DEFAULT_255_1_388
10
22.3537573
20
36.7520155
40
0.2287994
50
227.7653015
51
257.8763321
0
ARC
8
DEFAULT_255_1_388
10
22.3790656
20
36.8580961
40
0.3378385
50
257.4583525
51
270.4267406
0
ARC
8
DEFAULT_255_1_388
10
22.3841906
20
36.890723
40
0.3704652
50
269.5965319
51
280.8788143
0
ARC
8
DEFAULT_255_1_388
10
22.4100134
20
36.7617529
40
0.2389415
50
280.6347277
51
299.8594068
0
ARC
8
DEFAULT_255_1_388
10
22.4314903
20
36.7209736
40
0.19289
50
300.3575552
51
314.5515667
0
ARC
8
DEFAULT_255_1_388
10
22.4221579
20
36.7278025
40
0.204312
50
315.0730962
51
345.0429362
0
ARC
8
DEFAULT_255_1_388
10
22.3183087
20
36.7580539
40
0.31246
50
344.598526
51
357.9270698
0
ARC
8
DEFAULT_255_1_388
10
22.2173391
20
36.7649705
40
0.4136265
50
357.4755098
51
0.0224936
0
ARC
8
DEFAULT_255_1_388
10
22.3326269
20
36.7677099
40
0.2983498
50
359.5051035
51
13.4236939
0
ARC
8
DEFAULT_255_1_388
10
22.4301359
20
36.7926637
40
0.1977186
50
12.9497905
51
48.7550905
0
ARC
8
DEFAULT_255_1_388
10
22.4096281
20
36.7646373
40
0.2323321
50
49.509109
51
72.1832965
0
ARC
8
DEFAULT_255_1_388
10
22.3693749
20
36.6451632
40
0.358397
50
71.9008458
51
84.3555134
0
ARC
8
DEFAULT_255_1_388
10
22.3512144
20
36.4919712
40
0.512641
50
84.019632
51
89.3326067
0
LINE
8
DEFAULT_255_1_388
10
23.2571358
20
37.7174898
11
23.2571358
21
36.4019
0
LINE
8
DEFAULT_255_1_388
10
23.2571358
20
36.4019
11
23.0836514
21
36.4019
0
LINE
8
DEFAULT_255_1_388
10
23.0836514
20
36.4019
11
23.0836514
21
37.7174898
0
LINE
8
DEFAULT_255_1_388
10
23.0836514
20
37.7174898
11
23.2571358
21
37.7174898
0
LINE
8
DEFAULT_255_1_388
10
24.0269727
20
37.4915987
11
24.0269727
21
37.1075838
0
LINE
8
DEFAULT_255_1_388
10
24.0269727
20
37.1075838
11
24.3938199
21
37.1075838
0
LINE
8
DEFAULT_255_1_388
10
24.3938199
20
37.1075838
11
24.3938199
21
36.9494601
0
LINE
8
DEFAULT_255_1_388
10
24.3938199
20
36.9494601
11
24.0269727
21
36.9494601
0
LINE
8
DEFAULT_255_1_388
10
24.0269727
20
36.9494601
11
24.0269727
21
36.5338204
0
LINE
8
DEFAULT_255_1_388
10
24.0269727
20
36.5338204
11
23.8589097
21
36.5338204
0
LINE
8
DEFAULT_255_1_388
10
23.8589097
20
36.5338204
11
23.8589097
21
36.9494601
0
LINE
8
DEFAULT_255_1_388
10
23.8589097
20
36.9494601
11
23.4920625
21
36.9494601
0
LINE
8
DEFAULT_255_1_388
10
23.4920625
20
36.9494601
11
23.4920625
21
37.1075838
0
LINE
8
DEFAULT_255_1_388
10
23.4920625
20
37.1075838
11
23.8589097
21
37.1075838
0
LINE
8
DEFAULT_255_1_388
10
23.8589097
20
37.1075838
11
23.8589097
21
37.4915987
0
LINE
8
DEFAULT_255_1_388
10
23.8589097
20
37.4915987
11
24.0269727
21
37.4915987
0
LINE
8
DEFAULT_255_1_388
10
21.4542901
20
44.9420775
11
21.4542901
21
45.0785157
0
LINE
8
DEFAULT_255_1_388
10
21.4542901
20
45.0785157
11
21.5798856
21
45.0785157
0
LINE
8
DEFAULT_255_1_388
10
21.3657408
20
45.3098282
11
21.1985814
21
45.3098282
0
LINE
8
DEFAULT_255_1_388
10
21.1868351
20
44.6863688
11
21.354898
21
44.6863688
0
LINE
8
DEFAULT_255_1_388
10
21.5798856
20
44.9420775
11
21.4542901
21
44.9420775
0
ARC
8
DEFAULT_255_1_388
10
21.5766082
20
45.4601922
40
0.3816905
50
270.491971
51
281.8953028
0
ARC
8
DEFAULT_255_1_388
10
21.6037509
20
45.3362199
40
0.2547877
50
281.6690378
51
301.2943765
0
ARC
8
DEFAULT_255_1_388
10
21.6228961
20
45.3011926
40
0.2149197
50
301.7834992
51
311.754567
0
ARC
8
DEFAULT_255_1_388
10
21.6332002
20
45.289765
40
0.1995326
50
311.7325027
51
354.2803031
0
ARC
8
DEFAULT_255_1_388
10
21.5514418
20
45.303828
40
0.2823461
50
353.0941646
51
0.1174696
0
ARC
8
DEFAULT_255_1_388
10
21.4995976
20
45.3091874
40
0.3342238
50
359.1804452
51
15.0452323
0
ARC
8
DEFAULT_255_1_388
10
21.6510034
20
45.3533546
40
0.1765747
50
13.957816
51
77.6713812
0
ARC
8
DEFAULT_255_1_388
10
21.607527
20
45.1975464
40
0.3381982
50
76.111571
51
90.7028736
0
ARC
8
DEFAULT_255_1_388
10
21.6008682
20
45.228325
40
0.3074046
50
89.5321574
51
103.5319393
0
ARC
8
DEFAULT_255_1_388
10
21.5783066
20
45.3182443
40
0.2147041
50
103.2930114
51
133.5619756
0
ARC
8
DEFAULT_255_1_388
10
21.5733007
20
45.3249351
40
0.2064084
50
133.8349761
51
173.5343225
0
ARC
8
DEFAULT_255_1_388
10
21.6546665
20
45.3105144
40
0.2889266
50
172.5097183
51
180.1360699
0
ARC
8
DEFAULT_255_1_388
10
21.5476429
20
45.314388
40
0.3490913
50
155.3483706
51
180.7484035
0
ARC
8
DEFAULT_255_1_388
10
21.5421404
20
45.3111519
40
0.3454798
50
131.5745177
51
154.4799474
0
ARC
8
DEFAULT_255_1_388
10
21.5773687
20
45.2755422
40
0.3955058
50
96.9874487
51
131.9690874
0
ARC
8
DEFAULT_255_1_388
10
21.602058
20
45.1354407
40
0.537622
50
89.8592909
51
97.7827481
0
ARC
8
DEFAULT_255_1_388
10
21.6074689
20
45.105936
40
0.5671399
50
78.3654493
51
90.4132586
0
ARC
8
DEFAULT_255_1_388
10
21.647733
20
45.2925918
40
0.3762034
50
56.6229818
51
78.6387103
0
ARC
8
DEFAULT_255_1_388
10
21.6719159
20
45.3348846
40
0.3275964
50
47.0254604
51
56.085558
0
ARC
8
DEFAULT_255_1_388
10
21.674141
20
45.3393189
40
0.3228382
50
10.9207523
51
46.777927
0
ARC
8
DEFAULT_255_1_388
10
21.5207004
20
45.3038401
40
0.4802559
50
359.6364235
51
11.6087615
0
ARC
8
DEFAULT_255_1_388
10
21.727117
20
45.3021404
40
0.273833
50
332.3549969
51
359.7179765
0
ARC
8
DEFAULT_255_1_388
10
21.653957
20
45.3368285
40
0.3547505
50
325.2332381
51
332.8746682
0
ARC
8
DEFAULT_255_1_388
10
21.6711153
20
45.3248763
40
0.3338396
50
292.9803892
51
325.2391113
0
ARC
8
DEFAULT_255_1_388
10
21.6400349
20
45.3853679
40
0.4016959
50
292.542178
51
293.6931461
0
ARC
8
DEFAULT_255_1_388
10
21.6843921
20
44.6588036
40
0.372079
50
57.643292
51
72.8626085
0
ARC
8
DEFAULT_255_1_388
10
21.7242755
20
44.7234273
40
0.2961455
50
36.7246661
51
57.4701329
0
ARC
8
DEFAULT_255_1_388
10
21.7229912
20
44.724847
40
0.2963321
50
8.054535
51
36.3561529
0
ARC
8
DEFAULT_255_1_388
10
21.6259585
20
44.7074073
40
0.3948682
50
359.8316595
51
8.5873361
0
ARC
8
DEFAULT_255_1_388
10
21.5837059
20
44.701997
40
0.4371398
50
343.9831631
51
0.557075
0
ARC
8
DEFAULT_255_1_388
10
21.6834108
20
44.6746963
40
0.3337749
50
311.6358204
51
343.7652116
0
ARC
8
DEFAULT_255_1_388
10
21.6408362
20
44.7226955
40
0.3979351
50
279.7829743
51
311.625622
0
ARC
8
DEFAULT_255_1_388
10
21.6069497
20
44.8843642
40
0.5630417
50
269.7285092
51
280.3857694
0
ARC
8
DEFAULT_255_1_388
10
21.599981
20
44.8797241
40
0.5584119
50
256.6827433
51
270.4412869
0
ARC
8
DEFAULT_255_1_388
10
21.5618797
20
44.7239698
40
0.3980715
50
229.4223821
51
256.8554507
0
ARC
8
DEFAULT_255_1_388
10
21.515235
20
44.6714683
40
0.3278564
50
181.8183354
51
229.6455015
0
ARC
8
DEFAULT_255_1_388
10
21.632196
20
44.6861825
40
0.4453611
50
179.9760419
51
183.2330638
0
ARC
8
DEFAULT_255_1_388
10
21.6128512
20
44.6838781
40
0.2579652
50
179.4467996
51
196.2871626
0
ARC
8
DEFAULT_255_1_388
10
21.5579966
20
44.6688709
40
0.2011057
50
196.5661293
51
227.7059371
0
ARC
8
DEFAULT_255_1_388
10
21.5764573
20
44.6895155
40
0.2287994
50
227.7653015
51
257.8763321
0
ARC
8
DEFAULT_255_1_388
10
21.6017656
20
44.7955961
40
0.3378385
50
257.4583525
51
270.4267406
0
ARC
8
DEFAULT_255_1_388
10
21.6068906
20
44.828223
40
0.3704652
50
269.5965319
51
280.8788143
0
ARC
8
DEFAULT_255_1_388
10
21.6327134
20
44.6992529
40
0.2389415
50
280.6347277
51
299.8594068
0
ARC
8
DEFAULT_255_1_388
10
21.6541903
20
44.6584736
40
0.19289
50
300.3575552
51
314.5515667
0
ARC
8
DEFAULT_255_1_388
10
21.6448579
20
44.6653025
40
0.204312
50
315.0730962
51
345.0429362
0
ARC
8
DEFAULT_255_1_388
10
21.5410087
20
44.6955539
40
0.31246
50
344.598526
51
357.9270698
0
ARC
8
DEFAULT_255_1_388
10
21.4400391
20
44.7024705
40
0.4136265
50
357.4755098
51
0.0224936
0
ARC
8
DEFAULT_255_1_388
10
21.5553269
20
44.7052099
40
0.2983498
50
359.5051035
51
13.4236939
0
ARC
8
DEFAULT_255_1_388
10
21.6528359
20
44.7301637
40
0.1977186
50
12.9497905
51
48.7550905
0
ARC
8
DEFAULT_255_1_388
10
21.6323281
20
44.7021373
40
0.2323321
50
49.509109
51
72.1832965
0
ARC
8
DEFAULT_255_1_388
10
21.5920749
20
44.5826632
40
0.358397
50
71.9008458
51
84.3555134
0
ARC
8
DEFAULT_255_1_388
10
21.5739144
20
44.4294712
40
0.512641
50
84.019632
51
89.3326067
0
LINE
8
DEFAULT_255_1_388
10
22.3551439
20
45.6549898
11
22.7292196
21
44.5698089
0
LINE
8
DEFAULT_255_1_388
10
22.7292196
20
44.5698089
11
23.1051024
21
45.6549898
0
LINE
8
DEFAULT_255_1_388
10
23.1051024
20
45.6549898
11
23.2948509
21
45.6549898
0
LINE
8
DEFAULT_255_1_388
10
23.2948509
20
45.6549898
11
22.8069261
21
44.3394
0
LINE
8
DEFAULT_255_1_388
10
22.8069261
20
44.3394
11
22.6533202
21
44.3394
0
LINE
8
DEFAULT_255_1_388
10
22.6533202
20
44.3394
11
22.1662989
21
45.6549898
0
LINE
8
DEFAULT_255_1_388
10
22.1662989
20
45.6549898
11
22.3551439
21
45.6549898
0
LINE
8
DEFAULT_255_1_388
10
23.6571803
20
45.6549898
11
23.6571803
21
44.3394
0
LINE
8
DEFAULT_255_1_388
10
23.6571803
20
44.3394
11
23.4836959
21
44.3394
0
LINE
8
DEFAULT_255_1_388
10
23.4836959
20
44.3394
11
23.4836959
21
45.6549898
0
LINE
8
DEFAULT_255_1_388
10
23.4836959
20
45.6549898
11
23.6571803
21
45.6549898
0
LINE
8
DEFAULT_255_1_388
10
24.2960003
20
44.9664737
11
24.2960003
21
44.8300355
0
LINE
8
DEFAULT_255_1_388
10
24.2960003
20
44.8300355
11
23.8550609
21
44.8300355
0
LINE
8
DEFAULT_255_1_388
10
23.8550609
20
44.8300355
11
23.8550609
21
44.9664737
0
LINE
8
DEFAULT_255_1_388
10
23.8550609
20
44.9664737
11
24.2960003
21
44.9664737
0
LINE
8
DEFAULT_255_1_388
10
21.5565901
20
52.8795775
11
21.5565901
21
53.0160157
0
LINE
8
DEFAULT_255_1_388
10
21.5565901
20
53.0160157
11
21.6821856
21
53.0160157
0
LINE
8
DEFAULT_255_1_388
10
21.4680408
20
53.2473282
11
21.3008814
21
53.2473282
0
LINE
8
DEFAULT_255_1_388
10
21.2891351
20
52.6238688
11
21.457198
21
52.6238688
0
LINE
8
DEFAULT_255_1_388
10
21.6821856
20
52.8795775
11
21.5565901
21
52.8795775
0
ARC
8
DEFAULT_255_1_388
10
21.6789082
20
53.3976922
40
0.3816905
50
270.491971
51
281.8953028
0
ARC
8
DEFAULT_255_1_388
10
21.7060509
20
53.2737199
40
0.2547877
50
281.6690378
51
301.2943765
0
ARC
8
DEFAULT_255_1_388
10
21.7251961
20
53.2386926
40
0.2149197
50
301.7834992
51
311.754567
0
ARC
8
DEFAULT_255_1_388
10
21.7355002
20
53.227265
40
0.1995326
50
311.7325027
51
354.2803031
0
ARC
8
DEFAULT_255_1_388
10
21.6537418
20
53.241328
40
0.2823461
50
353.0941646
51
0.1174696
0
ARC
8
DEFAULT_255_1_388
10
21.6018976
20
53.2466874
40
0.3342238
50
359.1804452
51
15.0452323
0
ARC
8
DEFAULT_255_1_388
10
21.7533034
20
53.2908546
40
0.1765747
50
13.957816
51
77.6713812
0
ARC
8
DEFAULT_255_1_388
10
21.709827
20
53.1350464
40
0.3381982
50
76.111571
51
90.7028736
0
ARC
8
DEFAULT_255_1_388
10
21.7031682
20
53.165825
40
0.3074046
50
89.5321574
51
103.5319393
0
ARC
8
DEFAULT_255_1_388
10
21.6806066
20
53.2557443
40
0.2147041
50
103.2930114
51
133.5619756
0
ARC
8
DEFAULT_255_1_388
10
21.6756007
20
53.2624351
40
0.2064084
50
133.8349761
51
173.5343225
0
ARC
8
DEFAULT_255_1_388
10
21.7569665
20
53.2480144
40
0.2889266
50
172.5097183
51
180.1360699
0
ARC
8
DEFAULT_255_1_388
10
21.6499429
20
53.251888
40
0.3490913
50
155.3483706
51
180.7484035
0
ARC
8
DEFAULT_255_1_388
10
21.6444404
20
53.2486519
40
0.3454798
50
131.5745177
51
154.4799474
0
ARC
8
DEFAULT_255_1_388
10
21.6796687
20
53.2130422
40
0.3955058
50
96.9874487
51
131.9690874
0
ARC
8
DEFAULT_255_1_388
10
21.704358
20
53.0729407
40
0.537622
50
89.8592909
51
97.7827481
0
ARC
8
DEFAULT_255_1_388
10
21.7097689
20
53.043436
40
0.5671399
50
78.3654493
51
90.4132586
0
ARC
8
DEFAULT_255_1_388
10
21.750033
20
53.2300918
40
0.3762034
50
56.6229818
51
78.6387103
0
ARC
8
DEFAULT_255_1_388
10
21.7742159
20
53.2723846
40
0.3275964
50
47.0254604
51
56.085558
0
ARC
8
DEFAULT_255_1_388
10
21.776441
20
53.2768189
40
0.3228382
50
10.9207523
51
46.777927
0
ARC
8
DEFAULT_255_1_388
10
21.6230004
20
53.2413401
40
0.4802559
50
359.6364235
51
11.6087615
0
ARC
8
DEFAULT_255_1_388
10
21.829417
20
53.2396404
40
0.273833
50
332.3549969
51
359.7179765
0
ARC
8
DEFAULT_255_1_388
10
21.756257
20
53.2743285
40
0.3547505
50
325.2332381
51
332.8746682
0
ARC
8
DEFAULT_255_1_388
10
21.7734153
20
53.2623763
40
0.3338396
50
292.9803892
51
325.2391113
0
ARC
8
DEFAULT_255_1_388
10
21.7423349
20
53.3228679
40
0.4016959
50
292.542178
51
293.6931461
0
ARC
8
DEFAULT_255_1_388
10
21.7866921
20
52.5963036
40
0.372079
50
57.643292
51
72.8626085
0
ARC
8
DEFAULT_255_1_388
10
21.8265755
20
52.6609273
40
0.2961455
50
36.7246661
51
57.4701329
0
ARC
8
DEFAULT_255_1_388
10
21.8252912
20
52.662347
40
0.2963321
50
8.054535
51
36.3561529
0
ARC
8
DEFAULT_255_1_388
10
21.7282585
20
52.6449073
40
0.3948682
50
359.8316595
51
8.5873361
0
ARC
8
DEFAULT_255_1_388
10
21.6860059
20
52.639497
40
0.4371398
50
343.9831631
51
0.557075
0
ARC
8
DEFAULT_255_1_388
10
21.7857108
20
52.6121963
40
0.3337749
50
311.6358204
51
343.7652116
0
ARC
8
DEFAULT_255_1_388
10
21.7431362
20
52.6601955
40
0.3979351
50
279.7829743
51
311.625622
0
ARC
8
DEFAULT_255_1_388
10
21.7092497
20
52.8218642
40
0.5630417
50
269.7285092
51
280.3857694
0
ARC
8
DEFAULT_255_1_388
10
21.702281
20
52.8172241
40
0.5584119
50
256.6827433
51
270.4412869
0
ARC
8
DEFAULT_255_1_388
10
21.6641797
20
52.6614698
40
0.3980715
50
229.4223821
51
256.8554507
0
ARC
8
DEFAULT_255_1_388
10
21.617535
20
52.6089683
40
0.3278564
50
181.8183354
51
229.6455015
0
ARC
8
DEFAULT_255_1_388
10
21.734496
20
52.6236825
40
0.4453611
50
179.9760419
51
183.2330638
0
ARC
8
DEFAULT_255_1_388
10
21.7151512
20
52.6213781
40
0.2579652
50
179.4467996
51
196.2871626
0
ARC
8
DEFAULT_255_1_388
10
21.6602966
20
52.6063709
40
0.2011057
50
196.5661293
51
227.7059371
0
ARC
8
DEFAULT_255_1_388
10
21.6787573
20
52.6270155
40
0.2287994
50
227.7653015
51
257.8763321
0
ARC
8
DEFAULT_255_1_388
10
21.7040656
20
52.7330961
40
0.3378385
50
257.4583525
51
270.4267406
0
ARC
8
DEFAULT_255_1_388
10
21.7091906
20
52.765723
40
0.3704652
50
269.5965319
51
280.8788143
0
ARC
8
DEFAULT_255_1_388
10
21.7350134
20
52.6367529
40
0.2389415
50
280.6347277
51
299.8594068
0
ARC
8
DEFAULT_255_1_388
10
21.7564903
20
52.5959736
40
0.19289
50
300.3575552
51
314.5515667
0
ARC
8
DEFAULT_255_1_388
10
21.7471579
20
52.6028025
40
0.204312
50
315.0730962
51
345.0429362
0
ARC
8
DEFAULT_255_1_388
10
21.6433087
20
52.6330539
40
0.31246
50
344.598526
51
357.9270698
0
ARC
8
DEFAULT_255_1_388
10
21.5423391
20
52.6399705
40
0.4136265
50
357.4755098
51
0.0224936
0
ARC
8
DEFAULT_255_1_388
10
21.6576269
20
52.6427099
40
0.2983498
50
359.5051035
51
13.4236939
0
ARC
8
DEFAULT_255_1_388
10
21.7551359
20
52.6676637
40
0.1977186
50
12.9497905
51
48.7550905
0
ARC
8
DEFAULT_255_1_388
10
21.7346281
20
52.6396373
40
0.2323321
50
49.509109
51
72.1832965
0
ARC
8
DEFAULT_255_1_388
10
21.6943749
20
52.5201632
40
0.358397
50
71.9008458
51
84.3555134
0
ARC
8
DEFAULT_255_1_388
10
21.6762144
20
52.3669712
40
0.512641
50
84.019632
51
89.3326067
0
LINE
8
DEFAULT_255_1_388
10
22.4574439
20
53.5924898
11
22.8315196
21
52.5073089
0
LINE
8
DEFAULT_255_1_388
10
22.8315196
20
52.5073089
11
23.2074024
21
53.5924898
0
LINE
8
DEFAULT_255_1_388
10
23.2074024
20
53.5924898
11
23.3971509
21
53.5924898
0
LINE
8
DEFAULT_255_1_388
10
23.3971509
20
53.5924898
11
22.9092261
21
52.2769
0
LINE
8
DEFAULT_255_1_388
10
22.9092261
20
52.2769
11
22.7556202
21
52.2769
0
LINE
8
DEFAULT_255_1_388
10
22.7556202
20
52.2769
11
22.2685989
21
53.5924898
0
LINE
8
DEFAULT_255_1_388
10
22.2685989
20
53.5924898
11
22.4574439
21
53.5924898
0
LINE
8
DEFAULT_255_1_388
10
24.0260318
20
53.3665987
11
24.0260318
21
52.9825838
0
LINE
8
DEFAULT_255_1_388
10
24.0260318
20
52.9825838
11
24.392879
21
52.9825838
0
LINE
8
DEFAULT_255_1_388
10
24.392879
20
52.9825838
11
24.392879
21
52.8244601
0
LINE
8
DEFAULT_255_1_388
10
24.392879
20
52.8244601
11
24.0260318
21
52.8244601
0
LINE
8
DEFAULT_255_1_388
10
24.0260318
20
52.8244601
11
24.0260318
21
52.4088204
0
LINE
8
DEFAULT_255_1_388
10
24.0260318
20
52.4088204
11
23.8579688
21
52.4088204
0
LINE
8
DEFAULT_255_1_388
10
23.8579688
20
52.4088204
11
23.8579688
21
52.8244601
0
LINE
8
DEFAULT_255_1_388
10
23.8579688
20
52.8244601
11
23.4911216
21
52.8244601
0
LINE
8
DEFAULT_255_1_388
10
23.4911216
20
52.8244601
11
23.4911216
21
52.9825838
0
LINE
8
DEFAULT_255_1_388
10
23.4911216
20
52.9825838
11
23.8579688
21
52.9825838
0
LINE
8
DEFAULT_255_1_388
10
23.8579688
20
52.9825838
11
23.8579688
21
53.3665987
0
LINE
8
DEFAULT_255_1_388
10
23.8579688
20
53.3665987
11
24.0260318
21
53.3665987
0
ENDSEC
0
EOF