0
SECTION
2
HEADER
9
$MEASUREMENT
70
1
0
ENDSEC
0
SECTION
2
TABLES
0
TABLE
2
LTYPE
0
LTYPE
72
65
70
64
2
CONTINUOUS
3
______
73
0
40
0
0
ENDTAB
0
TABLE
2
LAYER
0
LAYER
2
DEFAULT_255_2_778
70
0
62
255
6
CONTINUOUS
0
LAYER
2
DEFAULT_255_1_234
70
0
62
255
6
CONTINUOUS
0
LAYER
2
DEFAULT_255_2_778_1
70
0
62
255
6
CONTINUOUS
0
ENDTAB
0
ENDSEC
0
SECTION
2
ENTITIES
0
ARC
8
DEFAULT_255_2_778
10
3.5700693
20
115.4926525
40
0.7914215
50
129.1312896
51
180.1450914
0
ARC
8
DEFAULT_255_2_778
10
3.5703345
20
115.4931396
40
0.7912112
50
89.854026
51
129.1684493
0
ARC
8
DEFAULT_255_2_778
10
25.7993937
20
115.4928261
40
0.7915249
50
39.4792447
51
90.147911
0
ARC
8
DEFAULT_255_2_778
10
25.7999935
20
115.4926728
40
0.7911595
50
359.8533901
51
39.5154338
0
ARC
8
DEFAULT_255_2_778
10
25.7996693
20
-1.9863998
40
0.7914836
50
309.4761667
51
0.1482649
0
ARC
8
DEFAULT_255_2_778
10
25.799398
20
-1.9868309
40
0.7913235
50
269.8517415
51
309.511178
0
ARC
8
DEFAULT_255_2_778
10
3.570342
20
-1.9867727
40
0.7913815
50
219.1282118
51
270.1454017
0
ARC
8
DEFAULT_255_2_778
10
3.5700247
20
-1.9863902
40
0.7913769
50
179.8524075
51
219.1641908
0
LINE
8
DEFAULT_255_2_778
10
3.5723503
20
116.2843483
11
25.7973503
21
116.2843483
0
LINE
8
DEFAULT_255_2_778
10
26.5911503
20
115.4906483
11
26.5911503
21
-1.9843517
0
LINE
8
DEFAULT_255_2_778
10
25.7973503
20
-2.7781517
11
3.5723503
21
-2.7781517
0
LINE
8
DEFAULT_255_2_778
10
2.7786503
20
-1.9843517
11
2.7786503
21
115.4906483
0
LINE
8
DEFAULT_255_1_234
10
11.695285
20
-0.0087609
11
11.695285
21
-0.1348592
0
LINE
8
DEFAULT_255_1_234
10
11.695285
20
-0.1348592
11
11.2045458
21
-0.1348592
0
LINE
8
DEFAULT_255_1_234
10
11.2045458
20
-0.1348592
11
11.2045458
21
-0.6513
0
LINE
8
DEFAULT_255_1_234
10
11.2045458
20
-0.6513
11
11.0503364
21
-0.6513
0
LINE
8
DEFAULT_255_1_234
10
11.0503364
20
-0.6513
11
11.0503364
21
0.5181211
0
LINE
8
DEFAULT_255_1_234
10
11.0503364
20
0.5181211
11
11.7747992
21
0.5181211
0
LINE
8
DEFAULT_255_1_234
10
11.7747992
20
0.5181211
11
11.7747992
21
0.3912196
0
LINE
8
DEFAULT_255_1_234
10
11.7747992
20
0.3912196
11
11.2045458
21
0.3912196
0
LINE
8
DEFAULT_255_1_234
10
11.2045458
20
0.3912196
11
11.2045458
21
-0.0087609
0
LINE
8
DEFAULT_255_1_234
10
11.2045458
20
-0.0087609
11
11.695285
21
-0.0087609
0
LINE
8
DEFAULT_255_1_234
10
12.0591227
20
0.5181211
11
12.3410367
21
0.0699501
0
LINE
8
DEFAULT_255_1_234
10
12.3410367
20
0.0699501
11
12.6213444
21
0.5181211
0
LINE
8
DEFAULT_255_1_234
10
12.6213444
20
0.5181211
11
12.8028617
21
0.5181211
0
LINE
8
DEFAULT_255_1_234
10
12.8028617
20
0.5181211
11
12.4334017
21
-0.0617704
0
LINE
8
DEFAULT_255_1_234
10
12.4334017
20
-0.0617704
11
12.8116966
21
-0.6513
0
LINE
8
DEFAULT_255_1_234
10
12.8116966
20
-0.6513
11
12.6285729
21
-0.6513
0
LINE
8
DEFAULT_255_1_234
10
12.6285729
20
-0.6513
11
12.3410367
21
-0.1950973
0
LINE
8
DEFAULT_255_1_234
10
12.3410367
20
-0.1950973
11
12.0518941
21
-0.6513
0
LINE
8
DEFAULT_255_1_234
10
12.0518941
20
-0.6513
11
11.8695737
21
-0.6513
0
LINE
8
DEFAULT_255_1_234
10
11.8695737
20
-0.6513
11
12.2486717
21
-0.0617704
0
LINE
8
DEFAULT_255_1_234
10
12.2486717
20
-0.0617704
11
11.8784086
21
0.5181211
0
LINE
8
DEFAULT_255_1_234
10
11.8784086
20
0.5181211
11
12.0591227
21
0.5181211
0
LINE
8
DEFAULT_255_1_234
10
13.7184798
20
-0.5300208
11
13.7184798
21
-0.6513
0
LINE
8
DEFAULT_255_1_234
10
13.7184798
20
-0.6513
11
12.952252
21
-0.6513
0
LINE
8
DEFAULT_255_1_234
10
12.952252
20
-0.6513
11
12.952252
21
-0.5444779
0
LINE
8
DEFAULT_255_1_234
10
12.952252
20
-0.5444779
11
13.3570516
21
-0.0947005
0
LINE
8
DEFAULT_255_1_234
10
13.0783503
20
0.1735595
11
12.9297631
21
0.1735595
0
LINE
8
DEFAULT_255_1_234
10
13.4445976
20
-0.1902782
11
13.1313598
21
-0.5300208
0
LINE
8
DEFAULT_255_1_234
10
13.1313598
20
-0.5300208
11
13.7184798
21
-0.5300208
0
ARC
8
DEFAULT_255_1_234
10
12.0080349
20
1.0982527
40
1.8008286
50
318.5132453
51
320.7828378
0
ARC
8
DEFAULT_255_1_234
10
12.5367324
20
0.6679426
40
1.1191493
50
320.7372736
51
323.9737074
0
ARC
8
DEFAULT_255_1_234
10
12.928718
20
0.3839361
40
0.6350923
50
323.8961724
51
328.6421089
0
ARC
8
DEFAULT_255_1_234
10
13.1333776
20
0.2577031
40
0.3946393
50
328.8299013
51
331.789948
0
ARC
8
DEFAULT_255_1_234
10
13.2330954
20
0.2062509
40
0.2824501
50
331.4255242
51
352.9364833
0
ARC
8
DEFAULT_255_1_234
10
13.2467455
20
0.2031976
40
0.2685315
50
353.2248685
51
0.0169286
0
ARC
8
DEFAULT_255_1_234
10
13.2677332
20
0.205495
40
0.2475536
50
359.4866256
51
15.9339782
0
ARC
8
DEFAULT_255_1_234
10
13.3184317
20
0.2191286
40
0.1950618
50
16.1714718
51
43.5284424
0
ARC
8
DEFAULT_255_1_234
10
13.3261625
20
0.2268573
40
0.184134
50
43.4415429
51
83.1661404
0
ARC
8
DEFAULT_255_1_234
10
13.3127544
20
0.1531771
40
0.258926
50
82.160215
51
90.1505798
0
ARC
8
DEFAULT_255_1_234
10
13.3095971
20
0.0994865
40
0.3126255
50
89.5460705
51
102.5418777
0
ARC
8
DEFAULT_255_1_234
10
13.2853057
20
0.2025665
40
0.2067346
50
102.1739365
51
129.2061916
0
ARC
8
DEFAULT_255_1_234
10
13.2774129
20
0.2150094
40
0.1921118
50
129.7279328
51
135.7542026
0
ARC
8
DEFAULT_255_1_234
10
13.2895656
20
0.2053045
40
0.2075944
50
136.175737
51
166.3674722
0
ARC
8
DEFAULT_255_1_234
10
13.3902576
20
0.1783182
40
0.3118201
50
165.9092917
51
178.8683903
0
ARC
8
DEFAULT_255_1_234
10
13.4767437
20
0.1736179
40
0.3983935
50
178.438168
51
180.0083905
0
ARC
8
DEFAULT_255_1_234
10
13.3366039
20
0.1775231
40
0.4068601
50
163.2878735
51
180.5581814
0
ARC
8
DEFAULT_255_1_234
10
13.25643
20
0.199584
40
0.3237344
50
133.454115
51
162.9470031
0
ARC
8
DEFAULT_255_1_234
10
13.2742842
20
0.1806
40
0.349795
50
100.7869394
51
133.4384016
0
ARC
8
DEFAULT_255_1_234
10
13.3090613
20
0.0257319
40
0.5084616
50
89.6605301
51
101.3704185
0
ARC
8
DEFAULT_255_1_234
10
13.3156952
20
0.0318496
40
0.502348
50
78.2171172
51
90.4130393
0
ARC
8
DEFAULT_255_1_234
10
13.351203
20
0.1942637
40
0.3361092
50
55.9268222
51
78.4888551
0
ARC
8
DEFAULT_255_1_234
10
13.3708471
20
0.2281324
40
0.2970617
50
47.9292255
51
55.4054003
0
ARC
8
DEFAULT_255_1_234
10
13.3810031
20
0.2384502
40
0.2825983
50
4.3347696
51
48.0560701
0
ARC
8
DEFAULT_255_1_234
10
13.2714425
20
0.2214601
40
0.393225
50
359.925209
51
5.5967654
0
ARC
8
DEFAULT_255_1_234
10
13.3143317
20
0.2270816
40
0.3503892
50
337.8914096
51
358.9967724
0
ARC
8
DEFAULT_255_1_234
10
13.0429729
20
0.3317706
40
0.6412172
50
326.9135351
51
338.3505194
0
ARC
8
DEFAULT_255_1_234
10
12.6444032
20
0.5872284
40
1.1146189
50
319.6472867
51
327.095818
0
ARC
8
DEFAULT_255_1_234
10
12.2611036
20
0.9034
40
1.6114559
50
317.2586784
51
319.9046139
0
LINE
8
DEFAULT_255_1_234
10
14.8132058
20
0.5181211
11
14.8132058
21
-0.6513
0
LINE
8
DEFAULT_255_1_234
10
14.8132058
20
-0.6513
11
14.6581932
21
-0.6513
0
LINE
8
DEFAULT_255_1_234
10
14.6581932
20
-0.6513
11
14.0694668
21
0.249861
0
LINE
8
DEFAULT_255_1_234
10
14.0694668
20
0.249861
11
14.0694668
21
-0.6513
0
LINE
8
DEFAULT_255_1_234
10
14.0694668
20
-0.6513
11
13.9144542
21
-0.6513
0
LINE
8
DEFAULT_255_1_234
10
13.9144542
20
-0.6513
11
13.9144542
21
0.5181211
0
LINE
8
DEFAULT_255_1_234
10
13.9144542
20
0.5181211
11
14.0694668
21
0.5181211
0
LINE
8
DEFAULT_255_1_234
10
14.0694668
20
0.5181211
11
14.6597996
21
-0.3870558
0
LINE
8
DEFAULT_255_1_234
10
14.6597996
20
-0.3870558
11
14.6597996
21
0.5181211
0
LINE
8
DEFAULT_255_1_234
10
14.6597996
20
0.5181211
11
14.8132058
21
0.5181211
0
LINE
8
DEFAULT_255_1_234
10
15.3730179
20
-0.0938974
11
15.3730179
21
-0.2151766
0
LINE
8
DEFAULT_255_1_234
10
15.3730179
20
-0.2151766
11
14.9810691
21
-0.2151766
0
LINE
8
DEFAULT_255_1_234
10
14.9810691
20
-0.2151766
11
14.9810691
21
-0.0938974
0
LINE
8
DEFAULT_255_1_234
10
14.9810691
20
-0.0938974
11
15.3730179
21
-0.0938974
0
LINE
8
DEFAULT_255_1_234
10
15.6894684
20
-0.0955037
11
15.5705987
21
-0.0649831
0
LINE
8
DEFAULT_255_1_234
10
15.5705987
20
-0.0649831
11
15.6300335
21
0.5181211
0
LINE
8
DEFAULT_255_1_234
10
15.6300335
20
0.5181211
11
16.2292012
21
0.5181211
0
LINE
8
DEFAULT_255_1_234
10
16.2292012
20
0.5181211
11
16.2292012
21
0.3807784
0
LINE
8
DEFAULT_255_1_234
10
16.2292012
20
0.3807784
11
15.7561318
21
0.3807784
0
LINE
8
DEFAULT_255_1_234
10
15.7561318
20
0.3807784
11
15.7207922
21
0.0619184
0
LINE
8
DEFAULT_255_1_234
10
15.5288336
20
-0.3436844
11
15.6693891
21
-0.3436844
0
LINE
8
DEFAULT_255_1_234
10
15.7288239
20
-0.0633768
11
15.6894684
21
-0.0955037
0
ARC
8
DEFAULT_255_1_234
10
15.9062706
20
-0.256077
40
0.3681349
50
93.7182161
51
120.2538958
0
ARC
8
DEFAULT_255_1_234
10
15.9156969
20
-0.3368606
40
0.449379
50
89.9660152
51
94.2496022
0
ARC
8
DEFAULT_255_1_234
10
15.9197703
20
-0.2779451
40
0.390482
50
73.8043271
51
90.5585896
0
ARC
8
DEFAULT_255_1_234
10
15.94326
20
-0.1921398
40
0.3015334
50
41.3071453
51
73.5430202
0
ARC
8
DEFAULT_255_1_234
10
15.9016427
20
-0.2279676
40
0.3564457
50
13.5075983
51
41.2174222
0
ARC
8
DEFAULT_255_1_234
10
15.7374631
20
-0.2709514
40
0.5261351
50
1.1331335
51
13.8829381
0
ARC
8
DEFAULT_255_1_234
10
15.5963
20
-0.2785335
40
0.6674378
50
359.9919444
51
1.544251
0
ARC
8
DEFAULT_255_1_234
10
15.7239826
20
-0.282672
40
0.5397702
50
347.8572367
51
0.4293338
0
ARC
8
DEFAULT_255_1_234
10
15.8990144
20
-0.3223264
40
0.3603188
50
323.673004
51
348.1672506
0
ARC
8
DEFAULT_255_1_234
10
15.9284652
20
-0.3402832
40
0.3259678
50
316.8171152
51
323.1492751
0
ARC
8
DEFAULT_255_1_234
10
15.9345841
20
-0.343954
40
0.3189975
50
281.8396411
51
316.5457803
0
ARC
8
DEFAULT_255_1_234
10
15.8970104
20
-0.1884238
40
0.4789527
50
269.5770101
51
282.4214771
0
ARC
8
DEFAULT_255_1_234
10
15.8898916
20
-0.2097875
40
0.45759
50
256.2427136
51
270.4486331
0
ARC
8
DEFAULT_255_1_234
10
15.8599818
20
-0.3297771
40
0.3339303
50
228.9023911
51
256.3314342
0
ARC
8
DEFAULT_255_1_234
10
15.8526051
20
-0.3414254
40
0.32031
50
193.753695
51
228.5271154
0
ARC
8
DEFAULT_255_1_234
10
15.9764005
20
-0.30512
40
0.4492253
50
184.924711
51
194.497588
0
ARC
8
DEFAULT_255_1_234
10
15.9956572
20
-0.3015409
40
0.3289787
50
187.3600538
51
198.6732863
0
ARC
8
DEFAULT_255_1_234
10
15.8906866
20
-0.3379326
40
0.217884
50
198.4451669
51
217.794479
0
ARC
8
DEFAULT_255_1_234
10
15.8611041
20
-0.3588915
40
0.1816698
50
218.2887171
51
228.5612368
0
ARC
8
DEFAULT_255_1_234
10
15.8708828
20
-0.3457037
40
0.1980329
50
228.9654866
51
258.1234728
0
ARC
8
DEFAULT_255_1_234
10
15.8914538
20
-0.2576167
40
0.2884748
50
257.7258293
51
270.401361
0
ARC
8
DEFAULT_255_1_234
10
15.8959424
20
-0.3021179
40
0.2439788
50
269.4204404
51
286.4209037
0
ARC
8
DEFAULT_255_1_234
10
15.9107912
20
-0.3560343
40
0.1880666
50
286.7251356
51
320.600362
0
ARC
8
DEFAULT_255_1_234
10
15.8724737
20
-0.3249405
40
0.2374121
50
320.6712579
51
344.5441685
0
ARC
8
DEFAULT_255_1_234
10
15.7568063
20
-0.2909955
40
0.3579479
50
344.2412205
51
356.7357071
0
ARC
8
DEFAULT_255_1_234
10
15.6319211
20
-0.2806556
40
0.4832297
50
356.3548756
51
0.0500261
0
ARC
8
DEFAULT_255_1_234
10
15.7655721
20
-0.277535
40
0.3495889
50
359.5576869
51
12.953486
0
ARC
8
DEFAULT_255_1_234
10
15.8710618
20
-0.2519566
40
0.2410532
50
12.6490276
51
41.6081334
0
ARC
8
DEFAULT_255_1_234
10
15.8940989
20
-0.2323679
40
0.2108218
50
41.7850273
51
85.9892764
0
ARC
8
DEFAULT_255_1_234
10
15.8817726
20
-0.3136538
40
0.2928454
50
84.6957577
51
90.0676183
0
ARC
8
DEFAULT_255_1_234
10
15.879421
20
-0.3805284
40
0.3597255
50
89.6804936
51
99.1614436
0
ARC
8
DEFAULT_255_1_234
10
15.8588841
20
-0.2577869
40
0.235281
50
98.9830931
51
113.8908934
0
ARC
8
DEFAULT_255_1_234
10
15.8359251
20
-0.2036413
40
0.176479
50
114.1950727
51
127.3641004
0
LINE
8
DEFAULT_255_1_234
10
17.2219241
20
-0.6513
11
17.1102829
21
-0.3460939
0
LINE
8
DEFAULT_255_1_234
10
17.1102829
20
-0.3460939
11
16.6203469
21
-0.3460939
0
LINE
8
DEFAULT_255_1_234
10
16.6203469
20
-0.3460939
11
16.5103121
21
-0.6513
0
LINE
8
DEFAULT_255_1_234
10
16.5103121
20
-0.6513
11
16.3512836
21
-0.6513
0
LINE
8
DEFAULT_255_1_234
10
16.3512836
20
-0.6513
11
16.7978483
21
0.5181211
0
LINE
8
DEFAULT_255_1_234
10
16.7978483
20
0.5181211
11
16.9327815
21
0.5181211
0
LINE
8
DEFAULT_255_1_234
10
16.9327815
20
0.5181211
11
17.3801493
21
-0.6513
0
LINE
8
DEFAULT_255_1_234
10
17.3801493
20
-0.6513
11
17.2219241
21
-0.6513
0
LINE
8
DEFAULT_255_1_234
10
16.8653149
20
0.3277689
11
16.666931
21
-0.2191925
0
LINE
8
DEFAULT_255_1_234
10
16.666931
20
-0.2191925
11
17.064502
21
-0.2191925
0
LINE
8
DEFAULT_255_1_234
10
17.064502
20
-0.2191925
11
16.8653149
21
0.3277689
0
LINE
8
DEFAULT_255_1_234
10
12.019785
20
110.4547391
11
12.019785
21
110.3286408
0
LINE
8
DEFAULT_255_1_234
10
12.019785
20
110.3286408
11
11.5290458
21
110.3286408
0
LINE
8
DEFAULT_255_1_234
10
11.5290458
20
110.3286408
11
11.5290458
21
109.8122
0
LINE
8
DEFAULT_255_1_234
10
11.5290458
20
109.8122
11
11.3748364
21
109.8122
0
LINE
8
DEFAULT_255_1_234
10
11.3748364
20
109.8122
11
11.3748364
21
110.9816211
0
LINE
8
DEFAULT_255_1_234
10
11.3748364
20
110.9816211
11
12.0992992
21
110.9816211
0
LINE
8
DEFAULT_255_1_234
10
12.0992992
20
110.9816211
11
12.0992992
21
110.8547196
0
LINE
8
DEFAULT_255_1_234
10
12.0992992
20
110.8547196
11
11.5290458
21
110.8547196
0
LINE
8
DEFAULT_255_1_234
10
11.5290458
20
110.8547196
11
11.5290458
21
110.4547391
0
LINE
8
DEFAULT_255_1_234
10
11.5290458
20
110.4547391
11
12.019785
21
110.4547391
0
LINE
8
DEFAULT_255_1_234
10
13.4671042
20
110.6434849
11
13.3120917
21
110.6434849
0
LINE
8
DEFAULT_255_1_234
10
12.6197558
20
110.1511394
11
12.7747684
21
110.1511394
0
ARC
8
DEFAULT_255_1_234
10
13.3779729
20
111.5381768
40
1.252368
50
248.9199003
51
254.1439814
0
ARC
8
DEFAULT_255_1_234
10
13.2099224
20
111.1055234
40
0.788226
50
241.633709
51
249.0064503
0
ARC
8
DEFAULT_255_1_234
10
13.0570619
20
110.8254317
40
0.4691427
50
230.498225
51
241.8087113
0
ARC
8
DEFAULT_255_1_234
10
12.9786193
20
110.7254906
40
0.3421437
50
227.4064532
51
229.9881192
0
ARC
8
DEFAULT_255_1_234
10
12.9298713
20
110.6779088
40
0.2741476
50
200.6781896
51
228.1763934
0
ARC
8
DEFAULT_255_1_234
10
12.9371024
20
110.6764077
40
0.2804109
50
179.5061581
51
199.8694617
0
ARC
8
DEFAULT_255_1_234
10
12.9361776
20
110.683821
40
0.2795204
50
132.4834203
51
181.0242172
0
ARC
8
DEFAULT_255_1_234
10
12.9957358
20
110.6275704
40
0.3612768
50
129.2532479
51
133.4242687
0
ARC
8
DEFAULT_255_1_234
10
13.0103808
20
110.6055965
40
0.3875675
50
101.98776
51
128.8742646
0
ARC
8
DEFAULT_255_1_234
10
13.0502418
20
110.4334741
40
0.5642249
50
89.5906553
51
102.3169264
0
ARC
8
DEFAULT_255_1_234
10
13.0572911
20
110.4653148
40
0.5323783
50
77.2360837
51
90.3248275
0
ARC
8
DEFAULT_255_1_234
10
13.077999
20
110.56204
40
0.4334697
50
63.837784
51
77.0809408
0
ARC
8
DEFAULT_255_1_234
10
13.1057751
20
110.6137911
40
0.3747796
50
45.9864267
51
64.1607727
0
ARC
8
DEFAULT_255_1_234
10
13.1318633
20
110.6435866
40
0.3352302
50
32.2747395
51
45.6547121
0
ARC
8
DEFAULT_255_1_234
10
13.1385073
20
110.645488
40
0.328603
50
359.6507365
51
32.6130309
0
ARC
8
DEFAULT_255_1_234
10
13.0442169
20
110.645966
40
0.2678863
50
359.469343
51
14.9832209
0
ARC
8
DEFAULT_255_1_234
10
13.1147231
20
110.6648539
40
0.1948938
50
14.9781179
51
48.2004265
0
ARC
8
DEFAULT_255_1_234
10
13.0982875
20
110.6441983
40
0.2212521
50
48.5927837
51
74.1241538
0
ARC
8
DEFAULT_255_1_234
10
13.0649365
20
110.5341248
40
0.3362561
50
73.7888341
51
86.6652678
0
ARC
8
DEFAULT_255_1_234
10
13.054693
20
110.4133881
40
0.4573953
50
86.2640471
51
90.0526343
0
ARC
8
DEFAULT_255_1_234
10
13.0518643
20
110.4529192
40
0.4178709
50
89.6697524
51
99.2309573
0
ARC
8
DEFAULT_255_1_234
10
13.0276094
20
110.5973964
40
0.2713749
50
99.069534
51
113.7658566
0
ARC
8
DEFAULT_255_1_234
10
13.0002285
20
110.6619677
40
0.2012469
50
114.0401004
51
127.9850673
0
ARC
8
DEFAULT_255_1_234
10
12.9761849
20
110.691573
40
0.1631167
50
127.7287463
51
176.7105154
0
ARC
8
DEFAULT_255_1_234
10
13.0440566
20
110.6814693
40
0.2315392
50
175.1779447
51
180.0581938
0
ARC
8
DEFAULT_255_1_234
10
12.9597413
20
110.6802428
40
0.1472271
50
179.6142195
51
228.1246017
0
ARC
8
DEFAULT_255_1_234
10
13.0039082
20
110.7211308
40
0.2072299
50
226.5779593
51
230.8800004
0
ARC
8
DEFAULT_255_1_234
10
13.051016
20
110.7836636
40
0.2854818
50
231.4635071
51
241.9260842
0
ARC
8
DEFAULT_255_1_234
10
13.1707338
20
111.00398
40
0.53622
50
241.7178533
51
248.3259551
0
ARC
8
DEFAULT_255_1_234
10
13.309271
20
111.3472064
40
0.9063478
50
248.2007737
51
252.4528373
0
ARC
8
DEFAULT_255_1_234
10
13.4296435
20
111.7193441
40
1.2974635
50
252.3391078
51
254.3469452
0
ARC
8
DEFAULT_255_1_234
10
12.6754138
20
109.0216148
40
1.5037162
50
71.0197183
51
74.4087047
0
ARC
8
DEFAULT_255_1_234
10
12.8448823
20
109.5108111
40
0.9859993
50
66.1847285
51
71.086374
0
ARC
8
DEFAULT_255_1_234
10
13.0005135
20
109.86122
40
0.6025855
50
59.3536294
51
66.2691831
0
ARC
8
DEFAULT_255_1_234
10
13.0893788
20
110.0115609
40
0.4279449
50
49.1020879
51
59.3293958
0
ARC
8
DEFAULT_255_1_234
10
13.1712528
20
110.1048834
40
0.3038015
50
32.7919921
51
49.2505539
0
ARC
8
DEFAULT_255_1_234
10
13.2033618
20
110.1277191
40
0.264448
50
31.1181161
51
32.4005348
0
ARC
8
DEFAULT_255_1_234
10
13.1945155
20
110.1241779
40
0.2738556
50
8.1116974
51
30.7958831
0
ARC
8
DEFAULT_255_1_234
10
13.1134823
20
110.1103753
40
0.3560327
50
359.8389159
51
8.4706516
0
ARC
8
DEFAULT_255_1_234
10
13.1760615
20
110.1055137
40
0.2934776
50
337.4731098
51
0.7537279
0
ARC
8
DEFAULT_255_1_234
10
13.193931
20
110.1035387
40
0.2762607
50
307.5917067
51
336.4315538
0
ARC
8
DEFAULT_255_1_234
10
13.1479138
20
110.1548102
40
0.3449979
50
307.6551545
51
308.4529766
0
ARC
8
DEFAULT_255_1_234
10
13.1248857
20
110.190325
40
0.3871988
50
284.3734338
51
307.1424381
0
ARC
8
DEFAULT_255_1_234
10
13.0753687
20
110.3724932
40
0.5759636
50
272.4382747
51
284.646547
0
ARC
8
DEFAULT_255_1_234
10
13.0626895
20
110.5524893
40
0.7563528
50
269.9708387
51
272.8178037
0
ARC
8
DEFAULT_255_1_234
10
13.0583935
20
110.3486716
40
0.5525489
50
248.2707594
51
270.4055579
0
ARC
8
DEFAULT_255_1_234
10
13.0529676
20
110.3296192
40
0.5328452
50
246.1383403
51
248.0542782
0
ARC
8
DEFAULT_255_1_234
10
13.0111055
20
110.2416843
40
0.4355005
50
233.1670131
51
246.4950969
0
ARC
8
DEFAULT_255_1_234
10
12.955696
20
110.1668812
40
0.3424126
50
215.3403242
51
233.0843104
0
ARC
8
DEFAULT_255_1_234
10
12.9284391
20
110.1470549
40
0.3087104
50
179.2419209
51
215.2648451
0
ARC
8
DEFAULT_255_1_234
10
13.0051985
20
110.1484666
40
0.2304457
50
179.335461
51
199.1045811
0
ARC
8
DEFAULT_255_1_234
10
12.9719662
20
110.1397766
40
0.1962176
50
199.8828939
51
232.7063202
0
ARC
8
DEFAULT_255_1_234
10
13.019193
20
110.1991788
40
0.2720938
50
232.3738199
51
255.5136649
0
ARC
8
DEFAULT_255_1_234
10
13.0532797
20
110.3235835
40
0.4010747
50
255.2446292
51
267.5320849
0
ARC
8
DEFAULT_255_1_234
10
13.062042
20
110.4468702
40
0.5246356
50
267.1557994
51
270.0286766
0
ARC
8
DEFAULT_255_1_234
10
13.0648192
20
110.402495
40
0.4802668
50
269.7000017
51
278.1660162
0
ARC
8
DEFAULT_255_1_234
10
13.0904197
20
110.2294515
40
0.3053425
50
278.0231263
51
290.625471
0
ARC
8
DEFAULT_255_1_234
10
13.1251884
20
110.1367025
40
0.206291
50
290.6619762
51
307.0370976
0
ARC
8
DEFAULT_255_1_234
10
13.1552274
20
110.0998504
40
0.1587906
50
306.3943566
51
355.3030547
0
ARC
8
DEFAULT_255_1_234
10
13.1040205
20
110.1075113
40
0.2104809
50
354.3660432
51
0.0698737
0
ARC
8
DEFAULT_255_1_234
10
13.118255
20
110.1097617
40
0.1962563
50
359.417946
51
16.1971788
0
ARC
8
DEFAULT_255_1_234
10
13.163786
20
110.1222418
40
0.149053
50
16.4723299
51
52.6262157
0
ARC
8
DEFAULT_255_1_234
10
13.0816914
20
110.0138433
40
0.2850296
50
52.7386432
51
62.4979148
0
ARC
8
DEFAULT_255_1_234
10
12.9431991
20
109.7532283
40
0.5801521
50
62.2515216
51
68.1220564
0
ARC
8
DEFAULT_255_1_234
10
12.7711902
20
109.3304872
40
1.0365451
50
68.0062803
51
71.8053402
0
ARC
8
DEFAULT_255_1_234
10
12.5916274
20
108.7919758
40
1.6042013
50
71.7183119
51
73.9258742
0
LINE
8
DEFAULT_255_1_234
10
13.6060533
20
110.2226218
11
13.6060533
21
110.2499297
0
LINE
8
DEFAULT_255_1_234
10
14.3433668
20
110.2659932
11
14.3433668
21
110.2041488
0
LINE
8
DEFAULT_255_1_234
10
14.3433668
20
110.2041488
11
13.7546404
21
110.2041488
0
LINE
8
DEFAULT_255_1_234
10
14.2413638
20
110.0346792
11
14.3321224
21
109.9639999
0
LINE
8
DEFAULT_255_1_234
10
13.7594595
20
110.3262313
11
14.1947797
21
110.3262313
0
LINE
8
DEFAULT_255_1_234
10
14.1947797
20
110.3262313
11
14.1947797
21
110.3374757
0
ARC
8
DEFAULT_255_1_234
10
13.9999898
20
110.2337332
40
0.4376191
50
252.3266134
51
270.5810217
0
ARC
8
DEFAULT_255_1_234
10
13.9794987
20
110.1596644
40
0.3608374
50
223.3000567
51
251.8561855
0
ARC
8
DEFAULT_255_1_234
10
14.0006348
20
110.1801937
40
0.3902993
50
190.9374509
51
223.3654032
0
ARC
8
DEFAULT_255_1_234
10
14.173132
20
110.2191885
40
0.5670891
50
179.6531105
51
191.4989439
0
ARC
8
DEFAULT_255_1_234
10
14.1853332
20
110.2531417
40
0.5792888
50
167.4007466
51
180.3176909
0
ARC
8
DEFAULT_255_1_234
10
14.0801394
20
110.2753885
40
0.471777
50
154.1835823
51
167.250763
0
ARC
8
DEFAULT_255_1_234
10
14.0169861
20
110.3086417
40
0.4004528
50
134.3149965
51
154.5315275
0
ARC
8
DEFAULT_255_1_234
10
13.9952356
20
110.3277228
40
0.371612
50
122.8616532
51
133.9707695
0
ARC
8
DEFAULT_255_1_234
10
13.984893
20
110.3499703
40
0.3473289
50
89.8249009
51
123.4199222
0
ARC
8
DEFAULT_255_1_234
10
13.9898971
20
110.2852967
40
0.4120197
50
74.7876118
51
90.5482747
0
ARC
8
DEFAULT_255_1_234
10
14.0192715
20
110.393803
40
0.2996077
50
39.8178249
51
74.7633718
0
ARC
8
DEFAULT_255_1_234
10
13.9680035
20
110.3538351
40
0.3645855
50
16.8990863
51
39.4829761
0
ARC
8
DEFAULT_255_1_234
10
13.7785331
20
110.2931526
40
0.5635218
50
4.9636328
51
17.2026414
0
ARC
8
DEFAULT_255_1_234
10
13.5367401
20
110.267634
40
0.8066286
50
359.8834553
51
5.2834307
0
ARC
8
DEFAULT_255_1_234
10
14.1404926
20
110.2107803
40
0.3859091
50
180.9846213
51
194.9401313
0
ARC
8
DEFAULT_255_1_234
10
14.0355204
20
110.1820849
40
0.2770883
50
194.80314
51
222.0412631
0
ARC
8
DEFAULT_255_1_234
10
14.0051085
20
110.1519116
40
0.2343055
50
221.5417084
51
268.8614402
0
ARC
8
DEFAULT_255_1_234
10
14.012408
20
110.2195686
40
0.3021528
50
267.732405
51
270.0097136
0
ARC
8
DEFAULT_255_1_234
10
14.014189
20
110.2397105
40
0.3222994
50
269.6924892
51
280.4117579
0
ARC
8
DEFAULT_255_1_234
10
14.0318297
20
110.1478193
40
0.2287344
50
280.2255091
51
298.6338936
0
ARC
8
DEFAULT_255_1_234
10
14.0435089
20
110.1234223
40
0.2017294
50
299.0430333
51
300.4643464
0
ARC
8
DEFAULT_255_1_234
10
13.9755094
20
110.2368038
40
0.3339357
50
300.6577328
51
322.0378878
0
ARC
8
DEFAULT_255_1_234
10
13.9404633
20
110.2672021
40
0.3802736
50
321.6750233
51
322.3046845
0
ARC
8
DEFAULT_255_1_234
10
14.0335595
20
110.150537
40
0.3520454
50
276.9728461
51
328.0035423
0
ARC
8
DEFAULT_255_1_234
10
14.0058648
20
110.2985841
40
0.5024498
50
269.8361028
51
278.0581756
0
ARC
8
DEFAULT_255_1_234
10
13.9831385
20
110.3730757
40
0.202159
50
89.2018686
51
117.2851756
0
ARC
8
DEFAULT_255_1_234
10
13.9884554
20
110.3688752
40
0.2083484
50
118.0551165
51
137.4540413
0
ARC
8
DEFAULT_255_1_234
10
14.0259294
20
110.3348304
40
0.2589774
50
137.5109581
51
158.8516286
0
ARC
8
DEFAULT_255_1_234
10
14.139713
20
110.2889074
40
0.38167
50
158.5845963
51
170.1721436
0
ARC
8
DEFAULT_255_1_234
10
14.2566519
20
110.2656823
40
0.5008657
50
169.8376422
51
173.0566086
0
ARC
8
DEFAULT_255_1_234
10
13.7869593
20
110.3167509
40
0.4083467
50
2.9091802
51
12.8847116
0
ARC
8
DEFAULT_255_1_234
10
13.9240269
20
110.3490101
40
0.2675383
50
12.6957781
51
28.6404489
0
ARC
8
DEFAULT_255_1_234
10
13.978194
20
110.3770458
40
0.2065654
50
29.0169854
51
41.1487595
0
ARC
8
DEFAULT_255_1_234
10
13.9984725
20
110.3947003
40
0.1796786
50
41.1646065
51
85.0013516
0
ARC
8
DEFAULT_255_1_234
10
13.9863822
20
110.3212431
40
0.2539726
50
83.7280015
51
90.0964893
0
LINE
8
DEFAULT_255_1_234
10
14.935306
20
110.6860531
11
14.935306
21
110.5479072
0
LINE
8
DEFAULT_255_1_234
10
14.6638332
20
110.4290375
11
14.6638332
21
109.8122
0
LINE
8
DEFAULT_255_1_234
10
14.6638332
20
109.8122
11
14.515246
21
109.8122
0
LINE
8
DEFAULT_255_1_234
10
14.515246
20
109.8122
11
14.515246
21
110.6812341
0
LINE
8
DEFAULT_255_1_234
10
14.515246
20
110.6812341
11
14.6598173
21
110.6812341
0
LINE
8
DEFAULT_255_1_234
10
14.6598173
20
110.6812341
11
14.6622269
21
110.5808374
0
ARC
8
DEFAULT_255_1_234
10
14.8686465
20
110.1419342
40
0.4114092
50
80.6754243
51
86.8932892
0
ARC
8
DEFAULT_255_1_234
10
14.8625999
20
110.04517
40
0.5083596
50
86.8038578
51
90.0431435
0
ARC
8
DEFAULT_255_1_234
10
14.858898
20
110.2908866
40
0.2626638
50
89.2759698
51
106.6213787
0
ARC
8
DEFAULT_255_1_234
10
14.8384544
20
110.365183
40
0.1856317
50
107.1346045
51
157.6458115
0
ARC
8
DEFAULT_255_1_234
10
14.9076146
20
110.3268311
40
0.2643398
50
155.6586782
51
157.2539184
0
ARC
8
DEFAULT_255_1_234
10
14.8871348
20
110.4437157
40
0.2634121
50
127.8165941
51
148.6302098
0
ARC
8
DEFAULT_255_1_234
10
14.8617817
20
110.4697218
40
0.2273596
50
91.3329982
51
126.7875809
0
ARC
8
DEFAULT_255_1_234
10
14.8693757
20
110.3982195
40
0.299078
50
89.986594
51
92.4688449
0
ARC
8
DEFAULT_255_1_234
10
14.8702152
20
110.4257078
40
0.2715908
50
85.3589899
51
90.1623399
0
ARC
8
DEFAULT_255_1_234
10
14.8786668
20
110.5261164
40
0.1708278
50
78.401942
51
85.4594656
0
ARC
8
DEFAULT_255_1_234
10
14.8931552
20
110.5952236
40
0.1002194
50
67.7858312
51
78.5728455
0
ARC
8
DEFAULT_255_1_234
10
14.9039404
20
110.6231887
40
0.0702548
50
63.4835954
51
67.3062642
0
LINE
8
DEFAULT_255_1_234
10
15.2332834
20
110.6812341
11
15.2332834
21
109.8122
0
LINE
8
DEFAULT_255_1_234
10
15.2332834
20
109.8122
11
15.0846963
21
109.8122
0
LINE
8
DEFAULT_255_1_234
10
15.0846963
20
109.8122
11
15.0846963
21
110.6812341
0
LINE
8
DEFAULT_255_1_234
10
15.0846963
20
110.6812341
11
15.2332834
21
110.6812341
0
ARC
8
DEFAULT_255_1_234
10
15.1705112
20
110.9126889
40
0.097867
50
161.415052
51
180.5526306
0
ARC
8
DEFAULT_255_1_234
10
15.158089
20
110.9161077
40
0.0850062
50
138.1827368
51
160.9307106
0
ARC
8
DEFAULT_255_1_234
10
15.1470835
20
110.9256588
40
0.0704362
50
104.6368899
51
138.0039868
0
ARC
8
DEFAULT_255_1_234
10
15.157799
20
110.8889963
40
0.1086221
50
92.0600725
51
105.2189128
0
ARC
8
DEFAULT_255_1_234
10
15.1601338
20
110.8547117
40
0.1429728
50
89.9756393
51
92.5012496
0
ARC
8
DEFAULT_255_1_234
10
15.1611358
20
110.8772731
40
0.1204151
50
78.0235316
51
90.4478182
0
ARC
8
DEFAULT_255_1_234
10
15.170345
20
110.9186295
40
0.0780493
50
55.051506
51
78.3369085
0
ARC
8
DEFAULT_255_1_234
10
15.1753724
20
110.9270711
40
0.0682538
50
42.0501187
51
54.4513741
0
ARC
8
DEFAULT_255_1_234
10
15.1618591
20
110.9146798
40
0.0865878
50
1.7497075
51
42.1496013
0
ARC
8
DEFAULT_255_1_234
10
15.1363924
20
110.9117738
40
0.1121515
50
359.9852656
51
2.8364544
0
ARC
8
DEFAULT_255_1_234
10
15.1529916
20
110.9108229
40
0.0955566
50
342.1070653
51
0.552888
0
ARC
8
DEFAULT_255_1_234
10
15.1672614
20
110.9068904
40
0.0807713
50
316.7107116
51
341.6516965
0
ARC
8
DEFAULT_255_1_234
10
15.1739651
20
110.9008823
40
0.0717724
50
285.4397031
51
316.5324284
0
ARC
8
DEFAULT_255_1_234
10
15.1629568
20
110.9374554
40
0.1099597
50
272.3547054
51
285.8953117
0
ARC
8
DEFAULT_255_1_234
10
15.1602726
20
110.9740048
40
0.1465932
50
269.9695369
51
272.8160237
0
ARC
8
DEFAULT_255_1_234
10
15.1592907
20
110.9520863
40
0.1246779
50
258.8431134
51
270.4153935
0
ARC
8
DEFAULT_255_1_234
10
15.1502949
20
110.9085414
40
0.0802162
50
238.5431189
51
259.1288175
0
ARC
8
DEFAULT_255_1_234
10
15.1434834
20
110.8961856
40
0.0661247
50
222.5062634
51
237.9906969
0
ARC
8
DEFAULT_255_1_234
10
15.1562422
20
110.9077889
40
0.0833707
50
184.1069131
51
222.460413
0
ARC
8
DEFAULT_255_1_234
10
15.1831662
20
110.9116349
40
0.1105176
50
179.9429482
51
185.0960898
0
LINE
8
DEFAULT_255_1_234
10
15.4332737
20
110.2226218
11
15.4332737
21
110.2499297
0
LINE
8
DEFAULT_255_1_234
10
16.1705873
20
110.2659932
11
16.1705873
21
110.2041488
0
LINE
8
DEFAULT_255_1_234
10
16.1705873
20
110.2041488
11
15.5818609
21
110.2041488
0
LINE
8
DEFAULT_255_1_234
10
16.0685842
20
110.0346792
11
16.1593429
21
109.9639999
0
LINE
8
DEFAULT_255_1_234
10
15.5866799
20
110.3262313
11
16.0220001
21
110.3262313
0
LINE
8
DEFAULT_255_1_234
10
16.0220001
20
110.3262313
11
16.0220001
21
110.3374757
0
ARC
8
DEFAULT_255_1_234
10
15.8272102
20
110.2337332
40
0.4376191
50
252.3266134
51
270.5810217
0
ARC
8
DEFAULT_255_1_234
10
15.8067192
20
110.1596644
40
0.3608374
50
223.3000567
51
251.8561855
0
ARC
8
DEFAULT_255_1_234
10
15.8278552
20
110.1801937
40
0.3902993
50
190.9374509
51
223.3654032
0
ARC
8
DEFAULT_255_1_234
10
16.0003524
20
110.2191885
40
0.5670891
50
179.6531105
51
191.4989439
0
ARC
8
DEFAULT_255_1_234
10
16.0125537
20
110.2531417
40
0.5792888
50
167.4007466
51
180.3176909
0
ARC
8
DEFAULT_255_1_234
10
15.9073598
20
110.2753885
40
0.471777
50
154.1835823
51
167.250763
0
ARC
8
DEFAULT_255_1_234
10
15.8442066
20
110.3086417
40
0.4004528
50
134.3149965
51
154.5315275
0
ARC
8
DEFAULT_255_1_234
10
15.8224561
20
110.3277228
40
0.371612
50
122.8616532
51
133.9707695
0
ARC
8
DEFAULT_255_1_234
10
15.8121135
20
110.3499703
40
0.3473289
50
89.8249009
51
123.4199222
0
ARC
8
DEFAULT_255_1_234
10
15.8171176
20
110.2852967
40
0.4120197
50
74.7876118
51
90.5482747
0
ARC
8
DEFAULT_255_1_234
10
15.8464919
20
110.393803
40
0.2996077
50
39.8178249
51
74.7633718
0
ARC
8
DEFAULT_255_1_234
10
15.7952239
20
110.3538351
40
0.3645855
50
16.8990863
51
39.4829761
0
ARC
8
DEFAULT_255_1_234
10
15.6057536
20
110.2931526
40
0.5635218
50
4.9636328
51
17.2026414
0
ARC
8
DEFAULT_255_1_234
10
15.3639606
20
110.267634
40
0.8066286
50
359.8834553
51
5.2834307
0
ARC
8
DEFAULT_255_1_234
10
15.9677131
20
110.2107803
40
0.3859091
50
180.9846213
51
194.9401313
0
ARC
8
DEFAULT_255_1_234
10
15.8627408
20
110.1820849
40
0.2770883
50
194.80314
51
222.0412631
0
ARC
8
DEFAULT_255_1_234
10
15.832329
20
110.1519116
40
0.2343055
50
221.5417084
51
268.8614402
0
ARC
8
DEFAULT_255_1_234
10
15.8396285
20
110.2195686
40
0.3021528
50
267.732405
51
270.0097136
0
ARC
8
DEFAULT_255_1_234
10
15.8414095
20
110.2397105
40
0.3222994
50
269.6924892
51
280.4117579
0
ARC
8
DEFAULT_255_1_234
10
15.8590502
20
110.1478193
40
0.2287344
50
280.2255091
51
298.6338936
0
ARC
8
DEFAULT_255_1_234
10
15.8707294
20
110.1234223
40
0.2017294
50
299.0430333
51
300.4643464
0
ARC
8
DEFAULT_255_1_234
10
15.8027299
20
110.2368038
40
0.3339357
50
300.6577328
51
322.0378878
0
ARC
8
DEFAULT_255_1_234
10
15.7676838
20
110.2672021
40
0.3802736
50
321.6750233
51
322.3046845
0
ARC
8
DEFAULT_255_1_234
10
15.8607799
20
110.150537
40
0.3520454
50
276.9728461
51
328.0035423
0
ARC
8
DEFAULT_255_1_234
10
15.8330852
20
110.2985841
40
0.5024498
50
269.8361028
51
278.0581756
0
ARC
8
DEFAULT_255_1_234
10
15.810359
20
110.3730757
40
0.202159
50
89.2018686
51
117.2851756
0
ARC
8
DEFAULT_255_1_234
10
15.8156759
20
110.3688752
40
0.2083484
50
118.0551165
51
137.4540413
0
ARC
8
DEFAULT_255_1_234
10
15.8531499
20
110.3348304
40
0.2589774
50
137.5109581
51
158.8516286
0
ARC
8
DEFAULT_255_1_234
10
15.9669334
20
110.2889074
40
0.38167
50
158.5845963
51
170.1721436
0
ARC
8
DEFAULT_255_1_234
10
16.0838723
20
110.2656823
40
0.5008657
50
169.8376422
51
173.0566086
0
ARC
8
DEFAULT_255_1_234
10
15.6141797
20
110.3167509
40
0.4083467
50
2.9091802
51
12.8847116
0
ARC
8
DEFAULT_255_1_234
10
15.7512474
20
110.3490101
40
0.2675383
50
12.6957781
51
28.6404489
0
ARC
8
DEFAULT_255_1_234
10
15.8054145
20
110.3770458
40
0.2065654
50
29.0169854
51
41.1487595
0
ARC
8
DEFAULT_255_1_234
10
15.825693
20
110.3947003
40
0.1796786
50
41.1646065
51
85.0013516
0
ARC
8
DEFAULT_255_1_234
10
15.8136027
20
110.3212431
40
0.2539726
50
83.7280015
51
90.0964893
0
LINE
8
DEFAULT_255_1_234
10
16.9890214
20
110.4258248
11
16.8396311
21
110.4258248
0
LINE
8
DEFAULT_255_1_234
10
16.3063237
20
110.0796569
11
16.4549108
21
110.0796569
0
ARC
8
DEFAULT_255_1_234
10
16.720813
20
110.0441959
40
0.1276617
50
359.3334982
51
18.5871358
0
ARC
8
DEFAULT_255_1_234
10
16.7416767
20
110.0497133
40
0.1061371
50
19.3540742
51
54.6485071
0
ARC
8
DEFAULT_255_1_234
10
16.6912669
20
109.9801919
40
0.1920087
50
54.3827097
51
65.0622807
0
ARC
8
DEFAULT_255_1_234
10
16.6144065
20
109.81849
40
0.3710447
50
64.8282493
51
71.4200025
0
ARC
8
DEFAULT_255_1_234
10
16.5241941
20
109.5538107
40
0.6506741
50
71.3164301
51
75.8006402
0
ARC
8
DEFAULT_255_1_234
10
16.4400761
20
109.2297561
40
0.9854641
50
75.6809531
51
78.0061883
0
ARC
8
DEFAULT_255_1_234
10
16.8849294
20
111.327677
40
1.1591028
50
254.6901892
51
258.0466452
0
ARC
8
DEFAULT_255_1_234
10
16.7811202
20
110.9517781
40
0.7691345
50
249.9010773
51
254.755261
0
ARC
8
DEFAULT_255_1_234
10
16.6807544
20
110.6791982
40
0.478665
50
243.3097214
51
249.9709442
0
ARC
8
DEFAULT_255_1_234
10
16.6178565
20
110.5537778
40
0.3383568
50
234.4047477
51
243.2862168
0
ARC
8
DEFAULT_255_1_234
10
16.5556089
20
110.4678232
40
0.2322322
50
220.8667099
51
234.5493881
0
ARC
8
DEFAULT_255_1_234
10
16.521403
20
110.4366817
40
0.1859923
50
214.3062465
51
220.5065136
0
ARC
8
DEFAULT_255_1_234
10
16.5188109
20
110.433588
40
0.1821108
50
186.912965
51
213.9618616
0
ARC
8
DEFAULT_255_1_234
10
16.5720204
20
110.4422009
40
0.2359799
50
179.8808832
51
187.4339886
0
ARC
8
DEFAULT_255_1_234
10
16.5565337
20
110.4442088
40
0.2204978
50
132.005434
51
180.3942919
0
ARC
8
DEFAULT_255_1_234
10
16.6221951
20
110.3836083
40
0.3095791
50
129.2319861
51
133.5302299
0
ARC
8
DEFAULT_255_1_234
10
16.6275459
20
110.3741928
40
0.3202615
50
100.4410011
51
128.9081242
0
ARC
8
DEFAULT_255_1_234
10
16.6549343
20
110.2456455
40
0.4516583
50
89.6985377
51
100.9026564
0
ARC
8
DEFAULT_255_1_234
10
16.6606384
20
110.2296166
40
0.4676928
50
77.6965325
51
90.4076836
0
ARC
8
DEFAULT_255_1_234
10
16.6937369
20
110.3723413
40
0.3211988
50
50.7276602
51
78.0399361
0
ARC
8
DEFAULT_255_1_234
10
16.7381827
20
110.4241296
40
0.2529778
50
25.7545084
51
51.0957453
0
ARC
8
DEFAULT_255_1_234
10
16.7383052
20
110.4291206
40
0.250738
50
359.2468627
51
24.7394243
0
ARC
8
DEFAULT_255_1_234
10
16.7098504
20
110.4262664
40
0.1297815
50
359.8050318
51
45.1544908
0
ARC
8
DEFAULT_255_1_234
10
16.6691646
20
110.3914794
40
0.1831883
50
43.8047702
51
49.6271585
0
ARC
8
DEFAULT_255_1_234
10
16.6699547
20
110.3915678
40
0.18261
50
49.7980766
51
82.1218353
0
ARC
8
DEFAULT_255_1_234
10
16.6580519
20
110.3268998
40
0.2483163
50
81.4465357
51
90.1710293
0
ARC
8
DEFAULT_255_1_234
10
16.6556122
20
110.274288
40
0.300932
50
89.6766211
51
99.1264602
0
ARC
8
DEFAULT_255_1_234
10
16.6384584
20
110.3776537
40
0.1961547
50
98.968313
51
113.4570237
0
ARC
8
DEFAULT_255_1_234
10
16.6188669
20
110.4244965
40
0.1453859
50
113.722589
51
127.4763106
0
ARC
8
DEFAULT_255_1_234
10
16.6020315
20
110.4445124
40
0.1192639
50
126.9083309
51
150.3165862
0
ARC
8
DEFAULT_255_1_234
10
16.5972648
20
110.4495981
40
0.112623
50
151.3635175
51
180.0701457
0
ARC
8
DEFAULT_255_1_234
10
16.6281432
20
110.447499
40
0.1435149
50
179.2169974
51
179.9954013
0
ARC
8
DEFAULT_255_1_234
10
16.5920489
20
110.4462056
40
0.1074286
50
179.3040112
51
198.4225446
0
ARC
8
DEFAULT_255_1_234
10
16.5728623
20
110.4412127
40
0.0876573
50
199.2895851
51
238.6034594
0
ARC
8
DEFAULT_255_1_234
10
16.633147
20
110.535845
40
0.1998512
50
237.9846301
51
246.8744712
0
ARC
8
DEFAULT_255_1_234
10
16.7189415
20
110.7321205
40
0.4140547
50
246.6234531
51
251.8168941
0
ARC
8
DEFAULT_255_1_234
10
16.8219958
20
111.0415905
40
0.7402308
50
251.713434
51
255.0778414
0
ARC
8
DEFAULT_255_1_234
10
16.9419221
20
111.4882563
40
1.2027155
50
255.0367487
51
257.4705983
0
ARC
8
DEFAULT_255_1_234
10
16.4311231
20
109.1868863
40
1.1546601
50
73.6837552
51
77.5016755
0
ARC
8
DEFAULT_255_1_234
10
16.5400005
20
109.5568581
40
0.7690009
50
68.7044154
51
73.7249639
0
ARC
8
DEFAULT_255_1_234
10
16.6303026
20
109.7895654
40
0.5193873
50
63.590599
51
68.6626804
0
ARC
8
DEFAULT_255_1_234
10
16.7074045
20
109.9433123
40
0.3473927
50
54.7106439
51
63.7013633
0
ARC
8
DEFAULT_255_1_234
10
16.76985
20
110.03054
40
0.2401192
50
41.0622434
51
54.8487496
0
ARC
8
DEFAULT_255_1_234
10
16.8039886
20
110.0618592
40
0.1938094
50
34.4950568
51
40.7105546
0
ARC
8
DEFAULT_255_1_234
10
16.8086693
20
110.0667078
40
0.1872106
50
9.3763373
51
34.0833615
0
ARC
8
DEFAULT_255_1_234
10
16.7433564
20
110.0541728
40
0.2536988
50
359.7694872
51
9.7663171
0
ARC
8
DEFAULT_255_1_234
10
16.7631065
20
110.0498764
40
0.2339696
50
335.8654732
51
0.8022045
0
ARC
8
DEFAULT_255_1_234
10
16.7706109
20
110.0512197
40
0.2277108
50
307.7357725
51
334.7849066
0
ARC
8
DEFAULT_255_1_234
10
16.7305285
20
110.0962645
40
0.2878951
50
307.0241536
51
308.5578354
0
ARC
8
DEFAULT_255_1_234
10
16.7047616
20
110.1348801
40
0.3342515
50
282.9362969
51
306.5646424
0
ARC
8
DEFAULT_255_1_234
10
16.6685914
20
110.2816108
40
0.4853615
50
271.1026298
51
283.2200835
0
ARC
8
DEFAULT_255_1_234
10
16.6622157
20
110.4057418
40
0.6096052
50
269.9919117
51
271.4772449
0
ARC
8
DEFAULT_255_1_234
10
16.6595913
20
110.2979436
40
0.5018135
50
259.0723564
51
270.289833
0
ARC
8
DEFAULT_255_1_234
10
16.6383645
20
110.1862271
40
0.388099
50
245.4963068
51
259.0227342
0
ARC
8
DEFAULT_255_1_234
10
16.6105601
20
110.1280615
40
0.3236422
50
228.9684658
51
245.7044727
0
ARC
8
DEFAULT_255_1_234
10
16.5840045
20
110.0953575
40
0.2815426
50
214.4011705
51
228.6759915
0
ARC
8
DEFAULT_255_1_234
10
16.5550785
20
110.079529
40
0.2487548
50
179.9705531
51
215.1572795
0
ARC
8
DEFAULT_255_1_234
10
16.6251385
20
110.0868806
40
0.1703809
50
182.4299387
51
203.0329699
0
ARC
8
DEFAULT_255_1_234
10
16.6067043
20
110.0812396
40
0.1512226
50
203.798802
51
232.548466
0
ARC
8
DEFAULT_255_1_234
10
16.6343564
20
110.1163826
40
0.1959374
50
232.3782728
51
256.3934612
0
ARC
8
DEFAULT_255_1_234
10
16.6573926
20
110.2053842
40
0.2878639
50
256.104506
51
268.4626716
0
ARC
8
DEFAULT_255_1_234
10
16.662041
20
110.2850487
40
0.3676329
50
268.0715632
51
270.0138206
0
ARC
8
DEFAULT_255_1_234
10
16.6638935
20
110.2578083
40
0.3403971
50
269.7031147
51
278.8341955
0
ARC
8
DEFAULT_255_1_234
10
16.6821028
20
110.1447876
40
0.2259217
50
278.6728789
51
292.8232582
0
ARC
8
DEFAULT_255_1_234
10
16.7021566
20
110.0946449
40
0.171929
50
293.1452328
51
303.6655899
0
ARC
8
DEFAULT_255_1_234
10
16.7286445
20
110.0570204
40
0.1259367
50
303.1248165
51
321.742847
0
ARC
8
DEFAULT_255_1_234
10
16.7472325
20
110.0407156
40
0.1012531
50
322.4748573
51
1.1291126
0
LINE
8
DEFAULT_255_2_778
10
10.5738396
20
112.3368073
11
9.3932396
21
112.3368073
0
LINE
8
DEFAULT_255_2_778
10
9.3932396
20
112.3368073
11
9.9837396
21
113.3594073
0
LINE
8
DEFAULT_255_2_778
10
9.9837396
20
113.3594073
11
11.1643396
21
113.3594073
0
LINE
8
DEFAULT_255_2_778
10
11.1643396
20
113.3594073
11
10.5738396
21
112.3368073
0
LINE
8
DEFAULT_255_2_778
10
10.5738396
20
112.3368073
11
10.5738396
21
112.3368073
0
LINE
8
DEFAULT_255_2_778
10
11.7546396
20
112.3368073
11
12.9354396
21
112.3368073
0
LINE
8
DEFAULT_255_2_778
10
12.9354396
20
112.3368073
11
12.3451396
21
113.3594073
0
LINE
8
DEFAULT_255_2_778
10
12.3451396
20
113.3594073
11
11.1643396
21
113.3594073
0
LINE
8
DEFAULT_255_2_778
10
11.1643396
20
113.3594073
11
11.7546396
21
112.3368073
0
LINE
8
DEFAULT_255_2_778
10
11.7546396
20
112.3368073
11
11.7546396
21
112.3368073
0
LINE
8
DEFAULT_255_2_778
10
11.7545823
20
114.3820146
11
11.1642823
21
115.4046146
0
LINE
8
DEFAULT_255_2_778
10
11.1642823
20
115.4046146
11
10.5737823
21
114.3820146
0
LINE
8
DEFAULT_255_2_778
10
10.5737823
20
114.3820146
11
11.1642823
21
113.3594146
0
LINE
8
DEFAULT_255_2_778
10
11.1642823
20
113.3594146
11
11.7545823
21
114.3820146
0
LINE
8
DEFAULT_255_2_778
10
11.7545823
20
114.3820146
11
11.7545823
21
114.3820146
0
ARC
8
DEFAULT_255_2_778
10
16.5183731
20
114.0282426
40
0.5650491
50
268.7543645
51
289.1417717
0
ARC
8
DEFAULT_255_2_778
10
16.606208
20
113.7730531
40
0.2951681
50
289.2776255
51
3.7648372
0
ARC
8
DEFAULT_255_2_778
10
16.3901618
20
113.7996085
40
0.5106278
50
359.1949826
51
0.0020862
0
ARC
8
DEFAULT_255_2_778
10
16.547449
20
113.7855832
40
0.1541914
50
280.2616216
51
358.5297855
0
ARC
8
DEFAULT_255_2_778
10
16.5080075
20
113.898155
40
0.2726346
50
269.5969454
51
284.2065679
0
ARC
8
DEFAULT_255_2_778
10
16.4981967
20
113.8825316
40
0.2571258
50
246.5290903
51
271.7590909
0
ARC
8
DEFAULT_255_2_778
10
16.4527148
20
113.7745009
40
0.1399248
50
188.1071678
51
245.9934684
0
ARC
8
DEFAULT_255_2_778
10
16.4829007
20
113.7814617
40
0.1708111
50
179.9445314
51
188.990814
0
ARC
8
DEFAULT_255_2_778
10
16.4924507
20
113.7882849
40
0.3763411
50
178.2272621
51
205.8283807
0
ARC
8
DEFAULT_255_2_778
10
16.4132476
20
113.7705833
40
0.2979176
50
209.4028057
51
263.0375728
0
ARC
8
DEFAULT_255_2_778
10
16.5005111
20
114.1452629
40
0.6816586
50
259.5722942
51
270.4689037
0
ARC
8
DEFAULT_255_2_778
10
17.411252
20
114.2014767
40
0.1217154
50
2.0482843
51
87.015299
0
ARC
8
DEFAULT_255_2_778
10
17.4060617
20
114.2058852
40
0.126828
50
353.0600847
51
359.9737428
0
ARC
8
DEFAULT_255_2_778
10
17.4110442
20
114.2027555
40
0.1215295
50
270.5739762
51
354.2410513
0
ARC
8
DEFAULT_255_2_778
10
17.4065059
20
114.2389297
40
0.1578027
50
269.9941256
51
272.0902921
0
ARC
8
DEFAULT_255_2_778
10
17.414084
20
113.7880295
40
0.1400686
50
358.2807293
51
95.6106825
0
ARC
8
DEFAULT_255_2_778
10
17.4103233
20
113.7841963
40
0.1437669
50
266.9962473
51
359.8528392
0
ARC
8
DEFAULT_255_2_778
10
17.4725249
20
113.8244988
40
0.3335288
50
268.2414507
51
302.0223478
0
ARC
8
DEFAULT_255_2_778
10
17.5091261
20
113.749183
40
0.2504234
50
304.0600275
51
2.0468005
0
ARC
8
DEFAULT_255_2_778
10
17.4832788
20
113.7558521
40
0.2761203
50
0.4720601
51
65.8403529
0
ARC
8
DEFAULT_255_2_778
10
17.5191655
20
113.8206061
40
0.2024466
50
67.606893
51
75.8693222
0
ARC
8
DEFAULT_255_2_778
10
17.5042026
20
114.228222
40
0.2208874
50
286.9473417
51
358.0074963
0
ARC
8
DEFAULT_255_2_778
10
17.4710866
20
114.2370045
40
0.2544031
50
356.2897886
51
0.0050857
0
ARC
8
DEFAULT_255_2_778
10
17.497262
20
114.2420946
40
0.2282839
50
358.7280137
51
81.8073164
0
ARC
8
DEFAULT_255_2_778
10
17.4216369
20
113.9906283
40
0.4895182
50
77.2355086
51
90.5088275
0
ARC
8
DEFAULT_255_2_778
10
17.5842742
20
113.0261263
40
0.130243
50
89.9974494
51
92.6776592
0
ARC
8
DEFAULT_255_2_778
10
17.5843316
20
113.0266872
40
0.129682
50
45.0880141
51
90.022782
0
ARC
8
DEFAULT_255_2_778
10
17.5844118
20
113.026719
40
0.1296029
50
0.001866
51
45.1031959
0
ARC
8
DEFAULT_255_2_778
10
17.5845123
20
113.0267202
40
0.1295026
50
357.4803735
51
0.0013544
0
ARC
8
DEFAULT_255_2_778
10
17.5901979
20
113.0228512
40
0.1237052
50
339.8672523
51
359.1550732
0
ARC
8
DEFAULT_255_2_778
10
17.5794513
20
113.0200079
40
0.1329691
50
272.0853006
51
342.6124646
0
ARC
8
DEFAULT_255_2_778
10
17.6596145
20
113.0582661
40
0.2575135
50
286.787355
51
290.6121696
0
ARC
8
DEFAULT_255_2_778
10
17.6689461
20
113.0439533
40
0.24086
50
289.7330405
51
342.3216972
0
ARC
8
DEFAULT_255_2_778
10
17.641261
20
113.0487954
40
0.268735
50
343.130572
51
0.3905272
0
ARC
8
DEFAULT_255_2_778
10
17.6578783
20
113.0661767
40
0.2525904
50
356.4706028
51
80.1788963
0
ARC
8
DEFAULT_255_2_778
10
17.5921649
20
112.8392163
40
0.4881286
50
77.1212301
51
90.4900821
0
ARC
8
DEFAULT_255_2_778
10
17.5166337
20
112.541536
40
0.1865405
50
50.1507009
51
92.9634648
0
ARC
8
DEFAULT_255_2_778
10
17.5301354
20
112.5698678
40
0.1563319
50
12.621233
51
47.2950617
0
ARC
8
DEFAULT_255_2_778
10
16.8485884
20
112.4369726
40
0.8506657
50
2.8173892
51
11.3253986
0
ARC
8
DEFAULT_255_2_778
10
-29.2295733
20
108.9406175
40
47.060992
50
4.3048394
51
4.3117143
0
ARC
8
DEFAULT_255_2_778
10
18.5500859
20
112.513084
40
0.8523717
50
182.6850102
51
191.2954256
0
ARC
8
DEFAULT_255_2_778
10
17.9656837
20
112.4067399
40
0.2586603
50
193.5512904
51
195.3825538
0
ARC
8
DEFAULT_255_2_778
10
19.3415679
20
112.6643916
40
1.4608773
50
182.5958701
51
192.9049706
0
ARC
8
DEFAULT_255_2_778
10
17.6207606
20
112.5927215
40
0.261487
50
1.2064311
51
30.4123358
0
ARC
8
DEFAULT_255_2_778
10
17.6663626
20
112.607776
40
0.2147766
50
33.1081154
51
71.7312197
0
LINE
8
DEFAULT_255_2_778
10
13.4657897
20
112.7723271
11
13.9385897
21
112.7723271
0
LINE
8
DEFAULT_255_2_778
10
13.9385897
20
112.7723271
11
13.9385897
21
112.9437271
0
LINE
8
DEFAULT_255_2_778
10
13.9385897
20
112.9437271
11
13.4657897
21
112.9437271
0
LINE
8
DEFAULT_255_2_778
10
13.4657897
20
112.9437271
11
13.4657897
21
113.1546271
0
LINE
8
DEFAULT_255_2_778
10
13.4657897
20
113.1546271
11
13.9977897
21
113.1546271
0
LINE
8
DEFAULT_255_2_778
10
13.9977897
20
113.1546271
11
13.9977897
21
113.3260271
0
LINE
8
DEFAULT_255_2_778
10
13.9977897
20
113.3260271
11
13.4657897
21
113.3260271
0
LINE
8
DEFAULT_255_2_778
10
13.4657897
20
113.3260271
11
13.2651897
21
113.3260271
0
LINE
8
DEFAULT_255_2_778
10
13.2651897
20
113.3260271
11
13.2651897
21
113.1546271
0
LINE
8
DEFAULT_255_2_778
10
13.2651897
20
113.1546271
11
13.2651897
21
112.5082271
0
LINE
8
DEFAULT_255_2_778
10
13.2651897
20
112.5082271
11
13.2651897
21
112.3367271
0
LINE
8
DEFAULT_255_2_778
10
13.2651897
20
112.3367271
11
13.4657897
21
112.3367271
0
LINE
8
DEFAULT_255_2_778
10
13.4657897
20
112.3367271
11
14.0118897
21
112.3367271
0
LINE
8
DEFAULT_255_2_778
10
14.0118897
20
112.3367271
11
14.0118897
21
112.5082271
0
LINE
8
DEFAULT_255_2_778
10
14.0118897
20
112.5082271
11
13.4657897
21
112.5082271
0
LINE
8
DEFAULT_255_2_778
10
13.4657897
20
112.5082271
11
13.4657897
21
112.7720271
0
LINE
8
DEFAULT_255_2_778
10
13.4657897
20
112.7720271
11
13.4657897
21
112.7723271
0
LINE
8
DEFAULT_255_2_778
10
13.4519897
20
114.2264271
11
13.6620897
21
113.4911271
0
LINE
8
DEFAULT_255_2_778
10
13.6620897
20
113.4911271
11
13.6704897
21
113.4911271
0
LINE
8
DEFAULT_255_2_778
10
13.6704897
20
113.4911271
11
13.8464897
21
113.4911271
0
LINE
8
DEFAULT_255_2_778
10
13.8464897
20
113.4911271
11
13.8546897
21
113.4911271
0
LINE
8
DEFAULT_255_2_778
10
13.8546897
20
113.4911271
11
14.0647897
21
114.2264271
0
LINE
8
DEFAULT_255_2_778
10
14.0647897
20
114.2264271
11
14.0647897
21
113.4911271
0
LINE
8
DEFAULT_255_2_778
10
14.0647897
20
113.4911271
11
14.2515897
21
113.4911271
0
LINE
8
DEFAULT_255_2_778
10
14.2515897
20
113.4911271
11
14.2515897
21
114.4804271
0
LINE
8
DEFAULT_255_2_778
10
14.2515897
20
114.4804271
11
14.1496897
21
114.4804271
0
LINE
8
DEFAULT_255_2_778
10
14.1496897
20
114.4804271
11
14.0615897
21
114.4804271
0
LINE
8
DEFAULT_255_2_778
10
14.0615897
20
114.4804271
11
13.9655897
21
114.4804271
0
LINE
8
DEFAULT_255_2_778
10
13.9655897
20
114.4804271
11
13.7583897
21
113.7861271
0
LINE
8
DEFAULT_255_2_778
10
13.7583897
20
113.7861271
11
13.5511897
21
114.4804271
0
LINE
8
DEFAULT_255_2_778
10
13.5511897
20
114.4804271
11
13.4551897
21
114.4804271
0
LINE
8
DEFAULT_255_2_778
10
13.4551897
20
114.4804271
11
13.3669897
21
114.4804271
0
LINE
8
DEFAULT_255_2_778
10
13.3669897
20
114.4804271
11
13.2651897
21
114.4804271
0
LINE
8
DEFAULT_255_2_778
10
13.2651897
20
114.4804271
11
13.2651897
21
113.4911271
0
LINE
8
DEFAULT_255_2_778
10
13.2651897
20
113.4911271
11
13.4519897
21
113.4911271
0
LINE
8
DEFAULT_255_2_778
10
13.4519897
20
113.4911271
11
13.4519897
21
114.2264271
0
LINE
8
DEFAULT_255_2_778
10
13.4519897
20
114.2264271
11
13.4519897
21
114.2264271
0
LINE
8
DEFAULT_255_2_778
10
18.0056897
20
114.4804271
11
17.8064897
21
114.4804271
0
LINE
8
DEFAULT_255_2_778
10
17.8064897
20
114.4804271
11
17.8064897
21
113.4911271
0
LINE
8
DEFAULT_255_2_778
10
17.8064897
20
113.4911271
11
18.0056897
21
113.4911271
0
LINE
8
DEFAULT_255_2_778
10
18.0056897
20
113.4911271
11
18.0056897
21
114.4804271
0
LINE
8
DEFAULT_255_2_778
10
18.0056897
20
114.4804271
11
18.0056897
21
114.4804271
0
LINE
8
DEFAULT_255_2_778
10
18.1681897
20
113.3263271
11
17.9689897
21
113.3263271
0
LINE
8
DEFAULT_255_2_778
10
17.9689897
20
113.3263271
11
17.9689897
21
112.3370271
0
LINE
8
DEFAULT_255_2_778
10
17.9689897
20
112.3370271
11
18.1681897
21
112.3370271
0
LINE
8
DEFAULT_255_2_778
10
18.1681897
20
112.3370271
11
18.1681897
21
113.3263271
0
LINE
8
DEFAULT_255_2_778
10
18.1681897
20
113.3263271
11
18.1681897
21
113.3263271
0
LINE
8
DEFAULT_255_2_778
10
19.9765897
20
114.4804271
11
19.7773897
21
114.4804271
0
LINE
8
DEFAULT_255_2_778
10
19.7773897
20
114.4804271
11
19.7773897
21
113.4911271
0
LINE
8
DEFAULT_255_2_778
10
19.7773897
20
113.4911271
11
19.9765897
21
113.4911271
0
LINE
8
DEFAULT_255_2_778
10
19.9765897
20
113.4911271
11
19.9765897
21
114.4804271
0
LINE
8
DEFAULT_255_2_778
10
19.9765897
20
114.4804271
11
19.9765897
21
114.4804271
0
LINE
8
DEFAULT_255_2_778
10
14.5298897
20
114.4804271
11
14.3306897
21
114.4804271
0
LINE
8
DEFAULT_255_2_778
10
14.3306897
20
114.4804271
11
14.3306897
21
113.4911271
0
LINE
8
DEFAULT_255_2_778
10
14.3306897
20
113.4911271
11
14.5298897
21
113.4911271
0
LINE
8
DEFAULT_255_2_778
10
14.5298897
20
113.4911271
11
14.5298897
21
114.4804271
0
LINE
8
DEFAULT_255_2_778
10
14.5298897
20
114.4804271
11
14.5298897
21
114.4804271
0
LINE
8
DEFAULT_255_2_778
10
19.4989897
20
114.0944271
11
19.1029897
21
114.0944271
0
LINE
8
DEFAULT_255_2_778
10
19.1029897
20
114.0944271
11
19.1029897
21
114.4801271
0
LINE
8
DEFAULT_255_2_778
10
19.1029897
20
114.4801271
11
18.9068897
21
114.4801271
0
LINE
8
DEFAULT_255_2_778
10
18.9068897
20
114.4801271
11
18.9068897
21
113.4911271
0
LINE
8
DEFAULT_255_2_778
10
18.9068897
20
113.4911271
11
19.1029897
21
113.4911271
0
LINE
8
DEFAULT_255_2_778
10
19.1029897
20
113.4911271
11
19.1029897
21
113.9229271
0
LINE
8
DEFAULT_255_2_778
10
19.1029897
20
113.9229271
11
19.4989897
21
113.9229271
0
LINE
8
DEFAULT_255_2_778
10
19.4989897
20
113.9229271
11
19.4989897
21
113.4911271
0
LINE
8
DEFAULT_255_2_778
10
19.4989897
20
113.4911271
11
19.6950897
21
113.4911271
0
LINE
8
DEFAULT_255_2_778
10
19.6950897
20
113.4911271
11
19.6950897
21
114.4801271
0
LINE
8
DEFAULT_255_2_778
10
19.6950897
20
114.4801271
11
19.4989897
21
114.4801271
0
LINE
8
DEFAULT_255_2_778
10
19.4989897
20
114.4801271
11
19.4989897
21
114.0944271
0
LINE
8
DEFAULT_255_2_778
10
19.4989897
20
114.0944271
11
19.4989897
21
114.0944271
0
LINE
8
DEFAULT_255_2_778
10
14.8246897
20
113.4911271
11
15.0280897
21
113.4911271
0
LINE
8
DEFAULT_255_2_778
10
15.0280897
20
113.4911271
11
15.0280897
21
114.3090271
0
LINE
8
DEFAULT_255_2_778
10
15.0280897
20
114.3090271
11
15.2696897
21
114.3090271
0
LINE
8
DEFAULT_255_2_778
10
15.2696897
20
114.3090271
11
15.2696897
21
114.4804271
0
LINE
8
DEFAULT_255_2_778
10
15.2696897
20
114.4804271
11
15.0280897
21
114.4804271
0
LINE
8
DEFAULT_255_2_778
10
15.0280897
20
114.4804271
11
14.8246897
21
114.4804271
0
LINE
8
DEFAULT_255_2_778
10
14.8246897
20
114.4804271
11
14.5830897
21
114.4804271
0
LINE
8
DEFAULT_255_2_778
10
14.5830897
20
114.4804271
11
14.5830897
21
114.3090271
0
LINE
8
DEFAULT_255_2_778
10
14.5830897
20
114.3090271
11
14.8246897
21
114.3090271
0
LINE
8
DEFAULT_255_2_778
10
14.8246897
20
114.3090271
11
14.8246897
21
113.4911271
0
LINE
8
DEFAULT_255_2_778
10
14.8246897
20
113.4911271
11
14.8246897
21
113.4911271
0
LINE
8
DEFAULT_255_2_778
10
16.6422897
20
112.3370271
11
16.8454897
21
112.3370271
0
LINE
8
DEFAULT_255_2_778
10
16.8454897
20
112.3370271
11
16.8454897
21
113.1548271
0
LINE
8
DEFAULT_255_2_778
10
16.8454897
20
113.1548271
11
17.0873897
21
113.1548271
0
LINE
8
DEFAULT_255_2_778
10
17.0873897
20
113.1548271
11
17.0873897
21
113.3266271
0
LINE
8
DEFAULT_255_2_778
10
17.0873897
20
113.3266271
11
16.8454897
21
113.3266271
0
LINE
8
DEFAULT_255_2_778
10
16.8454897
20
113.3266271
11
16.6422897
21
113.3266271
0
LINE
8
DEFAULT_255_2_778
10
16.6422897
20
113.3266271
11
16.4004897
21
113.3266271
0
LINE
8
DEFAULT_255_2_778
10
16.4004897
20
113.3266271
11
16.4004897
21
113.1548271
0
LINE
8
DEFAULT_255_2_778
10
16.4004897
20
113.1548271
11
16.6422897
21
113.1548271
0
LINE
8
DEFAULT_255_2_778
10
16.6422897
20
113.1548271
11
16.6422897
21
112.3370271
0
LINE
8
DEFAULT_255_2_778
10
16.6422897
20
112.3370271
11
16.6422897
21
112.3370271
0
LINE
8
DEFAULT_255_2_778
10
16.9007897
20
113.7996271
11
16.9007897
21
114.4801271
0
LINE
8
DEFAULT_255_2_778
10
16.9007897
20
114.4801271
11
16.7015897
21
114.4801271
0
LINE
8
DEFAULT_255_2_778
10
16.7015897
20
114.4801271
11
16.7015897
21
113.7816271
0
LINE
8
DEFAULT_255_2_778
10
16.3120897
20
113.7816271
11
16.3120897
21
114.4801271
0
LINE
8
DEFAULT_255_2_778
10
16.3120897
20
114.4801271
11
16.1162897
21
114.4801271
0
LINE
8
DEFAULT_255_2_778
10
16.1162897
20
114.4801271
11
16.1162897
21
113.7999271
0
LINE
8
DEFAULT_255_2_778
10
15.0000897
20
112.7723271
11
15.4730897
21
112.7723271
0
LINE
8
DEFAULT_255_2_778
10
15.4730897
20
112.7723271
11
15.4730897
21
112.9437271
0
LINE
8
DEFAULT_255_2_778
10
15.4730897
20
112.9437271
11
15.0000897
21
112.9437271
0
LINE
8
DEFAULT_255_2_778
10
15.0000897
20
112.9437271
11
15.0000897
21
113.1546271
0
LINE
8
DEFAULT_255_2_778
10
15.0000897
20
113.1546271
11
15.5320897
21
113.1546271
0
LINE
8
DEFAULT_255_2_778
10
15.5320897
20
113.1546271
11
15.5320897
21
113.3260271
0
LINE
8
DEFAULT_255_2_778
10
15.5320897
20
113.3260271
11
15.0000897
21
113.3260271
0
LINE
8
DEFAULT_255_2_778
10
15.0000897
20
113.3260271
11
14.7997897
21
113.3260271
0
LINE
8
DEFAULT_255_2_778
10
14.7997897
20
113.3260271
11
14.7997897
21
113.1546271
0
LINE
8
DEFAULT_255_2_778
10
14.7997897
20
113.1546271
11
14.7997897
21
112.5082271
0
LINE
8
DEFAULT_255_2_778
10
14.7997897
20
112.5082271
11
14.7997897
21
112.3367271
0
LINE
8
DEFAULT_255_2_778
10
14.7997897
20
112.3367271
11
15.0000897
21
112.3367271
0
LINE
8
DEFAULT_255_2_778
10
15.0000897
20
112.3367271
11
15.5461897
21
112.3367271
0
LINE
8
DEFAULT_255_2_778
10
15.5461897
20
112.3367271
11
15.5461897
21
112.5082271
0
LINE
8
DEFAULT_255_2_778
10
15.5461897
20
112.5082271
11
15.0000897
21
112.5082271
0
LINE
8
DEFAULT_255_2_778
10
15.0000897
20
112.5082271
11
15.0000897
21
112.7720271
0
LINE
8
DEFAULT_255_2_778
10
15.0000897
20
112.7720271
11
15.0000897
21
112.7723271
0
LINE
8
DEFAULT_255_2_778
10
17.4064897
20
114.0811271
11
17.1690897
21
114.0811271
0
LINE
8
DEFAULT_255_2_778
10
17.1690897
20
114.0811271
11
17.1690897
21
114.3227271
0
LINE
8
DEFAULT_255_2_778
10
17.1690897
20
114.3227271
11
17.4175897
21
114.3227271
0
LINE
8
DEFAULT_255_2_778
10
17.4175897
20
114.3227271
11
17.4175897
21
114.3230271
0
LINE
8
DEFAULT_255_2_778
10
17.4027897
20
113.6403271
11
17.1690897
21
113.6403271
0
LINE
8
DEFAULT_255_2_778
10
17.1690897
20
113.6403271
11
17.1690897
21
113.9274271
0
LINE
8
DEFAULT_255_2_778
10
17.1690897
20
113.9274271
11
17.4003897
21
113.9274271
0
LINE
8
DEFAULT_255_2_778
10
17.1767897
20
113.4911271
11
17.4622897
21
113.4911271
0
LINE
8
DEFAULT_255_2_778
10
17.4172897
20
114.4801271
11
17.1770897
21
114.4801271
0
LINE
8
DEFAULT_255_2_778
10
17.1770897
20
114.4801271
11
16.9722897
21
114.4801271
0
LINE
8
DEFAULT_255_2_778
10
16.9722897
20
114.4801271
11
16.9711897
21
114.4801271
0
LINE
8
DEFAULT_255_2_778
10
16.9711897
20
114.4801271
11
16.9711897
21
113.4911271
0
LINE
8
DEFAULT_255_2_778
10
16.9711897
20
113.4911271
11
16.9722897
21
113.4911271
0
LINE
8
DEFAULT_255_2_778
10
16.9722897
20
113.4911271
11
17.1770897
21
113.4911271
0
LINE
8
DEFAULT_255_2_778
10
17.1770897
20
113.4911271
11
17.1767897
21
113.4911271
0
LINE
8
DEFAULT_255_2_778
10
17.3368897
20
112.8868271
11
17.3368897
21
113.1562271
0
LINE
8
DEFAULT_255_2_778
10
17.3368897
20
113.1562271
11
17.5781897
21
113.1562271
0
LINE
8
DEFAULT_255_2_778
10
17.5842897
20
112.8871271
11
17.3370897
21
112.8871271
0
LINE
8
DEFAULT_255_2_778
10
17.3370897
20
112.8871271
11
17.3368897
21
112.8868271
0
LINE
8
DEFAULT_255_2_778
10
17.5879897
20
113.3273271
11
17.3368897
21
113.3273271
0
LINE
8
DEFAULT_255_2_778
10
17.3368897
20
113.3273271
11
17.1383897
21
113.3273271
0
LINE
8
DEFAULT_255_2_778
10
17.1383897
20
113.3273271
11
17.1362897
21
113.3273271
0
LINE
8
DEFAULT_255_2_778
10
17.1362897
20
113.3273271
11
17.1362897
21
112.3381271
0
LINE
8
DEFAULT_255_2_778
10
17.1362897
20
112.3381271
11
17.3368897
21
112.3381271
0
LINE
8
DEFAULT_255_2_778
10
17.3368897
20
112.3381271
11
17.3368897
21
112.7278271
0
LINE
8
DEFAULT_255_2_778
10
17.3368897
20
112.7278271
11
17.5069897
21
112.7278271
0
LINE
8
DEFAULT_255_2_778
10
17.7162897
20
112.3381271
11
17.9175897
21
112.3381271
0
LINE
8
DEFAULT_255_2_778
10
14.2763897
20
113.3263271
11
14.0760897
21
113.3263271
0
LINE
8
DEFAULT_255_2_778
10
14.0760897
20
113.3263271
11
14.0760897
21
112.5085271
0
LINE
8
DEFAULT_255_2_778
10
14.0760897
20
112.5085271
11
14.0760897
21
112.3370271
0
LINE
8
DEFAULT_255_2_778
10
14.0760897
20
112.3370271
11
14.2763897
21
112.3370271
0
LINE
8
DEFAULT_255_2_778
10
14.2763897
20
112.3370271
11
14.7428897
21
112.3370271
0
LINE
8
DEFAULT_255_2_778
10
14.7428897
20
112.3370271
11
14.7428897
21
112.5085271
0
LINE
8
DEFAULT_255_2_778
10
14.7428897
20
112.5085271
11
14.2763897
21
112.5085271
0
LINE
8
DEFAULT_255_2_778
10
14.2763897
20
112.5085271
11
14.2763897
21
113.3263271
0
LINE
8
DEFAULT_255_2_778
10
14.2763897
20
113.3263271
11
14.2763897
21
113.3263271
0
ARC
8
DEFAULT_255_2_778
10
15.4584271
20
112.9521969
40
0.9681224
50
72.4822103
51
81.3184214
0
ARC
8
DEFAULT_255_2_778
10
15.7160297
20
113.7288918
40
0.1503783
50
28.8883513
51
77.0092434
0
ARC
8
DEFAULT_255_2_778
10
15.7432379
20
113.7578196
40
0.113238
50
358.9917455
51
22.7117017
0
ARC
8
DEFAULT_255_2_778
10
15.7394861
20
113.7619918
40
0.1171346
50
289.2958104
51
356.9831562
0
ARC
8
DEFAULT_255_2_778
10
15.6668261
20
113.9194882
40
0.2902651
50
268.4665462
51
292.5613311
0
ARC
8
DEFAULT_255_2_778
10
15.6496856
20
113.8604179
40
0.2312808
50
236.4956947
51
272.3225735
0
ARC
8
DEFAULT_255_2_778
10
15.6106646
20
113.7921839
40
0.1529307
50
178.9722202
51
234.5742435
0
ARC
8
DEFAULT_255_2_778
10
15.5656113
20
113.7826079
40
0.3002058
50
177.6481608
51
245.5596397
0
ARC
8
DEFAULT_255_2_778
10
15.6409971
20
113.9548561
40
0.488217
50
245.8690375
51
267.169035
0
ARC
8
DEFAULT_255_2_778
10
15.6671503
20
114.2058916
40
0.7403648
50
266.1069867
51
270.0547972
0
ARC
8
DEFAULT_255_2_778
10
15.6772894
20
114.0371135
40
0.5716642
50
269.0547216
51
287.7147747
0
ARC
8
DEFAULT_255_2_778
10
15.7598889
20
113.7914091
40
0.3125017
50
286.995984
51
325.1221533
0
ARC
8
DEFAULT_255_2_778
10
15.7678294
20
113.774861
40
0.2966627
50
326.8673922
51
0.8625726
0
ARC
8
DEFAULT_255_2_778
10
15.7898286
20
113.7834409
40
0.2746606
50
359.1417932
51
76.9739731
0
ARC
8
DEFAULT_255_2_778
10
15.6705461
20
113.5025719
40
0.577616
50
71.7185727
51
79.1315439
0
ARC
8
DEFAULT_255_2_778
10
14.2492968
20
106.148967
40
8.0673056
50
79.0662148
51
79.6216572
0
ARC
8
DEFAULT_255_2_778
10
16.4356585
20
118.0266581
40
4.0099443
50
259.1227669
51
259.4665204
0
ARC
8
DEFAULT_255_2_778
10
15.7836732
20
114.7316142
40
0.6513291
50
249.9945768
51
260.7485895
0
ARC
8
DEFAULT_255_2_778
10
15.5880401
20
114.2205999
40
0.1046098
50
178.6705173
51
254.9333545
0
ARC
8
DEFAULT_255_2_778
10
15.6049957
20
114.2171688
40
0.1216785
50
93.288632
51
177.2403935
0
ARC
8
DEFAULT_255_2_778
10
15.6585677
20
114.0301752
40
0.3143588
50
89.6189463
51
101.1057977
0
ARC
8
DEFAULT_255_2_778
10
15.6722733
20
114.142016
40
0.2028439
50
53.5634072
51
93.2825843
0
ARC
8
DEFAULT_255_2_778
10
15.7018505
20
114.2002144
40
0.1388739
50
357.1985816
51
49.1152298
0
ARC
8
DEFAULT_255_2_778
10
15.7254907
20
114.1934274
40
0.3087677
50
359.9999335
51
2.3703878
0
ARC
8
DEFAULT_255_2_778
10
15.7353555
20
114.1949337
40
0.298851
50
2.1600756
51
60.1092229
0
ARC
8
DEFAULT_255_2_778
10
15.6766212
20
114.0883133
40
0.4205645
50
60.4106856
51
86.1444419
0
ARC
8
DEFAULT_255_2_778
10
15.6536151
20
113.9116228
40
0.5985046
50
85.0843314
51
90.0628677
0
ARC
8
DEFAULT_255_2_778
10
15.6529718
20
114.0350466
40
0.4750804
50
90.001616
51
92.2300394
0
ARC
8
DEFAULT_255_2_778
10
15.6281193
20
114.140187
40
0.3696351
50
89.0131319
51
149.6364996
0
ARC
8
DEFAULT_255_2_778
10
15.5505461
20
114.2124055
40
0.2671974
50
154.5962367
51
180.4885883
0
ARC
8
DEFAULT_255_2_778
10
15.5651524
20
114.210884
40
0.281795
50
180.1539064
51
255.1120325
0
ARC
8
DEFAULT_255_2_778
10
15.7094242
20
114.533732
40
0.6333958
50
249.9962237
51
260.4976723
0
ARC
8
DEFAULT_255_2_778
10
18.2470963
20
112.9533351
40
0.967002
50
72.4685023
51
81.3064395
0
ARC
8
DEFAULT_255_2_778
10
18.5045397
20
113.728927
40
0.1503535
50
28.8782248
51
76.9904304
0
ARC
8
DEFAULT_255_2_778
10
18.5317197
20
113.7578189
40
0.1132561
50
358.9922779
51
22.7082666
0
ARC
8
DEFAULT_255_2_778
10
18.5280402
20
113.7619088
40
0.1170763
50
289.2761556
51
357.0223042
0
ARC
8
DEFAULT_255_2_778
10
18.4553612
20
113.9197836
40
0.2905613
50
268.4611814
51
292.5289055
0
ARC
8
DEFAULT_255_2_778
10
18.4381801
20
113.8613175
40
0.2321799
50
236.6698634
51
272.3149402
0
ARC
8
DEFAULT_255_2_778
10
18.39878
20
113.7921762
40
0.1528464
50
178.9687581
51
234.7686008
0
ARC
8
DEFAULT_255_2_778
10
18.3540113
20
113.7826079
40
0.3002058
50
177.6481608
51
245.5596397
0
ARC
8
DEFAULT_255_2_778
10
18.4293971
20
113.9548561
40
0.488217
50
245.8690375
51
267.169035
0
ARC
8
DEFAULT_255_2_778
10
18.4555503
20
114.2058916
40
0.7403648
50
266.1069867
51
270.0547972
0
ARC
8
DEFAULT_255_2_778
10
18.4656836
20
114.0377451
40
0.5722957
50
269.0563423
51
287.7048702
0
ARC
8
DEFAULT_255_2_778
10
18.548344
20
113.7917682
40
0.312856
50
286.9832601
51
325.0871916
0
ARC
8
DEFAULT_255_2_778
10
18.5567708
20
113.7748856
40
0.2964208
50
326.8311942
51
0.8585267
0
ARC
8
DEFAULT_255_2_778
10
18.5785756
20
113.7835282
40
0.2746149
50
359.1234265
51
76.9343785
0
ARC
8
DEFAULT_255_2_778
10
18.4596421
20
113.5036965
40
0.5764934
50
71.6999697
51
79.1198353
0
ARC
8
DEFAULT_255_2_778
10
17.0173657
20
106.0269392
40
8.1910887
50
79.0843627
51
79.6321368
0
ARC
8
DEFAULT_255_2_778
10
19.2200266
20
118.0064177
40
3.9892176
50
259.1314419
51
259.4772924
0
ARC
8
DEFAULT_255_2_778
10
18.5723251
20
114.7310131
40
0.6507003
50
249.9919323
51
260.7592458
0
ARC
8
DEFAULT_255_2_778
10
18.376901
20
114.2205546
40
0.1045718
50
178.6452075
51
254.9151907
0
ARC
8
DEFAULT_255_2_778
10
18.3939581
20
114.2171016
40
0.121744
50
93.2745253
51
177.21023
0
ARC
8
DEFAULT_255_2_778
10
18.4475726
20
114.0300052
40
0.3145287
50
89.6200387
51
101.1027534
0
ARC
8
DEFAULT_255_2_778
10
18.4613489
20
114.1433453
40
0.2015212
50
53.1490002
51
93.3256649
0
ARC
8
DEFAULT_255_2_778
10
18.4902753
20
114.2001519
40
0.1391457
50
357.2298288
51
48.6469881
0
ARC
8
DEFAULT_255_2_778
10
18.5137232
20
114.1934226
40
0.3092351
50
0.0008291
51
2.3676985
0
ARC
8
DEFAULT_255_2_778
10
18.5240744
20
114.1949868
40
0.2988304
50
2.1500394
51
60.0956838
0
ARC
8
DEFAULT_255_2_778
10
18.4654399
20
114.0884909
40
0.4203859
50
60.40452
51
86.1455285
0
ARC
8
DEFAULT_255_2_778
10
18.4424157
20
113.9116686
40
0.5984588
50
85.0841409
51
90.0629301
0
ARC
8
DEFAULT_255_2_778
10
18.4417778
20
114.0346392
40
0.4754878
50
90.0023409
51
92.3231329
0
ARC
8
DEFAULT_255_2_778
10
18.4167555
20
114.1399604
40
0.3698206
50
89.1093915
51
149.6400816
0
ARC
8
DEFAULT_255_2_778
10
18.338761
20
114.2123917
40
0.2669122
50
154.6001925
51
180.486137
0
ARC
8
DEFAULT_255_2_778
10
18.3537607
20
114.2110152
40
0.2819037
50
180.1805176
51
255.132702
0
ARC
8
DEFAULT_255_2_778
10
18.4982264
20
114.5342784
40
0.6339516
50
250.0026216
51
260.4967164
0
ARC
8
DEFAULT_255_2_778
10
16.008917
20
112.7414283
40
0.2519711
50
190.2626864
51
267.3480013
0
ARC
8
DEFAULT_255_2_778
10
16.2443543
20
112.8327548
40
0.5022041
50
179.6723028
51
195.7380858
0
ARC
8
DEFAULT_255_2_778
10
16.1790511
20
112.8482671
40
0.4370755
50
148.7005643
51
181.6572045
0
ARC
8
DEFAULT_255_2_778
10
15.9957576
20
112.9583723
40
0.2232598
50
89.6148479
51
148.4074796
0
ARC
8
DEFAULT_255_2_778
10
16.0060936
20
112.980449
40
0.201372
50
41.9769772
51
92.5146611
0
ARC
8
DEFAULT_255_2_778
10
15.9522078
20
112.9427523
40
0.2667646
50
15.1848537
51
40.2549591
0
ARC
8
DEFAULT_255_2_778
10
16.028123
20
112.9530326
40
0.3935735
50
8.7091682
51
82.0550801
0
ARC
8
DEFAULT_255_2_778
10
15.9931241
20
112.8065871
40
0.543642
50
80.5350289
51
90.1544743
0
ARC
8
DEFAULT_255_2_778
10
15.9818804
20
112.8952192
40
0.4551129
50
88.7689246
51
119.6437418
0
ARC
8
DEFAULT_255_2_778
10
16.0077717
20
112.8989647
40
0.4653013
50
122.644121
51
173.3997839
0
ARC
8
DEFAULT_255_2_778
10
16.2711934
20
112.8346568
40
0.7351371
50
170.7798304
51
180.1348114
0
ARC
8
DEFAULT_255_2_778
10
16.1377257
20
112.8192615
40
0.6018225
50
178.6988735
51
210.5289552
0
ARC
8
DEFAULT_255_2_778
10
15.970325
20
112.7284953
40
0.4115783
50
211.4828222
51
265.8686737
0
ARC
8
DEFAULT_255_2_778
10
15.9909864
20
112.8532011
40
0.5375742
50
264.6297133
51
270.0503073
0
ARC
8
DEFAULT_255_2_778
10
16.0020995
20
112.7850749
40
0.4695684
50
268.7014824
51
300.1403067
0
ARC
8
DEFAULT_255_2_778
10
16.0350333
20
112.7066852
40
0.385394
50
301.7580058
51
353.77968
0
ARC
8
DEFAULT_255_2_778
10
16.0012256
20
112.7010219
40
0.2113379
50
268.8430278
51
350.1661143
0
ARC
8
DEFAULT_255_2_778
10
18.6896799
20
112.7413824
40
0.2519281
50
190.2538303
51
267.3332171
0
ARC
8
DEFAULT_255_2_778
10
18.9252249
20
112.8327581
40
0.5022746
50
179.672724
51
195.7362088
0
ARC
8
DEFAULT_255_2_778
10
18.8600432
20
112.8482917
40
0.4372682
50
148.7196987
51
181.6596982
0
ARC
8
DEFAULT_255_2_778
10
18.676443
20
112.9584906
40
0.2231415
50
89.6108896
51
148.4244661
0
ARC
8
DEFAULT_255_2_778
10
18.686876
20
112.980467
40
0.2013576
50
42.5913083
51
92.5383066
0
ARC
8
DEFAULT_255_2_778
10
18.6345542
20
112.9440973
40
0.2646316
50
15.0085433
51
40.7215892
0
ARC
8
DEFAULT_255_2_778
10
18.708623
20
112.9530326
40
0.3935735
50
8.7091682
51
82.0550801
0
ARC
8
DEFAULT_255_2_778
10
18.6736241
20
112.8065871
40
0.543642
50
80.5350289
51
90.1544743
0
ARC
8
DEFAULT_255_2_778
10
18.6623804
20
112.8952192
40
0.4551129
50
88.7689246
51
119.6437418
0
ARC
8
DEFAULT_255_2_778
10
18.6882717
20
112.8989647
40
0.4653013
50
122.644121
51
173.3997839
0
ARC
8
DEFAULT_255_2_778
10
18.9516934
20
112.8346568
40
0.7351371
50
170.7798304
51
180.1348114
0
ARC
8
DEFAULT_255_2_778
10
18.8177822
20
112.81932
40
0.6013778
50
178.7034849
51
210.5604279
0
ARC
8
DEFAULT_255_2_778
10
18.6511312
20
112.7288377
40
0.4119265
50
211.5090145
51
265.8592607
0
ARC
8
DEFAULT_255_2_778
10
18.6716883
20
112.8529521
40
0.5373252
50
264.628472
51
270.0501277
0
ARC
8
DEFAULT_255_2_778
10
18.682837
20
112.7848685
40
0.4693629
50
268.6963312
51
300.2191972
0
ARC
8
DEFAULT_255_2_778
10
18.7155684
20
112.7069124
40
0.3856821
50
301.8465101
51
353.7503927
0
ARC
8
DEFAULT_255_2_778
10
18.6820648
20
112.7008604
40
0.2111733
50
268.8857714
51
350.2028431
0
LINE
8
DEFAULT_255_2_778
10
15.4577584
20
113.7949271
11
15.2656584
21
113.7949271
0
LINE
8
DEFAULT_255_2_778
10
15.8405584
20
114.1934271
11
16.0342584
21
114.1934271
0
LINE
8
DEFAULT_255_2_778
10
18.2459584
20
113.7949271
11
18.0540584
21
113.7949271
0
LINE
8
DEFAULT_255_2_778
10
18.6292584
20
114.1934271
11
18.8229584
21
114.1934271
0
LINE
8
DEFAULT_255_2_778
10
16.2096584
20
113.0126271
11
16.4171584
21
113.0126271
0
LINE
8
DEFAULT_255_2_778
10
16.4181584
20
112.6649271
11
16.2094584
21
112.6649271
0
LINE
8
DEFAULT_255_2_778
10
18.8901584
20
113.0126271
11
19.0976584
21
113.0126271
0
LINE
8
DEFAULT_255_2_778
10
19.0989584
20
112.6649271
11
18.8901584
21
112.6649271
0
LINE
8
DEFAULT_255_2_778
10
9.3932417
20
100.409333
11
10.7161417
21
100.409333
0
LINE
8
DEFAULT_255_2_778
10
10.7161417
20
100.409333
11
10.7161417
21
79.242633
0
LINE
8
DEFAULT_255_2_778
10
9.3932834
20
79.2427333
11
12.0390834
21
79.2427333
0
LINE
8
DEFAULT_255_2_778
10
12.0390834
20
79.2427333
11
12.0390834
21
73.9510333
0
LINE
8
DEFAULT_255_2_778
10
12.0390834
20
73.9510333
11
9.3932834
21
73.9510333
0
LINE
8
DEFAULT_255_2_778
10
9.3932834
20
73.9510333
11
9.3932834
21
79.2427333
0
ARC
8
DEFAULT_255_2_778_1
10
13.1928591
20
74.053477
40
4.816461
50
120.9442904
51
122.351755
0
ARC
8
DEFAULT_255_2_778_1
10
12.7462523
20
74.7571039
40
3.9830657
50
122.3407904
51
124.1946752
0
ARC
8
DEFAULT_255_2_778_1
10
12.3063464
20
75.4036306
40
3.2010724
50
124.1855758
51
126.4338849
0
ARC
8
DEFAULT_255_2_778_1
10
11.9204129
20
75.9263611
40
2.5513094
50
126.4326926
51
128.8877368
0
ARC
8
DEFAULT_255_2_778_1
10
11.5855968
20
76.3407658
40
2.0185498
50
128.8749205
51
131.8726567
0
ARC
8
DEFAULT_255_2_778_1
10
11.2884677
20
76.6717854
40
1.5737356
50
131.8616166
51
135.4168838
0
ARC
8
DEFAULT_255_2_778_1
10
11.025668
20
76.9299765
40
1.2053256
50
135.3893975
51
139.9687014
0
ARC
8
DEFAULT_255_2_778_1
10
10.7927889
20
77.1248102
40
0.9016937
50
139.9301659
51
145.9260426
0
ARC
8
DEFAULT_255_2_778_1
10
10.596654
20
77.2568104
40
0.6652776
50
145.8787362
51
153.8146208
0
ARC
8
DEFAULT_255_2_778_1
10
10.4445553
20
77.3311797
40
0.4959714
50
153.770634
51
164.3484794
0
ARC
8
DEFAULT_255_2_778_1
10
10.3432387
20
77.3593786
40
0.3908039
50
164.3220276
51
179.8083066
0
ARC
8
DEFAULT_255_2_778_1
10
10.3642789
20
77.367515
40
0.4118985
50
180.9499449
51
213.8111542
0
ARC
8
DEFAULT_255_2_778_1
10
10.6401828
20
77.5370896
40
0.73561
50
212.8271214
51
224.258472
0
ARC
8
DEFAULT_255_2_778_1
10
11.0230335
20
77.9064236
40
1.267567
50
224.1376218
51
231.4508261
0
ARC
8
DEFAULT_255_2_778_1
10
11.6657195
20
78.7094168
40
2.2960809
50
231.3955893
51
236.1256478
0
ARC
8
DEFAULT_255_2_778_1
10
13.4980223
20
81.4559293
40
5.5976905
50
236.2233172
51
239.1314682
0
ARC
8
DEFAULT_255_2_778_1
10
25.447927
20
101.1836568
40
28.6623793
50
238.8606853
51
239.0711101
0
ARC
8
DEFAULT_255_2_778_1
10
6.2757281
20
69.0865653
40
8.7248518
50
57.2420924
51
59.4062964
0
ARC
8
DEFAULT_255_2_778_1
10
9.5034241
20
74.1175102
40
2.747542
50
52.8289294
51
57.079028
0
ARC
8
DEFAULT_255_2_778_1
10
10.2780783
20
75.1378488
40
1.466457
50
46.3041868
51
52.8596521
0
ARC
8
DEFAULT_255_2_778_1
10
10.7103073
20
75.5879842
40
0.8424061
50
36.2174211
51
46.4090895
0
ARC
8
DEFAULT_255_2_778_1
10
10.9948088
20
75.7928128
40
0.4918609
50
17.400375
51
36.5489745
0
ARC
8
DEFAULT_255_2_778_1
10
11.1088994
20
75.8326754
40
0.3710912
50
0.0676858
51
16.7951297
0
ARC
8
DEFAULT_255_2_778_1
10
11.0878613
20
75.8345428
40
0.3921317
50
343.8035191
51
359.7912046
0
ARC
8
DEFAULT_255_2_778_1
10
10.9815912
20
75.8650167
40
0.5026844
50
333.2506233
51
343.8465691
0
ARC
8
DEFAULT_255_2_778_1
10
10.8277757
20
75.9417313
40
0.6745679
50
325.6600948
51
333.3122657
0
ARC
8
DEFAULT_255_2_778_1
10
10.6323344
20
76.0745296
40
0.9108568
50
319.7560915
51
325.6976089
0
ARC
8
DEFAULT_255_2_778_1
10
10.404199
20
76.2663002
40
1.2088854
50
315.4577584
51
319.8037947
0
ARC
8
DEFAULT_255_2_778_1
10
10.1408127
20
76.5251507
40
1.5781764
50
311.7298824
51
315.4670864
0
ARC
8
DEFAULT_255_2_778_1
10
9.8317879
20
76.8707074
40
2.0417554
50
308.723055
51
311.7470879
0
ARC
8
DEFAULT_255_2_778_1
10
9.477589
20
77.3119492
40
2.6075745
50
306.1165163
51
308.7300151
0
ARC
8
DEFAULT_255_2_778_1
10
9.0746091
20
77.8632523
40
3.2904564
50
303.9559446
51
306.1266333
0
ARC
8
DEFAULT_255_2_778_1
10
8.6630432
20
78.472515
40
4.0257023
50
302.3733397
51
303.9712246
0
ARC
8
DEFAULT_255_2_778_1
10
8.2434347
20
79.1340058
40
4.8090549
50
300.9434827
51
302.3758078
0
LINE
8
DEFAULT_255_2_778
10
10.7161335
20
73.9510993
11
10.7161335
21
52.7843993
0
LINE
8
DEFAULT_255_2_778
10
10.7161335
20
52.7843993
11
9.3932335
21
52.7843993
0
LINE
8
DEFAULT_255_2_778
10
19.9765335
20
100.4093993
11
18.6536335
21
100.4093993
0
LINE
8
DEFAULT_255_2_778
10
18.6536335
20
100.4093993
11
18.6536335
21
95.1176993
0
LINE
8
DEFAULT_255_2_778
10
17.3307834
20
95.1177333
11
19.9765834
21
95.1177333
0
LINE
8
DEFAULT_255_2_778
10
19.9765834
20
95.1177333
11
19.9765834
21
89.8260333
0
LINE
8
DEFAULT_255_2_778
10
19.9765834
20
89.8260333
11
17.3307834
21
89.8260333
0
LINE
8
DEFAULT_255_2_778
10
17.3307834
20
89.8260333
11
17.3307834
21
95.1177333
0
ARC
8
DEFAULT_255_2_778_1
10
21.1303591
20
89.928477
40
4.816461
50
120.9442904
51
122.351755
0
ARC
8
DEFAULT_255_2_778_1
10
20.6837523
20
90.6321039
40
3.9830657
50
122.3407904
51
124.1946752
0
ARC
8
DEFAULT_255_2_778_1
10
20.2438464
20
91.2786306
40
3.2010724
50
124.1855758
51
126.4338849
0
ARC
8
DEFAULT_255_2_778_1
10
19.8579129
20
91.8013611
40
2.5513094
50
126.4326926
51
128.8877368
0
ARC
8
DEFAULT_255_2_778_1
10
19.5230968
20
92.2157658
40
2.0185498
50
128.8749205
51
131.8726567
0
ARC
8
DEFAULT_255_2_778_1
10
19.2259677
20
92.5467854
40
1.5737356
50
131.8616166
51
135.4168838
0
ARC
8
DEFAULT_255_2_778_1
10
18.963168
20
92.8049765
40
1.2053256
50
135.3893975
51
139.9687014
0
ARC
8
DEFAULT_255_2_778_1
10
18.7302889
20
92.9998102
40
0.9016937
50
139.9301659
51
145.9260426
0
ARC
8
DEFAULT_255_2_778_1
10
18.534154
20
93.1318104
40
0.6652776
50
145.8787362
51
153.8146208
0
ARC
8
DEFAULT_255_2_778_1
10
18.3820553
20
93.2061797
40
0.4959714
50
153.770634
51
164.3484794
0
ARC
8
DEFAULT_255_2_778_1
10
18.2807387
20
93.2343786
40
0.3908039
50
164.3220276
51
179.8083066
0
ARC
8
DEFAULT_255_2_778_1
10
18.3017789
20
93.242515
40
0.4118985
50
180.9499449
51
213.8111542
0
ARC
8
DEFAULT_255_2_778_1
10
18.5776828
20
93.4120896
40
0.73561
50
212.8271214
51
224.258472
0
ARC
8
DEFAULT_255_2_778_1
10
18.9605335
20
93.7814236
40
1.267567
50
224.1376218
51
231.4508261
0
ARC
8
DEFAULT_255_2_778_1
10
19.6032195
20
94.5844168
40
2.2960809
50
231.3955893
51
236.1256478
0
ARC
8
DEFAULT_255_2_778_1
10
21.4355223
20
97.3309293
40
5.5976905
50
236.2233172
51
239.1314682
0
ARC
8
DEFAULT_255_2_778_1
10
33.385427
20
117.0586568
40
28.6623793
50
238.8606853
51
239.0711101
0
ARC
8
DEFAULT_255_2_778_1
10
14.2132281
20
84.9615653
40
8.7248518
50
57.2420924
51
59.4062964
0
ARC
8
DEFAULT_255_2_778_1
10
17.4409241
20
89.9925102
40
2.747542
50
52.8289294
51
57.079028
0
ARC
8
DEFAULT_255_2_778_1
10
18.2155783
20
91.0128488
40
1.466457
50
46.3041868
51
52.8596521
0
ARC
8
DEFAULT_255_2_778_1
10
18.6478073
20
91.4629842
40
0.8424061
50
36.2174211
51
46.4090895
0
ARC
8
DEFAULT_255_2_778_1
10
18.9323088
20
91.6678128
40
0.4918609
50
17.400375
51
36.5489745
0
ARC
8
DEFAULT_255_2_778_1
10
19.0463994
20
91.7076754
40
0.3710912
50
0.0676858
51
16.7951297
0
ARC
8
DEFAULT_255_2_778_1
10
19.0253613
20
91.7095428
40
0.3921317
50
343.8035191
51
359.7912046
0
ARC
8
DEFAULT_255_2_778_1
10
18.9190912
20
91.7400167
40
0.5026844
50
333.2506233
51
343.8465691
0
ARC
8
DEFAULT_255_2_778_1
10
18.7652757
20
91.8167313
40
0.6745679
50
325.6600948
51
333.3122657
0
ARC
8
DEFAULT_255_2_778_1
10
18.5698344
20
91.9495296
40
0.9108568
50
319.7560915
51
325.6976089
0
ARC
8
DEFAULT_255_2_778_1
10
18.341699
20
92.1413002
40
1.2088854
50
315.4577584
51
319.8037947
0
ARC
8
DEFAULT_255_2_778_1
10
18.0783127
20
92.4001507
40
1.5781764
50
311.7298824
51
315.4670864
0
ARC
8
DEFAULT_255_2_778_1
10
17.7692879
20
92.7457074
40
2.0417554
50
308.723055
51
311.7470879
0
ARC
8
DEFAULT_255_2_778_1
10
17.415089
20
93.1869492
40
2.6075745
50
306.1165163
51
308.7300151
0
ARC
8
DEFAULT_255_2_778_1
10
17.0121091
20
93.7382523
40
3.2904564
50
303.9559446
51
306.1266333
0
ARC
8
DEFAULT_255_2_778_1
10
16.6005432
20
94.347515
40
4.0257023
50
302.3733397
51
303.9712246
0
ARC
8
DEFAULT_255_2_778_1
10
16.1809347
20
95.0090058
40
4.8090549
50
300.9434827
51
302.3758078
0
LINE
8
DEFAULT_255_2_778
10
18.6536417
20
89.8260333
11
18.6536417
21
84.5343333
0
LINE
8
DEFAULT_255_2_778
10
18.6536417
20
84.5343333
11
19.9765417
21
84.5343333
0
LINE
8
DEFAULT_255_1_234
10
4.8794119
20
107.9491792
11
4.8794119
21
107.8279
0
LINE
8
DEFAULT_255_1_234
10
4.8794119
20
107.8279
11
4.113184
21
107.8279
0
LINE
8
DEFAULT_255_1_234
10
4.113184
20
107.8279
11
4.113184
21
107.9347221
0
LINE
8
DEFAULT_255_1_234
10
4.113184
20
107.9347221
11
4.5179836
21
108.3844995
0
LINE
8
DEFAULT_255_1_234
10
4.2392823
20
108.6527595
11
4.0906952
21
108.6527595
0
LINE
8
DEFAULT_255_1_234
10
4.6055296
20
108.2889218
11
4.2922918
21
107.9491792
0
LINE
8
DEFAULT_255_1_234
10
4.2922918
20
107.9491792
11
4.8794119
21
107.9491792
0
ARC
8
DEFAULT_255_1_234
10
3.168967
20
109.5774527
40
1.8008286
50
318.5132453
51
320.7828378
0
ARC
8
DEFAULT_255_1_234
10
3.6976644
20
109.1471426
40
1.1191493
50
320.7372736
51
323.9737074
0
ARC
8
DEFAULT_255_1_234
10
4.0896501
20
108.8631361
40
0.6350923
50
323.8961724
51
328.6421089
0
ARC
8
DEFAULT_255_1_234
10
4.2943096
20
108.7369031
40
0.3946393
50
328.8299013
51
331.789948
0
ARC
8
DEFAULT_255_1_234
10
4.3940274
20
108.6854509
40
0.2824501
50
331.4255242
51
352.9364833
0
ARC
8
DEFAULT_255_1_234
10
4.4076775
20
108.6823976
40
0.2685315
50
353.2248685
51
0.0169286
0
ARC
8
DEFAULT_255_1_234
10
4.4286652
20
108.684695
40
0.2475536
50
359.4866256
51
15.9339782
0
ARC
8
DEFAULT_255_1_234
10
4.4793637
20
108.6983286
40
0.1950618
50
16.1714718
51
43.5284424
0
ARC
8
DEFAULT_255_1_234
10
4.4870946
20
108.7060573
40
0.184134
50
43.4415429
51
83.1661404
0
ARC
8
DEFAULT_255_1_234
10
4.4736864
20
108.6323771
40
0.258926
50
82.160215
51
90.1505798
0
ARC
8
DEFAULT_255_1_234
10
4.4705291
20
108.5786865
40
0.3126255
50
89.5460705
51
102.5418777
0
ARC
8
DEFAULT_255_1_234
10
4.4462377
20
108.6817665
40
0.2067346
50
102.1739365
51
129.2061916
0
ARC
8
DEFAULT_255_1_234
10
4.4383449
20
108.6942094
40
0.1921118
50
129.7279328
51
135.7542026
0
ARC
8
DEFAULT_255_1_234
10
4.4504977
20
108.6845045
40
0.2075944
50
136.175737
51
166.3674722
0
ARC
8
DEFAULT_255_1_234
10
4.5511896
20
108.6575182
40
0.3118201
50
165.9092917
51
178.8683903
0
ARC
8
DEFAULT_255_1_234
10
4.6376757
20
108.6528179
40
0.3983935
50
178.438168
51
180.0083905
0
ARC
8
DEFAULT_255_1_234
10
4.4975359
20
108.6567231
40
0.4068601
50
163.2878735
51
180.5581814
0
ARC
8
DEFAULT_255_1_234
10
4.4173621
20
108.678784
40
0.3237344
50
133.454115
51
162.9470031
0
ARC
8
DEFAULT_255_1_234
10
4.4352162
20
108.6598
40
0.349795
50
100.7869394
51
133.4384016
0
ARC
8
DEFAULT_255_1_234
10
4.4699934
20
108.5049319
40
0.5084616
50
89.6605301
51
101.3704185
0
ARC
8
DEFAULT_255_1_234
10
4.4766273
20
108.5110496
40
0.502348
50
78.2171172
51
90.4130393
0
ARC
8
DEFAULT_255_1_234
10
4.5121351
20
108.6734637
40
0.3361092
50
55.9268222
51
78.4888551
0
ARC
8
DEFAULT_255_1_234
10
4.5317791
20
108.7073324
40
0.2970617
50
47.9292255
51
55.4054003
0
ARC
8
DEFAULT_255_1_234
10
4.5419352
20
108.7176502
40
0.2825983
50
4.3347696
51
48.0560701
0
ARC
8
DEFAULT_255_1_234
10
4.4323745
20
108.7006601
40
0.393225
50
359.925209
51
5.5967654
0
ARC
8
DEFAULT_255_1_234
10
4.4752637
20
108.7062816
40
0.3503892
50
337.8914096
51
358.9967724
0
ARC
8
DEFAULT_255_1_234
10
4.2039049
20
108.8109706
40
0.6412172
50
326.9135351
51
338.3505194
0
ARC
8
DEFAULT_255_1_234
10
3.8053353
20
109.0664284
40
1.1146189
50
319.6472867
51
327.095818
0
ARC
8
DEFAULT_255_1_234
10
3.4220356
20
109.3826
40
1.6114559
50
317.2586784
51
319.9046139
0
LINE
8
DEFAULT_255_1_234
10
5.6641127
20
108.9973211
11
5.6641127
21
108.220652
0
LINE
8
DEFAULT_255_1_234
10
5.6641127
20
108.220652
11
5.8263538
21
108.220652
0
LINE
8
DEFAULT_255_1_234
10
5.8263538
20
108.220652
11
5.8263538
21
108.0993728
0
LINE
8
DEFAULT_255_1_234
10
5.8263538
20
108.0993728
11
5.6641127
21
108.0993728
0
LINE
8
DEFAULT_255_1_234
10
5.6641127
20
108.0993728
11
5.6641127
21
107.8279
0
LINE
8
DEFAULT_255_1_234
10
5.6641127
20
107.8279
11
5.5147224
21
107.8279
0
LINE
8
DEFAULT_255_1_234
10
5.5147224
20
107.8279
11
5.5147224
21
108.0993728
0
LINE
8
DEFAULT_255_1_234
10
5.5147224
20
108.0993728
11
4.9822181
21
108.0993728
0
LINE
8
DEFAULT_255_1_234
10
4.9822181
20
108.0993728
11
4.9822181
21
108.1869187
0
LINE
8
DEFAULT_255_1_234
10
4.9822181
20
108.1869187
11
5.5058875
21
108.9973211
0
LINE
8
DEFAULT_255_1_234
10
5.5058875
20
108.9973211
11
5.6641127
21
108.9973211
0
LINE
8
DEFAULT_255_1_234
10
5.4970525
20
108.7619912
11
5.1508846
21
108.220652
0
LINE
8
DEFAULT_255_1_234
10
5.1508846
20
108.220652
11
5.5147224
21
108.220652
0
LINE
8
DEFAULT_255_1_234
10
5.5147224
20
108.220652
11
5.5147224
21
108.7941181
0
LINE
8
DEFAULT_255_1_234
10
5.5147224
20
108.7941181
11
5.4970525
21
108.7619912
0
LINE
8
DEFAULT_255_1_234
10
6.4014263
20
108.7965276
11
6.4014263
21
108.4551788
0
LINE
8
DEFAULT_255_1_234
10
6.4014263
20
108.4551788
11
6.7275148
21
108.4551788
0
LINE
8
DEFAULT_255_1_234
10
6.7275148
20
108.4551788
11
6.7275148
21
108.3146233
0
LINE
8
DEFAULT_255_1_234
10
6.7275148
20
108.3146233
11
6.4014263
21
108.3146233
0
LINE
8
DEFAULT_255_1_234
10
6.4014263
20
108.3146233
11
6.4014263
21
107.9451634
0
LINE
8
DEFAULT_255_1_234
10
6.4014263
20
107.9451634
11
6.2520359
21
107.9451634
0
LINE
8
DEFAULT_255_1_234
10
6.2520359
20
107.9451634
11
6.2520359
21
108.3146233
0
LINE
8
DEFAULT_255_1_234
10
6.2520359
20
108.3146233
11
5.9259474
21
108.3146233
0
LINE
8
DEFAULT_255_1_234
10
5.9259474
20
108.3146233
11
5.9259474
21
108.4551788
0
LINE
8
DEFAULT_255_1_234
10
5.9259474
20
108.4551788
11
6.2520359
21
108.4551788
0
LINE
8
DEFAULT_255_1_234
10
6.2520359
20
108.4551788
11
6.2520359
21
108.7965276
0
LINE
8
DEFAULT_255_1_234
10
6.2520359
20
108.7965276
11
6.4014263
21
108.7965276
0
LINE
8
DEFAULT_255_1_234
10
4.8158628
20
5.8098211
11
4.8158628
21
5.033152
0
LINE
8
DEFAULT_255_1_234
10
4.8158628
20
5.033152
11
4.9781039
21
5.033152
0
LINE
8
DEFAULT_255_1_234
10
4.9781039
20
5.033152
11
4.9781039
21
4.9118728
0
LINE
8
DEFAULT_255_1_234
10
4.9781039
20
4.9118728
11
4.8158628
21
4.9118728
0
LINE
8
DEFAULT_255_1_234
10
4.8158628
20
4.9118728
11
4.8158628
21
4.6404
0
LINE
8
DEFAULT_255_1_234
10
4.8158628
20
4.6404
11
4.6664725
21
4.6404
0
LINE
8
DEFAULT_255_1_234
10
4.6664725
20
4.6404
11
4.6664725
21
4.9118728
0
LINE
8
DEFAULT_255_1_234
10
4.6664725
20
4.9118728
11
4.1339682
21
4.9118728
0
LINE
8
DEFAULT_255_1_234
10
4.1339682
20
4.9118728
11
4.1339682
21
4.9994187
0
LINE
8
DEFAULT_255_1_234
10
4.1339682
20
4.9994187
11
4.6576375
21
5.8098211
0
LINE
8
DEFAULT_255_1_234
10
4.6576375
20
5.8098211
11
4.8158628
21
5.8098211
0
LINE
8
DEFAULT_255_1_234
10
4.6488026
20
5.5744912
11
4.3026347
21
5.033152
0
LINE
8
DEFAULT_255_1_234
10
4.3026347
20
5.033152
11
4.6664725
21
5.033152
0
LINE
8
DEFAULT_255_1_234
10
4.6664725
20
5.033152
11
4.6664725
21
5.6066181
0
LINE
8
DEFAULT_255_1_234
10
4.6664725
20
5.6066181
11
4.6488026
21
5.5744912
0
LINE
8
DEFAULT_255_1_234
10
5.3162401
20
5.8098211
11
5.3162401
21
4.6404
0
LINE
8
DEFAULT_255_1_234
10
5.3162401
20
4.6404
11
5.1620307
21
4.6404
0
LINE
8
DEFAULT_255_1_234
10
5.1620307
20
4.6404
11
5.1620307
21
5.8098211
0
LINE
8
DEFAULT_255_1_234
10
5.1620307
20
5.8098211
11
5.3162401
21
5.8098211
0
LINE
8
DEFAULT_255_1_234
10
6.0005442
20
5.6090276
11
6.0005442
21
5.2676788
0
LINE
8
DEFAULT_255_1_234
10
6.0005442
20
5.2676788
11
6.3266328
21
5.2676788
0
LINE
8
DEFAULT_255_1_234
10
6.3266328
20
5.2676788
11
6.3266328
21
5.1271233
0
LINE
8
DEFAULT_255_1_234
10
6.3266328
20
5.1271233
11
6.0005442
21
5.1271233
0
LINE
8
DEFAULT_255_1_234
10
6.0005442
20
5.1271233
11
6.0005442
21
4.7576634
0
LINE
8
DEFAULT_255_1_234
10
6.0005442
20
4.7576634
11
5.8511539
21
4.7576634
0
LINE
8
DEFAULT_255_1_234
10
5.8511539
20
4.7576634
11
5.8511539
21
5.1271233
0
LINE
8
DEFAULT_255_1_234
10
5.8511539
20
5.1271233
11
5.5250653
21
5.1271233
0
LINE
8
DEFAULT_255_1_234
10
5.5250653
20
5.1271233
11
5.5250653
21
5.2676788
0
LINE
8
DEFAULT_255_1_234
10
5.5250653
20
5.2676788
11
5.8511539
21
5.2676788
0
LINE
8
DEFAULT_255_1_234
10
5.8511539
20
5.2676788
11
5.8511539
21
5.6090276
0
LINE
8
DEFAULT_255_1_234
10
5.8511539
20
5.6090276
11
6.0005442
21
5.6090276
0
LINE
8
DEFAULT_255_1_234
10
4.9101628
20
13.7473211
11
4.9101628
21
12.970652
0
LINE
8
DEFAULT_255_1_234
10
4.9101628
20
12.970652
11
5.0724039
21
12.970652
0
LINE
8
DEFAULT_255_1_234
10
5.0724039
20
12.970652
11
5.0724039
21
12.8493728
0
LINE
8
DEFAULT_255_1_234
10
5.0724039
20
12.8493728
11
4.9101628
21
12.8493728
0
LINE
8
DEFAULT_255_1_234
10
4.9101628
20
12.8493728
11
4.9101628
21
12.5779
0
LINE
8
DEFAULT_255_1_234
10
4.9101628
20
12.5779
11
4.7607725
21
12.5779
0
LINE
8
DEFAULT_255_1_234
10
4.7607725
20
12.5779
11
4.7607725
21
12.8493728
0
LINE
8
DEFAULT_255_1_234
10
4.7607725
20
12.8493728
11
4.2282682
21
12.8493728
0
LINE
8
DEFAULT_255_1_234
10
4.2282682
20
12.8493728
11
4.2282682
21
12.9369187
0
LINE
8
DEFAULT_255_1_234
10
4.2282682
20
12.9369187
11
4.7519375
21
13.7473211
0
LINE
8
DEFAULT_255_1_234
10
4.7519375
20
13.7473211
11
4.9101628
21
13.7473211
0
LINE
8
DEFAULT_255_1_234
10
4.7431026
20
13.5119912
11
4.3969347
21
12.970652
0
LINE
8
DEFAULT_255_1_234
10
4.3969347
20
12.970652
11
4.7607725
21
12.970652
0
LINE
8
DEFAULT_255_1_234
10
4.7607725
20
12.970652
11
4.7607725
21
13.5441181
0
LINE
8
DEFAULT_255_1_234
10
4.7607725
20
13.5441181
11
4.7431026
21
13.5119912
0
LINE
8
DEFAULT_255_1_234
10
5.2997021
20
13.7473211
11
5.6322161
21
12.7827093
0
LINE
8
DEFAULT_255_1_234
10
5.6322161
20
12.7827093
11
5.9663364
21
13.7473211
0
LINE
8
DEFAULT_255_1_234
10
5.9663364
20
13.7473211
11
6.1350029
21
13.7473211
0
LINE
8
DEFAULT_255_1_234
10
6.1350029
20
13.7473211
11
5.701289
21
12.5779
0
LINE
8
DEFAULT_255_1_234
10
5.701289
20
12.5779
11
5.5647495
21
12.5779
0
LINE
8
DEFAULT_255_1_234
10
5.5647495
20
12.5779
11
5.1318388
21
13.7473211
0
LINE
8
DEFAULT_255_1_234
10
5.1318388
20
13.7473211
11
5.2997021
21
13.7473211
0
LINE
8
DEFAULT_255_1_234
10
6.4570756
20
13.7473211
11
6.4570756
21
12.5779
0
LINE
8
DEFAULT_255_1_234
10
6.4570756
20
12.5779
11
6.3028662
21
12.5779
0
LINE
8
DEFAULT_255_1_234
10
6.3028662
20
12.5779
11
6.3028662
21
13.7473211
0
LINE
8
DEFAULT_255_1_234
10
6.3028662
20
13.7473211
11
6.4570756
21
13.7473211
0
LINE
8
DEFAULT_255_1_234
10
7.0249195
20
13.1353026
11
7.0249195
21
13.0140234
0
LINE
8
DEFAULT_255_1_234
10
7.0249195
20
13.0140234
11
6.6329707
21
13.0140234
0
LINE
8
DEFAULT_255_1_234
10
6.6329707
20
13.0140234
11
6.6329707
21
13.1353026
0
LINE
8
DEFAULT_255_1_234
10
6.6329707
20
13.1353026
11
7.0249195
21
13.1353026
0
LINE
8
DEFAULT_255_1_234
10
4.8534628
20
21.6848211
11
4.8534628
21
20.908152
0
LINE
8
DEFAULT_255_1_234
10
4.8534628
20
20.908152
11
5.0157039
21
20.908152
0
LINE
8
DEFAULT_255_1_234
10
5.0157039
20
20.908152
11
5.0157039
21
20.7868728
0
LINE
8
DEFAULT_255_1_234
10
5.0157039
20
20.7868728
11
4.8534628
21
20.7868728
0
LINE
8
DEFAULT_255_1_234
10
4.8534628
20
20.7868728
11
4.8534628
21
20.5154
0
LINE
8
DEFAULT_255_1_234
10
4.8534628
20
20.5154
11
4.7040725
21
20.5154
0
LINE
8
DEFAULT_255_1_234
10
4.7040725
20
20.5154
11
4.7040725
21
20.7868728
0
LINE
8
DEFAULT_255_1_234
10
4.7040725
20
20.7868728
11
4.1715682
21
20.7868728
0
LINE
8
DEFAULT_255_1_234
10
4.1715682
20
20.7868728
11
4.1715682
21
20.8744187
0
LINE
8
DEFAULT_255_1_234
10
4.1715682
20
20.8744187
11
4.6952375
21
21.6848211
0
LINE
8
DEFAULT_255_1_234
10
4.6952375
20
21.6848211
11
4.8534628
21
21.6848211
0
LINE
8
DEFAULT_255_1_234
10
4.6864026
20
21.4494912
11
4.3402347
21
20.908152
0
LINE
8
DEFAULT_255_1_234
10
4.3402347
20
20.908152
11
4.7040725
21
20.908152
0
LINE
8
DEFAULT_255_1_234
10
4.7040725
20
20.908152
11
4.7040725
21
21.4816181
0
LINE
8
DEFAULT_255_1_234
10
4.7040725
20
21.4816181
11
4.6864026
21
21.4494912
0
LINE
8
DEFAULT_255_1_234
10
5.2430021
20
21.6848211
11
5.5755161
21
20.7202093
0
LINE
8
DEFAULT_255_1_234
10
5.5755161
20
20.7202093
11
5.9096364
21
21.6848211
0
LINE
8
DEFAULT_255_1_234
10
5.9096364
20
21.6848211
11
6.0783029
21
21.6848211
0
LINE
8
DEFAULT_255_1_234
10
6.0783029
20
21.6848211
11
5.644589
21
20.5154
0
LINE
8
DEFAULT_255_1_234
10
5.644589
20
20.5154
11
5.5080495
21
20.5154
0
LINE
8
DEFAULT_255_1_234
10
5.5080495
20
20.5154
11
5.0751388
21
21.6848211
0
LINE
8
DEFAULT_255_1_234
10
5.0751388
20
21.6848211
11
5.2430021
21
21.6848211
0
LINE
8
DEFAULT_255_1_234
10
6.6373119
20
21.4840276
11
6.6373119
21
21.1426788
0
LINE
8
DEFAULT_255_1_234
10
6.6373119
20
21.1426788
11
6.9634004
21
21.1426788
0
LINE
8
DEFAULT_255_1_234
10
6.9634004
20
21.1426788
11
6.9634004
21
21.0021233
0
LINE
8
DEFAULT_255_1_234
10
6.9634004
20
21.0021233
11
6.6373119
21
21.0021233
0
LINE
8
DEFAULT_255_1_234
10
6.6373119
20
21.0021233
11
6.6373119
21
20.6326634
0
LINE
8
DEFAULT_255_1_234
10
6.6373119
20
20.6326634
11
6.4879215
21
20.6326634
0
LINE
8
DEFAULT_255_1_234
10
6.4879215
20
20.6326634
11
6.4879215
21
21.0021233
0
LINE
8
DEFAULT_255_1_234
10
6.4879215
20
21.0021233
11
6.161833
21
21.0021233
0
LINE
8
DEFAULT_255_1_234
10
6.161833
20
21.0021233
11
6.161833
21
21.1426788
0
LINE
8
DEFAULT_255_1_234
10
6.161833
20
21.1426788
11
6.4879215
21
21.1426788
0
LINE
8
DEFAULT_255_1_234
10
6.4879215
20
21.1426788
11
6.4879215
21
21.4840276
0
LINE
8
DEFAULT_255_1_234
10
6.4879215
20
21.4840276
11
6.6373119
21
21.4840276
0
LINE
8
DEFAULT_255_1_234
10
4.2988378
20
28.9886169
11
4.2988378
21
29.1098962
0
LINE
8
DEFAULT_255_1_234
10
4.2988378
20
29.1098962
11
4.410479
21
29.1098962
0
LINE
8
DEFAULT_255_1_234
10
4.2201268
20
29.3155087
11
4.0715396
21
29.3155087
0
LINE
8
DEFAULT_255_1_234
10
4.0610983
20
28.7613188
11
4.2104887
21
28.7613188
0
LINE
8
DEFAULT_255_1_234
10
4.410479
20
28.9886169
11
4.2988378
21
28.9886169
0
ARC
8
DEFAULT_255_1_234
10
4.4075656
20
29.4491713
40
0.3392876
50
270.4919872
51
281.8951556
0
ARC
8
DEFAULT_255_1_234
10
4.4316918
20
29.3389702
40
0.2264817
50
281.6691735
51
301.2943132
0
ARC
8
DEFAULT_255_1_234
10
4.4487128
20
29.3078304
40
0.1910381
50
301.7833094
51
311.7545298
0
ARC
8
DEFAULT_255_1_234
10
4.4578704
20
29.2976748
40
0.1773635
50
311.7323931
51
354.2802411
0
ARC
8
DEFAULT_255_1_234
10
4.3852329
20
29.3101722
40
0.2509385
50
353.0937916
51
0.1181479
0
ARC
8
DEFAULT_255_1_234
10
4.3391114
20
29.3149386
40
0.2970898
50
359.1805295
51
15.0453146
0
ARC
8
DEFAULT_255_1_234
10
4.4736951
20
29.3541992
40
0.1569564
50
13.9577229
51
77.6713066
0
ARC
8
DEFAULT_255_1_234
10
4.435048
20
29.2156949
40
0.3006298
50
76.1116566
51
90.7026153
0
ARC
8
DEFAULT_255_1_234
10
4.4291318
20
29.2430545
40
0.2732568
50
89.5324876
51
103.531937
0
ARC
8
DEFAULT_255_1_234
10
4.4090762
20
29.3229884
40
0.1908508
50
103.2931773
51
133.5619022
0
ARC
8
DEFAULT_255_1_234
10
4.4046251
20
29.3289375
40
0.1834746
50
133.8349307
51
173.5344437
0
ARC
8
DEFAULT_255_1_234
10
4.4769294
20
29.3161213
40
0.2568033
50
172.5096846
51
180.1366907
0
ARC
8
DEFAULT_255_1_234
10
4.3818188
20
29.3195622
40
0.3103056
50
155.3484492
51
180.7484736
0
ARC
8
DEFAULT_255_1_234
10
4.3769277
20
29.3166846
40
0.3070957
50
131.5744599
51
154.4798489
0
ARC
8
DEFAULT_255_1_234
10
4.4082424
20
29.285031
40
0.3515643
50
96.9875458
51
131.9690667
0
ARC
8
DEFAULT_255_1_234
10
4.4301904
20
29.1604636
40
0.4779224
50
89.8596053
51
97.7825159
0
ARC
8
DEFAULT_255_1_234
10
4.4349967
20
29.1342616
40
0.5041361
50
78.3655447
51
90.4131539
0
ARC
8
DEFAULT_255_1_234
10
4.4707885
20
29.3001887
40
0.3344039
50
56.6229102
51
78.638727
0
ARC
8
DEFAULT_255_1_234
10
4.4922829
20
29.3377805
40
0.2912001
50
47.0253525
51
56.0854072
0
ARC
8
DEFAULT_255_1_234
10
4.4942609
20
29.3417223
40
0.2869704
50
10.9208013
51
46.7778124
0
ARC
8
DEFAULT_255_1_234
10
4.3578675
20
29.3101857
40
0.426899
50
359.6364486
51
11.6087304
0
ARC
8
DEFAULT_255_1_234
10
4.5413519
20
29.3086752
40
0.243409
50
332.3549906
51
359.7179418
0
ARC
8
DEFAULT_255_1_234
10
4.4763121
20
29.3395142
40
0.3153459
50
325.2333722
51
332.8745602
0
ARC
8
DEFAULT_255_1_234
10
4.4915744
20
29.3288828
40
0.2967456
50
292.9802137
51
325.2392345
0
ARC
8
DEFAULT_255_1_234
10
4.4641118
20
29.3822863
40
0.3566604
50
292.5402179
51
293.6924929
0
ARC
8
DEFAULT_255_1_234
10
4.5033714
20
28.7368091
40
0.3307468
50
57.6435486
51
72.8625112
0
ARC
8
DEFAULT_255_1_234
10
4.5388214
20
28.7942549
40
0.2632492
50
36.7248896
51
57.4697979
0
ARC
8
DEFAULT_255_1_234
10
4.5376847
20
28.795522
40
0.2634081
50
8.0545065
51
36.356114
0
ARC
8
DEFAULT_255_1_234
10
4.4514032
20
28.7800174
40
0.3510261
50
359.8320645
51
8.5869982
0
ARC
8
DEFAULT_255_1_234
10
4.4138808
20
28.7752101
40
0.3885653
50
343.9829931
51
0.5571613
0
ARC
8
DEFAULT_255_1_234
10
4.5025005
20
28.7509438
40
0.2966924
50
311.6359546
51
343.7651759
0
ARC
8
DEFAULT_255_1_234
10
4.4646574
20
28.7936102
40
0.3537231
50
279.7829875
51
311.6255694
0
ARC
8
DEFAULT_255_1_234
10
4.4345351
20
28.937328
40
0.5004971
50
269.7286406
51
280.3856417
0
ARC
8
DEFAULT_255_1_234
10
4.4283423
20
28.9331996
40
0.4963778
50
256.6828919
51
270.4412052
0
ARC
8
DEFAULT_255_1_234
10
4.3944719
20
28.7947394
40
0.3538406
50
229.4223008
51
256.8556159
0
ARC
8
DEFAULT_255_1_234
10
4.3530112
20
28.7480736
40
0.2914296
50
181.818294
51
229.6455059
0
ARC
8
DEFAULT_255_1_234
10
4.4570068
20
28.7611496
40
0.3959084
50
179.9755256
51
183.2323064
0
ARC
8
DEFAULT_255_1_234
10
4.4397814
20
28.7591037
40
0.2293034
50
179.4465117
51
196.2869258
0
ARC
8
DEFAULT_255_1_234
10
4.3910222
20
28.7457651
40
0.1787621
50
196.5661473
51
227.705904
0
ARC
8
DEFAULT_255_1_234
10
4.4074317
20
28.7641155
40
0.2033784
50
227.7652068
51
257.8762805
0
ARC
8
DEFAULT_255_1_234
10
4.4299287
20
28.8584156
40
0.3003081
50
257.4584385
51
270.426602
0
ARC
8
DEFAULT_255_1_234
10
4.4344853
20
28.8873996
40
0.329292
50
269.5962073
51
280.8789248
0
ARC
8
DEFAULT_255_1_234
10
4.4574382
20
28.7727685
40
0.2123908
50
280.6346389
51
299.8595945
0
ARC
8
DEFAULT_255_1_234
10
4.4765289
20
28.7365212
40
0.171457
50
300.3576302
51
314.5517981
0
ARC
8
DEFAULT_255_1_234
10
4.4682349
20
28.7425919
40
0.1816095
50
315.0728369
51
345.0431014
0
ARC
8
DEFAULT_255_1_234
10
4.3759163
20
28.7694841
40
0.2777492
50
344.5986631
51
357.9269593
0
ARC
8
DEFAULT_255_1_234
10
4.2863489
20
28.7756276
40
0.3674917
50
357.4748886
51
0.0231117
0
ARC
8
DEFAULT_255_1_234
10
4.3886599
20
28.7780679
40
0.2651907
50
359.5047933
51
13.4239635
0
ARC
8
DEFAULT_255_1_234
10
4.4753242
20
28.8002478
40
0.1757509
50
12.9498199
51
48.7551375
0
ARC
8
DEFAULT_255_1_234
10
4.4570976
20
28.77534
40
0.2065134
50
49.5088623
51
72.1836453
0
ARC
8
DEFAULT_255_1_234
10
4.4213129
20
28.6691291
40
0.3185836
50
71.9010081
51
84.3554254
0
ARC
8
DEFAULT_255_1_234
10
4.4051761
20
28.5330326
40
0.4556151
50
84.0193428
51
89.333121
0
LINE
8
DEFAULT_255_1_234
10
5.2104401
20
29.6223211
11
5.2104401
21
28.4529
0
LINE
8
DEFAULT_255_1_234
10
5.2104401
20
28.4529
11
5.0562307
21
28.4529
0
LINE
8
DEFAULT_255_1_234
10
5.0562307
20
28.4529
11
5.0562307
21
29.6223211
0
LINE
8
DEFAULT_255_1_234
10
5.0562307
20
29.6223211
11
5.2104401
21
29.6223211
0
LINE
8
DEFAULT_255_1_234
10
5.8947442
20
29.4215276
11
5.8947442
21
29.0801788
0
LINE
8
DEFAULT_255_1_234
10
5.8947442
20
29.0801788
11
6.2208328
21
29.0801788
0
LINE
8
DEFAULT_255_1_234
10
6.2208328
20
29.0801788
11
6.2208328
21
28.9396233
0
LINE
8
DEFAULT_255_1_234
10
6.2208328
20
28.9396233
11
5.8947442
21
28.9396233
0
LINE
8
DEFAULT_255_1_234
10
5.8947442
20
28.9396233
11
5.8947442
21
28.5701634
0
LINE
8
DEFAULT_255_1_234
10
5.8947442
20
28.5701634
11
5.7453539
21
28.5701634
0
LINE
8
DEFAULT_255_1_234
10
5.7453539
20
28.5701634
11
5.7453539
21
28.9396233
0
LINE
8
DEFAULT_255_1_234
10
5.7453539
20
28.9396233
11
5.4192653
21
28.9396233
0
LINE
8
DEFAULT_255_1_234
10
5.4192653
20
28.9396233
11
5.4192653
21
29.0801788
0
LINE
8
DEFAULT_255_1_234
10
5.4192653
20
29.0801788
11
5.7453539
21
29.0801788
0
LINE
8
DEFAULT_255_1_234
10
5.7453539
20
29.0801788
11
5.7453539
21
29.4215276
0
LINE
8
DEFAULT_255_1_234
10
5.7453539
20
29.4215276
11
5.8947442
21
29.4215276
0
LINE
8
DEFAULT_255_1_234
10
4.3931378
20
36.9261169
11
4.3931378
21
37.0473962
0
LINE
8
DEFAULT_255_1_234
10
4.3931378
20
37.0473962
11
4.504779
21
37.0473962
0
LINE
8
DEFAULT_255_1_234
10
4.3144268
20
37.2530087
11
4.1658396
21
37.2530087
0
LINE
8
DEFAULT_255_1_234
10
4.1553983
20
36.6988188
11
4.3047887
21
36.6988188
0
LINE
8
DEFAULT_255_1_234
10
4.504779
20
36.9261169
11
4.3931378
21
36.9261169
0
ARC
8
DEFAULT_255_1_234
10
4.5018656
20
37.3866713
40
0.3392876
50
270.4919872
51
281.8951556
0
ARC
8
DEFAULT_255_1_234
10
4.5259918
20
37.2764702
40
0.2264817
50
281.6691735
51
301.2943132
0
ARC
8
DEFAULT_255_1_234
10
4.5430128
20
37.2453304
40
0.1910381
50
301.7833094
51
311.7545298
0
ARC
8
DEFAULT_255_1_234
10
4.5521704
20
37.2351748
40
0.1773635
50
311.7323931
51
354.2802411
0
ARC
8
DEFAULT_255_1_234
10
4.4795329
20
37.2476722
40
0.2509385
50
353.0937916
51
0.1181479
0
ARC
8
DEFAULT_255_1_234
10
4.4334114
20
37.2524386
40
0.2970898
50
359.1805295
51
15.0453146
0
ARC
8
DEFAULT_255_1_234
10
4.5679951
20
37.2916992
40
0.1569564
50
13.9577229
51
77.6713066
0
ARC
8
DEFAULT_255_1_234
10
4.529348
20
37.1531949
40
0.3006298
50
76.1116566
51
90.7026153
0
ARC
8
DEFAULT_255_1_234
10
4.5234318
20
37.1805545
40
0.2732568
50
89.5324876
51
103.531937
0
ARC
8
DEFAULT_255_1_234
10
4.5033762
20
37.2604884
40
0.1908508
50
103.2931773
51
133.5619022
0
ARC
8
DEFAULT_255_1_234
10
4.4989251
20
37.2664375
40
0.1834746
50
133.8349307
51
173.5344437
0
ARC
8
DEFAULT_255_1_234
10
4.5712294
20
37.2536213
40
0.2568033
50
172.5096846
51
180.1366907
0
ARC
8
DEFAULT_255_1_234
10
4.4761188
20
37.2570622
40
0.3103056
50
155.3484492
51
180.7484736
0
ARC
8
DEFAULT_255_1_234
10
4.4712277
20
37.2541846
40
0.3070957
50
131.5744599
51
154.4798489
0
ARC
8
DEFAULT_255_1_234
10
4.5025424
20
37.222531
40
0.3515643
50
96.9875458
51
131.9690667
0
ARC
8
DEFAULT_255_1_234
10
4.5244904
20
37.0979636
40
0.4779224
50
89.8596053
51
97.7825159
0
ARC
8
DEFAULT_255_1_234
10
4.5292967
20
37.0717616
40
0.5041361
50
78.3655447
51
90.4131539
0
ARC
8
DEFAULT_255_1_234
10
4.5650885
20
37.2376887
40
0.3344039
50
56.6229102
51
78.638727
0
ARC
8
DEFAULT_255_1_234
10
4.5865829
20
37.2752805
40
0.2912001
50
47.0253525
51
56.0854072
0
ARC
8
DEFAULT_255_1_234
10
4.5885609
20
37.2792223
40
0.2869704
50
10.9208013
51
46.7778124
0
ARC
8
DEFAULT_255_1_234
10
4.4521675
20
37.2476857
40
0.426899
50
359.6364486
51
11.6087304
0
ARC
8
DEFAULT_255_1_234
10
4.6356519
20
37.2461752
40
0.243409
50
332.3549906
51
359.7179418
0
ARC
8
DEFAULT_255_1_234
10
4.5706121
20
37.2770142
40
0.3153459
50
325.2333722
51
332.8745602
0
ARC
8
DEFAULT_255_1_234
10
4.5858744
20
37.2663828
40
0.2967456
50
292.9802137
51
325.2392345
0
ARC
8
DEFAULT_255_1_234
10
4.5584118
20
37.3197863
40
0.3566604
50
292.5402179
51
293.6924929
0
ARC
8
DEFAULT_255_1_234
10
4.5976714
20
36.6743091
40
0.3307468
50
57.6435486
51
72.8625112
0
ARC
8
DEFAULT_255_1_234
10
4.6331214
20
36.7317549
40
0.2632492
50
36.7248896
51
57.4697979
0
ARC
8
DEFAULT_255_1_234
10
4.6319847
20
36.733022
40
0.2634081
50
8.0545065
51
36.356114
0
ARC
8
DEFAULT_255_1_234
10
4.5457032
20
36.7175174
40
0.3510261
50
359.8320645
51
8.5869982
0
ARC
8
DEFAULT_255_1_234
10
4.5081808
20
36.7127101
40
0.3885653
50
343.9829931
51
0.5571613
0
ARC
8
DEFAULT_255_1_234
10
4.5968005
20
36.6884438
40
0.2966924
50
311.6359546
51
343.7651759
0
ARC
8
DEFAULT_255_1_234
10
4.5589574
20
36.7311102
40
0.3537231
50
279.7829875
51
311.6255694
0
ARC
8
DEFAULT_255_1_234
10
4.5288351
20
36.874828
40
0.5004971
50
269.7286406
51
280.3856417
0
ARC
8
DEFAULT_255_1_234
10
4.5226423
20
36.8706996
40
0.4963778
50
256.6828919
51
270.4412052
0
ARC
8
DEFAULT_255_1_234
10
4.4887719
20
36.7322394
40
0.3538406
50
229.4223008
51
256.8556159
0
ARC
8
DEFAULT_255_1_234
10
4.4473112
20
36.6855736
40
0.2914296
50
181.818294
51
229.6455059
0
ARC
8
DEFAULT_255_1_234
10
4.5513068
20
36.6986496
40
0.3959084
50
179.9755256
51
183.2323064
0
ARC
8
DEFAULT_255_1_234
10
4.5340814
20
36.6966037
40
0.2293034
50
179.4465117
51
196.2869258
0
ARC
8
DEFAULT_255_1_234
10
4.4853222
20
36.6832651
40
0.1787621
50
196.5661473
51
227.705904
0
ARC
8
DEFAULT_255_1_234
10
4.5017317
20
36.7016155
40
0.2033784
50
227.7652068
51
257.8762805
0
ARC
8
DEFAULT_255_1_234
10
4.5242287
20
36.7959156
40
0.3003081
50
257.4584385
51
270.426602
0
ARC
8
DEFAULT_255_1_234
10
4.5287853
20
36.8248996
40
0.329292
50
269.5962073
51
280.8789248
0
ARC
8
DEFAULT_255_1_234
10
4.5517382
20
36.7102685
40
0.2123908
50
280.6346389
51
299.8595945
0
ARC
8
DEFAULT_255_1_234
10
4.5708289
20
36.6740212
40
0.171457
50
300.3576302
51
314.5517981
0
ARC
8
DEFAULT_255_1_234
10
4.5625349
20
36.6800919
40
0.1816095
50
315.0728369
51
345.0431014
0
ARC
8
DEFAULT_255_1_234
10
4.4702163
20
36.7069841
40
0.2777492
50
344.5986631
51
357.9269593
0
ARC
8
DEFAULT_255_1_234
10
4.3806489
20
36.7131276
40
0.3674917
50
357.4748886
51
0.0231117
0
ARC
8
DEFAULT_255_1_234
10
4.4829599
20
36.7155679
40
0.2651907
50
359.5047933
51
13.4239635
0
ARC
8
DEFAULT_255_1_234
10
4.5696242
20
36.7377478
40
0.1757509
50
12.9498199
51
48.7551375
0
ARC
8
DEFAULT_255_1_234
10
4.5513976
20
36.71284
40
0.2065134
50
49.5088623
51
72.1836453
0
ARC
8
DEFAULT_255_1_234
10
4.5156129
20
36.6066291
40
0.3185836
50
71.9010081
51
84.3554254
0
ARC
8
DEFAULT_255_1_234
10
4.4994761
20
36.4705326
40
0.4556151
50
84.0193428
51
89.333121
0
LINE
8
DEFAULT_255_1_234
10
5.1939021
20
37.5598211
11
5.5264161
21
36.5952093
0
LINE
8
DEFAULT_255_1_234
10
5.5264161
20
36.5952093
11
5.8605364
21
37.5598211
0
LINE
8
DEFAULT_255_1_234
10
5.8605364
20
37.5598211
11
6.0292029
21
37.5598211
0
LINE
8
DEFAULT_255_1_234
10
6.0292029
20
37.5598211
11
5.595489
21
36.3904
0
LINE
8
DEFAULT_255_1_234
10
5.595489
20
36.3904
11
5.4589495
21
36.3904
0
LINE
8
DEFAULT_255_1_234
10
5.4589495
20
36.3904
11
5.0260388
21
37.5598211
0
LINE
8
DEFAULT_255_1_234
10
5.0260388
20
37.5598211
11
5.1939021
21
37.5598211
0
LINE
8
DEFAULT_255_1_234
10
6.3512756
20
37.5598211
11
6.3512756
21
36.3904
0
LINE
8
DEFAULT_255_1_234
10
6.3512756
20
36.3904
11
6.1970662
21
36.3904
0
LINE
8
DEFAULT_255_1_234
10
6.1970662
20
36.3904
11
6.1970662
21
37.5598211
0
LINE
8
DEFAULT_255_1_234
10
6.1970662
20
37.5598211
11
6.3512756
21
37.5598211
0
LINE
8
DEFAULT_255_1_234
10
6.9191195
20
36.9478026
11
6.9191195
21
36.8265234
0
LINE
8
DEFAULT_255_1_234
10
6.9191195
20
36.8265234
11
6.5271707
21
36.8265234
0
LINE
8
DEFAULT_255_1_234
10
6.5271707
20
36.8265234
11
6.5271707
21
36.9478026
0
LINE
8
DEFAULT_255_1_234
10
6.5271707
20
36.9478026
11
6.9191195
21
36.9478026
0
LINE
8
DEFAULT_255_1_234
10
4.3364378
20
44.8636169
11
4.3364378
21
44.9848962
0
LINE
8
DEFAULT_255_1_234
10
4.3364378
20
44.9848962
11
4.448079
21
44.9848962
0
LINE
8
DEFAULT_255_1_234
10
4.2577268
20
45.1905087
11
4.1091396
21
45.1905087
0
LINE
8
DEFAULT_255_1_234
10
4.0986983
20
44.6363188
11
4.2480887
21
44.6363188
0
LINE
8
DEFAULT_255_1_234
10
4.448079
20
44.8636169
11
4.3364378
21
44.8636169
0
ARC
8
DEFAULT_255_1_234
10
4.4451656
20
45.3241713
40
0.3392876
50
270.4919872
51
281.8951556
0
ARC
8
DEFAULT_255_1_234
10
4.4692918
20
45.2139702
40
0.2264817
50
281.6691735
51
301.2943132
0
ARC
8
DEFAULT_255_1_234
10
4.4863128
20
45.1828304
40
0.1910381
50
301.7833094
51
311.7545298
0
ARC
8
DEFAULT_255_1_234
10
4.4954704
20
45.1726748
40
0.1773635
50
311.7323931
51
354.2802411
0
ARC
8
DEFAULT_255_1_234
10
4.4228329
20
45.1851722
40
0.2509385
50
353.0937916
51
0.1181479
0
ARC
8
DEFAULT_255_1_234
10
4.3767114
20
45.1899386
40
0.2970898
50
359.1805295
51
15.0453146
0
ARC
8
DEFAULT_255_1_234
10
4.5112951
20
45.2291992
40
0.1569564
50
13.9577229
51
77.6713066
0
ARC
8
DEFAULT_255_1_234
10
4.472648
20
45.0906949
40
0.3006298
50
76.1116566
51
90.7026153
0
ARC
8
DEFAULT_255_1_234
10
4.4667318
20
45.1180545
40
0.2732568
50
89.5324876
51
103.531937
0
ARC
8
DEFAULT_255_1_234
10
4.4466762
20
45.1979884
40
0.1908508
50
103.2931773
51
133.5619022
0
ARC
8
DEFAULT_255_1_234
10
4.4422251
20
45.2039375
40
0.1834746
50
133.8349307
51
173.5344437
0
ARC
8
DEFAULT_255_1_234
10
4.5145294
20
45.1911213
40
0.2568033
50
172.5096846
51
180.1366907
0
ARC
8
DEFAULT_255_1_234
10
4.4194188
20
45.1945622
40
0.3103056
50
155.3484492
51
180.7484736
0
ARC
8
DEFAULT_255_1_234
10
4.4145277
20
45.1916846
40
0.3070957
50
131.5744599
51
154.4798489
0
ARC
8
DEFAULT_255_1_234
10
4.4458424
20
45.160031
40
0.3515643
50
96.9875458
51
131.9690667
0
ARC
8
DEFAULT_255_1_234
10
4.4677904
20
45.0354636
40
0.4779224
50
89.8596053
51
97.7825159
0
ARC
8
DEFAULT_255_1_234
10
4.4725967
20
45.0092616
40
0.5041361
50
78.3655447
51
90.4131539
0
ARC
8
DEFAULT_255_1_234
10
4.5083885
20
45.1751887
40
0.3344039
50
56.6229102
51
78.638727
0
ARC
8
DEFAULT_255_1_234
10
4.5298829
20
45.2127805
40
0.2912001
50
47.0253525
51
56.0854072
0
ARC
8
DEFAULT_255_1_234
10
4.5318609
20
45.2167223
40
0.2869704
50
10.9208013
51
46.7778124
0
ARC
8
DEFAULT_255_1_234
10
4.3954675
20
45.1851857
40
0.426899
50
359.6364486
51
11.6087304
0
ARC
8
DEFAULT_255_1_234
10
4.5789519
20
45.1836752
40
0.243409
50
332.3549906
51
359.7179418
0
ARC
8
DEFAULT_255_1_234
10
4.5139121
20
45.2145142
40
0.3153459
50
325.2333722
51
332.8745602
0
ARC
8
DEFAULT_255_1_234
10
4.5291744
20
45.2038828
40
0.2967456
50
292.9802137
51
325.2392345
0
ARC
8
DEFAULT_255_1_234
10
4.5017118
20
45.2572863
40
0.3566604
50
292.5402179
51
293.6924929
0
ARC
8
DEFAULT_255_1_234
10
4.5409714
20
44.6118091
40
0.3307468
50
57.6435486
51
72.8625112
0
ARC
8
DEFAULT_255_1_234
10
4.5764214
20
44.6692549
40
0.2632492
50
36.7248896
51
57.4697979
0
ARC
8
DEFAULT_255_1_234
10
4.5752847
20
44.670522
40
0.2634081
50
8.0545065
51
36.356114
0
ARC
8
DEFAULT_255_1_234
10
4.4890032
20
44.6550174
40
0.3510261
50
359.8320645
51
8.5869982
0
ARC
8
DEFAULT_255_1_234
10
4.4514808
20
44.6502101
40
0.3885653
50
343.9829931
51
0.5571613
0
ARC
8
DEFAULT_255_1_234
10
4.5401005
20
44.6259438
40
0.2966924
50
311.6359546
51
343.7651759
0
ARC
8
DEFAULT_255_1_234
10
4.5022574
20
44.6686102
40
0.3537231
50
279.7829875
51
311.6255694
0
ARC
8
DEFAULT_255_1_234
10
4.4721351
20
44.812328
40
0.5004971
50
269.7286406
51
280.3856417
0
ARC
8
DEFAULT_255_1_234
10
4.4659423
20
44.8081996
40
0.4963778
50
256.6828919
51
270.4412052
0
ARC
8
DEFAULT_255_1_234
10
4.4320719
20
44.6697394
40
0.3538406
50
229.4223008
51
256.8556159
0
ARC
8
DEFAULT_255_1_234
10
4.3906112
20
44.6230736
40
0.2914296
50
181.818294
51
229.6455059
0
ARC
8
DEFAULT_255_1_234
10
4.4946068
20
44.6361496
40
0.3959084
50
179.9755256
51
183.2323064
0
ARC
8
DEFAULT_255_1_234
10
4.4773814
20
44.6341037
40
0.2293034
50
179.4465117
51
196.2869258
0
ARC
8
DEFAULT_255_1_234
10
4.4286222
20
44.6207651
40
0.1787621
50
196.5661473
51
227.705904
0
ARC
8
DEFAULT_255_1_234
10
4.4450317
20
44.6391155
40
0.2033784
50
227.7652068
51
257.8762805
0
ARC
8
DEFAULT_255_1_234
10
4.4675287
20
44.7334156
40
0.3003081
50
257.4584385
51
270.426602
0
ARC
8
DEFAULT_255_1_234
10
4.4720853
20
44.7623996
40
0.329292
50
269.5962073
51
280.8789248
0
ARC
8
DEFAULT_255_1_234
10
4.4950382
20
44.6477685
40
0.2123908
50
280.6346389
51
299.8595945
0
ARC
8
DEFAULT_255_1_234
10
4.5141289
20
44.6115212
40
0.171457
50
300.3576302
51
314.5517981
0
ARC
8
DEFAULT_255_1_234
10
4.5058349
20
44.6175919
40
0.1816095
50
315.0728369
51
345.0431014
0
ARC
8
DEFAULT_255_1_234
10
4.4135163
20
44.6444841
40
0.2777492
50
344.5986631
51
357.9269593
0
ARC
8
DEFAULT_255_1_234
10
4.3239489
20
44.6506276
40
0.3674917
50
357.4748886
51
0.0231117
0
ARC
8
DEFAULT_255_1_234
10
4.4262599
20
44.6530679
40
0.2651907
50
359.5047933
51
13.4239635
0
ARC
8
DEFAULT_255_1_234
10
4.5129242
20
44.6752478
40
0.1757509
50
12.9498199
51
48.7551375
0
ARC
8
DEFAULT_255_1_234
10
4.4946976
20
44.65034
40
0.2065134
50
49.5088623
51
72.1836453
0
ARC
8
DEFAULT_255_1_234
10
4.4589129
20
44.5441291
40
0.3185836
50
71.9010081
51
84.3554254
0
ARC
8
DEFAULT_255_1_234
10
4.4427761
20
44.4080326
40
0.4556151
50
84.0193428
51
89.333121
0
LINE
8
DEFAULT_255_1_234
10
5.1372021
20
45.4973211
11
5.4697161
21
44.5327093
0
LINE
8
DEFAULT_255_1_234
10
5.4697161
20
44.5327093
11
5.8038364
21
45.4973211
0
LINE
8
DEFAULT_255_1_234
10
5.8038364
20
45.4973211
11
5.9725029
21
45.4973211
0
LINE
8
DEFAULT_255_1_234
10
5.9725029
20
45.4973211
11
5.538789
21
44.3279
0
LINE
8
DEFAULT_255_1_234
10
5.538789
20
44.3279
11
5.4022495
21
44.3279
0
LINE
8
DEFAULT_255_1_234
10
5.4022495
20
44.3279
11
4.9693388
21
45.4973211
0
LINE
8
DEFAULT_255_1_234
10
4.9693388
20
45.4973211
11
5.1372021
21
45.4973211
0
LINE
8
DEFAULT_255_1_234
10
6.5315119
20
45.2965276
11
6.5315119
21
44.9551788
0
LINE
8
DEFAULT_255_1_234
10
6.5315119
20
44.9551788
11
6.8576004
21
44.9551788
0
LINE
8
DEFAULT_255_1_234
10
6.8576004
20
44.9551788
11
6.8576004
21
44.8146233
0
LINE
8
DEFAULT_255_1_234
10
6.8576004
20
44.8146233
11
6.5315119
21
44.8146233
0
LINE
8
DEFAULT_255_1_234
10
6.5315119
20
44.8146233
11
6.5315119
21
44.4451634
0
LINE
8
DEFAULT_255_1_234
10
6.5315119
20
44.4451634
11
6.3821215
21
44.4451634
0
LINE
8
DEFAULT_255_1_234
10
6.3821215
20
44.4451634
11
6.3821215
21
44.8146233
0
LINE
8
DEFAULT_255_1_234
10
6.3821215
20
44.8146233
11
6.056033
21
44.8146233
0
LINE
8
DEFAULT_255_1_234
10
6.056033
20
44.8146233
11
6.056033
21
44.9551788
0
LINE
8
DEFAULT_255_1_234
10
6.056033
20
44.9551788
11
6.3821215
21
44.9551788
0
LINE
8
DEFAULT_255_1_234
10
6.3821215
20
44.9551788
11
6.3821215
21
45.2965276
0
LINE
8
DEFAULT_255_1_234
10
6.3821215
20
45.2965276
11
6.5315119
21
45.2965276
0
LINE
8
DEFAULT_255_1_234
10
4.8490119
20
52.3866792
11
4.8490119
21
52.2654
0
LINE
8
DEFAULT_255_1_234
10
4.8490119
20
52.2654
11
4.082784
21
52.2654
0
LINE
8
DEFAULT_255_1_234
10
4.082784
20
52.2654
11
4.082784
21
52.3722221
0
LINE
8
DEFAULT_255_1_234
10
4.082784
20
52.3722221
11
4.4875836
21
52.8219995
0
LINE
8
DEFAULT_255_1_234
10
4.2088823
20
53.0902595
11
4.0602952
21
53.0902595
0
LINE
8
DEFAULT_255_1_234
10
4.5751296
20
52.7264218
11
4.2618918
21
52.3866792
0
LINE
8
DEFAULT_255_1_234
10
4.2618918
20
52.3866792
11
4.8490119
21
52.3866792
0
ARC
8
DEFAULT_255_1_234
10
3.138567
20
54.0149527
40
1.8008286
50
318.5132453
51
320.7828378
0
ARC
8
DEFAULT_255_1_234
10
3.6672644
20
53.5846426
40
1.1191493
50
320.7372736
51
323.9737074
0
ARC
8
DEFAULT_255_1_234
10
4.0592501
20
53.3006361
40
0.6350923
50
323.8961724
51
328.6421089
0
ARC
8
DEFAULT_255_1_234
10
4.2639096
20
53.1744031
40
0.3946393
50
328.8299013
51
331.789948
0
ARC
8
DEFAULT_255_1_234
10
4.3636274
20
53.1229509
40
0.2824501
50
331.4255242
51
352.9364833
0
ARC
8
DEFAULT_255_1_234
10
4.3772775
20
53.1198976
40
0.2685315
50
353.2248685
51
0.0169286
0
ARC
8
DEFAULT_255_1_234
10
4.3982652
20
53.122195
40
0.2475536
50
359.4866256
51
15.9339782
0
ARC
8
DEFAULT_255_1_234
10
4.4489637
20
53.1358286
40
0.1950618
50
16.1714718
51
43.5284424
0
ARC
8
DEFAULT_255_1_234
10
4.4566946
20
53.1435573
40
0.184134
50
43.4415429
51
83.1661404
0
ARC
8
DEFAULT_255_1_234
10
4.4432864
20
53.0698771
40
0.258926
50
82.160215
51
90.1505798
0
ARC
8
DEFAULT_255_1_234
10
4.4401291
20
53.0161865
40
0.3126255
50
89.5460705
51
102.5418777
0
ARC
8
DEFAULT_255_1_234
10
4.4158377
20
53.1192665
40
0.2067346
50
102.1739365
51
129.2061916
0
ARC
8
DEFAULT_255_1_234
10
4.4079449
20
53.1317094
40
0.1921118
50
129.7279328
51
135.7542026
0
ARC
8
DEFAULT_255_1_234
10
4.4200977
20
53.1220045
40
0.2075944
50
136.175737
51
166.3674722
0
ARC
8
DEFAULT_255_1_234
10
4.5207896
20
53.0950182
40
0.3118201
50
165.9092917
51
178.8683903
0
ARC
8
DEFAULT_255_1_234
10
4.6072757
20
53.0903179
40
0.3983935
50
178.438168
51
180.0083905
0
ARC
8
DEFAULT_255_1_234
10
4.4671359
20
53.0942231
40
0.4068601
50
163.2878735
51
180.5581814
0
ARC
8
DEFAULT_255_1_234
10
4.3869621
20
53.116284
40
0.3237344
50
133.454115
51
162.9470031
0
ARC
8
DEFAULT_255_1_234
10
4.4048162
20
53.0973
40
0.349795
50
100.7869394
51
133.4384016
0
ARC
8
DEFAULT_255_1_234
10
4.4395934
20
52.9424319
40
0.5084616
50
89.6605301
51
101.3704185
0
ARC
8
DEFAULT_255_1_234
10
4.4462273
20
52.9485496
40
0.502348
50
78.2171172
51
90.4130393
0
ARC
8
DEFAULT_255_1_234
10
4.4817351
20
53.1109637
40
0.3361092
50
55.9268222
51
78.4888551
0
ARC
8
DEFAULT_255_1_234
10
4.5013791
20
53.1448324
40
0.2970617
50
47.9292255
51
55.4054003
0
ARC
8
DEFAULT_255_1_234
10
4.5115352
20
53.1551502
40
0.2825983
50
4.3347696
51
48.0560701
0
ARC
8
DEFAULT_255_1_234
10
4.4019745
20
53.1381601
40
0.393225
50
359.925209
51
5.5967654
0
ARC
8
DEFAULT_255_1_234
10
4.4448637
20
53.1437816
40
0.3503892
50
337.8914096
51
358.9967724
0
ARC
8
DEFAULT_255_1_234
10
4.1735049
20
53.2484706
40
0.6412172
50
326.9135351
51
338.3505194
0
ARC
8
DEFAULT_255_1_234
10
3.7749353
20
53.5039284
40
1.1146189
50
319.6472867
51
327.095818
0
ARC
8
DEFAULT_255_1_234
10
3.3916356
20
53.8201
40
1.6114559
50
317.2586784
51
319.9046139
0
LINE
8
DEFAULT_255_1_234
10
5.2104401
20
53.4348211
11
5.2104401
21
52.2654
0
LINE
8
DEFAULT_255_1_234
10
5.2104401
20
52.2654
11
5.0562307
21
52.2654
0
LINE
8
DEFAULT_255_1_234
10
5.0562307
20
52.2654
11
5.0562307
21
53.4348211
0
LINE
8
DEFAULT_255_1_234
10
5.0562307
20
53.4348211
11
5.2104401
21
53.4348211
0
LINE
8
DEFAULT_255_1_234
10
5.8947442
20
53.2340276
11
5.8947442
21
52.8926788
0
LINE
8
DEFAULT_255_1_234
10
5.8947442
20
52.8926788
11
6.2208328
21
52.8926788
0
LINE
8
DEFAULT_255_1_234
10
6.2208328
20
52.8926788
11
6.2208328
21
52.7521233
0
LINE
8
DEFAULT_255_1_234
10
6.2208328
20
52.7521233
11
5.8947442
21
52.7521233
0
LINE
8
DEFAULT_255_1_234
10
5.8947442
20
52.7521233
11
5.8947442
21
52.3826634
0
LINE
8
DEFAULT_255_1_234
10
5.8947442
20
52.3826634
11
5.7453539
21
52.3826634
0
LINE
8
DEFAULT_255_1_234
10
5.7453539
20
52.3826634
11
5.7453539
21
52.7521233
0
LINE
8
DEFAULT_255_1_234
10
5.7453539
20
52.7521233
11
5.4192653
21
52.7521233
0
LINE
8
DEFAULT_255_1_234
10
5.4192653
20
52.7521233
11
5.4192653
21
52.8926788
0
LINE
8
DEFAULT_255_1_234
10
5.4192653
20
52.8926788
11
5.7453539
21
52.8926788
0
LINE
8
DEFAULT_255_1_234
10
5.7453539
20
52.8926788
11
5.7453539
21
53.2340276
0
LINE
8
DEFAULT_255_1_234
10
5.7453539
20
53.2340276
11
5.8947442
21
53.2340276
0
LINE
8
DEFAULT_255_1_234
10
4.9433119
20
60.3241792
11
4.9433119
21
60.2029
0
LINE
8
DEFAULT_255_1_234
10
4.9433119
20
60.2029
11
4.177084
21
60.2029
0
LINE
8
DEFAULT_255_1_234
10
4.177084
20
60.2029
11
4.177084
21
60.3097221
0
LINE
8
DEFAULT_255_1_234
10
4.177084
20
60.3097221
11
4.5818836
21
60.7594995
0
LINE
8
DEFAULT_255_1_234
10
4.3031823
20
61.0277595
11
4.1545952
21
61.0277595
0
LINE
8
DEFAULT_255_1_234
10
4.6694296
20
60.6639218
11
4.3561918
21
60.3241792
0
LINE
8
DEFAULT_255_1_234
10
4.3561918
20
60.3241792
11
4.9433119
21
60.3241792
0
ARC
8
DEFAULT_255_1_234
10
3.232867
20
61.9524527
40
1.8008286
50
318.5132453
51
320.7828378
0
ARC
8
DEFAULT_255_1_234
10
3.7615644
20
61.5221426
40
1.1191493
50
320.7372736
51
323.9737074
0
ARC
8
DEFAULT_255_1_234
10
4.1535501
20
61.2381361
40
0.6350923
50
323.8961724
51
328.6421089
0
ARC
8
DEFAULT_255_1_234
10
4.3582096
20
61.1119031
40
0.3946393
50
328.8299013
51
331.789948
0
ARC
8
DEFAULT_255_1_234
10
4.4579274
20
61.0604509
40
0.2824501
50
331.4255242
51
352.9364833
0
ARC
8
DEFAULT_255_1_234
10
4.4715775
20
61.0573976
40
0.2685315
50
353.2248685
51
0.0169286
0
ARC
8
DEFAULT_255_1_234
10
4.4925652
20
61.059695
40
0.2475536
50
359.4866256
51
15.9339782
0
ARC
8
DEFAULT_255_1_234
10
4.5432637
20
61.0733286
40
0.1950618
50
16.1714718
51
43.5284424
0
ARC
8
DEFAULT_255_1_234
10
4.5509946
20
61.0810573
40
0.184134
50
43.4415429
51
83.1661404
0
ARC
8
DEFAULT_255_1_234
10
4.5375864
20
61.0073771
40
0.258926
50
82.160215
51
90.1505798
0
ARC
8
DEFAULT_255_1_234
10
4.5344291
20
60.9536865
40
0.3126255
50
89.5460705
51
102.5418777
0
ARC
8
DEFAULT_255_1_234
10
4.5101377
20
61.0567665
40
0.2067346
50
102.1739365
51
129.2061916
0
ARC
8
DEFAULT_255_1_234
10
4.5022449
20
61.0692094
40
0.1921118
50
129.7279328
51
135.7542026
0
ARC
8
DEFAULT_255_1_234
10
4.5143977
20
61.0595045
40
0.2075944
50
136.175737
51
166.3674722
0
ARC
8
DEFAULT_255_1_234
10
4.6150896
20
61.0325182
40
0.3118201
50
165.9092917
51
178.8683903
0
ARC
8
DEFAULT_255_1_234
10
4.7015757
20
61.0278179
40
0.3983935
50
178.438168
51
180.0083905
0
ARC
8
DEFAULT_255_1_234
10
4.5614359
20
61.0317231
40
0.4068601
50
163.2878735
51
180.5581814
0
ARC
8
DEFAULT_255_1_234
10
4.4812621
20
61.053784
40
0.3237344
50
133.454115
51
162.9470031
0
ARC
8
DEFAULT_255_1_234
10
4.4991162
20
61.0348
40
0.349795
50
100.7869394
51
133.4384016
0
ARC
8
DEFAULT_255_1_234
10
4.5338934
20
60.8799319
40
0.5084616
50
89.6605301
51
101.3704185
0
ARC
8
DEFAULT_255_1_234
10
4.5405273
20
60.8860496
40
0.502348
50
78.2171172
51
90.4130393
0
ARC
8
DEFAULT_255_1_234
10
4.5760351
20
61.0484637
40
0.3361092
50
55.9268222
51
78.4888551
0
ARC
8
DEFAULT_255_1_234
10
4.5956791
20
61.0823324
40
0.2970617
50
47.9292255
51
55.4054003
0
ARC
8
DEFAULT_255_1_234
10
4.6058352
20
61.0926502
40
0.2825983
50
4.3347696
51
48.0560701
0
ARC
8
DEFAULT_255_1_234
10
4.4962745
20
61.0756601
40
0.393225
50
359.925209
51
5.5967654
0
ARC
8
DEFAULT_255_1_234
10
4.5391637
20
61.0812816
40
0.3503892
50
337.8914096
51
358.9967724
0
ARC
8
DEFAULT_255_1_234
10
4.2678049
20
61.1859706
40
0.6412172
50
326.9135351
51
338.3505194
0
ARC
8
DEFAULT_255_1_234
10
3.8692353
20
61.4414284
40
1.1146189
50
319.6472867
51
327.095818
0
ARC
8
DEFAULT_255_1_234
10
3.4859356
20
61.7576
40
1.6114559
50
317.2586784
51
319.9046139
0
LINE
8
DEFAULT_255_1_234
10
5.1939021
20
61.3723211
11
5.5264161
21
60.4077093
0
LINE
8
DEFAULT_255_1_234
10
5.5264161
20
60.4077093
11
5.8605364
21
61.3723211
0
LINE
8
DEFAULT_255_1_234
10
5.8605364
20
61.3723211
11
6.0292029
21
61.3723211
0
LINE
8
DEFAULT_255_1_234
10
6.0292029
20
61.3723211
11
5.595489
21
60.2029
0
LINE
8
DEFAULT_255_1_234
10
5.595489
20
60.2029
11
5.4589495
21
60.2029
0
LINE
8
DEFAULT_255_1_234
10
5.4589495
20
60.2029
11
5.0260388
21
61.3723211
0
LINE
8
DEFAULT_255_1_234
10
5.0260388
20
61.3723211
11
5.1939021
21
61.3723211
0
LINE
8
DEFAULT_255_1_234
10
6.3512756
20
61.3723211
11
6.3512756
21
60.2029
0
LINE
8
DEFAULT_255_1_234
10
6.3512756
20
60.2029
11
6.1970662
21
60.2029
0
LINE
8
DEFAULT_255_1_234
10
6.1970662
20
60.2029
11
6.1970662
21
61.3723211
0
LINE
8
DEFAULT_255_1_234
10
6.1970662
20
61.3723211
11
6.3512756
21
61.3723211
0
LINE
8
DEFAULT_255_1_234
10
6.9191195
20
60.7603026
11
6.9191195
21
60.6390234
0
LINE
8
DEFAULT_255_1_234
10
6.9191195
20
60.6390234
11
6.5271707
21
60.6390234
0
LINE
8
DEFAULT_255_1_234
10
6.5271707
20
60.6390234
11
6.5271707
21
60.7603026
0
LINE
8
DEFAULT_255_1_234
10
6.5271707
20
60.7603026
11
6.9191195
21
60.7603026
0
LINE
8
DEFAULT_255_1_234
10
4.8866119
20
68.2616792
11
4.8866119
21
68.1404
0
LINE
8
DEFAULT_255_1_234
10
4.8866119
20
68.1404
11
4.120384
21
68.1404
0
LINE
8
DEFAULT_255_1_234
10
4.120384
20
68.1404
11
4.120384
21
68.2472221
0
LINE
8
DEFAULT_255_1_234
10
4.120384
20
68.2472221
11
4.5251836
21
68.6969995
0
LINE
8
DEFAULT_255_1_234
10
4.2464823
20
68.9652595
11
4.0978952
21
68.9652595
0
LINE
8
DEFAULT_255_1_234
10
4.6127296
20
68.6014218
11
4.2994918
21
68.2616792
0
LINE
8
DEFAULT_255_1_234
10
4.2994918
20
68.2616792
11
4.8866119
21
68.2616792
0
ARC
8
DEFAULT_255_1_234
10
3.176167
20
69.8899527
40
1.8008286
50
318.5132453
51
320.7828378
0
ARC
8
DEFAULT_255_1_234
10
3.7048644
20
69.4596426
40
1.1191493
50
320.7372736
51
323.9737074
0
ARC
8
DEFAULT_255_1_234
10
4.0968501
20
69.1756361
40
0.6350923
50
323.8961724
51
328.6421089
0
ARC
8
DEFAULT_255_1_234
10
4.3015096
20
69.0494031
40
0.3946393
50
328.8299013
51
331.789948
0
ARC
8
DEFAULT_255_1_234
10
4.4012274
20
68.9979509
40
0.2824501
50
331.4255242
51
352.9364833
0
ARC
8
DEFAULT_255_1_234
10
4.4148775
20
68.9948976
40
0.2685315
50
353.2248685
51
0.0169286
0
ARC
8
DEFAULT_255_1_234
10
4.4358652
20
68.997195
40
0.2475536
50
359.4866256
51
15.9339782
0
ARC
8
DEFAULT_255_1_234
10
4.4865637
20
69.0108286
40
0.1950618
50
16.1714718
51
43.5284424
0
ARC
8
DEFAULT_255_1_234
10
4.4942946
20
69.0185573
40
0.184134
50
43.4415429
51
83.1661404
0
ARC
8
DEFAULT_255_1_234
10
4.4808864
20
68.9448771
40
0.258926
50
82.160215
51
90.1505798
0
ARC
8
DEFAULT_255_1_234
10
4.4777291
20
68.8911865
40
0.3126255
50
89.5460705
51
102.5418777
0
ARC
8
DEFAULT_255_1_234
10
4.4534377
20
68.9942665
40
0.2067346
50
102.1739365
51
129.2061916
0
ARC
8
DEFAULT_255_1_234
10
4.4455449
20
69.0067094
40
0.1921118
50
129.7279328
51
135.7542026
0
ARC
8
DEFAULT_255_1_234
10
4.4576977
20
68.9970045
40
0.2075944
50
136.175737
51
166.3674722
0
ARC
8
DEFAULT_255_1_234
10
4.5583896
20
68.9700182
40
0.3118201
50
165.9092917
51
178.8683903
0
ARC
8
DEFAULT_255_1_234
10
4.6448757
20
68.9653179
40
0.3983935
50
178.438168
51
180.0083905
0
ARC
8
DEFAULT_255_1_234
10
4.5047359
20
68.9692231
40
0.4068601
50
163.2878735
51
180.5581814
0
ARC
8
DEFAULT_255_1_234
10
4.4245621
20
68.991284
40
0.3237344
50
133.454115
51
162.9470031
0
ARC
8
DEFAULT_255_1_234
10
4.4424162
20
68.9723
40
0.349795
50
100.7869394
51
133.4384016
0
ARC
8
DEFAULT_255_1_234
10
4.4771934
20
68.8174319
40
0.5084616
50
89.6605301
51
101.3704185
0
ARC
8
DEFAULT_255_1_234
10
4.4838273
20
68.8235496
40
0.502348
50
78.2171172
51
90.4130393
0
ARC
8
DEFAULT_255_1_234
10
4.5193351
20
68.9859637
40
0.3361092
50
55.9268222
51
78.4888551
0
ARC
8
DEFAULT_255_1_234
10
4.5389791
20
69.0198324
40
0.2970617
50
47.9292255
51
55.4054003
0
ARC
8
DEFAULT_255_1_234
10
4.5491352
20
69.0301502
40
0.2825983
50
4.3347696
51
48.0560701
0
ARC
8
DEFAULT_255_1_234
10
4.4395745
20
69.0131601
40
0.393225
50
359.925209
51
5.5967654
0
ARC
8
DEFAULT_255_1_234
10
4.4824637
20
69.0187816
40
0.3503892
50
337.8914096
51
358.9967724
0
ARC
8
DEFAULT_255_1_234
10
4.2111049
20
69.1234706
40
0.6412172
50
326.9135351
51
338.3505194
0
ARC
8
DEFAULT_255_1_234
10
3.8125353
20
69.3789284
40
1.1146189
50
319.6472867
51
327.095818
0
ARC
8
DEFAULT_255_1_234
10
3.4292356
20
69.6951
40
1.6114559
50
317.2586784
51
319.9046139
0
LINE
8
DEFAULT_255_1_234
10
5.1372021
20
69.3098211
11
5.4697161
21
68.3452093
0
LINE
8
DEFAULT_255_1_234
10
5.4697161
20
68.3452093
11
5.8038364
21
69.3098211
0
LINE
8
DEFAULT_255_1_234
10
5.8038364
20
69.3098211
11
5.9725029
21
69.3098211
0
LINE
8
DEFAULT_255_1_234
10
5.9725029
20
69.3098211
11
5.538789
21
68.1404
0
LINE
8
DEFAULT_255_1_234
10
5.538789
20
68.1404
11
5.4022495
21
68.1404
0
LINE
8
DEFAULT_255_1_234
10
5.4022495
20
68.1404
11
4.9693388
21
69.3098211
0
LINE
8
DEFAULT_255_1_234
10
4.9693388
20
69.3098211
11
5.1372021
21
69.3098211
0
LINE
8
DEFAULT_255_1_234
10
6.5315119
20
69.1090276
11
6.5315119
21
68.7676788
0
LINE
8
DEFAULT_255_1_234
10
6.5315119
20
68.7676788
11
6.8576004
21
68.7676788
0
LINE
8
DEFAULT_255_1_234
10
6.8576004
20
68.7676788
11
6.8576004
21
68.6271233
0
LINE
8
DEFAULT_255_1_234
10
6.8576004
20
68.6271233
11
6.5315119
21
68.6271233
0
LINE
8
DEFAULT_255_1_234
10
6.5315119
20
68.6271233
11
6.5315119
21
68.2576634
0
LINE
8
DEFAULT_255_1_234
10
6.5315119
20
68.2576634
11
6.3821215
21
68.2576634
0
LINE
8
DEFAULT_255_1_234
10
6.3821215
20
68.2576634
11
6.3821215
21
68.6271233
0
LINE
8
DEFAULT_255_1_234
10
6.3821215
20
68.6271233
11
6.056033
21
68.6271233
0
LINE
8
DEFAULT_255_1_234
10
6.056033
20
68.6271233
11
6.056033
21
68.7676788
0
LINE
8
DEFAULT_255_1_234
10
6.056033
20
68.7676788
11
6.3821215
21
68.7676788
0
LINE
8
DEFAULT_255_1_234
10
6.3821215
20
68.7676788
11
6.3821215
21
69.1090276
0
LINE
8
DEFAULT_255_1_234
10
6.3821215
20
69.1090276
11
6.5315119
21
69.1090276
0
LINE
8
DEFAULT_255_1_234
10
4.748585
20
76.7204391
11
4.748585
21
76.5943408
0
LINE
8
DEFAULT_255_1_234
10
4.748585
20
76.5943408
11
4.2578458
21
76.5943408
0
LINE
8
DEFAULT_255_1_234
10
4.2578458
20
76.5943408
11
4.2578458
21
76.0779
0
LINE
8
DEFAULT_255_1_234
10
4.2578458
20
76.0779
11
4.1036364
21
76.0779
0
LINE
8
DEFAULT_255_1_234
10
4.1036364
20
76.0779
11
4.1036364
21
77.2473211
0
LINE
8
DEFAULT_255_1_234
10
4.1036364
20
77.2473211
11
4.8280992
21
77.2473211
0
LINE
8
DEFAULT_255_1_234
10
4.8280992
20
77.2473211
11
4.8280992
21
77.1204196
0
LINE
8
DEFAULT_255_1_234
10
4.8280992
20
77.1204196
11
4.2578458
21
77.1204196
0
LINE
8
DEFAULT_255_1_234
10
4.2578458
20
77.1204196
11
4.2578458
21
76.7204391
0
LINE
8
DEFAULT_255_1_234
10
4.2578458
20
76.7204391
11
4.748585
21
76.7204391
0
LINE
8
DEFAULT_255_1_234
10
5.876241
20
76.660201
11
5.876241
21
76.2313062
0
LINE
8
DEFAULT_255_1_234
10
4.97508
20
76.6063884
11
4.97508
21
76.7083915
0
LINE
8
DEFAULT_255_1_234
10
5.876241
20
76.9043659
11
5.7220316
21
76.9043659
0
LINE
8
DEFAULT_255_1_234
10
5.1300925
20
76.7124073
11
5.1300925
21
76.6168296
0
LINE
8
DEFAULT_255_1_234
10
5.7228348
20
76.2722681
11
5.7228348
21
76.5349059
0
LINE
8
DEFAULT_255_1_234
10
5.7228348
20
76.5349059
11
5.4521652
21
76.5349059
0
LINE
8
DEFAULT_255_1_234
10
5.4521652
20
76.5349059
11
5.4521652
21
76.660201
0
LINE
8
DEFAULT_255_1_234
10
5.4521652
20
76.660201
11
5.876241
21
76.660201
0
ARC
8
DEFAULT_255_1_234
10
5.5930916
20
76.4306396
40
0.3462765
50
295.8437914
51
324.8549609
0
ARC
8
DEFAULT_255_1_234
10
5.5514883
20
76.5059567
40
0.4322211
50
291.5695085
51
296.4549398
0
ARC
8
DEFAULT_255_1_234
10
5.5004135
20
76.6424275
40
0.5779178
50
278.6622409
51
291.3045483
0
ARC
8
DEFAULT_255_1_234
10
5.4664626
20
76.8572408
40
0.7953952
50
270.020006
51
278.7494541
0
ARC
8
DEFAULT_255_1_234
10
5.462655
20
76.9889036
40
0.927067
50
269.9969998
51
270.2524872
0
ARC
8
DEFAULT_255_1_234
10
5.4588264
20
76.5805589
40
0.5187361
50
253.5786322
51
270.4175299
0
ARC
8
DEFAULT_255_1_234
10
5.441492
20
76.5134236
40
0.4494451
50
238.8203306
51
253.2788235
0
ARC
8
DEFAULT_255_1_234
10
5.4395293
20
76.5083231
40
0.4440665
50
206.7883783
51
238.6962764
0
ARC
8
DEFAULT_255_1_234
10
5.5169203
20
76.5547405
40
0.5341121
50
206.1129412
51
207.4916643
0
ARC
8
DEFAULT_255_1_234
10
5.5766118
20
76.5801488
40
0.5989041
50
188.6921119
51
205.7821245
0
ARC
8
DEFAULT_255_1_234
10
5.762248
20
76.611723
40
0.7871862
50
180.3882829
51
188.9219216
0
ARC
8
DEFAULT_255_1_234
10
5.8850294
20
76.7140464
40
0.909967
50
170.2024264
51
180.3560651
0
ARC
8
DEFAULT_255_1_234
10
5.5686812
20
76.7706237
40
0.5886083
50
154.2857445
51
170.3893044
0
ARC
8
DEFAULT_255_1_234
10
5.4405015
20
76.829295
40
0.4476743
50
139.8401567
51
153.9332699
0
ARC
8
DEFAULT_255_1_234
10
5.4045751
20
76.8580577
40
0.4016697
50
98.4190291
51
139.6707122
0
ARC
8
DEFAULT_255_1_234
10
5.4425268
20
76.6735328
40
0.5898566
50
89.7659205
51
99.4415478
0
ARC
8
DEFAULT_255_1_234
10
5.4490518
20
76.6800844
40
0.5833147
50
78.0551672
51
90.4042112
0
ARC
8
DEFAULT_255_1_234
10
5.4895028
20
76.8619644
40
0.3970055
50
54.6380464
51
78.3339173
0
ARC
8
DEFAULT_255_1_234
10
5.5085084
20
76.8939795
40
0.3599102
50
50.031736
51
54.1558201
0
ARC
8
DEFAULT_255_1_234
10
5.4977871
20
76.8843766
40
0.3741624
50
18.1092409
51
49.7180913
0
ARC
8
DEFAULT_255_1_234
10
5.3521071
20
76.8310089
40
0.5292424
50
7.9672797
51
18.6984571
0
ARC
8
DEFAULT_255_1_234
10
5.367155
20
76.8433504
40
0.3600838
50
9.7557294
51
27.3215714
0
ARC
8
DEFAULT_255_1_234
10
5.4799021
20
76.8996912
40
0.2340608
50
27.7361077
51
84.5257964
0
ARC
8
DEFAULT_255_1_234
10
5.4471408
20
76.735364
40
0.4011215
50
82.106034
51
90.2001166
0
ARC
8
DEFAULT_255_1_234
10
5.4421625
20
76.7861215
40
0.3503799
50
89.4150119
51
105.5823402
0
ARC
8
DEFAULT_255_1_234
10
5.4164623
20
76.8796867
40
0.2533503
50
105.6678618
51
144.2648758
0
ARC
8
DEFAULT_255_1_234
10
5.5057879
20
76.8161289
40
0.3629787
50
144.3561283
51
162.8564086
0
ARC
8
DEFAULT_255_1_234
10
5.7141788
20
76.7492017
40
0.5818441
50
162.6076014
51
173.6780284
0
ARC
8
DEFAULT_255_1_234
10
6.0202931
20
76.711989
40
0.8902007
50
173.4670142
51
179.9730753
0
ARC
8
DEFAULT_255_1_234
10
5.8294603
20
76.612626
40
0.6993804
50
179.6556203
51
190.0080463
0
ARC
8
DEFAULT_255_1_234
10
5.5978432
20
76.5701375
40
0.4639066
50
189.8116607
51
206.6796816
0
ARC
8
DEFAULT_255_1_234
10
5.5133584
20
76.5307503
40
0.3707421
50
207.1031645
51
217.7074368
0
ARC
8
DEFAULT_255_1_234
10
5.4499273
20
76.4755559
40
0.2868417
50
216.7345547
51
265.6812148
0
ARC
8
DEFAULT_255_1_234
10
5.4630064
20
76.5659855
40
0.3780509
50
264.7366618
51
270.0611241
0
ARC
8
DEFAULT_255_1_234
10
5.4653327
20
76.8500111
40
0.662079
50
269.8335834
51
276.0539546
0
ARC
8
DEFAULT_255_1_234
10
5.4860331
20
76.659856
40
0.4708016
50
275.9894168
51
284.4615085
0
ARC
8
DEFAULT_255_1_234
10
5.5058338
20
76.5765663
40
0.3852094
50
284.7034461
51
286.4953897
0
ARC
8
DEFAULT_255_1_234
10
5.5465352
20
76.4454965
40
0.2479842
50
286.0770838
51
304.2625829
0
ARC
8
DEFAULT_255_1_234
10
5.5598766
20
76.4236594
40
0.2224291
50
304.5891602
51
317.1073298
0
LINE
8
DEFAULT_255_1_234
10
4.5711137
20
85.1904433
11
4.5711137
21
84.0154
0
LINE
8
DEFAULT_255_1_234
10
4.5711137
20
84.0154
11
4.4217234
21
84.0154
0
LINE
8
DEFAULT_255_1_234
10
4.4217234
20
84.0154
11
4.4217234
21
85.0057133
0
LINE
8
DEFAULT_255_1_234
10
4.4217234
20
85.0057133
11
4.1221396
21
84.8956785
0
LINE
8
DEFAULT_255_1_234
10
4.1221396
20
84.8956785
11
4.1221396
21
85.0306117
0
LINE
8
DEFAULT_255_1_234
10
4.1221396
20
85.0306117
11
4.5478217
21
85.1904433
0
LINE
8
DEFAULT_255_1_234
10
4.5478217
20
85.1904433
11
4.5711137
21
85.1904433
0
LINE
8
DEFAULT_255_1_234
10
5.2104401
20
85.1848211
11
5.2104401
21
84.0154
0
LINE
8
DEFAULT_255_1_234
10
5.2104401
20
84.0154
11
5.0562307
21
84.0154
0
LINE
8
DEFAULT_255_1_234
10
5.0562307
20
84.0154
11
5.0562307
21
85.1848211
0
LINE
8
DEFAULT_255_1_234
10
5.0562307
20
85.1848211
11
5.2104401
21
85.1848211
0
LINE
8
DEFAULT_255_1_234
10
5.8947442
20
84.9840276
11
5.8947442
21
84.6426788
0
LINE
8
DEFAULT_255_1_234
10
5.8947442
20
84.6426788
11
6.2208328
21
84.6426788
0
LINE
8
DEFAULT_255_1_234
10
6.2208328
20
84.6426788
11
6.2208328
21
84.5021233
0
LINE
8
DEFAULT_255_1_234
10
6.2208328
20
84.5021233
11
5.8947442
21
84.5021233
0
LINE
8
DEFAULT_255_1_234
10
5.8947442
20
84.5021233
11
5.8947442
21
84.1326634
0
LINE
8
DEFAULT_255_1_234
10
5.8947442
20
84.1326634
11
5.7453539
21
84.1326634
0
LINE
8
DEFAULT_255_1_234
10
5.7453539
20
84.1326634
11
5.7453539
21
84.5021233
0
LINE
8
DEFAULT_255_1_234
10
5.7453539
20
84.5021233
11
5.4192653
21
84.5021233
0
LINE
8
DEFAULT_255_1_234
10
5.4192653
20
84.5021233
11
5.4192653
21
84.6426788
0
LINE
8
DEFAULT_255_1_234
10
5.4192653
20
84.6426788
11
5.7453539
21
84.6426788
0
LINE
8
DEFAULT_255_1_234
10
5.7453539
20
84.6426788
11
5.7453539
21
84.9840276
0
LINE
8
DEFAULT_255_1_234
10
5.7453539
20
84.9840276
11
5.8947442
21
84.9840276
0
LINE
8
DEFAULT_255_1_234
10
4.6654137
20
93.1279433
11
4.6654137
21
91.9529
0
LINE
8
DEFAULT_255_1_234
10
4.6654137
20
91.9529
11
4.5160234
21
91.9529
0
LINE
8
DEFAULT_255_1_234
10
4.5160234
20
91.9529
11
4.5160234
21
92.9432133
0
LINE
8
DEFAULT_255_1_234
10
4.5160234
20
92.9432133
11
4.2164396
21
92.8331785
0
LINE
8
DEFAULT_255_1_234
10
4.2164396
20
92.8331785
11
4.2164396
21
92.9681117
0
LINE
8
DEFAULT_255_1_234
10
4.2164396
20
92.9681117
11
4.6421217
21
93.1279433
0
LINE
8
DEFAULT_255_1_234
10
4.6421217
20
93.1279433
11
4.6654137
21
93.1279433
0
LINE
8
DEFAULT_255_1_234
10
5.1939021
20
93.1223211
11
5.5264161
21
92.1577093
0
LINE
8
DEFAULT_255_1_234
10
5.5264161
20
92.1577093
11
5.8605364
21
93.1223211
0
LINE
8
DEFAULT_255_1_234
10
5.8605364
20
93.1223211
11
6.0292029
21
93.1223211
0
LINE
8
DEFAULT_255_1_234
10
6.0292029
20
93.1223211
11
5.595489
21
91.9529
0
LINE
8
DEFAULT_255_1_234
10
5.595489
20
91.9529
11
5.4589495
21
91.9529
0
LINE
8
DEFAULT_255_1_234
10
5.4589495
20
91.9529
11
5.0260388
21
93.1223211
0
LINE
8
DEFAULT_255_1_234
10
5.0260388
20
93.1223211
11
5.1939021
21
93.1223211
0
LINE
8
DEFAULT_255_1_234
10
6.3512756
20
93.1223211
11
6.3512756
21
91.9529
0
LINE
8
DEFAULT_255_1_234
10
6.3512756
20
91.9529
11
6.1970662
21
91.9529
0
LINE
8
DEFAULT_255_1_234
10
6.1970662
20
91.9529
11
6.1970662
21
93.1223211
0
LINE
8
DEFAULT_255_1_234
10
6.1970662
20
93.1223211
11
6.3512756
21
93.1223211
0
LINE
8
DEFAULT_255_1_234
10
6.9191195
20
92.5103026
11
6.9191195
21
92.3890234
0
LINE
8
DEFAULT_255_1_234
10
6.9191195
20
92.3890234
11
6.5271707
21
92.3890234
0
LINE
8
DEFAULT_255_1_234
10
6.5271707
20
92.3890234
11
6.5271707
21
92.5103026
0
LINE
8
DEFAULT_255_1_234
10
6.5271707
20
92.5103026
11
6.9191195
21
92.5103026
0
LINE
8
DEFAULT_255_1_234
10
4.6087137
20
101.0654433
11
4.6087137
21
99.8904
0
LINE
8
DEFAULT_255_1_234
10
4.6087137
20
99.8904
11
4.4593234
21
99.8904
0
LINE
8
DEFAULT_255_1_234
10
4.4593234
20
99.8904
11
4.4593234
21
100.8807133
0
LINE
8
DEFAULT_255_1_234
10
4.4593234
20
100.8807133
11
4.1597396
21
100.7706785
0
LINE
8
DEFAULT_255_1_234
10
4.1597396
20
100.7706785
11
4.1597396
21
100.9056117
0
LINE
8
DEFAULT_255_1_234
10
4.1597396
20
100.9056117
11
4.5854217
21
101.0654433
0
LINE
8
DEFAULT_255_1_234
10
4.5854217
20
101.0654433
11
4.6087137
21
101.0654433
0
LINE
8
DEFAULT_255_1_234
10
5.1372021
20
101.0598211
11
5.4697161
21
100.0952093
0
LINE
8
DEFAULT_255_1_234
10
5.4697161
20
100.0952093
11
5.8038364
21
101.0598211
0
LINE
8
DEFAULT_255_1_234
10
5.8038364
20
101.0598211
11
5.9725029
21
101.0598211
0
LINE
8
DEFAULT_255_1_234
10
5.9725029
20
101.0598211
11
5.538789
21
99.8904
0
LINE
8
DEFAULT_255_1_234
10
5.538789
20
99.8904
11
5.4022495
21
99.8904
0
LINE
8
DEFAULT_255_1_234
10
5.4022495
20
99.8904
11
4.9693388
21
101.0598211
0
LINE
8
DEFAULT_255_1_234
10
4.9693388
20
101.0598211
11
5.1372021
21
101.0598211
0
LINE
8
DEFAULT_255_1_234
10
6.5315119
20
100.8590276
11
6.5315119
21
100.5176788
0
LINE
8
DEFAULT_255_1_234
10
6.5315119
20
100.5176788
11
6.8576004
21
100.5176788
0
LINE
8
DEFAULT_255_1_234
10
6.8576004
20
100.5176788
11
6.8576004
21
100.3771233
0
LINE
8
DEFAULT_255_1_234
10
6.8576004
20
100.3771233
11
6.5315119
21
100.3771233
0
LINE
8
DEFAULT_255_1_234
10
6.5315119
20
100.3771233
11
6.5315119
21
100.0076634
0
LINE
8
DEFAULT_255_1_234
10
6.5315119
20
100.0076634
11
6.3821215
21
100.0076634
0
LINE
8
DEFAULT_255_1_234
10
6.3821215
20
100.0076634
11
6.3821215
21
100.3771233
0
LINE
8
DEFAULT_255_1_234
10
6.3821215
20
100.3771233
11
6.056033
21
100.3771233
0
LINE
8
DEFAULT_255_1_234
10
6.056033
20
100.3771233
11
6.056033
21
100.5176788
0
LINE
8
DEFAULT_255_1_234
10
6.056033
20
100.5176788
11
6.3821215
21
100.5176788
0
LINE
8
DEFAULT_255_1_234
10
6.3821215
20
100.5176788
11
6.3821215
21
100.8590276
0
LINE
8
DEFAULT_255_1_234
10
6.3821215
20
100.8590276
11
6.5315119
21
100.8590276
0
LINE
8
DEFAULT_255_1_234
10
22.8322119
20
107.9491792
11
22.8322119
21
107.8279
0
LINE
8
DEFAULT_255_1_234
10
22.8322119
20
107.8279
11
22.065984
21
107.8279
0
LINE
8
DEFAULT_255_1_234
10
22.065984
20
107.8279
11
22.065984
21
107.9347221
0
LINE
8
DEFAULT_255_1_234
10
22.065984
20
107.9347221
11
22.4707836
21
108.3844995
0
LINE
8
DEFAULT_255_1_234
10
22.1920823
20
108.6527595
11
22.0434952
21
108.6527595
0
LINE
8
DEFAULT_255_1_234
10
22.5583296
20
108.2889218
11
22.2450918
21
107.9491792
0
LINE
8
DEFAULT_255_1_234
10
22.2450918
20
107.9491792
11
22.8322119
21
107.9491792
0
ARC
8
DEFAULT_255_1_234
10
21.121767
20
109.5774527
40
1.8008286
50
318.5132453
51
320.7828378
0
ARC
8
DEFAULT_255_1_234
10
21.6504644
20
109.1471426
40
1.1191493
50
320.7372736
51
323.9737074
0
ARC
8
DEFAULT_255_1_234
10
22.0424501
20
108.8631361
40
0.6350923
50
323.8961724
51
328.6421089
0
ARC
8
DEFAULT_255_1_234
10
22.2471096
20
108.7369031
40
0.3946393
50
328.8299013
51
331.789948
0
ARC
8
DEFAULT_255_1_234
10
22.3468274
20
108.6854509
40
0.2824501
50
331.4255242
51
352.9364833
0
ARC
8
DEFAULT_255_1_234
10
22.3604775
20
108.6823976
40
0.2685315
50
353.2248685
51
0.0169286
0
ARC
8
DEFAULT_255_1_234
10
22.3814652
20
108.684695
40
0.2475536
50
359.4866256
51
15.9339782
0
ARC
8
DEFAULT_255_1_234
10
22.4321637
20
108.6983286
40
0.1950618
50
16.1714718
51
43.5284424
0
ARC
8
DEFAULT_255_1_234
10
22.4398946
20
108.7060573
40
0.184134
50
43.4415429
51
83.1661404
0
ARC
8
DEFAULT_255_1_234
10
22.4264864
20
108.6323771
40
0.258926
50
82.160215
51
90.1505798
0
ARC
8
DEFAULT_255_1_234
10
22.4233291
20
108.5786865
40
0.3126255
50
89.5460705
51
102.5418777
0
ARC
8
DEFAULT_255_1_234
10
22.3990377
20
108.6817665
40
0.2067346
50
102.1739365
51
129.2061916
0
ARC
8
DEFAULT_255_1_234
10
22.3911449
20
108.6942094
40
0.1921118
50
129.7279328
51
135.7542026
0
ARC
8
DEFAULT_255_1_234
10
22.4032977
20
108.6845045
40
0.2075944
50
136.175737
51
166.3674722
0
ARC
8
DEFAULT_255_1_234
10
22.5039896
20
108.6575182
40
0.3118201
50
165.9092917
51
178.8683903
0
ARC
8
DEFAULT_255_1_234
10
22.5904757
20
108.6528179
40
0.3983935
50
178.438168
51
180.0083905
0
ARC
8
DEFAULT_255_1_234
10
22.4503359
20
108.6567231
40
0.4068601
50
163.2878735
51
180.5581814
0
ARC
8
DEFAULT_255_1_234
10
22.3701621
20
108.678784
40
0.3237344
50
133.454115
51
162.9470031
0
ARC
8
DEFAULT_255_1_234
10
22.3880162
20
108.6598
40
0.349795
50
100.7869394
51
133.4384016
0
ARC
8
DEFAULT_255_1_234
10
22.4227934
20
108.5049319
40
0.5084616
50
89.6605301
51
101.3704185
0
ARC
8
DEFAULT_255_1_234
10
22.4294273
20
108.5110496
40
0.502348
50
78.2171172
51
90.4130393
0
ARC
8
DEFAULT_255_1_234
10
22.4649351
20
108.6734637
40
0.3361092
50
55.9268222
51
78.4888551
0
ARC
8
DEFAULT_255_1_234
10
22.4845791
20
108.7073324
40
0.2970617
50
47.9292255
51
55.4054003
0
ARC
8
DEFAULT_255_1_234
10
22.4947352
20
108.7176502
40
0.2825983
50
4.3347696
51
48.0560701
0
ARC
8
DEFAULT_255_1_234
10
22.3851745
20
108.7006601
40
0.393225
50
359.925209
51
5.5967654
0
ARC
8
DEFAULT_255_1_234
10
22.4280637
20
108.7062816
40
0.3503892
50
337.8914096
51
358.9967724
0
ARC
8
DEFAULT_255_1_234
10
22.1567049
20
108.8109706
40
0.6412172
50
326.9135351
51
338.3505194
0
ARC
8
DEFAULT_255_1_234
10
21.7581353
20
109.0664284
40
1.1146189
50
319.6472867
51
327.095818
0
ARC
8
DEFAULT_255_1_234
10
21.3748356
20
109.3826
40
1.6114559
50
317.2586784
51
319.9046139
0
LINE
8
DEFAULT_255_1_234
10
23.6169127
20
108.9973211
11
23.6169127
21
108.220652
0
LINE
8
DEFAULT_255_1_234
10
23.6169127
20
108.220652
11
23.7791538
21
108.220652
0
LINE
8
DEFAULT_255_1_234
10
23.7791538
20
108.220652
11
23.7791538
21
108.0993728
0
LINE
8
DEFAULT_255_1_234
10
23.7791538
20
108.0993728
11
23.6169127
21
108.0993728
0
LINE
8
DEFAULT_255_1_234
10
23.6169127
20
108.0993728
11
23.6169127
21
107.8279
0
LINE
8
DEFAULT_255_1_234
10
23.6169127
20
107.8279
11
23.4675224
21
107.8279
0
LINE
8
DEFAULT_255_1_234
10
23.4675224
20
107.8279
11
23.4675224
21
108.0993728
0
LINE
8
DEFAULT_255_1_234
10
23.4675224
20
108.0993728
11
22.9350181
21
108.0993728
0
LINE
8
DEFAULT_255_1_234
10
22.9350181
20
108.0993728
11
22.9350181
21
108.1869187
0
LINE
8
DEFAULT_255_1_234
10
22.9350181
20
108.1869187
11
23.4586875
21
108.9973211
0
LINE
8
DEFAULT_255_1_234
10
23.4586875
20
108.9973211
11
23.6169127
21
108.9973211
0
LINE
8
DEFAULT_255_1_234
10
23.4498525
20
108.7619912
11
23.1036846
21
108.220652
0
LINE
8
DEFAULT_255_1_234
10
23.1036846
20
108.220652
11
23.4675224
21
108.220652
0
LINE
8
DEFAULT_255_1_234
10
23.4675224
20
108.220652
11
23.4675224
21
108.7941181
0
LINE
8
DEFAULT_255_1_234
10
23.4675224
20
108.7941181
11
23.4498525
21
108.7619912
0
LINE
8
DEFAULT_255_1_234
10
24.2377661
20
108.3853026
11
24.2377661
21
108.2640234
0
LINE
8
DEFAULT_255_1_234
10
24.2377661
20
108.2640234
11
23.8458172
21
108.2640234
0
LINE
8
DEFAULT_255_1_234
10
23.8458172
20
108.2640234
11
23.8458172
21
108.3853026
0
LINE
8
DEFAULT_255_1_234
10
23.8458172
20
108.3853026
11
24.2377661
21
108.3853026
0
LINE
8
DEFAULT_255_1_234
10
22.3075235
20
84.5711963
11
22.1886538
21
84.6017169
0
LINE
8
DEFAULT_255_1_234
10
22.1886538
20
84.6017169
11
22.2480887
21
85.1848211
0
LINE
8
DEFAULT_255_1_234
10
22.2480887
20
85.1848211
11
22.8472563
21
85.1848211
0
LINE
8
DEFAULT_255_1_234
10
22.8472563
20
85.1848211
11
22.8472563
21
85.0474784
0
LINE
8
DEFAULT_255_1_234
10
22.8472563
20
85.0474784
11
22.374187
21
85.0474784
0
LINE
8
DEFAULT_255_1_234
10
22.374187
20
85.0474784
11
22.3388473
21
84.7286184
0
LINE
8
DEFAULT_255_1_234
10
22.1468888
20
84.3230156
11
22.2874442
21
84.3230156
0
LINE
8
DEFAULT_255_1_234
10
22.3468791
20
84.6033232
11
22.3075235
21
84.5711963
0
ARC
8
DEFAULT_255_1_234
10
22.5243257
20
84.410623
40
0.3681349
50
93.7182161
51
120.2538958
0
ARC
8
DEFAULT_255_1_234
10
22.533752
20
84.3298394
40
0.449379
50
89.9660152
51
94.2496022
0
ARC
8
DEFAULT_255_1_234
10
22.5378254
20
84.3887549
40
0.390482
50
73.8043271
51
90.5585896
0
ARC
8
DEFAULT_255_1_234
10
22.5613151
20
84.4745602
40
0.3015334
50
41.3071453
51
73.5430202
0
ARC
8
DEFAULT_255_1_234
10
22.5196978
20
84.4387324
40
0.3564457
50
13.5075983
51
41.2174222
0
ARC
8
DEFAULT_255_1_234
10
22.3555182
20
84.3957486
40
0.5261351
50
1.1331335
51
13.8829381
0
ARC
8
DEFAULT_255_1_234
10
22.2143551
20
84.3881665
40
0.6674378
50
359.9919444
51
1.544251
0
ARC
8
DEFAULT_255_1_234
10
22.3420377
20
84.384028
40
0.5397702
50
347.8572367
51
0.4293338
0
ARC
8
DEFAULT_255_1_234
10
22.5170695
20
84.3443736
40
0.3603188
50
323.673004
51
348.1672506
0
ARC
8
DEFAULT_255_1_234
10
22.5465203
20
84.3264168
40
0.3259678
50
316.8171152
51
323.1492751
0
ARC
8
DEFAULT_255_1_234
10
22.5526392
20
84.322746
40
0.3189975
50
281.8396411
51
316.5457803
0
ARC
8
DEFAULT_255_1_234
10
22.5150656
20
84.4782762
40
0.4789527
50
269.5770101
51
282.4214771
0
ARC
8
DEFAULT_255_1_234
10
22.5079467
20
84.4569125
40
0.45759
50
256.2427136
51
270.4486331
0
ARC
8
DEFAULT_255_1_234
10
22.478037
20
84.3369229
40
0.3339303
50
228.9023911
51
256.3314342
0
ARC
8
DEFAULT_255_1_234
10
22.4706602
20
84.3252746
40
0.32031
50
193.753695
51
228.5271154
0
ARC
8
DEFAULT_255_1_234
10
22.5944556
20
84.36158
40
0.4492253
50
184.924711
51
194.497588
0
ARC
8
DEFAULT_255_1_234
10
22.6137123
20
84.3651591
40
0.3289787
50
187.3600538
51
198.6732863
0
ARC
8
DEFAULT_255_1_234
10
22.5087417
20
84.3287674
40
0.217884
50
198.4451669
51
217.794479
0
ARC
8
DEFAULT_255_1_234
10
22.4791592
20
84.3078085
40
0.1816698
50
218.2887171
51
228.5612368
0
ARC
8
DEFAULT_255_1_234
10
22.4889379
20
84.3209963
40
0.1980329
50
228.9654866
51
258.1234728
0
ARC
8
DEFAULT_255_1_234
10
22.5095089
20
84.4090833
40
0.2884748
50
257.7258293
51
270.401361
0
ARC
8
DEFAULT_255_1_234
10
22.5139975
20
84.3645821
40
0.2439788
50
269.4204404
51
286.4209037
0
ARC
8
DEFAULT_255_1_234
10
22.5288463
20
84.3106657
40
0.1880666
50
286.7251356
51
320.600362
0
ARC
8
DEFAULT_255_1_234
10
22.4905288
20
84.3417595
40
0.2374121
50
320.6712579
51
344.5441685
0
ARC
8
DEFAULT_255_1_234
10
22.3748614
20
84.3757045
40
0.3579479
50
344.2412205
51
356.7357071
0
ARC
8
DEFAULT_255_1_234
10
22.2499763
20
84.3860444
40
0.4832297
50
356.3548756
51
0.0500261
0
ARC
8
DEFAULT_255_1_234
10
22.3836272
20
84.389165
40
0.3495889
50
359.5576869
51
12.953486
0
ARC
8
DEFAULT_255_1_234
10
22.4891169
20
84.4147434
40
0.2410532
50
12.6490276
51
41.6081334
0
ARC
8
DEFAULT_255_1_234
10
22.512154
20
84.4343321
40
0.2108218
50
41.7850273
51
85.9892764
0
ARC
8
DEFAULT_255_1_234
10
22.4998277
20
84.3530462
40
0.2928454
50
84.6957577
51
90.0676183
0
ARC
8
DEFAULT_255_1_234
10
22.4974761
20
84.2861716
40
0.3597255
50
89.6804936
51
99.1614436
0
ARC
8
DEFAULT_255_1_234
10
22.4769392
20
84.4089131
40
0.235281
50
98.9830931
51
113.8908934
0
ARC
8
DEFAULT_255_1_234
10
22.4539802
20
84.4630587
40
0.176479
50
114.1950727
51
127.3641004
0
LINE
8
DEFAULT_255_1_234
10
23.2480401
20
85.1848211
11
23.2480401
21
84.0154
0
LINE
8
DEFAULT_255_1_234
10
23.2480401
20
84.0154
11
23.0938307
21
84.0154
0
LINE
8
DEFAULT_255_1_234
10
23.0938307
20
84.0154
11
23.0938307
21
85.1848211
0
LINE
8
DEFAULT_255_1_234
10
23.0938307
20
85.1848211
11
23.2480401
21
85.1848211
0
LINE
8
DEFAULT_255_1_234
10
23.9323442
20
84.9840276
11
23.9323442
21
84.6426788
0
LINE
8
DEFAULT_255_1_234
10
23.9323442
20
84.6426788
11
24.2584328
21
84.6426788
0
LINE
8
DEFAULT_255_1_234
10
24.2584328
20
84.6426788
11
24.2584328
21
84.5021233
0
LINE
8
DEFAULT_255_1_234
10
24.2584328
20
84.5021233
11
23.9323442
21
84.5021233
0
LINE
8
DEFAULT_255_1_234
10
23.9323442
20
84.5021233
11
23.9323442
21
84.1326634
0
LINE
8
DEFAULT_255_1_234
10
23.9323442
20
84.1326634
11
23.7829539
21
84.1326634
0
LINE
8
DEFAULT_255_1_234
10
23.7829539
20
84.1326634
11
23.7829539
21
84.5021233
0
LINE
8
DEFAULT_255_1_234
10
23.7829539
20
84.5021233
11
23.4568653
21
84.5021233
0
LINE
8
DEFAULT_255_1_234
10
23.4568653
20
84.5021233
11
23.4568653
21
84.6426788
0
LINE
8
DEFAULT_255_1_234
10
23.4568653
20
84.6426788
11
23.7829539
21
84.6426788
0
LINE
8
DEFAULT_255_1_234
10
23.7829539
20
84.6426788
11
23.7829539
21
84.9840276
0
LINE
8
DEFAULT_255_1_234
10
23.7829539
20
84.9840276
11
23.9323442
21
84.9840276
0
LINE
8
DEFAULT_255_1_234
10
21.6468235
20
92.5086963
11
21.5279538
21
92.5392169
0
LINE
8
DEFAULT_255_1_234
10
21.5279538
20
92.5392169
11
21.5873887
21
93.1223211
0
LINE
8
DEFAULT_255_1_234
10
21.5873887
20
93.1223211
11
22.1865563
21
93.1223211
0
LINE
8
DEFAULT_255_1_234
10
22.1865563
20
93.1223211
11
22.1865563
21
92.9849784
0
LINE
8
DEFAULT_255_1_234
10
22.1865563
20
92.9849784
11
21.713487
21
92.9849784
0
LINE
8
DEFAULT_255_1_234
10
21.713487
20
92.9849784
11
21.6781473
21
92.6661184
0
LINE
8
DEFAULT_255_1_234
10
21.4861888
20
92.2605156
11
21.6267442
21
92.2605156
0
LINE
8
DEFAULT_255_1_234
10
21.6861791
20
92.5408232
11
21.6468235
21
92.5086963
0
ARC
8
DEFAULT_255_1_234
10
21.8636257
20
92.348123
40
0.3681349
50
93.7182161
51
120.2538958
0
ARC
8
DEFAULT_255_1_234
10
21.873052
20
92.2673394
40
0.449379
50
89.9660152
51
94.2496022
0
ARC
8
DEFAULT_255_1_234
10
21.8771254
20
92.3262549
40
0.390482
50
73.8043271
51
90.5585896
0
ARC
8
DEFAULT_255_1_234
10
21.9006151
20
92.4120602
40
0.3015334
50
41.3071453
51
73.5430202
0
ARC
8
DEFAULT_255_1_234
10
21.8589978
20
92.3762324
40
0.3564457
50
13.5075983
51
41.2174222
0
ARC
8
DEFAULT_255_1_234
10
21.6948182
20
92.3332486
40
0.5261351
50
1.1331335
51
13.8829381
0
ARC
8
DEFAULT_255_1_234
10
21.5536551
20
92.3256665
40
0.6674378
50
359.9919444
51
1.544251
0
ARC
8
DEFAULT_255_1_234
10
21.6813377
20
92.321528
40
0.5397702
50
347.8572367
51
0.4293338
0
ARC
8
DEFAULT_255_1_234
10
21.8563695
20
92.2818736
40
0.3603188
50
323.673004
51
348.1672506
0
ARC
8
DEFAULT_255_1_234
10
21.8858203
20
92.2639168
40
0.3259678
50
316.8171152
51
323.1492751
0
ARC
8
DEFAULT_255_1_234
10
21.8919392
20
92.260246
40
0.3189975
50
281.8396411
51
316.5457803
0
ARC
8
DEFAULT_255_1_234
10
21.8543656
20
92.4157762
40
0.4789527
50
269.5770101
51
282.4214771
0
ARC
8
DEFAULT_255_1_234
10
21.8472467
20
92.3944125
40
0.45759
50
256.2427136
51
270.4486331
0
ARC
8
DEFAULT_255_1_234
10
21.817337
20
92.2744229
40
0.3339303
50
228.9023911
51
256.3314342
0
ARC
8
DEFAULT_255_1_234
10
21.8099602
20
92.2627746
40
0.32031
50
193.753695
51
228.5271154
0
ARC
8
DEFAULT_255_1_234
10
21.9337556
20
92.29908
40
0.4492253
50
184.924711
51
194.497588
0
ARC
8
DEFAULT_255_1_234
10
21.9530123
20
92.3026591
40
0.3289787
50
187.3600538
51
198.6732863
0
ARC
8
DEFAULT_255_1_234
10
21.8480417
20
92.2662674
40
0.217884
50
198.4451669
51
217.794479
0
ARC
8
DEFAULT_255_1_234
10
21.8184592
20
92.2453085
40
0.1816698
50
218.2887171
51
228.5612368
0
ARC
8
DEFAULT_255_1_234
10
21.8282379
20
92.2584963
40
0.1980329
50
228.9654866
51
258.1234728
0
ARC
8
DEFAULT_255_1_234
10
21.8488089
20
92.3465833
40
0.2884748
50
257.7258293
51
270.401361
0
ARC
8
DEFAULT_255_1_234
10
21.8532975
20
92.3020821
40
0.2439788
50
269.4204404
51
286.4209037
0
ARC
8
DEFAULT_255_1_234
10
21.8681463
20
92.2481657
40
0.1880666
50
286.7251356
51
320.600362
0
ARC
8
DEFAULT_255_1_234
10
21.8298288
20
92.2792595
40
0.2374121
50
320.6712579
51
344.5441685
0
ARC
8
DEFAULT_255_1_234
10
21.7141614
20
92.3132045
40
0.3579479
50
344.2412205
51
356.7357071
0
ARC
8
DEFAULT_255_1_234
10
21.5892763
20
92.3235444
40
0.4832297
50
356.3548756
51
0.0500261
0
ARC
8
DEFAULT_255_1_234
10
21.7229272
20
92.326665
40
0.3495889
50
359.5576869
51
12.953486
0
ARC
8
DEFAULT_255_1_234
10
21.8284169
20
92.3522434
40
0.2410532
50
12.6490276
51
41.6081334
0
ARC
8
DEFAULT_255_1_234
10
21.851454
20
92.3718321
40
0.2108218
50
41.7850273
51
85.9892764
0
ARC
8
DEFAULT_255_1_234
10
21.8391277
20
92.2905462
40
0.2928454
50
84.6957577
51
90.0676183
0
ARC
8
DEFAULT_255_1_234
10
21.8367761
20
92.2236716
40
0.3597255
50
89.6804936
51
99.1614436
0
ARC
8
DEFAULT_255_1_234
10
21.8162392
20
92.3464131
40
0.235281
50
98.9830931
51
113.8908934
0
ARC
8
DEFAULT_255_1_234
10
21.7932802
20
92.4005587
40
0.176479
50
114.1950727
51
127.3641004
0
LINE
8
DEFAULT_255_1_234
10
22.4765021
20
93.1223211
11
22.8090161
21
92.1577093
0
LINE
8
DEFAULT_255_1_234
10
22.8090161
20
92.1577093
11
23.1431364
21
93.1223211
0
LINE
8
DEFAULT_255_1_234
10
23.1431364
20
93.1223211
11
23.3118029
21
93.1223211
0
LINE
8
DEFAULT_255_1_234
10
23.3118029
20
93.1223211
11
22.878089
21
91.9529
0
LINE
8
DEFAULT_255_1_234
10
22.878089
20
91.9529
11
22.7415495
21
91.9529
0
LINE
8
DEFAULT_255_1_234
10
22.7415495
20
91.9529
11
22.3086388
21
93.1223211
0
LINE
8
DEFAULT_255_1_234
10
22.3086388
20
93.1223211
11
22.4765021
21
93.1223211
0
LINE
8
DEFAULT_255_1_234
10
23.6338756
20
93.1223211
11
23.6338756
21
91.9529
0
LINE
8
DEFAULT_255_1_234
10
23.6338756
20
91.9529
11
23.4796662
21
91.9529
0
LINE
8
DEFAULT_255_1_234
10
23.4796662
20
91.9529
11
23.4796662
21
93.1223211
0
LINE
8
DEFAULT_255_1_234
10
23.4796662
20
93.1223211
11
23.6338756
21
93.1223211
0
LINE
8
DEFAULT_255_1_234
10
24.2017195
20
92.5103026
11
24.2017195
21
92.3890234
0
LINE
8
DEFAULT_255_1_234
10
24.2017195
20
92.3890234
11
23.8097707
21
92.3890234
0
LINE
8
DEFAULT_255_1_234
10
23.8097707
20
92.3890234
11
23.8097707
21
92.5103026
0
LINE
8
DEFAULT_255_1_234
10
23.8097707
20
92.5103026
11
24.2017195
21
92.5103026
0
LINE
8
DEFAULT_255_1_234
10
21.6704235
20
100.4461963
11
21.5515538
21
100.4767169
0
LINE
8
DEFAULT_255_1_234
10
21.5515538
20
100.4767169
11
21.6109887
21
101.0598211
0
LINE
8
DEFAULT_255_1_234
10
21.6109887
20
101.0598211
11
22.2101563
21
101.0598211
0
LINE
8
DEFAULT_255_1_234
10
22.2101563
20
101.0598211
11
22.2101563
21
100.9224784
0
LINE
8
DEFAULT_255_1_234
10
22.2101563
20
100.9224784
11
21.737087
21
100.9224784
0
LINE
8
DEFAULT_255_1_234
10
21.737087
20
100.9224784
11
21.7017473
21
100.6036184
0
LINE
8
DEFAULT_255_1_234
10
21.5097888
20
100.1980156
11
21.6503442
21
100.1980156
0
LINE
8
DEFAULT_255_1_234
10
21.7097791
20
100.4783232
11
21.6704235
21
100.4461963
0
ARC
8
DEFAULT_255_1_234
10
21.8872257
20
100.285623
40
0.3681349
50
93.7182161
51
120.2538958
0
ARC
8
DEFAULT_255_1_234
10
21.896652
20
100.2048394
40
0.449379
50
89.9660152
51
94.2496022
0
ARC
8
DEFAULT_255_1_234
10
21.9007254
20
100.2637549
40
0.390482
50
73.8043271
51
90.5585896
0
ARC
8
DEFAULT_255_1_234
10
21.9242151
20
100.3495602
40
0.3015334
50
41.3071453
51
73.5430202
0
ARC
8
DEFAULT_255_1_234
10
21.8825978
20
100.3137324
40
0.3564457
50
13.5075983
51
41.2174222
0
ARC
8
DEFAULT_255_1_234
10
21.7184182
20
100.2707486
40
0.5261351
50
1.1331335
51
13.8829381
0
ARC
8
DEFAULT_255_1_234
10
21.5772551
20
100.2631665
40
0.6674378
50
359.9919444
51
1.544251
0
ARC
8
DEFAULT_255_1_234
10
21.7049377
20
100.259028
40
0.5397702
50
347.8572367
51
0.4293338
0
ARC
8
DEFAULT_255_1_234
10
21.8799695
20
100.2193736
40
0.3603188
50
323.673004
51
348.1672506
0
ARC
8
DEFAULT_255_1_234
10
21.9094203
20
100.2014168
40
0.3259678
50
316.8171152
51
323.1492751
0
ARC
8
DEFAULT_255_1_234
10
21.9155392
20
100.197746
40
0.3189975
50
281.8396411
51
316.5457803
0
ARC
8
DEFAULT_255_1_234
10
21.8779656
20
100.3532762
40
0.4789527
50
269.5770101
51
282.4214771
0
ARC
8
DEFAULT_255_1_234
10
21.8708467
20
100.3319125
40
0.45759
50
256.2427136
51
270.4486331
0
ARC
8
DEFAULT_255_1_234
10
21.840937
20
100.2119229
40
0.3339303
50
228.9023911
51
256.3314342
0
ARC
8
DEFAULT_255_1_234
10
21.8335602
20
100.2002746
40
0.32031
50
193.753695
51
228.5271154
0
ARC
8
DEFAULT_255_1_234
10
21.9573556
20
100.23658
40
0.4492253
50
184.924711
51
194.497588
0
ARC
8
DEFAULT_255_1_234
10
21.9766123
20
100.2401591
40
0.3289787
50
187.3600538
51
198.6732863
0
ARC
8
DEFAULT_255_1_234
10
21.8716417
20
100.2037674
40
0.217884
50
198.4451669
51
217.794479
0
ARC
8
DEFAULT_255_1_234
10
21.8420592
20
100.1828085
40
0.1816698
50
218.2887171
51
228.5612368
0
ARC
8
DEFAULT_255_1_234
10
21.8518379
20
100.1959963
40
0.1980329
50
228.9654866
51
258.1234728
0
ARC
8
DEFAULT_255_1_234
10
21.8724089
20
100.2840833
40
0.2884748
50
257.7258293
51
270.401361
0
ARC
8
DEFAULT_255_1_234
10
21.8768975
20
100.2395821
40
0.2439788
50
269.4204404
51
286.4209037
0
ARC
8
DEFAULT_255_1_234
10
21.8917463
20
100.1856657
40
0.1880666
50
286.7251356
51
320.600362
0
ARC
8
DEFAULT_255_1_234
10
21.8534288
20
100.2167595
40
0.2374121
50
320.6712579
51
344.5441685
0
ARC
8
DEFAULT_255_1_234
10
21.7377614
20
100.2507045
40
0.3579479
50
344.2412205
51
356.7357071
0
ARC
8
DEFAULT_255_1_234
10
21.6128763
20
100.2610444
40
0.4832297
50
356.3548756
51
0.0500261
0
ARC
8
DEFAULT_255_1_234
10
21.7465272
20
100.264165
40
0.3495889
50
359.5576869
51
12.953486
0
ARC
8
DEFAULT_255_1_234
10
21.8520169
20
100.2897434
40
0.2410532
50
12.6490276
51
41.6081334
0
ARC
8
DEFAULT_255_1_234
10
21.875054
20
100.3093321
40
0.2108218
50
41.7850273
51
85.9892764
0
ARC
8
DEFAULT_255_1_234
10
21.8627277
20
100.2280462
40
0.2928454
50
84.6957577
51
90.0676183
0
ARC
8
DEFAULT_255_1_234
10
21.8603761
20
100.1611716
40
0.3597255
50
89.6804936
51
99.1614436
0
ARC
8
DEFAULT_255_1_234
10
21.8398392
20
100.2839131
40
0.235281
50
98.9830931
51
113.8908934
0
ARC
8
DEFAULT_255_1_234
10
21.8168802
20
100.3380587
40
0.176479
50
114.1950727
51
127.3641004
0
LINE
8
DEFAULT_255_1_234
10
22.5001021
20
101.0598211
11
22.8326161
21
100.0952093
0
LINE
8
DEFAULT_255_1_234
10
22.8326161
20
100.0952093
11
23.1667364
21
101.0598211
0
LINE
8
DEFAULT_255_1_234
10
23.1667364
20
101.0598211
11
23.3354029
21
101.0598211
0
LINE
8
DEFAULT_255_1_234
10
23.3354029
20
101.0598211
11
22.901689
21
99.8904
0
LINE
8
DEFAULT_255_1_234
10
22.901689
20
99.8904
11
22.7651495
21
99.8904
0
LINE
8
DEFAULT_255_1_234
10
22.7651495
20
99.8904
11
22.3322388
21
101.0598211
0
LINE
8
DEFAULT_255_1_234
10
22.3322388
20
101.0598211
11
22.5001021
21
101.0598211
0
LINE
8
DEFAULT_255_1_234
10
23.8944119
20
100.8590276
11
23.8944119
21
100.5176788
0
LINE
8
DEFAULT_255_1_234
10
23.8944119
20
100.5176788
11
24.2205004
21
100.5176788
0
LINE
8
DEFAULT_255_1_234
10
24.2205004
20
100.5176788
11
24.2205004
21
100.3771233
0
LINE
8
DEFAULT_255_1_234
10
24.2205004
20
100.3771233
11
23.8944119
21
100.3771233
0
LINE
8
DEFAULT_255_1_234
10
23.8944119
20
100.3771233
11
23.8944119
21
100.0076634
0
LINE
8
DEFAULT_255_1_234
10
23.8944119
20
100.0076634
11
23.7450215
21
100.0076634
0
LINE
8
DEFAULT_255_1_234
10
23.7450215
20
100.0076634
11
23.7450215
21
100.3771233
0
LINE
8
DEFAULT_255_1_234
10
23.7450215
20
100.3771233
11
23.418933
21
100.3771233
0
LINE
8
DEFAULT_255_1_234
10
23.418933
20
100.3771233
11
23.418933
21
100.5176788
0
LINE
8
DEFAULT_255_1_234
10
23.418933
20
100.5176788
11
23.7450215
21
100.5176788
0
LINE
8
DEFAULT_255_1_234
10
23.7450215
20
100.5176788
11
23.7450215
21
100.8590276
0
LINE
8
DEFAULT_255_1_234
10
23.7450215
20
100.8590276
11
23.8944119
21
100.8590276
0
ENDSEC
0
EOF