0
SECTION
2
HEADER
9
$MEASUREMENT
70
1
0
ENDSEC
0
SECTION
2
TABLES
0
TABLE
2
LTYPE
0
LTYPE
72
65
70
64
2
CONTINUOUS
3
______
73
0
40
0
0
ENDTAB
0
TABLE
2
LAYER
0
LAYER
2
DEFAULT_255_2_778
70
0
62
255
6
CONTINUOUS
0
LAYER
2
DEFAULT_255_1_234
70
0
62
255
6
CONTINUOUS
0
ENDTAB
0
ENDSEC
0
SECTION
2
ENTITIES
0
ARC
8
DEFAULT_255_2_778
10
3.5700693
20
155.1802019
40
0.7914215
50
129.1312896
51
180.1450914
0
ARC
8
DEFAULT_255_2_778
10
3.5703345
20
155.180689
40
0.7912112
50
89.854026
51
129.1684493
0
ARC
8
DEFAULT_255_2_778
10
25.7993937
20
155.1803756
40
0.7915249
50
39.4792447
51
90.147911
0
ARC
8
DEFAULT_255_2_778
10
25.7999935
20
155.1802222
40
0.7911595
50
359.8533901
51
39.5154338
0
ARC
8
DEFAULT_255_2_778
10
25.7996693
20
-1.9863503
40
0.7914836
50
309.4761667
51
0.1482649
0
ARC
8
DEFAULT_255_2_778
10
25.799398
20
-1.9867814
40
0.7913235
50
269.8517415
51
309.511178
0
ARC
8
DEFAULT_255_2_778
10
3.570342
20
-1.9867233
40
0.7913815
50
219.1282118
51
270.1454017
0
ARC
8
DEFAULT_255_2_778
10
3.5700247
20
-1.9863408
40
0.7913769
50
179.8524075
51
219.1641908
0
LINE
8
DEFAULT_255_2_778
10
3.5723503
20
155.9718978
11
25.7973503
21
155.9718978
0
LINE
8
DEFAULT_255_2_778
10
26.5911503
20
155.1781978
11
26.5911503
21
-1.9843022
0
LINE
8
DEFAULT_255_2_778
10
25.7973503
20
-2.7781022
11
3.5723503
21
-2.7781022
0
LINE
8
DEFAULT_255_2_778
10
2.7786503
20
-1.9843022
11
2.7786503
21
155.1781978
0
LINE
8
DEFAULT_255_1_234
10
8.539585
20
-0.0087609
11
8.539585
21
-0.1348592
0
LINE
8
DEFAULT_255_1_234
10
8.539585
20
-0.1348592
11
8.0488458
21
-0.1348592
0
LINE
8
DEFAULT_255_1_234
10
8.0488458
20
-0.1348592
11
8.0488458
21
-0.6513
0
LINE
8
DEFAULT_255_1_234
10
8.0488458
20
-0.6513
11
7.8946364
21
-0.6513
0
LINE
8
DEFAULT_255_1_234
10
7.8946364
20
-0.6513
11
7.8946364
21
0.5181211
0
LINE
8
DEFAULT_255_1_234
10
7.8946364
20
0.5181211
11
8.6190992
21
0.5181211
0
LINE
8
DEFAULT_255_1_234
10
8.6190992
20
0.5181211
11
8.6190992
21
0.3912196
0
LINE
8
DEFAULT_255_1_234
10
8.6190992
20
0.3912196
11
8.0488458
21
0.3912196
0
LINE
8
DEFAULT_255_1_234
10
8.0488458
20
0.3912196
11
8.0488458
21
-0.0087609
0
LINE
8
DEFAULT_255_1_234
10
8.0488458
20
-0.0087609
11
8.539585
21
-0.0087609
0
LINE
8
DEFAULT_255_1_234
10
8.9034227
20
0.5181211
11
9.1853367
21
0.0699501
0
LINE
8
DEFAULT_255_1_234
10
9.1853367
20
0.0699501
11
9.4656444
21
0.5181211
0
LINE
8
DEFAULT_255_1_234
10
9.4656444
20
0.5181211
11
9.6471617
21
0.5181211
0
LINE
8
DEFAULT_255_1_234
10
9.6471617
20
0.5181211
11
9.2777017
21
-0.0617704
0
LINE
8
DEFAULT_255_1_234
10
9.2777017
20
-0.0617704
11
9.6559966
21
-0.6513
0
LINE
8
DEFAULT_255_1_234
10
9.6559966
20
-0.6513
11
9.4728729
21
-0.6513
0
LINE
8
DEFAULT_255_1_234
10
9.4728729
20
-0.6513
11
9.1853367
21
-0.1950973
0
LINE
8
DEFAULT_255_1_234
10
9.1853367
20
-0.1950973
11
8.8961941
21
-0.6513
0
LINE
8
DEFAULT_255_1_234
10
8.8961941
20
-0.6513
11
8.7138737
21
-0.6513
0
LINE
8
DEFAULT_255_1_234
10
8.7138737
20
-0.6513
11
9.0929717
21
-0.0617704
0
LINE
8
DEFAULT_255_1_234
10
9.0929717
20
-0.0617704
11
8.7227086
21
0.5181211
0
LINE
8
DEFAULT_255_1_234
10
8.7227086
20
0.5181211
11
8.9034227
21
0.5181211
0
LINE
8
DEFAULT_255_1_234
10
10.0126058
20
-0.1155831
11
10.0126058
21
0.0056962
0
LINE
8
DEFAULT_255_1_234
10
10.0126058
20
0.0056962
11
10.1242469
21
0.0056962
0
LINE
8
DEFAULT_255_1_234
10
9.9338947
20
0.2113087
11
9.7853076
21
0.2113087
0
LINE
8
DEFAULT_255_1_234
10
9.7748663
20
-0.3428812
11
9.9242566
21
-0.3428812
0
LINE
8
DEFAULT_255_1_234
10
10.1242469
20
-0.1155831
11
10.0126058
21
-0.1155831
0
ARC
8
DEFAULT_255_1_234
10
10.1213336
20
0.3449713
40
0.3392876
50
270.4919872
51
281.8951556
0
ARC
8
DEFAULT_255_1_234
10
10.1454597
20
0.2347702
40
0.2264817
50
281.6691735
51
301.2943132
0
ARC
8
DEFAULT_255_1_234
10
10.1624808
20
0.2036304
40
0.1910381
50
301.7833094
51
311.7545298
0
ARC
8
DEFAULT_255_1_234
10
10.1716383
20
0.1934748
40
0.1773635
50
311.7323931
51
354.2802411
0
ARC
8
DEFAULT_255_1_234
10
10.0990009
20
0.2059722
40
0.2509385
50
353.0937916
51
0.1181479
0
ARC
8
DEFAULT_255_1_234
10
10.0528793
20
0.2107386
40
0.2970898
50
359.1805295
51
15.0453146
0
ARC
8
DEFAULT_255_1_234
10
10.187463
20
0.2499992
40
0.1569564
50
13.9577229
51
77.6713066
0
ARC
8
DEFAULT_255_1_234
10
10.148816
20
0.1114949
40
0.3006298
50
76.1116566
51
90.7026153
0
ARC
8
DEFAULT_255_1_234
10
10.1428998
20
0.1388545
40
0.2732568
50
89.5324876
51
103.531937
0
ARC
8
DEFAULT_255_1_234
10
10.1228442
20
0.2187884
40
0.1908508
50
103.2931773
51
133.5619022
0
ARC
8
DEFAULT_255_1_234
10
10.118393
20
0.2247375
40
0.1834746
50
133.8349307
51
173.5344437
0
ARC
8
DEFAULT_255_1_234
10
10.1906973
20
0.2119213
40
0.2568033
50
172.5096846
51
180.1366907
0
ARC
8
DEFAULT_255_1_234
10
10.0955867
20
0.2153622
40
0.3103056
50
155.3484492
51
180.7484736
0
ARC
8
DEFAULT_255_1_234
10
10.0906956
20
0.2124846
40
0.3070957
50
131.5744599
51
154.4798489
0
ARC
8
DEFAULT_255_1_234
10
10.1220104
20
0.180831
40
0.3515643
50
96.9875458
51
131.9690667
0
ARC
8
DEFAULT_255_1_234
10
10.1439584
20
0.0562636
40
0.4779224
50
89.8596053
51
97.7825159
0
ARC
8
DEFAULT_255_1_234
10
10.1487647
20
0.0300616
40
0.5041361
50
78.3655447
51
90.4131539
0
ARC
8
DEFAULT_255_1_234
10
10.1845565
20
0.1959887
40
0.3344039
50
56.6229102
51
78.638727
0
ARC
8
DEFAULT_255_1_234
10
10.2060508
20
0.2335805
40
0.2912001
50
47.0253525
51
56.0854072
0
ARC
8
DEFAULT_255_1_234
10
10.2080288
20
0.2375223
40
0.2869704
50
10.9208013
51
46.7778124
0
ARC
8
DEFAULT_255_1_234
10
10.0716355
20
0.2059857
40
0.426899
50
359.6364486
51
11.6087304
0
ARC
8
DEFAULT_255_1_234
10
10.2551199
20
0.2044752
40
0.243409
50
332.3549906
51
359.7179418
0
ARC
8
DEFAULT_255_1_234
10
10.19008
20
0.2353142
40
0.3153459
50
325.2333722
51
332.8745602
0
ARC
8
DEFAULT_255_1_234
10
10.2053424
20
0.2246828
40
0.2967456
50
292.9802137
51
325.2392345
0
ARC
8
DEFAULT_255_1_234
10
10.1778798
20
0.2780863
40
0.3566604
50
292.5402179
51
293.6924929
0
ARC
8
DEFAULT_255_1_234
10
10.2171394
20
-0.3673909
40
0.3307468
50
57.6435486
51
72.8625112
0
ARC
8
DEFAULT_255_1_234
10
10.2525894
20
-0.3099451
40
0.2632492
50
36.7248896
51
57.4697979
0
ARC
8
DEFAULT_255_1_234
10
10.2514526
20
-0.308678
40
0.2634081
50
8.0545065
51
36.356114
0
ARC
8
DEFAULT_255_1_234
10
10.1651712
20
-0.3241826
40
0.3510261
50
359.8320645
51
8.5869982
0
ARC
8
DEFAULT_255_1_234
10
10.1276488
20
-0.3289899
40
0.3885653
50
343.9829931
51
0.5571613
0
ARC
8
DEFAULT_255_1_234
10
10.2162685
20
-0.3532562
40
0.2966924
50
311.6359546
51
343.7651759
0
ARC
8
DEFAULT_255_1_234
10
10.1784254
20
-0.3105898
40
0.3537231
50
279.7829875
51
311.6255694
0
ARC
8
DEFAULT_255_1_234
10
10.148303
20
-0.166872
40
0.5004971
50
269.7286406
51
280.3856417
0
ARC
8
DEFAULT_255_1_234
10
10.1421103
20
-0.1710004
40
0.4963778
50
256.6828919
51
270.4412052
0
ARC
8
DEFAULT_255_1_234
10
10.1082399
20
-0.3094606
40
0.3538406
50
229.4223008
51
256.8556159
0
ARC
8
DEFAULT_255_1_234
10
10.0667792
20
-0.3561264
40
0.2914296
50
181.818294
51
229.6455059
0
ARC
8
DEFAULT_255_1_234
10
10.1707748
20
-0.3430504
40
0.3959084
50
179.9755256
51
183.2323064
0
ARC
8
DEFAULT_255_1_234
10
10.1535494
20
-0.3450963
40
0.2293034
50
179.4465117
51
196.2869258
0
ARC
8
DEFAULT_255_1_234
10
10.1047902
20
-0.3584349
40
0.1787621
50
196.5661473
51
227.705904
0
ARC
8
DEFAULT_255_1_234
10
10.1211996
20
-0.3400845
40
0.2033784
50
227.7652068
51
257.8762805
0
ARC
8
DEFAULT_255_1_234
10
10.1436967
20
-0.2457844
40
0.3003081
50
257.4584385
51
270.426602
0
ARC
8
DEFAULT_255_1_234
10
10.1482533
20
-0.2168004
40
0.329292
50
269.5962073
51
280.8789248
0
ARC
8
DEFAULT_255_1_234
10
10.1712062
20
-0.3314315
40
0.2123908
50
280.6346389
51
299.8595945
0
ARC
8
DEFAULT_255_1_234
10
10.1902968
20
-0.3676788
40
0.171457
50
300.3576302
51
314.5517981
0
ARC
8
DEFAULT_255_1_234
10
10.1820028
20
-0.3616081
40
0.1816095
50
315.0728369
51
345.0431014
0
ARC
8
DEFAULT_255_1_234
10
10.0896843
20
-0.3347159
40
0.2777492
50
344.5986631
51
357.9269593
0
ARC
8
DEFAULT_255_1_234
10
10.0001169
20
-0.3285724
40
0.3674917
50
357.4748886
51
0.0231117
0
ARC
8
DEFAULT_255_1_234
10
10.1024278
20
-0.3261321
40
0.2651907
50
359.5047933
51
13.4239635
0
ARC
8
DEFAULT_255_1_234
10
10.1890922
20
-0.3039522
40
0.1757509
50
12.9498199
51
48.7551375
0
ARC
8
DEFAULT_255_1_234
10
10.1708656
20
-0.32886
40
0.2065134
50
49.5088623
51
72.1836453
0
ARC
8
DEFAULT_255_1_234
10
10.1350808
20
-0.4350709
40
0.3185836
50
71.9010081
51
84.3554254
0
ARC
8
DEFAULT_255_1_234
10
10.118944
20
-0.5711674
40
0.4556151
50
84.0193428
51
89.333121
0
LINE
8
DEFAULT_255_1_234
10
11.4269949
20
0.5181211
11
11.5820074
21
0.5181211
0
LINE
8
DEFAULT_255_1_234
10
11.5820074
20
0.5181211
11
11.5820074
21
-0.277021
0
LINE
8
DEFAULT_255_1_234
10
11.1980903
20
-0.6657571
11
11.1571285
21
-0.6673635
0
LINE
8
DEFAULT_255_1_234
10
10.7354622
20
-0.2786273
11
10.7354622
21
0.5181211
0
LINE
8
DEFAULT_255_1_234
10
10.7354622
20
0.5181211
11
10.8880652
21
0.5181211
0
LINE
8
DEFAULT_255_1_234
10
10.8880652
20
0.5181211
11
10.8880652
21
-0.2738083
0
LINE
8
DEFAULT_255_1_234
10
11.4269949
20
-0.2746115
11
11.4269949
21
0.5181211
0
ARC
8
DEFAULT_255_1_234
10
11.1466973
20
-0.2790072
40
0.4353147
50
343.0898354
51
0.2614217
0
ARC
8
DEFAULT_255_1_234
10
11.2295374
20
-0.3021163
40
0.3493402
50
315.3345598
51
342.7641223
0
ARC
8
DEFAULT_255_1_234
10
11.2071823
20
-0.2789318
40
0.3815385
50
284.6606969
51
315.2182466
0
ARC
8
DEFAULT_255_1_234
10
11.1616536
20
-0.1243245
40
0.5426573
50
273.8500273
51
285.1797701
0
ARC
8
DEFAULT_255_1_234
10
11.1528586
20
-0.0901525
40
0.5772268
50
257.6317484
51
270.4238298
0
ARC
8
DEFAULT_255_1_234
10
11.1103784
20
-0.2722802
40
0.3902347
50
230.6087562
51
257.9964012
0
ARC
8
DEFAULT_255_1_234
10
11.0971786
20
-0.2929198
40
0.3659186
50
227.7440991
51
230.1551448
0
ARC
8
DEFAULT_255_1_234
10
11.0837618
20
-0.3090529
40
0.3449568
50
189.2524587
51
227.5916061
0
ARC
8
DEFAULT_255_1_234
10
11.2359304
20
-0.2762987
40
0.5004737
50
180.2665968
51
190.1525252
0
ARC
8
DEFAULT_255_1_234
10
11.2581324
20
-0.2766082
40
0.3700778
50
179.5665184
51
191.9952995
0
ARC
8
DEFAULT_255_1_234
10
11.1353431
20
-0.3039957
40
0.2442808
50
191.6974072
51
215.1404042
0
ARC
8
DEFAULT_255_1_234
10
11.1115345
20
-0.3181892
40
0.2166522
50
215.6950207
51
224.8513522
0
ARC
8
DEFAULT_255_1_234
10
11.1171089
20
-0.3102303
40
0.2262237
50
225.2846858
51
255.0111758
0
ARC
8
DEFAULT_255_1_234
10
11.1495049
20
-0.1988545
40
0.3421979
50
254.5944985
51
267.9129803
0
ARC
8
DEFAULT_255_1_234
10
11.156953
20
-0.0904097
40
0.4508556
50
267.4689655
51
270.0223026
0
ARC
8
DEFAULT_255_1_234
10
11.1599675
20
-0.1493151
40
0.3919604
50
269.5849941
51
281.1843768
0
ARC
8
DEFAULT_255_1_234
10
11.187844
20
-0.2845941
40
0.2538457
50
280.9344262
51
300.9743589
0
ARC
8
DEFAULT_255_1_234
10
11.2091045
20
-0.3237312
40
0.2093566
50
301.4980046
51
315.1466847
0
ARC
8
DEFAULT_255_1_234
10
11.1946584
20
-0.3118764
40
0.2279656
50
315.5952539
51
345.6678731
0
ARC
8
DEFAULT_255_1_234
10
11.08271
20
-0.2806991
40
0.3441564
50
345.2524969
51
358.6304371
0
ARC
8
DEFAULT_255_1_234
10
10.9809454
20
-0.2747084
40
0.4460494
50
358.1735671
51
0.0124524
0
LINE
8
DEFAULT_255_1_234
10
12.5305557
20
-0.2802337
11
12.6855683
21
-0.2802337
0
LINE
8
DEFAULT_255_1_234
10
11.7852104
20
-0.1212053
11
11.7852104
21
-0.0087609
0
LINE
8
DEFAULT_255_1_234
10
12.6855683
20
0.1422357
11
12.5305557
21
0.1422357
0
LINE
8
DEFAULT_255_1_234
10
11.9402229
20
-0.0127768
11
11.9402229
21
-0.1260243
0
ARC
8
DEFAULT_255_1_234
10
12.137507
20
-0.2205154
40
0.5513052
50
340.1774281
51
353.7814284
0
ARC
8
DEFAULT_255_1_234
10
12.2946422
20
-0.2790418
40
0.3836379
50
311.4558989
51
340.4421614
0
ARC
8
DEFAULT_255_1_234
10
12.291309
20
-0.2679472
40
0.3941894
50
282.4333181
51
310.7513653
0
ARC
8
DEFAULT_255_1_234
10
12.2473829
20
-0.0864321
40
0.5809175
50
269.9358511
51
282.809604
0
ARC
8
DEFAULT_255_1_234
10
12.2421896
20
0.0593212
40
0.7266847
50
270.0021091
51
270.3581957
0
ARC
8
DEFAULT_255_1_234
10
12.2369312
20
-0.2007415
40
0.4666519
50
250.7884749
51
270.6489167
0
ARC
8
DEFAULT_255_1_234
10
12.2201147
20
-0.2644681
40
0.4009729
50
219.3627325
51
250.0611886
0
ARC
8
DEFAULT_255_1_234
10
12.3030358
20
-0.1939958
40
0.5097822
50
193.5479632
51
219.5756669
0
ARC
8
DEFAULT_255_1_234
10
12.5401979
20
-0.1324081
40
0.7547848
50
181.1218675
51
193.87563
0
ARC
8
DEFAULT_255_1_234
10
12.747216
20
-0.121342
40
0.9620055
50
179.9918545
51
181.5394234
0
ARC
8
DEFAULT_255_1_234
10
12.5621262
20
-0.0050212
40
0.7769248
50
169.5837241
51
180.2757934
0
ARC
8
DEFAULT_255_1_234
10
12.37842
20
0.0289229
40
0.590109
50
155.0365899
51
169.6003176
0
ARC
8
DEFAULT_255_1_234
10
12.2648664
20
0.0836677
40
0.4640625
50
136.783148
51
155.2472683
0
ARC
8
DEFAULT_255_1_234
10
12.2259141
20
0.1167562
40
0.4130255
50
121.7633186
51
136.428115
0
ARC
8
DEFAULT_255_1_234
10
12.2394103
20
0.0918227
40
0.4413323
50
95.6459699
51
121.5490577
0
ARC
8
DEFAULT_255_1_234
10
12.2551385
20
-0.0190051
40
0.55319
50
89.924208
51
96.1377933
0
ARC
8
DEFAULT_255_1_234
10
12.2601818
20
-0.0071458
40
0.5413475
50
76.6779277
51
90.4563316
0
ARC
8
DEFAULT_255_1_234
10
12.2995441
20
0.1519114
40
0.3775041
50
47.485847
51
76.9287264
0
ARC
8
DEFAULT_255_1_234
10
12.2848414
20
0.1419159
40
0.3948286
50
16.5424086
51
46.8933463
0
ARC
8
DEFAULT_255_1_234
10
12.1240571
20
0.0890861
40
0.564021
50
5.4072051
51
17.0365086
0
ARC
8
DEFAULT_255_1_234
10
11.9801588
20
0.0659679
40
0.5556559
50
7.8891745
51
15.9239216
0
ARC
8
DEFAULT_255_1_234
10
12.1788602
20
0.1236631
40
0.3487515
50
15.7653144
51
27.9410532
0
ARC
8
DEFAULT_255_1_234
10
12.2892819
20
0.182779
40
0.2235026
50
27.8166557
51
46.4008329
0
ARC
8
DEFAULT_255_1_234
10
12.2942462
20
0.1822082
40
0.2205286
50
47.4371857
51
75.0698205
0
ARC
8
DEFAULT_255_1_234
10
12.2633857
20
0.0747765
40
0.3322915
50
74.7008593
51
87.8124495
0
ARC
8
DEFAULT_255_1_234
10
12.2560544
20
-0.0308156
40
0.4380987
50
87.3814673
51
90.0240855
0
ARC
8
DEFAULT_255_1_234
10
12.2522088
20
0.0869291
40
0.3203749
50
89.3451631
51
108.5745436
0
ARC
8
DEFAULT_255_1_234
10
12.2385193
20
0.1382908
40
0.2673494
50
109.2998449
51
143.3037509
0
ARC
8
DEFAULT_255_1_234
10
12.3147266
20
0.0796881
40
0.3634757
50
143.0753173
51
163.1916937
0
ARC
8
DEFAULT_255_1_234
10
12.5098993
20
0.0180967
40
0.5681262
50
162.9373603
51
174.6208611
0
ARC
8
DEFAULT_255_1_234
10
12.7725035
20
-0.010699
40
0.8322832
50
174.3419979
51
180.1430411
0
ARC
8
DEFAULT_255_1_234
10
12.6794192
20
-0.1301302
40
0.7392076
50
179.6817502
51
189.150529
0
ARC
8
DEFAULT_255_1_234
10
12.429344
20
-0.171781
40
0.4856932
50
188.9910863
51
203.5773039
0
ARC
8
DEFAULT_255_1_234
10
12.3213772
20
-0.2165789
40
0.3688271
50
203.9077269
51
215.1312379
0
ARC
8
DEFAULT_255_1_234
10
12.2290866
20
-0.2881059
40
0.2522457
50
213.9071664
51
263.8849284
0
ARC
8
DEFAULT_255_1_234
10
12.2416195
20
-0.2096482
40
0.3316174
50
263.1758525
51
270.1031083
0
ARC
8
DEFAULT_255_1_234
10
12.2448287
20
-0.0849635
40
0.4563091
50
269.6719807
51
279.0609165
0
ARC
8
DEFAULT_255_1_234
10
12.2715055
20
-0.2462093
40
0.2928759
50
278.8750225
51
293.6346586
0
ARC
8
DEFAULT_255_1_234
10
12.3035263
20
-0.32141
40
0.2111472
50
293.8553404
51
310.0518804
0
ARC
8
DEFAULT_255_1_234
10
12.3040117
20
-0.3276484
40
0.2060917
50
311.0646779
51
332.0108348
0
ARC
8
DEFAULT_255_1_234
10
12.1847844
20
-0.2619022
40
0.3422352
50
331.6588543
51
343.2878891
0
ARC
8
DEFAULT_255_1_234
10
11.9785359
20
-0.1985202
40
0.5580003
50
343.1446044
51
351.010618
0
ARC
8
DEFAULT_255_1_234
10
11.8244005
20
-0.1704129
40
0.7146438
50
350.7157277
51
351.1602153
0
LINE
8
DEFAULT_255_1_234
10
13.1819297
20
-0.0938974
11
13.1819297
21
-0.2151766
0
LINE
8
DEFAULT_255_1_234
10
13.1819297
20
-0.2151766
11
12.7899809
21
-0.2151766
0
LINE
8
DEFAULT_255_1_234
10
12.7899809
20
-0.2151766
11
12.7899809
21
-0.0938974
0
LINE
8
DEFAULT_255_1_234
10
12.7899809
20
-0.0938974
11
13.1819297
21
-0.0938974
0
LINE
8
DEFAULT_255_1_234
10
13.5272944
20
-0.1155831
11
13.5272944
21
0.0056962
0
LINE
8
DEFAULT_255_1_234
10
13.5272944
20
0.0056962
11
13.6389356
21
0.0056962
0
LINE
8
DEFAULT_255_1_234
10
13.4485834
20
0.2113087
11
13.2999962
21
0.2113087
0
LINE
8
DEFAULT_255_1_234
10
13.289555
20
-0.3428812
11
13.4389453
21
-0.3428812
0
LINE
8
DEFAULT_255_1_234
10
13.6389356
20
-0.1155831
11
13.5272944
21
-0.1155831
0
ARC
8
DEFAULT_255_1_234
10
13.6360222
20
0.3449713
40
0.3392876
50
270.4919872
51
281.8951556
0
ARC
8
DEFAULT_255_1_234
10
13.6601484
20
0.2347702
40
0.2264817
50
281.6691735
51
301.2943132
0
ARC
8
DEFAULT_255_1_234
10
13.6771694
20
0.2036304
40
0.1910381
50
301.7833094
51
311.7545298
0
ARC
8
DEFAULT_255_1_234
10
13.686327
20
0.1934748
40
0.1773635
50
311.7323931
51
354.2802411
0
ARC
8
DEFAULT_255_1_234
10
13.6136895
20
0.2059722
40
0.2509385
50
353.0937916
51
0.1181479
0
ARC
8
DEFAULT_255_1_234
10
13.567568
20
0.2107386
40
0.2970898
50
359.1805295
51
15.0453146
0
ARC
8
DEFAULT_255_1_234
10
13.7021517
20
0.2499992
40
0.1569564
50
13.9577229
51
77.6713066
0
ARC
8
DEFAULT_255_1_234
10
13.6635046
20
0.1114949
40
0.3006298
50
76.1116566
51
90.7026153
0
ARC
8
DEFAULT_255_1_234
10
13.6575885
20
0.1388545
40
0.2732568
50
89.5324876
51
103.531937
0
ARC
8
DEFAULT_255_1_234
10
13.6375329
20
0.2187884
40
0.1908508
50
103.2931773
51
133.5619022
0
ARC
8
DEFAULT_255_1_234
10
13.6330817
20
0.2247375
40
0.1834746
50
133.8349307
51
173.5344437
0
ARC
8
DEFAULT_255_1_234
10
13.705386
20
0.2119213
40
0.2568033
50
172.5096846
51
180.1366907
0
ARC
8
DEFAULT_255_1_234
10
13.6102754
20
0.2153622
40
0.3103056
50
155.3484492
51
180.7484736
0
ARC
8
DEFAULT_255_1_234
10
13.6053843
20
0.2124846
40
0.3070957
50
131.5744599
51
154.4798489
0
ARC
8
DEFAULT_255_1_234
10
13.6366991
20
0.180831
40
0.3515643
50
96.9875458
51
131.9690667
0
ARC
8
DEFAULT_255_1_234
10
13.658647
20
0.0562636
40
0.4779224
50
89.8596053
51
97.7825159
0
ARC
8
DEFAULT_255_1_234
10
13.6634534
20
0.0300616
40
0.5041361
50
78.3655447
51
90.4131539
0
ARC
8
DEFAULT_255_1_234
10
13.6992451
20
0.1959887
40
0.3344039
50
56.6229102
51
78.638727
0
ARC
8
DEFAULT_255_1_234
10
13.7207395
20
0.2335805
40
0.2912001
50
47.0253525
51
56.0854072
0
ARC
8
DEFAULT_255_1_234
10
13.7227175
20
0.2375223
40
0.2869704
50
10.9208013
51
46.7778124
0
ARC
8
DEFAULT_255_1_234
10
13.5863242
20
0.2059857
40
0.426899
50
359.6364486
51
11.6087304
0
ARC
8
DEFAULT_255_1_234
10
13.7698086
20
0.2044752
40
0.243409
50
332.3549906
51
359.7179418
0
ARC
8
DEFAULT_255_1_234
10
13.7047687
20
0.2353142
40
0.3153459
50
325.2333722
51
332.8745602
0
ARC
8
DEFAULT_255_1_234
10
13.7200311
20
0.2246828
40
0.2967456
50
292.9802137
51
325.2392345
0
ARC
8
DEFAULT_255_1_234
10
13.6925685
20
0.2780863
40
0.3566604
50
292.5402179
51
293.6924929
0
ARC
8
DEFAULT_255_1_234
10
13.7318281
20
-0.3673909
40
0.3307468
50
57.6435486
51
72.8625112
0
ARC
8
DEFAULT_255_1_234
10
13.767278
20
-0.3099451
40
0.2632492
50
36.7248896
51
57.4697979
0
ARC
8
DEFAULT_255_1_234
10
13.7661413
20
-0.308678
40
0.2634081
50
8.0545065
51
36.356114
0
ARC
8
DEFAULT_255_1_234
10
13.6798598
20
-0.3241826
40
0.3510261
50
359.8320645
51
8.5869982
0
ARC
8
DEFAULT_255_1_234
10
13.6423375
20
-0.3289899
40
0.3885653
50
343.9829931
51
0.5571613
0
ARC
8
DEFAULT_255_1_234
10
13.7309572
20
-0.3532562
40
0.2966924
50
311.6359546
51
343.7651759
0
ARC
8
DEFAULT_255_1_234
10
13.6931141
20
-0.3105898
40
0.3537231
50
279.7829875
51
311.6255694
0
ARC
8
DEFAULT_255_1_234
10
13.6629917
20
-0.166872
40
0.5004971
50
269.7286406
51
280.3856417
0
ARC
8
DEFAULT_255_1_234
10
13.656799
20
-0.1710004
40
0.4963778
50
256.6828919
51
270.4412052
0
ARC
8
DEFAULT_255_1_234
10
13.6229286
20
-0.3094606
40
0.3538406
50
229.4223008
51
256.8556159
0
ARC
8
DEFAULT_255_1_234
10
13.5814678
20
-0.3561264
40
0.2914296
50
181.818294
51
229.6455059
0
ARC
8
DEFAULT_255_1_234
10
13.6854635
20
-0.3430504
40
0.3959084
50
179.9755256
51
183.2323064
0
ARC
8
DEFAULT_255_1_234
10
13.668238
20
-0.3450963
40
0.2293034
50
179.4465117
51
196.2869258
0
ARC
8
DEFAULT_255_1_234
10
13.6194788
20
-0.3584349
40
0.1787621
50
196.5661473
51
227.705904
0
ARC
8
DEFAULT_255_1_234
10
13.6358883
20
-0.3400845
40
0.2033784
50
227.7652068
51
257.8762805
0
ARC
8
DEFAULT_255_1_234
10
13.6583853
20
-0.2457844
40
0.3003081
50
257.4584385
51
270.426602
0
ARC
8
DEFAULT_255_1_234
10
13.662942
20
-0.2168004
40
0.329292
50
269.5962073
51
280.8789248
0
ARC
8
DEFAULT_255_1_234
10
13.6858948
20
-0.3314315
40
0.2123908
50
280.6346389
51
299.8595945
0
ARC
8
DEFAULT_255_1_234
10
13.7049855
20
-0.3676788
40
0.171457
50
300.3576302
51
314.5517981
0
ARC
8
DEFAULT_255_1_234
10
13.6966915
20
-0.3616081
40
0.1816095
50
315.0728369
51
345.0431014
0
ARC
8
DEFAULT_255_1_234
10
13.604373
20
-0.3347159
40
0.2777492
50
344.5986631
51
357.9269593
0
ARC
8
DEFAULT_255_1_234
10
13.5148056
20
-0.3285724
40
0.3674917
50
357.4748886
51
0.0231117
0
ARC
8
DEFAULT_255_1_234
10
13.6171165
20
-0.3261321
40
0.2651907
50
359.5047933
51
13.4239635
0
ARC
8
DEFAULT_255_1_234
10
13.7037809
20
-0.3039522
40
0.1757509
50
12.9498199
51
48.7551375
0
ARC
8
DEFAULT_255_1_234
10
13.6855543
20
-0.32886
40
0.2065134
50
49.5088623
51
72.1836453
0
ARC
8
DEFAULT_255_1_234
10
13.6497695
20
-0.4350709
40
0.3185836
50
71.9010081
51
84.3554254
0
ARC
8
DEFAULT_255_1_234
10
13.6336327
20
-0.5711674
40
0.4556151
50
84.0193428
51
89.333121
0
LINE
8
DEFAULT_255_1_234
10
15.0011184
20
-0.5300208
11
15.0011184
21
-0.6513
0
LINE
8
DEFAULT_255_1_234
10
15.0011184
20
-0.6513
11
14.2348906
21
-0.6513
0
LINE
8
DEFAULT_255_1_234
10
14.2348906
20
-0.6513
11
14.2348906
21
-0.5444779
0
LINE
8
DEFAULT_255_1_234
10
14.2348906
20
-0.5444779
11
14.6396902
21
-0.0947005
0
LINE
8
DEFAULT_255_1_234
10
14.3609889
20
0.1735595
11
14.2124017
21
0.1735595
0
LINE
8
DEFAULT_255_1_234
10
14.7272361
20
-0.1902782
11
14.4139983
21
-0.5300208
0
LINE
8
DEFAULT_255_1_234
10
14.4139983
20
-0.5300208
11
15.0011184
21
-0.5300208
0
ARC
8
DEFAULT_255_1_234
10
13.2906735
20
1.0982527
40
1.8008286
50
318.5132453
51
320.7828378
0
ARC
8
DEFAULT_255_1_234
10
13.819371
20
0.6679426
40
1.1191493
50
320.7372736
51
323.9737074
0
ARC
8
DEFAULT_255_1_234
10
14.2113566
20
0.3839361
40
0.6350923
50
323.8961724
51
328.6421089
0
ARC
8
DEFAULT_255_1_234
10
14.4160161
20
0.2577031
40
0.3946393
50
328.8299013
51
331.789948
0
ARC
8
DEFAULT_255_1_234
10
14.515734
20
0.2062509
40
0.2824501
50
331.4255242
51
352.9364833
0
ARC
8
DEFAULT_255_1_234
10
14.5293841
20
0.2031976
40
0.2685315
50
353.2248685
51
0.0169286
0
ARC
8
DEFAULT_255_1_234
10
14.5503717
20
0.205495
40
0.2475536
50
359.4866256
51
15.9339782
0
ARC
8
DEFAULT_255_1_234
10
14.6010703
20
0.2191286
40
0.1950618
50
16.1714718
51
43.5284424
0
ARC
8
DEFAULT_255_1_234
10
14.6088011
20
0.2268573
40
0.184134
50
43.4415429
51
83.1661404
0
ARC
8
DEFAULT_255_1_234
10
14.5953929
20
0.1531771
40
0.258926
50
82.160215
51
90.1505798
0
ARC
8
DEFAULT_255_1_234
10
14.5922357
20
0.0994865
40
0.3126255
50
89.5460705
51
102.5418777
0
ARC
8
DEFAULT_255_1_234
10
14.5679443
20
0.2025665
40
0.2067346
50
102.1739365
51
129.2061916
0
ARC
8
DEFAULT_255_1_234
10
14.5600515
20
0.2150094
40
0.1921118
50
129.7279328
51
135.7542026
0
ARC
8
DEFAULT_255_1_234
10
14.5722042
20
0.2053045
40
0.2075944
50
136.175737
51
166.3674722
0
ARC
8
DEFAULT_255_1_234
10
14.6728962
20
0.1783182
40
0.3118201
50
165.9092917
51
178.8683903
0
ARC
8
DEFAULT_255_1_234
10
14.7593823
20
0.1736179
40
0.3983935
50
178.438168
51
180.0083905
0
ARC
8
DEFAULT_255_1_234
10
14.6192425
20
0.1775231
40
0.4068601
50
163.2878735
51
180.5581814
0
ARC
8
DEFAULT_255_1_234
10
14.5390686
20
0.199584
40
0.3237344
50
133.454115
51
162.9470031
0
ARC
8
DEFAULT_255_1_234
10
14.5569228
20
0.1806
40
0.349795
50
100.7869394
51
133.4384016
0
ARC
8
DEFAULT_255_1_234
10
14.5916999
20
0.0257319
40
0.5084616
50
89.6605301
51
101.3704185
0
ARC
8
DEFAULT_255_1_234
10
14.5983338
20
0.0318496
40
0.502348
50
78.2171172
51
90.4130393
0
ARC
8
DEFAULT_255_1_234
10
14.6338416
20
0.1942637
40
0.3361092
50
55.9268222
51
78.4888551
0
ARC
8
DEFAULT_255_1_234
10
14.6534856
20
0.2281324
40
0.2970617
50
47.9292255
51
55.4054003
0
ARC
8
DEFAULT_255_1_234
10
14.6636417
20
0.2384502
40
0.2825983
50
4.3347696
51
48.0560701
0
ARC
8
DEFAULT_255_1_234
10
14.5540811
20
0.2214601
40
0.393225
50
359.925209
51
5.5967654
0
ARC
8
DEFAULT_255_1_234
10
14.5969702
20
0.2270816
40
0.3503892
50
337.8914096
51
358.9967724
0
ARC
8
DEFAULT_255_1_234
10
14.3256115
20
0.3317706
40
0.6412172
50
326.9135351
51
338.3505194
0
ARC
8
DEFAULT_255_1_234
10
13.9270418
20
0.5872284
40
1.1146189
50
319.6472867
51
327.095818
0
ARC
8
DEFAULT_255_1_234
10
13.5437421
20
0.9034
40
1.6114559
50
317.2586784
51
319.9046139
0
LINE
8
DEFAULT_255_1_234
10
15.1970928
20
0.5181211
11
15.3962799
21
0.5181211
0
LINE
8
DEFAULT_255_1_234
10
15.3962799
20
0.5181211
11
15.7785907
21
-0.4360494
0
LINE
8
DEFAULT_255_1_234
10
15.7785907
20
-0.4360494
11
16.1609014
21
0.5181211
0
LINE
8
DEFAULT_255_1_234
10
16.1609014
20
0.5181211
11
16.3608917
21
0.5181211
0
LINE
8
DEFAULT_255_1_234
10
16.3608917
20
0.5181211
11
16.3608917
21
-0.6513
0
LINE
8
DEFAULT_255_1_234
10
16.3608917
20
-0.6513
11
16.2066823
21
-0.6513
0
LINE
8
DEFAULT_255_1_234
10
16.2066823
20
-0.6513
11
16.2066823
21
-0.1959004
0
LINE
8
DEFAULT_255_1_234
10
16.2066823
20
-0.1959004
11
16.2211395
21
0.2956419
0
LINE
8
DEFAULT_255_1_234
10
16.2211395
20
0.2956419
11
15.8372224
21
-0.6513
0
LINE
8
DEFAULT_255_1_234
10
15.8372224
20
-0.6513
11
15.7191558
21
-0.6513
0
LINE
8
DEFAULT_255_1_234
10
15.7191558
20
-0.6513
11
15.3360419
21
0.2932324
0
LINE
8
DEFAULT_255_1_234
10
15.3360419
20
0.2932324
11
15.3513022
21
-0.1959004
0
LINE
8
DEFAULT_255_1_234
10
15.3513022
20
-0.1959004
11
15.3513022
21
-0.6513
0
LINE
8
DEFAULT_255_1_234
10
15.3513022
20
-0.6513
11
15.1970928
21
-0.6513
0
LINE
8
DEFAULT_255_1_234
10
15.1970928
20
-0.6513
11
15.1970928
21
0.5181211
0
LINE
8
DEFAULT_255_1_234
10
17.4178685
20
0.5181211
11
17.4178685
21
0.3912196
0
LINE
8
DEFAULT_255_1_234
10
17.4178685
20
0.3912196
11
17.0419831
21
0.3912196
0
LINE
8
DEFAULT_255_1_234
10
17.0419831
20
0.3912196
11
17.0419831
21
-0.6513
0
LINE
8
DEFAULT_255_1_234
10
17.0419831
20
-0.6513
11
16.8885769
21
-0.6513
0
LINE
8
DEFAULT_255_1_234
10
16.8885769
20
-0.6513
11
16.8885769
21
0.3912196
0
LINE
8
DEFAULT_255_1_234
10
16.8885769
20
0.3912196
11
16.5134947
21
0.3912196
0
LINE
8
DEFAULT_255_1_234
10
16.5134947
20
0.3912196
11
16.5134947
21
0.5181211
0
LINE
8
DEFAULT_255_1_234
10
16.5134947
20
0.5181211
11
17.4178685
21
0.5181211
0
LINE
8
DEFAULT_255_1_234
10
17.6909476
20
-0.0938974
11
17.6909476
21
-0.2151766
0
LINE
8
DEFAULT_255_1_234
10
17.6909476
20
-0.2151766
11
17.2989987
21
-0.2151766
0
LINE
8
DEFAULT_255_1_234
10
17.2989987
20
-0.2151766
11
17.2989987
21
-0.0938974
0
LINE
8
DEFAULT_255_1_234
10
17.2989987
20
-0.0938974
11
17.6909476
21
-0.0938974
0
LINE
8
DEFAULT_255_1_234
10
18.0138234
20
0.5181211
11
18.0138234
21
-0.5252017
0
LINE
8
DEFAULT_255_1_234
10
18.0138234
20
-0.5252017
11
18.5680134
21
-0.5252017
0
LINE
8
DEFAULT_255_1_234
10
18.5680134
20
-0.5252017
11
18.5680134
21
-0.6513
0
LINE
8
DEFAULT_255_1_234
10
18.5680134
20
-0.6513
11
17.8588109
21
-0.6513
0
LINE
8
DEFAULT_255_1_234
10
17.8588109
20
-0.6513
11
17.8588109
21
0.5181211
0
LINE
8
DEFAULT_255_1_234
10
17.8588109
20
0.5181211
11
18.0138234
21
0.5181211
0
LINE
8
DEFAULT_255_1_234
10
19.3310285
20
0.5181211
11
19.3310285
21
0.3912196
0
LINE
8
DEFAULT_255_1_234
10
19.3310285
20
0.3912196
11
18.9551432
21
0.3912196
0
LINE
8
DEFAULT_255_1_234
10
18.9551432
20
0.3912196
11
18.9551432
21
-0.6513
0
LINE
8
DEFAULT_255_1_234
10
18.9551432
20
-0.6513
11
18.801737
21
-0.6513
0
LINE
8
DEFAULT_255_1_234
10
18.801737
20
-0.6513
11
18.801737
21
0.3912196
0
LINE
8
DEFAULT_255_1_234
10
18.801737
20
0.3912196
11
18.4266548
21
0.3912196
0
LINE
8
DEFAULT_255_1_234
10
18.4266548
20
0.3912196
11
18.4266548
21
0.5181211
0
LINE
8
DEFAULT_255_1_234
10
18.4266548
20
0.5181211
11
19.3310285
21
0.5181211
0
LINE
8
DEFAULT_255_1_234
10
19.6041076
20
-0.0938974
11
19.6041076
21
-0.2151766
0
LINE
8
DEFAULT_255_1_234
10
19.6041076
20
-0.2151766
11
19.2121588
21
-0.2151766
0
LINE
8
DEFAULT_255_1_234
10
19.2121588
20
-0.2151766
11
19.2121588
21
-0.0938974
0
LINE
8
DEFAULT_255_1_234
10
19.2121588
20
-0.0938974
11
19.6041076
21
-0.0938974
0
LINE
8
DEFAULT_255_1_234
10
20.4996464
20
-0.5300208
11
20.4996464
21
-0.6513
0
LINE
8
DEFAULT_255_1_234
10
20.4996464
20
-0.6513
11
19.7334186
21
-0.6513
0
LINE
8
DEFAULT_255_1_234
10
19.7334186
20
-0.6513
11
19.7334186
21
-0.5444779
0
LINE
8
DEFAULT_255_1_234
10
19.7334186
20
-0.5444779
11
20.1382182
21
-0.0947005
0
LINE
8
DEFAULT_255_1_234
10
19.8595169
20
0.1735595
11
19.7109297
21
0.1735595
0
LINE
8
DEFAULT_255_1_234
10
20.2257642
20
-0.1902782
11
19.9125264
21
-0.5300208
0
LINE
8
DEFAULT_255_1_234
10
19.9125264
20
-0.5300208
11
20.4996464
21
-0.5300208
0
ARC
8
DEFAULT_255_1_234
10
18.7892015
20
1.0982527
40
1.8008286
50
318.5132453
51
320.7828378
0
ARC
8
DEFAULT_255_1_234
10
19.317899
20
0.6679426
40
1.1191493
50
320.7372736
51
323.9737074
0
ARC
8
DEFAULT_255_1_234
10
19.7098846
20
0.3839361
40
0.6350923
50
323.8961724
51
328.6421089
0
ARC
8
DEFAULT_255_1_234
10
19.9145442
20
0.2577031
40
0.3946393
50
328.8299013
51
331.789948
0
ARC
8
DEFAULT_255_1_234
10
20.014262
20
0.2062509
40
0.2824501
50
331.4255242
51
352.9364833
0
ARC
8
DEFAULT_255_1_234
10
20.0279121
20
0.2031976
40
0.2685315
50
353.2248685
51
0.0169286
0
ARC
8
DEFAULT_255_1_234
10
20.0488998
20
0.205495
40
0.2475536
50
359.4866256
51
15.9339782
0
ARC
8
DEFAULT_255_1_234
10
20.0995983
20
0.2191286
40
0.1950618
50
16.1714718
51
43.5284424
0
ARC
8
DEFAULT_255_1_234
10
20.1073291
20
0.2268573
40
0.184134
50
43.4415429
51
83.1661404
0
ARC
8
DEFAULT_255_1_234
10
20.093921
20
0.1531771
40
0.258926
50
82.160215
51
90.1505798
0
ARC
8
DEFAULT_255_1_234
10
20.0907637
20
0.0994865
40
0.3126255
50
89.5460705
51
102.5418777
0
ARC
8
DEFAULT_255_1_234
10
20.0664723
20
0.2025665
40
0.2067346
50
102.1739365
51
129.2061916
0
ARC
8
DEFAULT_255_1_234
10
20.0585795
20
0.2150094
40
0.1921118
50
129.7279328
51
135.7542026
0
ARC
8
DEFAULT_255_1_234
10
20.0707322
20
0.2053045
40
0.2075944
50
136.175737
51
166.3674722
0
ARC
8
DEFAULT_255_1_234
10
20.1714242
20
0.1783182
40
0.3118201
50
165.9092917
51
178.8683903
0
ARC
8
DEFAULT_255_1_234
10
20.2579103
20
0.1736179
40
0.3983935
50
178.438168
51
180.0083905
0
ARC
8
DEFAULT_255_1_234
10
20.1177705
20
0.1775231
40
0.4068601
50
163.2878735
51
180.5581814
0
ARC
8
DEFAULT_255_1_234
10
20.0375966
20
0.199584
40
0.3237344
50
133.454115
51
162.9470031
0
ARC
8
DEFAULT_255_1_234
10
20.0554508
20
0.1806
40
0.349795
50
100.7869394
51
133.4384016
0
ARC
8
DEFAULT_255_1_234
10
20.0902279
20
0.0257319
40
0.5084616
50
89.6605301
51
101.3704185
0
ARC
8
DEFAULT_255_1_234
10
20.0968618
20
0.0318496
40
0.502348
50
78.2171172
51
90.4130393
0
ARC
8
DEFAULT_255_1_234
10
20.1323696
20
0.1942637
40
0.3361092
50
55.9268222
51
78.4888551
0
ARC
8
DEFAULT_255_1_234
10
20.1520137
20
0.2281324
40
0.2970617
50
47.9292255
51
55.4054003
0
ARC
8
DEFAULT_255_1_234
10
20.1621697
20
0.2384502
40
0.2825983
50
4.3347696
51
48.0560701
0
ARC
8
DEFAULT_255_1_234
10
20.0526091
20
0.2214601
40
0.393225
50
359.925209
51
5.5967654
0
ARC
8
DEFAULT_255_1_234
10
20.0954983
20
0.2270816
40
0.3503892
50
337.8914096
51
358.9967724
0
ARC
8
DEFAULT_255_1_234
10
19.8241395
20
0.3317706
40
0.6412172
50
326.9135351
51
338.3505194
0
ARC
8
DEFAULT_255_1_234
10
19.4255699
20
0.5872284
40
1.1146189
50
319.6472867
51
327.095818
0
ARC
8
DEFAULT_255_1_234
10
19.0422702
20
0.9034
40
1.6114559
50
317.2586784
51
319.9046139
0
LINE
8
DEFAULT_255_1_234
10
11.587785
20
150.1422391
11
11.587785
21
150.0161408
0
LINE
8
DEFAULT_255_1_234
10
11.587785
20
150.0161408
11
11.0970458
21
150.0161408
0
LINE
8
DEFAULT_255_1_234
10
11.0970458
20
150.0161408
11
11.0970458
21
149.4997
0
LINE
8
DEFAULT_255_1_234
10
11.0970458
20
149.4997
11
10.9428364
21
149.4997
0
LINE
8
DEFAULT_255_1_234
10
10.9428364
20
149.4997
11
10.9428364
21
150.6691211
0
LINE
8
DEFAULT_255_1_234
10
10.9428364
20
150.6691211
11
11.6672992
21
150.6691211
0
LINE
8
DEFAULT_255_1_234
10
11.6672992
20
150.6691211
11
11.6672992
21
150.5422196
0
LINE
8
DEFAULT_255_1_234
10
11.6672992
20
150.5422196
11
11.0970458
21
150.5422196
0
LINE
8
DEFAULT_255_1_234
10
11.0970458
20
150.5422196
11
11.0970458
21
150.1422391
0
LINE
8
DEFAULT_255_1_234
10
11.0970458
20
150.1422391
11
11.587785
21
150.1422391
0
LINE
8
DEFAULT_255_1_234
10
12.5451682
20
150.0571026
11
12.5451682
21
149.9358234
0
LINE
8
DEFAULT_255_1_234
10
12.5451682
20
149.9358234
11
12.1532193
21
149.9358234
0
LINE
8
DEFAULT_255_1_234
10
12.1532193
20
149.9358234
11
12.1532193
21
150.0571026
0
LINE
8
DEFAULT_255_1_234
10
12.1532193
20
150.0571026
11
12.5451682
21
150.0571026
0
LINE
8
DEFAULT_255_1_234
10
13.8961065
20
150.3309849
11
13.741094
21
150.3309849
0
LINE
8
DEFAULT_255_1_234
10
13.0487582
20
149.8386394
11
13.2037707
21
149.8386394
0
ARC
8
DEFAULT_255_1_234
10
13.8069753
20
151.2256768
40
1.252368
50
248.9199003
51
254.1439814
0
ARC
8
DEFAULT_255_1_234
10
13.6389248
20
150.7930234
40
0.788226
50
241.633709
51
249.0064503
0
ARC
8
DEFAULT_255_1_234
10
13.4860642
20
150.5129317
40
0.4691427
50
230.498225
51
241.8087113
0
ARC
8
DEFAULT_255_1_234
10
13.4076216
20
150.4129906
40
0.3421437
50
227.4064532
51
229.9881192
0
ARC
8
DEFAULT_255_1_234
10
13.3588737
20
150.3654088
40
0.2741476
50
200.6781896
51
228.1763934
0
ARC
8
DEFAULT_255_1_234
10
13.3661048
20
150.3639077
40
0.2804109
50
179.5061581
51
199.8694617
0
ARC
8
DEFAULT_255_1_234
10
13.3651799
20
150.371321
40
0.2795204
50
132.4834203
51
181.0242172
0
ARC
8
DEFAULT_255_1_234
10
13.4247382
20
150.3150704
40
0.3612768
50
129.2532479
51
133.4242687
0
ARC
8
DEFAULT_255_1_234
10
13.4393831
20
150.2930965
40
0.3875675
50
101.98776
51
128.8742646
0
ARC
8
DEFAULT_255_1_234
10
13.4792442
20
150.1209741
40
0.5642249
50
89.5906553
51
102.3169264
0
ARC
8
DEFAULT_255_1_234
10
13.4862934
20
150.1528148
40
0.5323783
50
77.2360837
51
90.3248275
0
ARC
8
DEFAULT_255_1_234
10
13.5070013
20
150.24954
40
0.4334697
50
63.837784
51
77.0809408
0
ARC
8
DEFAULT_255_1_234
10
13.5347775
20
150.3012911
40
0.3747796
50
45.9864267
51
64.1607727
0
ARC
8
DEFAULT_255_1_234
10
13.5608656
20
150.3310866
40
0.3352302
50
32.2747395
51
45.6547121
0
ARC
8
DEFAULT_255_1_234
10
13.5675097
20
150.332988
40
0.328603
50
359.6507365
51
32.6130309
0
ARC
8
DEFAULT_255_1_234
10
13.4732192
20
150.333466
40
0.2678863
50
359.469343
51
14.9832209
0
ARC
8
DEFAULT_255_1_234
10
13.5437255
20
150.3523539
40
0.1948938
50
14.9781179
51
48.2004265
0
ARC
8
DEFAULT_255_1_234
10
13.5272899
20
150.3316983
40
0.2212521
50
48.5927837
51
74.1241538
0
ARC
8
DEFAULT_255_1_234
10
13.4939388
20
150.2216248
40
0.3362561
50
73.7888341
51
86.6652678
0
ARC
8
DEFAULT_255_1_234
10
13.4836954
20
150.1008881
40
0.4573953
50
86.2640471
51
90.0526343
0
ARC
8
DEFAULT_255_1_234
10
13.4808666
20
150.1404192
40
0.4178709
50
89.6697524
51
99.2309573
0
ARC
8
DEFAULT_255_1_234
10
13.4566117
20
150.2848964
40
0.2713749
50
99.069534
51
113.7658566
0
ARC
8
DEFAULT_255_1_234
10
13.4292308
20
150.3494677
40
0.2012469
50
114.0401004
51
127.9850673
0
ARC
8
DEFAULT_255_1_234
10
13.4051872
20
150.379073
40
0.1631167
50
127.7287463
51
176.7105154
0
ARC
8
DEFAULT_255_1_234
10
13.473059
20
150.3689693
40
0.2315392
50
175.1779447
51
180.0581938
0
ARC
8
DEFAULT_255_1_234
10
13.3887436
20
150.3677428
40
0.1472271
50
179.6142195
51
228.1246017
0
ARC
8
DEFAULT_255_1_234
10
13.4329105
20
150.4086308
40
0.2072299
50
226.5779593
51
230.8800004
0
ARC
8
DEFAULT_255_1_234
10
13.4800184
20
150.4711636
40
0.2854818
50
231.4635071
51
241.9260842
0
ARC
8
DEFAULT_255_1_234
10
13.5997362
20
150.69148
40
0.53622
50
241.7178533
51
248.3259551
0
ARC
8
DEFAULT_255_1_234
10
13.7382734
20
151.0347064
40
0.9063478
50
248.2007737
51
252.4528373
0
ARC
8
DEFAULT_255_1_234
10
13.8586459
20
151.4068441
40
1.2974635
50
252.3391078
51
254.3469452
0
ARC
8
DEFAULT_255_1_234
10
13.1044161
20
148.7091148
40
1.5037162
50
71.0197183
51
74.4087047
0
ARC
8
DEFAULT_255_1_234
10
13.2738846
20
149.1983111
40
0.9859993
50
66.1847285
51
71.086374
0
ARC
8
DEFAULT_255_1_234
10
13.4295159
20
149.54872
40
0.6025855
50
59.3536294
51
66.2691831
0
ARC
8
DEFAULT_255_1_234
10
13.5183811
20
149.6990609
40
0.4279449
50
49.1020879
51
59.3293958
0
ARC
8
DEFAULT_255_1_234
10
13.6002551
20
149.7923834
40
0.3038015
50
32.7919921
51
49.2505539
0
ARC
8
DEFAULT_255_1_234
10
13.6323641
20
149.8152191
40
0.264448
50
31.1181161
51
32.4005348
0
ARC
8
DEFAULT_255_1_234
10
13.6235179
20
149.8116779
40
0.2738556
50
8.1116974
51
30.7958831
0
ARC
8
DEFAULT_255_1_234
10
13.5424847
20
149.7978753
40
0.3560327
50
359.8389159
51
8.4706516
0
ARC
8
DEFAULT_255_1_234
10
13.6050638
20
149.7930137
40
0.2934776
50
337.4731098
51
0.7537279
0
ARC
8
DEFAULT_255_1_234
10
13.6229333
20
149.7910387
40
0.2762607
50
307.5917067
51
336.4315538
0
ARC
8
DEFAULT_255_1_234
10
13.5769161
20
149.8423102
40
0.3449979
50
307.6551545
51
308.4529766
0
ARC
8
DEFAULT_255_1_234
10
13.553888
20
149.877825
40
0.3871988
50
284.3734338
51
307.1424381
0
ARC
8
DEFAULT_255_1_234
10
13.504371
20
150.0599932
40
0.5759636
50
272.4382747
51
284.646547
0
ARC
8
DEFAULT_255_1_234
10
13.4916919
20
150.2399893
40
0.7563528
50
269.9708387
51
272.8178037
0
ARC
8
DEFAULT_255_1_234
10
13.4873958
20
150.0361716
40
0.5525489
50
248.2707594
51
270.4055579
0
ARC
8
DEFAULT_255_1_234
10
13.48197
20
150.0171192
40
0.5328452
50
246.1383403
51
248.0542782
0
ARC
8
DEFAULT_255_1_234
10
13.4401079
20
149.9291843
40
0.4355005
50
233.1670131
51
246.4950969
0
ARC
8
DEFAULT_255_1_234
10
13.3846983
20
149.8543812
40
0.3424126
50
215.3403242
51
233.0843104
0
ARC
8
DEFAULT_255_1_234
10
13.3574415
20
149.8345549
40
0.3087104
50
179.2419209
51
215.2648451
0
ARC
8
DEFAULT_255_1_234
10
13.4342009
20
149.8359666
40
0.2304457
50
179.335461
51
199.1045811
0
ARC
8
DEFAULT_255_1_234
10
13.4009685
20
149.8272766
40
0.1962176
50
199.8828939
51
232.7063202
0
ARC
8
DEFAULT_255_1_234
10
13.4481953
20
149.8866788
40
0.2720938
50
232.3738199
51
255.5136649
0
ARC
8
DEFAULT_255_1_234
10
13.482282
20
150.0110835
40
0.4010747
50
255.2446292
51
267.5320849
0
ARC
8
DEFAULT_255_1_234
10
13.4910444
20
150.1343702
40
0.5246356
50
267.1557994
51
270.0286766
0
ARC
8
DEFAULT_255_1_234
10
13.4938216
20
150.089995
40
0.4802668
50
269.7000017
51
278.1660162
0
ARC
8
DEFAULT_255_1_234
10
13.5194221
20
149.9169515
40
0.3053425
50
278.0231263
51
290.625471
0
ARC
8
DEFAULT_255_1_234
10
13.5541908
20
149.8242025
40
0.206291
50
290.6619762
51
307.0370976
0
ARC
8
DEFAULT_255_1_234
10
13.5842297
20
149.7873504
40
0.1587906
50
306.3943566
51
355.3030547
0
ARC
8
DEFAULT_255_1_234
10
13.5330228
20
149.7950113
40
0.2104809
50
354.3660432
51
0.0698737
0
ARC
8
DEFAULT_255_1_234
10
13.5472574
20
149.7972617
40
0.1962563
50
359.417946
51
16.1971788
0
ARC
8
DEFAULT_255_1_234
10
13.5927884
20
149.8097418
40
0.149053
50
16.4723299
51
52.6262157
0
ARC
8
DEFAULT_255_1_234
10
13.5106938
20
149.7013433
40
0.2850296
50
52.7386432
51
62.4979148
0
ARC
8
DEFAULT_255_1_234
10
13.3722015
20
149.4407283
40
0.5801521
50
62.2515216
51
68.1220564
0
ARC
8
DEFAULT_255_1_234
10
13.2001926
20
149.0179872
40
1.0365451
50
68.0062803
51
71.8053402
0
ARC
8
DEFAULT_255_1_234
10
13.0206297
20
148.4794758
40
1.6042013
50
71.7183119
51
73.9258742
0
LINE
8
DEFAULT_255_1_234
10
14.0350556
20
149.9101218
11
14.0350556
21
149.9374297
0
LINE
8
DEFAULT_255_1_234
10
14.7723692
20
149.9534932
11
14.7723692
21
149.8916488
0
LINE
8
DEFAULT_255_1_234
10
14.7723692
20
149.8916488
11
14.1836428
21
149.8916488
0
LINE
8
DEFAULT_255_1_234
10
14.6703661
20
149.7221792
11
14.7611248
21
149.6514999
0
LINE
8
DEFAULT_255_1_234
10
14.1884618
20
150.0137313
11
14.623782
21
150.0137313
0
LINE
8
DEFAULT_255_1_234
10
14.623782
20
150.0137313
11
14.623782
21
150.0249757
0
ARC
8
DEFAULT_255_1_234
10
14.4289921
20
149.9212332
40
0.4376191
50
252.3266134
51
270.5810217
0
ARC
8
DEFAULT_255_1_234
10
14.408501
20
149.8471644
40
0.3608374
50
223.3000567
51
251.8561855
0
ARC
8
DEFAULT_255_1_234
10
14.4296371
20
149.8676937
40
0.3902993
50
190.9374509
51
223.3654032
0
ARC
8
DEFAULT_255_1_234
10
14.6021343
20
149.9066885
40
0.5670891
50
179.6531105
51
191.4989439
0
ARC
8
DEFAULT_255_1_234
10
14.6143356
20
149.9406417
40
0.5792888
50
167.4007466
51
180.3176909
0
ARC
8
DEFAULT_255_1_234
10
14.5091417
20
149.9628885
40
0.471777
50
154.1835823
51
167.250763
0
ARC
8
DEFAULT_255_1_234
10
14.4459884
20
149.9961417
40
0.4004528
50
134.3149965
51
154.5315275
0
ARC
8
DEFAULT_255_1_234
10
14.4242379
20
150.0152228
40
0.371612
50
122.8616532
51
133.9707695
0
ARC
8
DEFAULT_255_1_234
10
14.4138954
20
150.0374703
40
0.3473289
50
89.8249009
51
123.4199222
0
ARC
8
DEFAULT_255_1_234
10
14.4188995
20
149.9727967
40
0.4120197
50
74.7876118
51
90.5482747
0
ARC
8
DEFAULT_255_1_234
10
14.4482738
20
150.081303
40
0.2996077
50
39.8178249
51
74.7633718
0
ARC
8
DEFAULT_255_1_234
10
14.3970058
20
150.0413351
40
0.3645855
50
16.8990863
51
39.4829761
0
ARC
8
DEFAULT_255_1_234
10
14.2075355
20
149.9806526
40
0.5635218
50
4.9636328
51
17.2026414
0
ARC
8
DEFAULT_255_1_234
10
13.9657425
20
149.955134
40
0.8066286
50
359.8834553
51
5.2834307
0
ARC
8
DEFAULT_255_1_234
10
14.5694949
20
149.8982803
40
0.3859091
50
180.9846213
51
194.9401313
0
ARC
8
DEFAULT_255_1_234
10
14.4645227
20
149.8695849
40
0.2770883
50
194.80314
51
222.0412631
0
ARC
8
DEFAULT_255_1_234
10
14.4341109
20
149.8394116
40
0.2343055
50
221.5417084
51
268.8614402
0
ARC
8
DEFAULT_255_1_234
10
14.4414103
20
149.9070686
40
0.3021528
50
267.732405
51
270.0097136
0
ARC
8
DEFAULT_255_1_234
10
14.4431914
20
149.9272105
40
0.3222994
50
269.6924892
51
280.4117579
0
ARC
8
DEFAULT_255_1_234
10
14.460832
20
149.8353193
40
0.2287344
50
280.2255091
51
298.6338936
0
ARC
8
DEFAULT_255_1_234
10
14.4725112
20
149.8109223
40
0.2017294
50
299.0430333
51
300.4643464
0
ARC
8
DEFAULT_255_1_234
10
14.4045118
20
149.9243038
40
0.3339357
50
300.6577328
51
322.0378878
0
ARC
8
DEFAULT_255_1_234
10
14.3694657
20
149.9547021
40
0.3802736
50
321.6750233
51
322.3046845
0
ARC
8
DEFAULT_255_1_234
10
14.4625618
20
149.838037
40
0.3520454
50
276.9728461
51
328.0035423
0
ARC
8
DEFAULT_255_1_234
10
14.4348671
20
149.9860841
40
0.5024498
50
269.8361028
51
278.0581756
0
ARC
8
DEFAULT_255_1_234
10
14.4121408
20
150.0605757
40
0.202159
50
89.2018686
51
117.2851756
0
ARC
8
DEFAULT_255_1_234
10
14.4174578
20
150.0563752
40
0.2083484
50
118.0551165
51
137.4540413
0
ARC
8
DEFAULT_255_1_234
10
14.4549317
20
150.0223304
40
0.2589774
50
137.5109581
51
158.8516286
0
ARC
8
DEFAULT_255_1_234
10
14.5687153
20
149.9764074
40
0.38167
50
158.5845963
51
170.1721436
0
ARC
8
DEFAULT_255_1_234
10
14.6856542
20
149.9531823
40
0.5008657
50
169.8376422
51
173.0566086
0
ARC
8
DEFAULT_255_1_234
10
14.2159616
20
150.0042509
40
0.4083467
50
2.9091802
51
12.8847116
0
ARC
8
DEFAULT_255_1_234
10
14.3530293
20
150.0365101
40
0.2675383
50
12.6957781
51
28.6404489
0
ARC
8
DEFAULT_255_1_234
10
14.4071964
20
150.0645458
40
0.2065654
50
29.0169854
51
41.1487595
0
ARC
8
DEFAULT_255_1_234
10
14.4274749
20
150.0822003
40
0.1796786
50
41.1646065
51
85.0013516
0
ARC
8
DEFAULT_255_1_234
10
14.4153845
20
150.0087431
40
0.2539726
50
83.7280015
51
90.0964893
0
LINE
8
DEFAULT_255_1_234
10
15.3643083
20
150.3735531
11
15.3643083
21
150.2354072
0
LINE
8
DEFAULT_255_1_234
10
15.0928355
20
150.1165375
11
15.0928355
21
149.4997
0
LINE
8
DEFAULT_255_1_234
10
15.0928355
20
149.4997
11
14.9442484
21
149.4997
0
LINE
8
DEFAULT_255_1_234
10
14.9442484
20
149.4997
11
14.9442484
21
150.3687341
0
LINE
8
DEFAULT_255_1_234
10
14.9442484
20
150.3687341
11
15.0888197
21
150.3687341
0
LINE
8
DEFAULT_255_1_234
10
15.0888197
20
150.3687341
11
15.0912292
21
150.2683374
0
ARC
8
DEFAULT_255_1_234
10
15.2976489
20
149.8294342
40
0.4114092
50
80.6754243
51
86.8932892
0
ARC
8
DEFAULT_255_1_234
10
15.2916023
20
149.73267
40
0.5083596
50
86.8038578
51
90.0431435
0
ARC
8
DEFAULT_255_1_234
10
15.2879004
20
149.9783866
40
0.2626638
50
89.2759698
51
106.6213787
0
ARC
8
DEFAULT_255_1_234
10
15.2674568
20
150.052683
40
0.1856317
50
107.1346045
51
157.6458115
0
ARC
8
DEFAULT_255_1_234
10
15.3366169
20
150.0143311
40
0.2643398
50
155.6586782
51
157.2539184
0
ARC
8
DEFAULT_255_1_234
10
15.3161371
20
150.1312157
40
0.2634121
50
127.8165941
51
148.6302098
0
ARC
8
DEFAULT_255_1_234
10
15.290784
20
150.1572218
40
0.2273596
50
91.3329982
51
126.7875809
0
ARC
8
DEFAULT_255_1_234
10
15.2983781
20
150.0857195
40
0.299078
50
89.986594
51
92.4688449
0
ARC
8
DEFAULT_255_1_234
10
15.2992176
20
150.1132078
40
0.2715908
50
85.3589899
51
90.1623399
0
ARC
8
DEFAULT_255_1_234
10
15.3076691
20
150.2136164
40
0.1708278
50
78.401942
51
85.4594656
0
ARC
8
DEFAULT_255_1_234
10
15.3221575
20
150.2827236
40
0.1002194
50
67.7858312
51
78.5728455
0
ARC
8
DEFAULT_255_1_234
10
15.3329428
20
150.3106887
40
0.0702548
50
63.4835954
51
67.3062642
0
LINE
8
DEFAULT_255_1_234
10
15.6622858
20
150.3687341
11
15.6622858
21
149.4997
0
LINE
8
DEFAULT_255_1_234
10
15.6622858
20
149.4997
11
15.5136986
21
149.4997
0
LINE
8
DEFAULT_255_1_234
10
15.5136986
20
149.4997
11
15.5136986
21
150.3687341
0
LINE
8
DEFAULT_255_1_234
10
15.5136986
20
150.3687341
11
15.6622858
21
150.3687341
0
ARC
8
DEFAULT_255_1_234
10
15.5995135
20
150.6001889
40
0.097867
50
161.415052
51
180.5526306
0
ARC
8
DEFAULT_255_1_234
10
15.5870913
20
150.6036077
40
0.0850062
50
138.1827368
51
160.9307106
0
ARC
8
DEFAULT_255_1_234
10
15.5760859
20
150.6131588
40
0.0704362
50
104.6368899
51
138.0039868
0
ARC
8
DEFAULT_255_1_234
10
15.5868014
20
150.5764963
40
0.1086221
50
92.0600725
51
105.2189128
0
ARC
8
DEFAULT_255_1_234
10
15.5891362
20
150.5422117
40
0.1429728
50
89.9756393
51
92.5012496
0
ARC
8
DEFAULT_255_1_234
10
15.5901381
20
150.5647731
40
0.1204151
50
78.0235316
51
90.4478182
0
ARC
8
DEFAULT_255_1_234
10
15.5993473
20
150.6061295
40
0.0780493
50
55.051506
51
78.3369085
0
ARC
8
DEFAULT_255_1_234
10
15.6043748
20
150.6145711
40
0.0682538
50
42.0501187
51
54.4513741
0
ARC
8
DEFAULT_255_1_234
10
15.5908615
20
150.6021798
40
0.0865878
50
1.7497075
51
42.1496013
0
ARC
8
DEFAULT_255_1_234
10
15.5653948
20
150.5992738
40
0.1121515
50
359.9852656
51
2.8364544
0
ARC
8
DEFAULT_255_1_234
10
15.581994
20
150.5983229
40
0.0955566
50
342.1070653
51
0.552888
0
ARC
8
DEFAULT_255_1_234
10
15.5962637
20
150.5943904
40
0.0807713
50
316.7107116
51
341.6516965
0
ARC
8
DEFAULT_255_1_234
10
15.6029674
20
150.5883823
40
0.0717724
50
285.4397031
51
316.5324284
0
ARC
8
DEFAULT_255_1_234
10
15.5919591
20
150.6249554
40
0.1099597
50
272.3547054
51
285.8953117
0
ARC
8
DEFAULT_255_1_234
10
15.5892749
20
150.6615048
40
0.1465932
50
269.9695369
51
272.8160237
0
ARC
8
DEFAULT_255_1_234
10
15.5882931
20
150.6395863
40
0.1246779
50
258.8431134
51
270.4153935
0
ARC
8
DEFAULT_255_1_234
10
15.5792973
20
150.5960414
40
0.0802162
50
238.5431189
51
259.1288175
0
ARC
8
DEFAULT_255_1_234
10
15.5724858
20
150.5836856
40
0.0661247
50
222.5062634
51
237.9906969
0
ARC
8
DEFAULT_255_1_234
10
15.5852445
20
150.5952889
40
0.0833707
50
184.1069131
51
222.460413
0
ARC
8
DEFAULT_255_1_234
10
15.6121686
20
150.5991349
40
0.1105176
50
179.9429482
51
185.0960898
0
LINE
8
DEFAULT_255_1_234
10
15.8622761
20
149.9101218
11
15.8622761
21
149.9374297
0
LINE
8
DEFAULT_255_1_234
10
16.5995896
20
149.9534932
11
16.5995896
21
149.8916488
0
LINE
8
DEFAULT_255_1_234
10
16.5995896
20
149.8916488
11
16.0108632
21
149.8916488
0
LINE
8
DEFAULT_255_1_234
10
16.4975866
20
149.7221792
11
16.5883452
21
149.6514999
0
LINE
8
DEFAULT_255_1_234
10
16.0156823
20
150.0137313
11
16.4510025
21
150.0137313
0
LINE
8
DEFAULT_255_1_234
10
16.4510025
20
150.0137313
11
16.4510025
21
150.0249757
0
ARC
8
DEFAULT_255_1_234
10
16.2562126
20
149.9212332
40
0.4376191
50
252.3266134
51
270.5810217
0
ARC
8
DEFAULT_255_1_234
10
16.2357215
20
149.8471644
40
0.3608374
50
223.3000567
51
251.8561855
0
ARC
8
DEFAULT_255_1_234
10
16.2568576
20
149.8676937
40
0.3902993
50
190.9374509
51
223.3654032
0
ARC
8
DEFAULT_255_1_234
10
16.4293548
20
149.9066885
40
0.5670891
50
179.6531105
51
191.4989439
0
ARC
8
DEFAULT_255_1_234
10
16.441556
20
149.9406417
40
0.5792888
50
167.4007466
51
180.3176909
0
ARC
8
DEFAULT_255_1_234
10
16.3363622
20
149.9628885
40
0.471777
50
154.1835823
51
167.250763
0
ARC
8
DEFAULT_255_1_234
10
16.2732089
20
149.9961417
40
0.4004528
50
134.3149965
51
154.5315275
0
ARC
8
DEFAULT_255_1_234
10
16.2514584
20
150.0152228
40
0.371612
50
122.8616532
51
133.9707695
0
ARC
8
DEFAULT_255_1_234
10
16.2411158
20
150.0374703
40
0.3473289
50
89.8249009
51
123.4199222
0
ARC
8
DEFAULT_255_1_234
10
16.2461199
20
149.9727967
40
0.4120197
50
74.7876118
51
90.5482747
0
ARC
8
DEFAULT_255_1_234
10
16.2754943
20
150.081303
40
0.2996077
50
39.8178249
51
74.7633718
0
ARC
8
DEFAULT_255_1_234
10
16.2242263
20
150.0413351
40
0.3645855
50
16.8990863
51
39.4829761
0
ARC
8
DEFAULT_255_1_234
10
16.0347559
20
149.9806526
40
0.5635218
50
4.9636328
51
17.2026414
0
ARC
8
DEFAULT_255_1_234
10
15.7929629
20
149.955134
40
0.8066286
50
359.8834553
51
5.2834307
0
ARC
8
DEFAULT_255_1_234
10
16.3967154
20
149.8982803
40
0.3859091
50
180.9846213
51
194.9401313
0
ARC
8
DEFAULT_255_1_234
10
16.2917432
20
149.8695849
40
0.2770883
50
194.80314
51
222.0412631
0
ARC
8
DEFAULT_255_1_234
10
16.2613313
20
149.8394116
40
0.2343055
50
221.5417084
51
268.8614402
0
ARC
8
DEFAULT_255_1_234
10
16.2686308
20
149.9070686
40
0.3021528
50
267.732405
51
270.0097136
0
ARC
8
DEFAULT_255_1_234
10
16.2704118
20
149.9272105
40
0.3222994
50
269.6924892
51
280.4117579
0
ARC
8
DEFAULT_255_1_234
10
16.2880525
20
149.8353193
40
0.2287344
50
280.2255091
51
298.6338936
0
ARC
8
DEFAULT_255_1_234
10
16.2997317
20
149.8109223
40
0.2017294
50
299.0430333
51
300.4643464
0
ARC
8
DEFAULT_255_1_234
10
16.2317322
20
149.9243038
40
0.3339357
50
300.6577328
51
322.0378878
0
ARC
8
DEFAULT_255_1_234
10
16.1966862
20
149.9547021
40
0.3802736
50
321.6750233
51
322.3046845
0
ARC
8
DEFAULT_255_1_234
10
16.2897823
20
149.838037
40
0.3520454
50
276.9728461
51
328.0035423
0
ARC
8
DEFAULT_255_1_234
10
16.2620876
20
149.9860841
40
0.5024498
50
269.8361028
51
278.0581756
0
ARC
8
DEFAULT_255_1_234
10
16.2393613
20
150.0605757
40
0.202159
50
89.2018686
51
117.2851756
0
ARC
8
DEFAULT_255_1_234
10
16.2446782
20
150.0563752
40
0.2083484
50
118.0551165
51
137.4540413
0
ARC
8
DEFAULT_255_1_234
10
16.2821522
20
150.0223304
40
0.2589774
50
137.5109581
51
158.8516286
0
ARC
8
DEFAULT_255_1_234
10
16.3959358
20
149.9764074
40
0.38167
50
158.5845963
51
170.1721436
0
ARC
8
DEFAULT_255_1_234
10
16.5128747
20
149.9531823
40
0.5008657
50
169.8376422
51
173.0566086
0
ARC
8
DEFAULT_255_1_234
10
16.0431821
20
150.0042509
40
0.4083467
50
2.9091802
51
12.8847116
0
ARC
8
DEFAULT_255_1_234
10
16.1802497
20
150.0365101
40
0.2675383
50
12.6957781
51
28.6404489
0
ARC
8
DEFAULT_255_1_234
10
16.2344168
20
150.0645458
40
0.2065654
50
29.0169854
51
41.1487595
0
ARC
8
DEFAULT_255_1_234
10
16.2546953
20
150.0822003
40
0.1796786
50
41.1646065
51
85.0013516
0
ARC
8
DEFAULT_255_1_234
10
16.242605
20
150.0087431
40
0.2539726
50
83.7280015
51
90.0964893
0
LINE
8
DEFAULT_255_1_234
10
17.4180238
20
150.1133248
11
17.2686334
21
150.1133248
0
LINE
8
DEFAULT_255_1_234
10
16.735326
20
149.7671569
11
16.8839132
21
149.7671569
0
ARC
8
DEFAULT_255_1_234
10
17.1498153
20
149.7316959
40
0.1276617
50
359.3334982
51
18.5871358
0
ARC
8
DEFAULT_255_1_234
10
17.170679
20
149.7372133
40
0.1061371
50
19.3540742
51
54.6485071
0
ARC
8
DEFAULT_255_1_234
10
17.1202692
20
149.6676919
40
0.1920087
50
54.3827097
51
65.0622807
0
ARC
8
DEFAULT_255_1_234
10
17.0434089
20
149.50599
40
0.3710447
50
64.8282493
51
71.4200025
0
ARC
8
DEFAULT_255_1_234
10
16.9531964
20
149.2413107
40
0.6506741
50
71.3164301
51
75.8006402
0
ARC
8
DEFAULT_255_1_234
10
16.8690784
20
148.9172561
40
0.9854641
50
75.6809531
51
78.0061883
0
ARC
8
DEFAULT_255_1_234
10
17.3139317
20
151.015177
40
1.1591028
50
254.6901892
51
258.0466452
0
ARC
8
DEFAULT_255_1_234
10
17.2101226
20
150.6392781
40
0.7691345
50
249.9010773
51
254.755261
0
ARC
8
DEFAULT_255_1_234
10
17.1097568
20
150.3666982
40
0.478665
50
243.3097214
51
249.9709442
0
ARC
8
DEFAULT_255_1_234
10
17.0468589
20
150.2412778
40
0.3383568
50
234.4047477
51
243.2862168
0
ARC
8
DEFAULT_255_1_234
10
16.9846112
20
150.1553232
40
0.2322322
50
220.8667099
51
234.5493881
0
ARC
8
DEFAULT_255_1_234
10
16.9504053
20
150.1241817
40
0.1859923
50
214.3062465
51
220.5065136
0
ARC
8
DEFAULT_255_1_234
10
16.9478132
20
150.121088
40
0.1821108
50
186.912965
51
213.9618616
0
ARC
8
DEFAULT_255_1_234
10
17.0010227
20
150.1297009
40
0.2359799
50
179.8808832
51
187.4339886
0
ARC
8
DEFAULT_255_1_234
10
16.9855361
20
150.1317088
40
0.2204978
50
132.005434
51
180.3942919
0
ARC
8
DEFAULT_255_1_234
10
17.0511974
20
150.0711083
40
0.3095791
50
129.2319861
51
133.5302299
0
ARC
8
DEFAULT_255_1_234
10
17.0565482
20
150.0616928
40
0.3202615
50
100.4410011
51
128.9081242
0
ARC
8
DEFAULT_255_1_234
10
17.0839366
20
149.9331455
40
0.4516583
50
89.6985377
51
100.9026564
0
ARC
8
DEFAULT_255_1_234
10
17.0896408
20
149.9171166
40
0.4676928
50
77.6965325
51
90.4076836
0
ARC
8
DEFAULT_255_1_234
10
17.1227392
20
150.0598413
40
0.3211988
50
50.7276602
51
78.0399361
0
ARC
8
DEFAULT_255_1_234
10
17.167185
20
150.1116296
40
0.2529778
50
25.7545084
51
51.0957453
0
ARC
8
DEFAULT_255_1_234
10
17.1673075
20
150.1166206
40
0.250738
50
359.2468627
51
24.7394243
0
ARC
8
DEFAULT_255_1_234
10
17.1388527
20
150.1137664
40
0.1297815
50
359.8050318
51
45.1544908
0
ARC
8
DEFAULT_255_1_234
10
17.0981669
20
150.0789794
40
0.1831883
50
43.8047702
51
49.6271585
0
ARC
8
DEFAULT_255_1_234
10
17.098957
20
150.0790678
40
0.18261
50
49.7980766
51
82.1218353
0
ARC
8
DEFAULT_255_1_234
10
17.0870542
20
150.0143998
40
0.2483163
50
81.4465357
51
90.1710293
0
ARC
8
DEFAULT_255_1_234
10
17.0846145
20
149.961788
40
0.300932
50
89.6766211
51
99.1264602
0
ARC
8
DEFAULT_255_1_234
10
17.0674607
20
150.0651537
40
0.1961547
50
98.968313
51
113.4570237
0
ARC
8
DEFAULT_255_1_234
10
17.0478692
20
150.1119965
40
0.1453859
50
113.722589
51
127.4763106
0
ARC
8
DEFAULT_255_1_234
10
17.0310338
20
150.1320124
40
0.1192639
50
126.9083309
51
150.3165862
0
ARC
8
DEFAULT_255_1_234
10
17.0262671
20
150.1370981
40
0.112623
50
151.3635175
51
180.0701457
0
ARC
8
DEFAULT_255_1_234
10
17.0571456
20
150.134999
40
0.1435149
50
179.2169974
51
179.9954013
0
ARC
8
DEFAULT_255_1_234
10
17.0210513
20
150.1337056
40
0.1074286
50
179.3040112
51
198.4225446
0
ARC
8
DEFAULT_255_1_234
10
17.0018646
20
150.1287127
40
0.0876573
50
199.2895851
51
238.6034594
0
ARC
8
DEFAULT_255_1_234
10
17.0621493
20
150.223345
40
0.1998512
50
237.9846301
51
246.8744712
0
ARC
8
DEFAULT_255_1_234
10
17.1479438
20
150.4196205
40
0.4140547
50
246.6234531
51
251.8168941
0
ARC
8
DEFAULT_255_1_234
10
17.2509982
20
150.7290905
40
0.7402308
50
251.713434
51
255.0778414
0
ARC
8
DEFAULT_255_1_234
10
17.3709244
20
151.1757563
40
1.2027155
50
255.0367487
51
257.4705983
0
ARC
8
DEFAULT_255_1_234
10
16.8601254
20
148.8743863
40
1.1546601
50
73.6837552
51
77.5016755
0
ARC
8
DEFAULT_255_1_234
10
16.9690029
20
149.2443581
40
0.7690009
50
68.7044154
51
73.7249639
0
ARC
8
DEFAULT_255_1_234
10
17.059305
20
149.4770654
40
0.5193873
50
63.590599
51
68.6626804
0
ARC
8
DEFAULT_255_1_234
10
17.1364069
20
149.6308123
40
0.3473927
50
54.7106439
51
63.7013633
0
ARC
8
DEFAULT_255_1_234
10
17.1988523
20
149.71804
40
0.2401192
50
41.0622434
51
54.8487496
0
ARC
8
DEFAULT_255_1_234
10
17.2329909
20
149.7493592
40
0.1938094
50
34.4950568
51
40.7105546
0
ARC
8
DEFAULT_255_1_234
10
17.2376717
20
149.7542078
40
0.1872106
50
9.3763373
51
34.0833615
0
ARC
8
DEFAULT_255_1_234
10
17.1723587
20
149.7416728
40
0.2536988
50
359.7694872
51
9.7663171
0
ARC
8
DEFAULT_255_1_234
10
17.1921088
20
149.7373764
40
0.2339696
50
335.8654732
51
0.8022045
0
ARC
8
DEFAULT_255_1_234
10
17.1996133
20
149.7387197
40
0.2277108
50
307.7357725
51
334.7849066
0
ARC
8
DEFAULT_255_1_234
10
17.1595308
20
149.7837645
40
0.2878951
50
307.0241536
51
308.5578354
0
ARC
8
DEFAULT_255_1_234
10
17.133764
20
149.8223801
40
0.3342515
50
282.9362969
51
306.5646424
0
ARC
8
DEFAULT_255_1_234
10
17.0975937
20
149.9691108
40
0.4853615
50
271.1026298
51
283.2200835
0
ARC
8
DEFAULT_255_1_234
10
17.0912181
20
150.0932418
40
0.6096052
50
269.9919117
51
271.4772449
0
ARC
8
DEFAULT_255_1_234
10
17.0885936
20
149.9854436
40
0.5018135
50
259.0723564
51
270.289833
0
ARC
8
DEFAULT_255_1_234
10
17.0673668
20
149.8737271
40
0.388099
50
245.4963068
51
259.0227342
0
ARC
8
DEFAULT_255_1_234
10
17.0395624
20
149.8155615
40
0.3236422
50
228.9684658
51
245.7044727
0
ARC
8
DEFAULT_255_1_234
10
17.0130068
20
149.7828575
40
0.2815426
50
214.4011705
51
228.6759915
0
ARC
8
DEFAULT_255_1_234
10
16.9840809
20
149.767029
40
0.2487548
50
179.9705531
51
215.1572795
0
ARC
8
DEFAULT_255_1_234
10
17.0541409
20
149.7743806
40
0.1703809
50
182.4299387
51
203.0329699
0
ARC
8
DEFAULT_255_1_234
10
17.0357066
20
149.7687396
40
0.1512226
50
203.798802
51
232.548466
0
ARC
8
DEFAULT_255_1_234
10
17.0633587
20
149.8038826
40
0.1959374
50
232.3782728
51
256.3934612
0
ARC
8
DEFAULT_255_1_234
10
17.0863949
20
149.8928842
40
0.2878639
50
256.104506
51
268.4626716
0
ARC
8
DEFAULT_255_1_234
10
17.0910434
20
149.9725487
40
0.3676329
50
268.0715632
51
270.0138206
0
ARC
8
DEFAULT_255_1_234
10
17.0928958
20
149.9453083
40
0.3403971
50
269.7031147
51
278.8341955
0
ARC
8
DEFAULT_255_1_234
10
17.1111051
20
149.8322876
40
0.2259217
50
278.6728789
51
292.8232582
0
ARC
8
DEFAULT_255_1_234
10
17.131159
20
149.7821449
40
0.171929
50
293.1452328
51
303.6655899
0
ARC
8
DEFAULT_255_1_234
10
17.1576469
20
149.7445204
40
0.1259367
50
303.1248165
51
321.742847
0
ARC
8
DEFAULT_255_1_234
10
17.1762349
20
149.7282156
40
0.1012531
50
322.4748573
51
1.1291126
0
LINE
8
DEFAULT_255_2_778
10
10.5738396
20
152.0243073
11
9.3932396
21
152.0243073
0
LINE
8
DEFAULT_255_2_778
10
9.3932396
20
152.0243073
11
9.9837396
21
153.0469073
0
LINE
8
DEFAULT_255_2_778
10
9.9837396
20
153.0469073
11
11.1643396
21
153.0469073
0
LINE
8
DEFAULT_255_2_778
10
11.1643396
20
153.0469073
11
10.5738396
21
152.0243073
0
LINE
8
DEFAULT_255_2_778
10
10.5738396
20
152.0243073
11
10.5738396
21
152.0243073
0
LINE
8
DEFAULT_255_2_778
10
11.7546396
20
152.0243073
11
12.9354396
21
152.0243073
0
LINE
8
DEFAULT_255_2_778
10
12.9354396
20
152.0243073
11
12.3451396
21
153.0469073
0
LINE
8
DEFAULT_255_2_778
10
12.3451396
20
153.0469073
11
11.1643396
21
153.0469073
0
LINE
8
DEFAULT_255_2_778
10
11.1643396
20
153.0469073
11
11.7546396
21
152.0243073
0
LINE
8
DEFAULT_255_2_778
10
11.7546396
20
152.0243073
11
11.7546396
21
152.0243073
0
LINE
8
DEFAULT_255_2_778
10
11.7545823
20
154.0695146
11
11.1642823
21
155.0921146
0
LINE
8
DEFAULT_255_2_778
10
11.1642823
20
155.0921146
11
10.5737823
21
154.0695146
0
LINE
8
DEFAULT_255_2_778
10
10.5737823
20
154.0695146
11
11.1642823
21
153.0469146
0
LINE
8
DEFAULT_255_2_778
10
11.1642823
20
153.0469146
11
11.7545823
21
154.0695146
0
LINE
8
DEFAULT_255_2_778
10
11.7545823
20
154.0695146
11
11.7545823
21
154.0695146
0
ARC
8
DEFAULT_255_2_778
10
16.5183731
20
153.7157426
40
0.5650491
50
268.7543645
51
289.1417717
0
ARC
8
DEFAULT_255_2_778
10
16.606208
20
153.4605531
40
0.2951681
50
289.2776255
51
3.7648372
0
ARC
8
DEFAULT_255_2_778
10
16.3901618
20
153.4871085
40
0.5106278
50
359.1949826
51
0.0020862
0
ARC
8
DEFAULT_255_2_778
10
16.547449
20
153.4730832
40
0.1541914
50
280.2616216
51
358.5297855
0
ARC
8
DEFAULT_255_2_778
10
16.5080075
20
153.585655
40
0.2726346
50
269.5969454
51
284.2065679
0
ARC
8
DEFAULT_255_2_778
10
16.4981967
20
153.5700316
40
0.2571258
50
246.5290903
51
271.7590909
0
ARC
8
DEFAULT_255_2_778
10
16.4527148
20
153.4620009
40
0.1399248
50
188.1071678
51
245.9934684
0
ARC
8
DEFAULT_255_2_778
10
16.4829007
20
153.4689617
40
0.1708111
50
179.9445314
51
188.990814
0
ARC
8
DEFAULT_255_2_778
10
16.4924507
20
153.4757849
40
0.3763411
50
178.2272621
51
205.8283807
0
ARC
8
DEFAULT_255_2_778
10
16.4132476
20
153.4580833
40
0.2979176
50
209.4028057
51
263.0375728
0
ARC
8
DEFAULT_255_2_778
10
16.5005111
20
153.8327629
40
0.6816586
50
259.5722942
51
270.4689037
0
ARC
8
DEFAULT_255_2_778
10
17.411252
20
153.8889767
40
0.1217154
50
2.0482843
51
87.015299
0
ARC
8
DEFAULT_255_2_778
10
17.4060617
20
153.8933852
40
0.126828
50
353.0600847
51
359.9737428
0
ARC
8
DEFAULT_255_2_778
10
17.4110442
20
153.8902555
40
0.1215295
50
270.5739762
51
354.2410513
0
ARC
8
DEFAULT_255_2_778
10
17.4065059
20
153.9264297
40
0.1578027
50
269.9941256
51
272.0902921
0
ARC
8
DEFAULT_255_2_778
10
17.414084
20
153.4755295
40
0.1400686
50
358.2807293
51
95.6106825
0
ARC
8
DEFAULT_255_2_778
10
17.4103233
20
153.4716963
40
0.1437669
50
266.9962473
51
359.8528392
0
ARC
8
DEFAULT_255_2_778
10
17.4725249
20
153.5119988
40
0.3335288
50
268.2414507
51
302.0223478
0
ARC
8
DEFAULT_255_2_778
10
17.5091261
20
153.436683
40
0.2504234
50
304.0600275
51
2.0468005
0
ARC
8
DEFAULT_255_2_778
10
17.4832788
20
153.4433521
40
0.2761203
50
0.4720601
51
65.8403529
0
ARC
8
DEFAULT_255_2_778
10
17.5191655
20
153.5081061
40
0.2024466
50
67.606893
51
75.8693222
0
ARC
8
DEFAULT_255_2_778
10
17.5042026
20
153.915722
40
0.2208874
50
286.9473417
51
358.0074963
0
ARC
8
DEFAULT_255_2_778
10
17.4710866
20
153.9245045
40
0.2544031
50
356.2897886
51
0.0050857
0
ARC
8
DEFAULT_255_2_778
10
17.497262
20
153.9295946
40
0.2282839
50
358.7280137
51
81.8073164
0
ARC
8
DEFAULT_255_2_778
10
17.4216369
20
153.6781283
40
0.4895182
50
77.2355086
51
90.5088275
0
ARC
8
DEFAULT_255_2_778
10
17.5842742
20
152.7136263
40
0.130243
50
89.9974494
51
92.6776592
0
ARC
8
DEFAULT_255_2_778
10
17.5843316
20
152.7141872
40
0.129682
50
45.0880141
51
90.022782
0
ARC
8
DEFAULT_255_2_778
10
17.5844118
20
152.714219
40
0.1296029
50
0.001866
51
45.1031959
0
ARC
8
DEFAULT_255_2_778
10
17.5845123
20
152.7142202
40
0.1295026
50
357.4803735
51
0.0013544
0
ARC
8
DEFAULT_255_2_778
10
17.5901979
20
152.7103512
40
0.1237052
50
339.8672523
51
359.1550732
0
ARC
8
DEFAULT_255_2_778
10
17.5794513
20
152.7075079
40
0.1329691
50
272.0853006
51
342.6124646
0
ARC
8
DEFAULT_255_2_778
10
17.6596145
20
152.7457661
40
0.2575135
50
286.787355
51
290.6121696
0
ARC
8
DEFAULT_255_2_778
10
17.6689461
20
152.7314533
40
0.24086
50
289.7330405
51
342.3216972
0
ARC
8
DEFAULT_255_2_778
10
17.641261
20
152.7362954
40
0.268735
50
343.130572
51
0.3905272
0
ARC
8
DEFAULT_255_2_778
10
17.6578783
20
152.7536767
40
0.2525904
50
356.4706028
51
80.1788963
0
ARC
8
DEFAULT_255_2_778
10
17.5921649
20
152.5267163
40
0.4881286
50
77.1212301
51
90.4900821
0
ARC
8
DEFAULT_255_2_778
10
17.5166337
20
152.229036
40
0.1865405
50
50.1507009
51
92.9634648
0
ARC
8
DEFAULT_255_2_778
10
17.5301354
20
152.2573678
40
0.1563319
50
12.621233
51
47.2950617
0
ARC
8
DEFAULT_255_2_778
10
16.8485884
20
152.1244726
40
0.8506657
50
2.8173892
51
11.3253986
0
ARC
8
DEFAULT_255_2_778
10
-29.2295733
20
148.6281175
40
47.060992
50
4.3048394
51
4.3117143
0
ARC
8
DEFAULT_255_2_778
10
18.5500859
20
152.200584
40
0.8523717
50
182.6850102
51
191.2954256
0
ARC
8
DEFAULT_255_2_778
10
17.9656837
20
152.0942399
40
0.2586603
50
193.5512904
51
195.3825538
0
ARC
8
DEFAULT_255_2_778
10
19.3415679
20
152.3518916
40
1.4608773
50
182.5958701
51
192.9049706
0
ARC
8
DEFAULT_255_2_778
10
17.6207606
20
152.2802215
40
0.261487
50
1.2064311
51
30.4123358
0
ARC
8
DEFAULT_255_2_778
10
17.6663626
20
152.295276
40
0.2147766
50
33.1081154
51
71.7312197
0
LINE
8
DEFAULT_255_2_778
10
13.4657897
20
152.4598271
11
13.9385897
21
152.4598271
0
LINE
8
DEFAULT_255_2_778
10
13.9385897
20
152.4598271
11
13.9385897
21
152.6312271
0
LINE
8
DEFAULT_255_2_778
10
13.9385897
20
152.6312271
11
13.4657897
21
152.6312271
0
LINE
8
DEFAULT_255_2_778
10
13.4657897
20
152.6312271
11
13.4657897
21
152.8421271
0
LINE
8
DEFAULT_255_2_778
10
13.4657897
20
152.8421271
11
13.9977897
21
152.8421271
0
LINE
8
DEFAULT_255_2_778
10
13.9977897
20
152.8421271
11
13.9977897
21
153.0135271
0
LINE
8
DEFAULT_255_2_778
10
13.9977897
20
153.0135271
11
13.4657897
21
153.0135271
0
LINE
8
DEFAULT_255_2_778
10
13.4657897
20
153.0135271
11
13.2651897
21
153.0135271
0
LINE
8
DEFAULT_255_2_778
10
13.2651897
20
153.0135271
11
13.2651897
21
152.8421271
0
LINE
8
DEFAULT_255_2_778
10
13.2651897
20
152.8421271
11
13.2651897
21
152.1957271
0
LINE
8
DEFAULT_255_2_778
10
13.2651897
20
152.1957271
11
13.2651897
21
152.0242271
0
LINE
8
DEFAULT_255_2_778
10
13.2651897
20
152.0242271
11
13.4657897
21
152.0242271
0
LINE
8
DEFAULT_255_2_778
10
13.4657897
20
152.0242271
11
14.0118897
21
152.0242271
0
LINE
8
DEFAULT_255_2_778
10
14.0118897
20
152.0242271
11
14.0118897
21
152.1957271
0
LINE
8
DEFAULT_255_2_778
10
14.0118897
20
152.1957271
11
13.4657897
21
152.1957271
0
LINE
8
DEFAULT_255_2_778
10
13.4657897
20
152.1957271
11
13.4657897
21
152.4595271
0
LINE
8
DEFAULT_255_2_778
10
13.4657897
20
152.4595271
11
13.4657897
21
152.4598271
0
LINE
8
DEFAULT_255_2_778
10
13.4519897
20
153.9139271
11
13.6620897
21
153.1786271
0
LINE
8
DEFAULT_255_2_778
10
13.6620897
20
153.1786271
11
13.6704897
21
153.1786271
0
LINE
8
DEFAULT_255_2_778
10
13.6704897
20
153.1786271
11
13.8464897
21
153.1786271
0
LINE
8
DEFAULT_255_2_778
10
13.8464897
20
153.1786271
11
13.8546897
21
153.1786271
0
LINE
8
DEFAULT_255_2_778
10
13.8546897
20
153.1786271
11
14.0647897
21
153.9139271
0
LINE
8
DEFAULT_255_2_778
10
14.0647897
20
153.9139271
11
14.0647897
21
153.1786271
0
LINE
8
DEFAULT_255_2_778
10
14.0647897
20
153.1786271
11
14.2515897
21
153.1786271
0
LINE
8
DEFAULT_255_2_778
10
14.2515897
20
153.1786271
11
14.2515897
21
154.1679271
0
LINE
8
DEFAULT_255_2_778
10
14.2515897
20
154.1679271
11
14.1496897
21
154.1679271
0
LINE
8
DEFAULT_255_2_778
10
14.1496897
20
154.1679271
11
14.0615897
21
154.1679271
0
LINE
8
DEFAULT_255_2_778
10
14.0615897
20
154.1679271
11
13.9655897
21
154.1679271
0
LINE
8
DEFAULT_255_2_778
10
13.9655897
20
154.1679271
11
13.7583897
21
153.4736271
0
LINE
8
DEFAULT_255_2_778
10
13.7583897
20
153.4736271
11
13.5511897
21
154.1679271
0
LINE
8
DEFAULT_255_2_778
10
13.5511897
20
154.1679271
11
13.4551897
21
154.1679271
0
LINE
8
DEFAULT_255_2_778
10
13.4551897
20
154.1679271
11
13.3669897
21
154.1679271
0
LINE
8
DEFAULT_255_2_778
10
13.3669897
20
154.1679271
11
13.2651897
21
154.1679271
0
LINE
8
DEFAULT_255_2_778
10
13.2651897
20
154.1679271
11
13.2651897
21
153.1786271
0
LINE
8
DEFAULT_255_2_778
10
13.2651897
20
153.1786271
11
13.4519897
21
153.1786271
0
LINE
8
DEFAULT_255_2_778
10
13.4519897
20
153.1786271
11
13.4519897
21
153.9139271
0
LINE
8
DEFAULT_255_2_778
10
13.4519897
20
153.9139271
11
13.4519897
21
153.9139271
0
LINE
8
DEFAULT_255_2_778
10
18.0056897
20
154.1679271
11
17.8064897
21
154.1679271
0
LINE
8
DEFAULT_255_2_778
10
17.8064897
20
154.1679271
11
17.8064897
21
153.1786271
0
LINE
8
DEFAULT_255_2_778
10
17.8064897
20
153.1786271
11
18.0056897
21
153.1786271
0
LINE
8
DEFAULT_255_2_778
10
18.0056897
20
153.1786271
11
18.0056897
21
154.1679271
0
LINE
8
DEFAULT_255_2_778
10
18.0056897
20
154.1679271
11
18.0056897
21
154.1679271
0
LINE
8
DEFAULT_255_2_778
10
18.1681897
20
153.0138271
11
17.9689897
21
153.0138271
0
LINE
8
DEFAULT_255_2_778
10
17.9689897
20
153.0138271
11
17.9689897
21
152.0245271
0
LINE
8
DEFAULT_255_2_778
10
17.9689897
20
152.0245271
11
18.1681897
21
152.0245271
0
LINE
8
DEFAULT_255_2_778
10
18.1681897
20
152.0245271
11
18.1681897
21
153.0138271
0
LINE
8
DEFAULT_255_2_778
10
18.1681897
20
153.0138271
11
18.1681897
21
153.0138271
0
LINE
8
DEFAULT_255_2_778
10
19.9765897
20
154.1679271
11
19.7773897
21
154.1679271
0
LINE
8
DEFAULT_255_2_778
10
19.7773897
20
154.1679271
11
19.7773897
21
153.1786271
0
LINE
8
DEFAULT_255_2_778
10
19.7773897
20
153.1786271
11
19.9765897
21
153.1786271
0
LINE
8
DEFAULT_255_2_778
10
19.9765897
20
153.1786271
11
19.9765897
21
154.1679271
0
LINE
8
DEFAULT_255_2_778
10
19.9765897
20
154.1679271
11
19.9765897
21
154.1679271
0
LINE
8
DEFAULT_255_2_778
10
14.5298897
20
154.1679271
11
14.3306897
21
154.1679271
0
LINE
8
DEFAULT_255_2_778
10
14.3306897
20
154.1679271
11
14.3306897
21
153.1786271
0
LINE
8
DEFAULT_255_2_778
10
14.3306897
20
153.1786271
11
14.5298897
21
153.1786271
0
LINE
8
DEFAULT_255_2_778
10
14.5298897
20
153.1786271
11
14.5298897
21
154.1679271
0
LINE
8
DEFAULT_255_2_778
10
14.5298897
20
154.1679271
11
14.5298897
21
154.1679271
0
LINE
8
DEFAULT_255_2_778
10
19.4989897
20
153.7819271
11
19.1029897
21
153.7819271
0
LINE
8
DEFAULT_255_2_778
10
19.1029897
20
153.7819271
11
19.1029897
21
154.1676271
0
LINE
8
DEFAULT_255_2_778
10
19.1029897
20
154.1676271
11
18.9068897
21
154.1676271
0
LINE
8
DEFAULT_255_2_778
10
18.9068897
20
154.1676271
11
18.9068897
21
153.1786271
0
LINE
8
DEFAULT_255_2_778
10
18.9068897
20
153.1786271
11
19.1029897
21
153.1786271
0
LINE
8
DEFAULT_255_2_778
10
19.1029897
20
153.1786271
11
19.1029897
21
153.6104271
0
LINE
8
DEFAULT_255_2_778
10
19.1029897
20
153.6104271
11
19.4989897
21
153.6104271
0
LINE
8
DEFAULT_255_2_778
10
19.4989897
20
153.6104271
11
19.4989897
21
153.1786271
0
LINE
8
DEFAULT_255_2_778
10
19.4989897
20
153.1786271
11
19.6950897
21
153.1786271
0
LINE
8
DEFAULT_255_2_778
10
19.6950897
20
153.1786271
11
19.6950897
21
154.1676271
0
LINE
8
DEFAULT_255_2_778
10
19.6950897
20
154.1676271
11
19.4989897
21
154.1676271
0
LINE
8
DEFAULT_255_2_778
10
19.4989897
20
154.1676271
11
19.4989897
21
153.7819271
0
LINE
8
DEFAULT_255_2_778
10
19.4989897
20
153.7819271
11
19.4989897
21
153.7819271
0
LINE
8
DEFAULT_255_2_778
10
14.8246897
20
153.1786271
11
15.0280897
21
153.1786271
0
LINE
8
DEFAULT_255_2_778
10
15.0280897
20
153.1786271
11
15.0280897
21
153.9965271
0
LINE
8
DEFAULT_255_2_778
10
15.0280897
20
153.9965271
11
15.2696897
21
153.9965271
0
LINE
8
DEFAULT_255_2_778
10
15.2696897
20
153.9965271
11
15.2696897
21
154.1679271
0
LINE
8
DEFAULT_255_2_778
10
15.2696897
20
154.1679271
11
15.0280897
21
154.1679271
0
LINE
8
DEFAULT_255_2_778
10
15.0280897
20
154.1679271
11
14.8246897
21
154.1679271
0
LINE
8
DEFAULT_255_2_778
10
14.8246897
20
154.1679271
11
14.5830897
21
154.1679271
0
LINE
8
DEFAULT_255_2_778
10
14.5830897
20
154.1679271
11
14.5830897
21
153.9965271
0
LINE
8
DEFAULT_255_2_778
10
14.5830897
20
153.9965271
11
14.8246897
21
153.9965271
0
LINE
8
DEFAULT_255_2_778
10
14.8246897
20
153.9965271
11
14.8246897
21
153.1786271
0
LINE
8
DEFAULT_255_2_778
10
14.8246897
20
153.1786271
11
14.8246897
21
153.1786271
0
LINE
8
DEFAULT_255_2_778
10
16.6422897
20
152.0245271
11
16.8454897
21
152.0245271
0
LINE
8
DEFAULT_255_2_778
10
16.8454897
20
152.0245271
11
16.8454897
21
152.8423271
0
LINE
8
DEFAULT_255_2_778
10
16.8454897
20
152.8423271
11
17.0873897
21
152.8423271
0
LINE
8
DEFAULT_255_2_778
10
17.0873897
20
152.8423271
11
17.0873897
21
153.0141271
0
LINE
8
DEFAULT_255_2_778
10
17.0873897
20
153.0141271
11
16.8454897
21
153.0141271
0
LINE
8
DEFAULT_255_2_778
10
16.8454897
20
153.0141271
11
16.6422897
21
153.0141271
0
LINE
8
DEFAULT_255_2_778
10
16.6422897
20
153.0141271
11
16.4004897
21
153.0141271
0
LINE
8
DEFAULT_255_2_778
10
16.4004897
20
153.0141271
11
16.4004897
21
152.8423271
0
LINE
8
DEFAULT_255_2_778
10
16.4004897
20
152.8423271
11
16.6422897
21
152.8423271
0
LINE
8
DEFAULT_255_2_778
10
16.6422897
20
152.8423271
11
16.6422897
21
152.0245271
0
LINE
8
DEFAULT_255_2_778
10
16.6422897
20
152.0245271
11
16.6422897
21
152.0245271
0
LINE
8
DEFAULT_255_2_778
10
16.9007897
20
153.4871271
11
16.9007897
21
154.1676271
0
LINE
8
DEFAULT_255_2_778
10
16.9007897
20
154.1676271
11
16.7015897
21
154.1676271
0
LINE
8
DEFAULT_255_2_778
10
16.7015897
20
154.1676271
11
16.7015897
21
153.4691271
0
LINE
8
DEFAULT_255_2_778
10
16.3120897
20
153.4691271
11
16.3120897
21
154.1676271
0
LINE
8
DEFAULT_255_2_778
10
16.3120897
20
154.1676271
11
16.1162897
21
154.1676271
0
LINE
8
DEFAULT_255_2_778
10
16.1162897
20
154.1676271
11
16.1162897
21
153.4874271
0
LINE
8
DEFAULT_255_2_778
10
15.0000897
20
152.4598271
11
15.4730897
21
152.4598271
0
LINE
8
DEFAULT_255_2_778
10
15.4730897
20
152.4598271
11
15.4730897
21
152.6312271
0
LINE
8
DEFAULT_255_2_778
10
15.4730897
20
152.6312271
11
15.0000897
21
152.6312271
0
LINE
8
DEFAULT_255_2_778
10
15.0000897
20
152.6312271
11
15.0000897
21
152.8421271
0
LINE
8
DEFAULT_255_2_778
10
15.0000897
20
152.8421271
11
15.5320897
21
152.8421271
0
LINE
8
DEFAULT_255_2_778
10
15.5320897
20
152.8421271
11
15.5320897
21
153.0135271
0
LINE
8
DEFAULT_255_2_778
10
15.5320897
20
153.0135271
11
15.0000897
21
153.0135271
0
LINE
8
DEFAULT_255_2_778
10
15.0000897
20
153.0135271
11
14.7997897
21
153.0135271
0
LINE
8
DEFAULT_255_2_778
10
14.7997897
20
153.0135271
11
14.7997897
21
152.8421271
0
LINE
8
DEFAULT_255_2_778
10
14.7997897
20
152.8421271
11
14.7997897
21
152.1957271
0
LINE
8
DEFAULT_255_2_778
10
14.7997897
20
152.1957271
11
14.7997897
21
152.0242271
0
LINE
8
DEFAULT_255_2_778
10
14.7997897
20
152.0242271
11
15.0000897
21
152.0242271
0
LINE
8
DEFAULT_255_2_778
10
15.0000897
20
152.0242271
11
15.5461897
21
152.0242271
0
LINE
8
DEFAULT_255_2_778
10
15.5461897
20
152.0242271
11
15.5461897
21
152.1957271
0
LINE
8
DEFAULT_255_2_778
10
15.5461897
20
152.1957271
11
15.0000897
21
152.1957271
0
LINE
8
DEFAULT_255_2_778
10
15.0000897
20
152.1957271
11
15.0000897
21
152.4595271
0
LINE
8
DEFAULT_255_2_778
10
15.0000897
20
152.4595271
11
15.0000897
21
152.4598271
0
LINE
8
DEFAULT_255_2_778
10
17.4064897
20
153.7686271
11
17.1690897
21
153.7686271
0
LINE
8
DEFAULT_255_2_778
10
17.1690897
20
153.7686271
11
17.1690897
21
154.0102271
0
LINE
8
DEFAULT_255_2_778
10
17.1690897
20
154.0102271
11
17.4175897
21
154.0102271
0
LINE
8
DEFAULT_255_2_778
10
17.4175897
20
154.0102271
11
17.4175897
21
154.0105271
0
LINE
8
DEFAULT_255_2_778
10
17.4027897
20
153.3278271
11
17.1690897
21
153.3278271
0
LINE
8
DEFAULT_255_2_778
10
17.1690897
20
153.3278271
11
17.1690897
21
153.6149271
0
LINE
8
DEFAULT_255_2_778
10
17.1690897
20
153.6149271
11
17.4003897
21
153.6149271
0
LINE
8
DEFAULT_255_2_778
10
17.1767897
20
153.1786271
11
17.4622897
21
153.1786271
0
LINE
8
DEFAULT_255_2_778
10
17.4172897
20
154.1676271
11
17.1770897
21
154.1676271
0
LINE
8
DEFAULT_255_2_778
10
17.1770897
20
154.1676271
11
16.9722897
21
154.1676271
0
LINE
8
DEFAULT_255_2_778
10
16.9722897
20
154.1676271
11
16.9711897
21
154.1676271
0
LINE
8
DEFAULT_255_2_778
10
16.9711897
20
154.1676271
11
16.9711897
21
153.1786271
0
LINE
8
DEFAULT_255_2_778
10
16.9711897
20
153.1786271
11
16.9722897
21
153.1786271
0
LINE
8
DEFAULT_255_2_778
10
16.9722897
20
153.1786271
11
17.1770897
21
153.1786271
0
LINE
8
DEFAULT_255_2_778
10
17.1770897
20
153.1786271
11
17.1767897
21
153.1786271
0
LINE
8
DEFAULT_255_2_778
10
17.3368897
20
152.5743271
11
17.3368897
21
152.8437271
0
LINE
8
DEFAULT_255_2_778
10
17.3368897
20
152.8437271
11
17.5781897
21
152.8437271
0
LINE
8
DEFAULT_255_2_778
10
17.5842897
20
152.5746271
11
17.3370897
21
152.5746271
0
LINE
8
DEFAULT_255_2_778
10
17.3370897
20
152.5746271
11
17.3368897
21
152.5743271
0
LINE
8
DEFAULT_255_2_778
10
17.5879897
20
153.0148271
11
17.3368897
21
153.0148271
0
LINE
8
DEFAULT_255_2_778
10
17.3368897
20
153.0148271
11
17.1383897
21
153.0148271
0
LINE
8
DEFAULT_255_2_778
10
17.1383897
20
153.0148271
11
17.1362897
21
153.0148271
0
LINE
8
DEFAULT_255_2_778
10
17.1362897
20
153.0148271
11
17.1362897
21
152.0256271
0
LINE
8
DEFAULT_255_2_778
10
17.1362897
20
152.0256271
11
17.3368897
21
152.0256271
0
LINE
8
DEFAULT_255_2_778
10
17.3368897
20
152.0256271
11
17.3368897
21
152.4153271
0
LINE
8
DEFAULT_255_2_778
10
17.3368897
20
152.4153271
11
17.5069897
21
152.4153271
0
LINE
8
DEFAULT_255_2_778
10
17.7162897
20
152.0256271
11
17.9175897
21
152.0256271
0
LINE
8
DEFAULT_255_2_778
10
14.2763897
20
153.0138271
11
14.0760897
21
153.0138271
0
LINE
8
DEFAULT_255_2_778
10
14.0760897
20
153.0138271
11
14.0760897
21
152.1960271
0
LINE
8
DEFAULT_255_2_778
10
14.0760897
20
152.1960271
11
14.0760897
21
152.0245271
0
LINE
8
DEFAULT_255_2_778
10
14.0760897
20
152.0245271
11
14.2763897
21
152.0245271
0
LINE
8
DEFAULT_255_2_778
10
14.2763897
20
152.0245271
11
14.7428897
21
152.0245271
0
LINE
8
DEFAULT_255_2_778
10
14.7428897
20
152.0245271
11
14.7428897
21
152.1960271
0
LINE
8
DEFAULT_255_2_778
10
14.7428897
20
152.1960271
11
14.2763897
21
152.1960271
0
LINE
8
DEFAULT_255_2_778
10
14.2763897
20
152.1960271
11
14.2763897
21
153.0138271
0
LINE
8
DEFAULT_255_2_778
10
14.2763897
20
153.0138271
11
14.2763897
21
153.0138271
0
ARC
8
DEFAULT_255_2_778
10
15.4584271
20
152.6396969
40
0.9681224
50
72.4822103
51
81.3184214
0
ARC
8
DEFAULT_255_2_778
10
15.7160297
20
153.4163918
40
0.1503783
50
28.8883513
51
77.0092434
0
ARC
8
DEFAULT_255_2_778
10
15.7432379
20
153.4453196
40
0.113238
50
358.9917455
51
22.7117017
0
ARC
8
DEFAULT_255_2_778
10
15.7394861
20
153.4494918
40
0.1171346
50
289.2958104
51
356.9831562
0
ARC
8
DEFAULT_255_2_778
10
15.6668261
20
153.6069882
40
0.2902651
50
268.4665462
51
292.5613311
0
ARC
8
DEFAULT_255_2_778
10
15.6496856
20
153.5479179
40
0.2312808
50
236.4956947
51
272.3225735
0
ARC
8
DEFAULT_255_2_778
10
15.6106646
20
153.4796839
40
0.1529307
50
178.9722202
51
234.5742435
0
ARC
8
DEFAULT_255_2_778
10
15.5656113
20
153.4701079
40
0.3002058
50
177.6481608
51
245.5596397
0
ARC
8
DEFAULT_255_2_778
10
15.6409971
20
153.6423561
40
0.488217
50
245.8690375
51
267.169035
0
ARC
8
DEFAULT_255_2_778
10
15.6671503
20
153.8933916
40
0.7403648
50
266.1069867
51
270.0547972
0
ARC
8
DEFAULT_255_2_778
10
15.6772894
20
153.7246135
40
0.5716642
50
269.0547216
51
287.7147747
0
ARC
8
DEFAULT_255_2_778
10
15.7598889
20
153.4789091
40
0.3125017
50
286.995984
51
325.1221533
0
ARC
8
DEFAULT_255_2_778
10
15.7678294
20
153.462361
40
0.2966627
50
326.8673922
51
0.8625726
0
ARC
8
DEFAULT_255_2_778
10
15.7898286
20
153.4709409
40
0.2746606
50
359.1417932
51
76.9739731
0
ARC
8
DEFAULT_255_2_778
10
15.6705461
20
153.1900719
40
0.577616
50
71.7185727
51
79.1315439
0
ARC
8
DEFAULT_255_2_778
10
14.2492968
20
145.836467
40
8.0673056
50
79.0662148
51
79.6216572
0
ARC
8
DEFAULT_255_2_778
10
16.4356585
20
157.7141581
40
4.0099443
50
259.1227669
51
259.4665204
0
ARC
8
DEFAULT_255_2_778
10
15.7836732
20
154.4191142
40
0.6513291
50
249.9945768
51
260.7485895
0
ARC
8
DEFAULT_255_2_778
10
15.5880401
20
153.9080999
40
0.1046098
50
178.6705173
51
254.9333545
0
ARC
8
DEFAULT_255_2_778
10
15.6049957
20
153.9046688
40
0.1216785
50
93.288632
51
177.2403935
0
ARC
8
DEFAULT_255_2_778
10
15.6585677
20
153.7176752
40
0.3143588
50
89.6189463
51
101.1057977
0
ARC
8
DEFAULT_255_2_778
10
15.6722733
20
153.829516
40
0.2028439
50
53.5634072
51
93.2825843
0
ARC
8
DEFAULT_255_2_778
10
15.7018505
20
153.8877144
40
0.1388739
50
357.1985816
51
49.1152298
0
ARC
8
DEFAULT_255_2_778
10
15.7254907
20
153.8809274
40
0.3087677
50
359.9999335
51
2.3703878
0
ARC
8
DEFAULT_255_2_778
10
15.7353555
20
153.8824337
40
0.298851
50
2.1600756
51
60.1092229
0
ARC
8
DEFAULT_255_2_778
10
15.6766212
20
153.7758133
40
0.4205645
50
60.4106856
51
86.1444419
0
ARC
8
DEFAULT_255_2_778
10
15.6536151
20
153.5991228
40
0.5985046
50
85.0843314
51
90.0628677
0
ARC
8
DEFAULT_255_2_778
10
15.6529718
20
153.7225466
40
0.4750804
50
90.001616
51
92.2300394
0
ARC
8
DEFAULT_255_2_778
10
15.6281193
20
153.827687
40
0.3696351
50
89.0131319
51
149.6364996
0
ARC
8
DEFAULT_255_2_778
10
15.5505461
20
153.8999055
40
0.2671974
50
154.5962367
51
180.4885883
0
ARC
8
DEFAULT_255_2_778
10
15.5651524
20
153.898384
40
0.281795
50
180.1539064
51
255.1120325
0
ARC
8
DEFAULT_255_2_778
10
15.7094242
20
154.221232
40
0.6333958
50
249.9962237
51
260.4976723
0
ARC
8
DEFAULT_255_2_778
10
18.2470963
20
152.6408351
40
0.967002
50
72.4685023
51
81.3064395
0
ARC
8
DEFAULT_255_2_778
10
18.5045397
20
153.416427
40
0.1503535
50
28.8782248
51
76.9904304
0
ARC
8
DEFAULT_255_2_778
10
18.5317197
20
153.4453189
40
0.1132561
50
358.9922779
51
22.7082666
0
ARC
8
DEFAULT_255_2_778
10
18.5280402
20
153.4494088
40
0.1170763
50
289.2761556
51
357.0223042
0
ARC
8
DEFAULT_255_2_778
10
18.4553612
20
153.6072836
40
0.2905613
50
268.4611814
51
292.5289055
0
ARC
8
DEFAULT_255_2_778
10
18.4381801
20
153.5488175
40
0.2321799
50
236.6698634
51
272.3149402
0
ARC
8
DEFAULT_255_2_778
10
18.39878
20
153.4796762
40
0.1528464
50
178.9687581
51
234.7686008
0
ARC
8
DEFAULT_255_2_778
10
18.3540113
20
153.4701079
40
0.3002058
50
177.6481608
51
245.5596397
0
ARC
8
DEFAULT_255_2_778
10
18.4293971
20
153.6423561
40
0.488217
50
245.8690375
51
267.169035
0
ARC
8
DEFAULT_255_2_778
10
18.4555503
20
153.8933916
40
0.7403648
50
266.1069867
51
270.0547972
0
ARC
8
DEFAULT_255_2_778
10
18.4656836
20
153.7252451
40
0.5722957
50
269.0563423
51
287.7048702
0
ARC
8
DEFAULT_255_2_778
10
18.548344
20
153.4792682
40
0.312856
50
286.9832601
51
325.0871916
0
ARC
8
DEFAULT_255_2_778
10
18.5567708
20
153.4623856
40
0.2964208
50
326.8311942
51
0.8585267
0
ARC
8
DEFAULT_255_2_778
10
18.5785756
20
153.4710282
40
0.2746149
50
359.1234265
51
76.9343785
0
ARC
8
DEFAULT_255_2_778
10
18.4596421
20
153.1911965
40
0.5764934
50
71.6999697
51
79.1198353
0
ARC
8
DEFAULT_255_2_778
10
17.0173657
20
145.7144392
40
8.1910887
50
79.0843627
51
79.6321368
0
ARC
8
DEFAULT_255_2_778
10
19.2200266
20
157.6939177
40
3.9892176
50
259.1314419
51
259.4772924
0
ARC
8
DEFAULT_255_2_778
10
18.5723251
20
154.4185131
40
0.6507003
50
249.9919323
51
260.7592458
0
ARC
8
DEFAULT_255_2_778
10
18.376901
20
153.9080546
40
0.1045718
50
178.6452075
51
254.9151907
0
ARC
8
DEFAULT_255_2_778
10
18.3939581
20
153.9046016
40
0.121744
50
93.2745253
51
177.21023
0
ARC
8
DEFAULT_255_2_778
10
18.4475726
20
153.7175052
40
0.3145287
50
89.6200387
51
101.1027534
0
ARC
8
DEFAULT_255_2_778
10
18.4613489
20
153.8308453
40
0.2015212
50
53.1490002
51
93.3256649
0
ARC
8
DEFAULT_255_2_778
10
18.4902753
20
153.8876519
40
0.1391457
50
357.2298288
51
48.6469881
0
ARC
8
DEFAULT_255_2_778
10
18.5137232
20
153.8809226
40
0.3092351
50
0.0008291
51
2.3676985
0
ARC
8
DEFAULT_255_2_778
10
18.5240744
20
153.8824868
40
0.2988304
50
2.1500394
51
60.0956838
0
ARC
8
DEFAULT_255_2_778
10
18.4654399
20
153.7759909
40
0.4203859
50
60.40452
51
86.1455285
0
ARC
8
DEFAULT_255_2_778
10
18.4424157
20
153.5991686
40
0.5984588
50
85.0841409
51
90.0629301
0
ARC
8
DEFAULT_255_2_778
10
18.4417778
20
153.7221392
40
0.4754878
50
90.0023409
51
92.3231329
0
ARC
8
DEFAULT_255_2_778
10
18.4167555
20
153.8274604
40
0.3698206
50
89.1093915
51
149.6400816
0
ARC
8
DEFAULT_255_2_778
10
18.338761
20
153.8998917
40
0.2669122
50
154.6001925
51
180.486137
0
ARC
8
DEFAULT_255_2_778
10
18.3537607
20
153.8985152
40
0.2819037
50
180.1805176
51
255.132702
0
ARC
8
DEFAULT_255_2_778
10
18.4982264
20
154.2217784
40
0.6339516
50
250.0026216
51
260.4967164
0
ARC
8
DEFAULT_255_2_778
10
16.008917
20
152.4289283
40
0.2519711
50
190.2626864
51
267.3480013
0
ARC
8
DEFAULT_255_2_778
10
16.2443543
20
152.5202548
40
0.5022041
50
179.6723028
51
195.7380858
0
ARC
8
DEFAULT_255_2_778
10
16.1790511
20
152.5357671
40
0.4370755
50
148.7005643
51
181.6572045
0
ARC
8
DEFAULT_255_2_778
10
15.9957576
20
152.6458723
40
0.2232598
50
89.6148479
51
148.4074796
0
ARC
8
DEFAULT_255_2_778
10
16.0060936
20
152.667949
40
0.201372
50
41.9769772
51
92.5146611
0
ARC
8
DEFAULT_255_2_778
10
15.9522078
20
152.6302523
40
0.2667646
50
15.1848537
51
40.2549591
0
ARC
8
DEFAULT_255_2_778
10
16.028123
20
152.6405326
40
0.3935735
50
8.7091682
51
82.0550801
0
ARC
8
DEFAULT_255_2_778
10
15.9931241
20
152.4940871
40
0.543642
50
80.5350289
51
90.1544743
0
ARC
8
DEFAULT_255_2_778
10
15.9818804
20
152.5827192
40
0.4551129
50
88.7689246
51
119.6437418
0
ARC
8
DEFAULT_255_2_778
10
16.0077717
20
152.5864647
40
0.4653013
50
122.644121
51
173.3997839
0
ARC
8
DEFAULT_255_2_778
10
16.2711934
20
152.5221568
40
0.7351371
50
170.7798304
51
180.1348114
0
ARC
8
DEFAULT_255_2_778
10
16.1377257
20
152.5067615
40
0.6018225
50
178.6988735
51
210.5289552
0
ARC
8
DEFAULT_255_2_778
10
15.970325
20
152.4159953
40
0.4115783
50
211.4828222
51
265.8686737
0
ARC
8
DEFAULT_255_2_778
10
15.9909864
20
152.5407011
40
0.5375742
50
264.6297133
51
270.0503073
0
ARC
8
DEFAULT_255_2_778
10
16.0020995
20
152.4725749
40
0.4695684
50
268.7014824
51
300.1403067
0
ARC
8
DEFAULT_255_2_778
10
16.0350333
20
152.3941852
40
0.385394
50
301.7580058
51
353.77968
0
ARC
8
DEFAULT_255_2_778
10
16.0012256
20
152.3885219
40
0.2113379
50
268.8430278
51
350.1661143
0
ARC
8
DEFAULT_255_2_778
10
18.6896799
20
152.4288824
40
0.2519281
50
190.2538303
51
267.3332171
0
ARC
8
DEFAULT_255_2_778
10
18.9252249
20
152.5202581
40
0.5022746
50
179.672724
51
195.7362088
0
ARC
8
DEFAULT_255_2_778
10
18.8600432
20
152.5357917
40
0.4372682
50
148.7196987
51
181.6596982
0
ARC
8
DEFAULT_255_2_778
10
18.676443
20
152.6459906
40
0.2231415
50
89.6108896
51
148.4244661
0
ARC
8
DEFAULT_255_2_778
10
18.686876
20
152.667967
40
0.2013576
50
42.5913083
51
92.5383066
0
ARC
8
DEFAULT_255_2_778
10
18.6345542
20
152.6315973
40
0.2646316
50
15.0085433
51
40.7215892
0
ARC
8
DEFAULT_255_2_778
10
18.708623
20
152.6405326
40
0.3935735
50
8.7091682
51
82.0550801
0
ARC
8
DEFAULT_255_2_778
10
18.6736241
20
152.4940871
40
0.543642
50
80.5350289
51
90.1544743
0
ARC
8
DEFAULT_255_2_778
10
18.6623804
20
152.5827192
40
0.4551129
50
88.7689246
51
119.6437418
0
ARC
8
DEFAULT_255_2_778
10
18.6882717
20
152.5864647
40
0.4653013
50
122.644121
51
173.3997839
0
ARC
8
DEFAULT_255_2_778
10
18.9516934
20
152.5221568
40
0.7351371
50
170.7798304
51
180.1348114
0
ARC
8
DEFAULT_255_2_778
10
18.8177822
20
152.50682
40
0.6013778
50
178.7034849
51
210.5604279
0
ARC
8
DEFAULT_255_2_778
10
18.6511312
20
152.4163377
40
0.4119265
50
211.5090145
51
265.8592607
0
ARC
8
DEFAULT_255_2_778
10
18.6716883
20
152.5404521
40
0.5373252
50
264.628472
51
270.0501277
0
ARC
8
DEFAULT_255_2_778
10
18.682837
20
152.4723685
40
0.4693629
50
268.6963312
51
300.2191972
0
ARC
8
DEFAULT_255_2_778
10
18.7155684
20
152.3944124
40
0.3856821
50
301.8465101
51
353.7503927
0
ARC
8
DEFAULT_255_2_778
10
18.6820648
20
152.3883604
40
0.2111733
50
268.8857714
51
350.2028431
0
LINE
8
DEFAULT_255_2_778
10
15.4577584
20
153.4824271
11
15.2656584
21
153.4824271
0
LINE
8
DEFAULT_255_2_778
10
15.8405584
20
153.8809271
11
16.0342584
21
153.8809271
0
LINE
8
DEFAULT_255_2_778
10
18.2459584
20
153.4824271
11
18.0540584
21
153.4824271
0
LINE
8
DEFAULT_255_2_778
10
18.6292584
20
153.8809271
11
18.8229584
21
153.8809271
0
LINE
8
DEFAULT_255_2_778
10
16.2096584
20
152.7001271
11
16.4171584
21
152.7001271
0
LINE
8
DEFAULT_255_2_778
10
16.4181584
20
152.3524271
11
16.2094584
21
152.3524271
0
LINE
8
DEFAULT_255_2_778
10
18.8901584
20
152.7001271
11
19.0976584
21
152.7001271
0
LINE
8
DEFAULT_255_2_778
10
19.0989584
20
152.3524271
11
18.8901584
21
152.3524271
0
LINE
8
DEFAULT_255_2_778
10
9.3932417
20
140.0968483
11
10.7161417
21
140.0968483
0
LINE
8
DEFAULT_255_2_778
10
10.7161417
20
140.0968483
11
10.7161417
21
83.2114483
0
LINE
8
DEFAULT_255_2_778
10
10.7161417
20
77.9197483
11
10.7161417
21
21.0343483
0
LINE
8
DEFAULT_255_2_778
10
10.7161417
20
21.0343483
11
9.3932417
21
21.0343483
0
LINE
8
DEFAULT_255_2_778
10
9.3932834
20
83.2114333
11
12.0390834
21
83.2114333
0
LINE
8
DEFAULT_255_2_778
10
12.0390834
20
83.2114333
11
12.0390834
21
77.9197333
0
LINE
8
DEFAULT_255_2_778
10
12.0390834
20
77.9197333
11
9.3932834
21
77.9197333
0
LINE
8
DEFAULT_255_2_778
10
9.3932834
20
77.9197333
11
9.3932834
21
83.2114333
0
LINE
8
DEFAULT_255_2_778
10
10.187
20
78.4489666
11
10.187
21
82.6822666
0
LINE
8
DEFAULT_255_2_778
10
9.9224167
20
81.888575
11
10.1870167
21
82.682275
0
LINE
8
DEFAULT_255_2_778
10
10.1870167
20
82.682275
11
10.4516167
21
81.888575
0
LINE
8
DEFAULT_255_2_778
10
10.4516167
20
81.888575
11
9.9224167
21
81.888575
0
LINE
8
DEFAULT_255_2_778
10
11.2453
20
82.6822666
11
11.2453
21
78.4489666
0
LINE
8
DEFAULT_255_2_778
10
10.9807167
20
79.242675
11
11.2453167
21
78.448975
0
LINE
8
DEFAULT_255_2_778
10
11.2453167
20
78.448975
11
11.5099167
21
79.242675
0
LINE
8
DEFAULT_255_2_778
10
11.5099167
20
79.242675
11
10.9807167
21
79.242675
0
LINE
8
DEFAULT_255_2_778
10
19.9765417
20
140.0969075
11
18.6536417
21
140.0969075
0
LINE
8
DEFAULT_255_2_778
10
18.6536417
20
140.0969075
11
18.6536417
21
83.2115075
0
LINE
8
DEFAULT_255_2_778
10
17.3307834
20
83.2114333
11
19.9765834
21
83.2114333
0
LINE
8
DEFAULT_255_2_778
10
19.9765834
20
83.2114333
11
19.9765834
21
77.9197333
0
LINE
8
DEFAULT_255_2_778
10
19.9765834
20
77.9197333
11
17.3307834
21
77.9197333
0
LINE
8
DEFAULT_255_2_778
10
17.3307834
20
77.9197333
11
17.3307834
21
83.2114333
0
LINE
8
DEFAULT_255_2_778
10
18.1245
20
78.4489666
11
18.1245
21
82.6822666
0
LINE
8
DEFAULT_255_2_778
10
17.8599167
20
81.888575
11
18.1245167
21
82.682275
0
LINE
8
DEFAULT_255_2_778
10
18.1245167
20
82.682275
11
18.3891167
21
81.888575
0
LINE
8
DEFAULT_255_2_778
10
18.3891167
20
81.888575
11
17.8599167
21
81.888575
0
LINE
8
DEFAULT_255_2_778
10
19.1828
20
82.6822666
11
19.1828
21
78.4489666
0
LINE
8
DEFAULT_255_2_778
10
18.9182167
20
79.242675
11
19.1828167
21
78.448975
0
LINE
8
DEFAULT_255_2_778
10
19.1828167
20
78.448975
11
19.4474167
21
79.242675
0
LINE
8
DEFAULT_255_2_778
10
19.4474167
20
79.242675
11
18.9182167
21
79.242675
0
LINE
8
DEFAULT_255_2_778
10
18.6536417
20
77.9198075
11
18.6536417
21
21.0344075
0
LINE
8
DEFAULT_255_2_778
10
18.6536417
20
21.0344075
11
19.9765417
21
21.0344075
0
LINE
8
DEFAULT_255_1_234
10
4.9274119
20
147.6366792
11
4.9274119
21
147.5154
0
LINE
8
DEFAULT_255_1_234
10
4.9274119
20
147.5154
11
4.161184
21
147.5154
0
LINE
8
DEFAULT_255_1_234
10
4.161184
20
147.5154
11
4.161184
21
147.6222221
0
LINE
8
DEFAULT_255_1_234
10
4.161184
20
147.6222221
11
4.5659836
21
148.0719995
0
LINE
8
DEFAULT_255_1_234
10
4.2872823
20
148.3402595
11
4.1386952
21
148.3402595
0
LINE
8
DEFAULT_255_1_234
10
4.6535296
20
147.9764218
11
4.3402918
21
147.6366792
0
LINE
8
DEFAULT_255_1_234
10
4.3402918
20
147.6366792
11
4.9274119
21
147.6366792
0
ARC
8
DEFAULT_255_1_234
10
3.216967
20
149.2649527
40
1.8008286
50
318.5132453
51
320.7828378
0
ARC
8
DEFAULT_255_1_234
10
3.7456644
20
148.8346426
40
1.1191493
50
320.7372736
51
323.9737074
0
ARC
8
DEFAULT_255_1_234
10
4.1376501
20
148.5506361
40
0.6350923
50
323.8961724
51
328.6421089
0
ARC
8
DEFAULT_255_1_234
10
4.3423096
20
148.4244031
40
0.3946393
50
328.8299013
51
331.789948
0
ARC
8
DEFAULT_255_1_234
10
4.4420274
20
148.3729509
40
0.2824501
50
331.4255242
51
352.9364833
0
ARC
8
DEFAULT_255_1_234
10
4.4556775
20
148.3698976
40
0.2685315
50
353.2248685
51
0.0169286
0
ARC
8
DEFAULT_255_1_234
10
4.4766652
20
148.372195
40
0.2475536
50
359.4866256
51
15.9339782
0
ARC
8
DEFAULT_255_1_234
10
4.5273637
20
148.3858286
40
0.1950618
50
16.1714718
51
43.5284424
0
ARC
8
DEFAULT_255_1_234
10
4.5350946
20
148.3935573
40
0.184134
50
43.4415429
51
83.1661404
0
ARC
8
DEFAULT_255_1_234
10
4.5216864
20
148.3198771
40
0.258926
50
82.160215
51
90.1505798
0
ARC
8
DEFAULT_255_1_234
10
4.5185291
20
148.2661865
40
0.3126255
50
89.5460705
51
102.5418777
0
ARC
8
DEFAULT_255_1_234
10
4.4942377
20
148.3692665
40
0.2067346
50
102.1739365
51
129.2061916
0
ARC
8
DEFAULT_255_1_234
10
4.4863449
20
148.3817094
40
0.1921118
50
129.7279328
51
135.7542026
0
ARC
8
DEFAULT_255_1_234
10
4.4984977
20
148.3720045
40
0.2075944
50
136.175737
51
166.3674722
0
ARC
8
DEFAULT_255_1_234
10
4.5991896
20
148.3450182
40
0.3118201
50
165.9092917
51
178.8683903
0
ARC
8
DEFAULT_255_1_234
10
4.6856757
20
148.3403179
40
0.3983935
50
178.438168
51
180.0083905
0
ARC
8
DEFAULT_255_1_234
10
4.5455359
20
148.3442231
40
0.4068601
50
163.2878735
51
180.5581814
0
ARC
8
DEFAULT_255_1_234
10
4.4653621
20
148.366284
40
0.3237344
50
133.454115
51
162.9470031
0
ARC
8
DEFAULT_255_1_234
10
4.4832162
20
148.3473
40
0.349795
50
100.7869394
51
133.4384016
0
ARC
8
DEFAULT_255_1_234
10
4.5179934
20
148.1924319
40
0.5084616
50
89.6605301
51
101.3704185
0
ARC
8
DEFAULT_255_1_234
10
4.5246273
20
148.1985496
40
0.502348
50
78.2171172
51
90.4130393
0
ARC
8
DEFAULT_255_1_234
10
4.5601351
20
148.3609637
40
0.3361092
50
55.9268222
51
78.4888551
0
ARC
8
DEFAULT_255_1_234
10
4.5797791
20
148.3948324
40
0.2970617
50
47.9292255
51
55.4054003
0
ARC
8
DEFAULT_255_1_234
10
4.5899352
20
148.4051502
40
0.2825983
50
4.3347696
51
48.0560701
0
ARC
8
DEFAULT_255_1_234
10
4.4803745
20
148.3881601
40
0.393225
50
359.925209
51
5.5967654
0
ARC
8
DEFAULT_255_1_234
10
4.5232637
20
148.3937816
40
0.3503892
50
337.8914096
51
358.9967724
0
ARC
8
DEFAULT_255_1_234
10
4.2519049
20
148.4984706
40
0.6412172
50
326.9135351
51
338.3505194
0
ARC
8
DEFAULT_255_1_234
10
3.8533353
20
148.7539284
40
1.1146189
50
319.6472867
51
327.095818
0
ARC
8
DEFAULT_255_1_234
10
3.4700356
20
149.0701
40
1.6114559
50
317.2586784
51
319.9046139
0
LINE
8
DEFAULT_255_1_234
10
5.7121127
20
148.6848211
11
5.7121127
21
147.908152
0
LINE
8
DEFAULT_255_1_234
10
5.7121127
20
147.908152
11
5.8743538
21
147.908152
0
LINE
8
DEFAULT_255_1_234
10
5.8743538
20
147.908152
11
5.8743538
21
147.7868728
0
LINE
8
DEFAULT_255_1_234
10
5.8743538
20
147.7868728
11
5.7121127
21
147.7868728
0
LINE
8
DEFAULT_255_1_234
10
5.7121127
20
147.7868728
11
5.7121127
21
147.5154
0
LINE
8
DEFAULT_255_1_234
10
5.7121127
20
147.5154
11
5.5627224
21
147.5154
0
LINE
8
DEFAULT_255_1_234
10
5.5627224
20
147.5154
11
5.5627224
21
147.7868728
0
LINE
8
DEFAULT_255_1_234
10
5.5627224
20
147.7868728
11
5.0302181
21
147.7868728
0
LINE
8
DEFAULT_255_1_234
10
5.0302181
20
147.7868728
11
5.0302181
21
147.8744187
0
LINE
8
DEFAULT_255_1_234
10
5.0302181
20
147.8744187
11
5.5538875
21
148.6848211
0
LINE
8
DEFAULT_255_1_234
10
5.5538875
20
148.6848211
11
5.7121127
21
148.6848211
0
LINE
8
DEFAULT_255_1_234
10
5.5450525
20
148.4494912
11
5.1988846
21
147.908152
0
LINE
8
DEFAULT_255_1_234
10
5.1988846
20
147.908152
11
5.5627224
21
147.908152
0
LINE
8
DEFAULT_255_1_234
10
5.5627224
20
147.908152
11
5.5627224
21
148.4816181
0
LINE
8
DEFAULT_255_1_234
10
5.5627224
20
148.4816181
11
5.5450525
21
148.4494912
0
LINE
8
DEFAULT_255_1_234
10
6.101652
20
148.6848211
11
6.434166
21
147.7202093
0
LINE
8
DEFAULT_255_1_234
10
6.434166
20
147.7202093
11
6.7682863
21
148.6848211
0
LINE
8
DEFAULT_255_1_234
10
6.7682863
20
148.6848211
11
6.9369528
21
148.6848211
0
LINE
8
DEFAULT_255_1_234
10
6.9369528
20
148.6848211
11
6.5032389
21
147.5154
0
LINE
8
DEFAULT_255_1_234
10
6.5032389
20
147.5154
11
6.3666994
21
147.5154
0
LINE
8
DEFAULT_255_1_234
10
6.3666994
20
147.5154
11
5.9337887
21
148.6848211
0
LINE
8
DEFAULT_255_1_234
10
5.9337887
20
148.6848211
11
6.101652
21
148.6848211
0
LINE
8
DEFAULT_255_1_234
10
4.943923
20
5.0114663
11
5.0989355
21
5.0114663
0
LINE
8
DEFAULT_255_1_234
10
4.1985777
20
5.1704947
11
4.1985777
21
5.2829391
0
LINE
8
DEFAULT_255_1_234
10
5.0989355
20
5.4339357
11
4.943923
21
5.4339357
0
LINE
8
DEFAULT_255_1_234
10
4.3535902
20
5.2789232
11
4.3535902
21
5.1656757
0
ARC
8
DEFAULT_255_1_234
10
4.5508742
20
5.0711846
40
0.5513052
50
340.1774281
51
353.7814284
0
ARC
8
DEFAULT_255_1_234
10
4.7080095
20
5.0126582
40
0.3836379
50
311.4558989
51
340.4421614
0
ARC
8
DEFAULT_255_1_234
10
4.7046763
20
5.0237528
40
0.3941894
50
282.4333181
51
310.7513653
0
ARC
8
DEFAULT_255_1_234
10
4.6607502
20
5.2052679
40
0.5809175
50
269.9358511
51
282.809604
0
ARC
8
DEFAULT_255_1_234
10
4.6555568
20
5.3510212
40
0.7266847
50
270.0021091
51
270.3581957
0
ARC
8
DEFAULT_255_1_234
10
4.6502985
20
5.0909585
40
0.4666519
50
250.7884749
51
270.6489167
0
ARC
8
DEFAULT_255_1_234
10
4.633482
20
5.0272319
40
0.4009729
50
219.3627325
51
250.0611886
0
ARC
8
DEFAULT_255_1_234
10
4.7164031
20
5.0977042
40
0.5097822
50
193.5479632
51
219.5756669
0
ARC
8
DEFAULT_255_1_234
10
4.9535652
20
5.1592919
40
0.7547848
50
181.1218675
51
193.87563
0
ARC
8
DEFAULT_255_1_234
10
5.1605833
20
5.170358
40
0.9620055
50
179.9918545
51
181.5394234
0
ARC
8
DEFAULT_255_1_234
10
4.9754935
20
5.2866788
40
0.7769248
50
169.5837241
51
180.2757934
0
ARC
8
DEFAULT_255_1_234
10
4.7917873
20
5.3206229
40
0.590109
50
155.0365899
51
169.6003176
0
ARC
8
DEFAULT_255_1_234
10
4.6782337
20
5.3753677
40
0.4640625
50
136.783148
51
155.2472683
0
ARC
8
DEFAULT_255_1_234
10
4.6392814
20
5.4084562
40
0.4130255
50
121.7633186
51
136.428115
0
ARC
8
DEFAULT_255_1_234
10
4.6527776
20
5.3835227
40
0.4413323
50
95.6459699
51
121.5490577
0
ARC
8
DEFAULT_255_1_234
10
4.6685058
20
5.2726949
40
0.55319
50
89.924208
51
96.1377933
0
ARC
8
DEFAULT_255_1_234
10
4.6735491
20
5.2845542
40
0.5413475
50
76.6779277
51
90.4563316
0
ARC
8
DEFAULT_255_1_234
10
4.7129114
20
5.4436114
40
0.3775041
50
47.485847
51
76.9287264
0
ARC
8
DEFAULT_255_1_234
10
4.6982087
20
5.4336159
40
0.3948286
50
16.5424086
51
46.8933463
0
ARC
8
DEFAULT_255_1_234
10
4.5374244
20
5.3807861
40
0.564021
50
5.4072051
51
17.0365086
0
ARC
8
DEFAULT_255_1_234
10
4.3935261
20
5.3576679
40
0.5556559
50
7.8891745
51
15.9239216
0
ARC
8
DEFAULT_255_1_234
10
4.5922274
20
5.4153631
40
0.3487515
50
15.7653144
51
27.9410532
0
ARC
8
DEFAULT_255_1_234
10
4.7026492
20
5.474479
40
0.2235026
50
27.8166557
51
46.4008329
0
ARC
8
DEFAULT_255_1_234
10
4.7076135
20
5.4739082
40
0.2205286
50
47.4371857
51
75.0698205
0
ARC
8
DEFAULT_255_1_234
10
4.6767529
20
5.3664765
40
0.3322915
50
74.7008593
51
87.8124495
0
ARC
8
DEFAULT_255_1_234
10
4.6694217
20
5.2608844
40
0.4380987
50
87.3814673
51
90.0240855
0
ARC
8
DEFAULT_255_1_234
10
4.665576
20
5.3786291
40
0.3203749
50
89.3451631
51
108.5745436
0
ARC
8
DEFAULT_255_1_234
10
4.6518865
20
5.4299908
40
0.2673494
50
109.2998449
51
143.3037509
0
ARC
8
DEFAULT_255_1_234
10
4.7280938
20
5.3713881
40
0.3634757
50
143.0753173
51
163.1916937
0
ARC
8
DEFAULT_255_1_234
10
4.9232666
20
5.3097967
40
0.5681262
50
162.9373603
51
174.6208611
0
ARC
8
DEFAULT_255_1_234
10
5.1858708
20
5.281001
40
0.8322832
50
174.3419979
51
180.1430411
0
ARC
8
DEFAULT_255_1_234
10
5.0927864
20
5.1615698
40
0.7392076
50
179.6817502
51
189.150529
0
ARC
8
DEFAULT_255_1_234
10
4.8427112
20
5.119919
40
0.4856932
50
188.9910863
51
203.5773039
0
ARC
8
DEFAULT_255_1_234
10
4.7347445
20
5.0751211
40
0.3688271
50
203.9077269
51
215.1312379
0
ARC
8
DEFAULT_255_1_234
10
4.6424539
20
5.0035941
40
0.2522457
50
213.9071664
51
263.8849284
0
ARC
8
DEFAULT_255_1_234
10
4.6549868
20
5.0820518
40
0.3316174
50
263.1758525
51
270.1031083
0
ARC
8
DEFAULT_255_1_234
10
4.658196
20
5.2067365
40
0.4563091
50
269.6719807
51
279.0609165
0
ARC
8
DEFAULT_255_1_234
10
4.6848728
20
5.0454907
40
0.2928759
50
278.8750225
51
293.6346586
0
ARC
8
DEFAULT_255_1_234
10
4.7168936
20
4.97029
40
0.2111472
50
293.8553404
51
310.0518804
0
ARC
8
DEFAULT_255_1_234
10
4.717379
20
4.9640516
40
0.2060917
50
311.0646779
51
332.0108348
0
ARC
8
DEFAULT_255_1_234
10
4.5981517
20
5.0297978
40
0.3422352
50
331.6588543
51
343.2878891
0
ARC
8
DEFAULT_255_1_234
10
4.3919032
20
5.0931798
40
0.5580003
50
343.1446044
51
351.010618
0
ARC
8
DEFAULT_255_1_234
10
4.2377678
20
5.1212871
40
0.7146438
50
350.7157277
51
351.1602153
0
LINE
8
DEFAULT_255_1_234
10
6.2089218
20
5.2612534
11
6.2089218
21
5.1873614
0
LINE
8
DEFAULT_255_1_234
10
5.2684052
20
5.1769201
11
5.2684052
21
5.2612534
0
LINE
8
DEFAULT_255_1_234
10
6.0555156
20
5.1761169
11
6.0555156
21
5.2628597
0
LINE
8
DEFAULT_255_1_234
10
5.4218114
20
5.273301
11
5.4218114
21
5.1873614
0
ARC
8
DEFAULT_255_1_234
10
5.3447244
20
5.1834015
40
0.8642064
50
350.487711
51
0.2625388
0
ARC
8
DEFAULT_255_1_234
10
5.5740486
20
5.1439578
40
0.631518
50
336.0277639
51
350.5787438
0
ARC
8
DEFAULT_255_1_234
10
5.7085309
20
5.0831892
40
0.4839466
50
319.8877444
51
336.1328423
0
ARC
8
DEFAULT_255_1_234
10
5.768795
20
5.034958
40
0.4067874
50
302.4806467
51
319.6143626
0
ARC
8
DEFAULT_255_1_234
10
5.757296
20
5.0571202
40
0.4316636
50
275.8195682
51
302.1884709
0
ARC
8
DEFAULT_255_1_234
10
5.7406593
20
5.1713665
40
0.5470306
50
269.9171439
51
276.3397983
0
ARC
8
DEFAULT_255_1_234
10
5.7361803
20
5.1027681
40
0.4784458
50
252.5219675
51
270.4416499
0
ARC
8
DEFAULT_255_1_234
10
5.7218062
20
5.0488592
40
0.422716
50
237.5352116
51
252.1857531
0
ARC
8
DEFAULT_255_1_234
10
5.7307258
20
5.0602363
40
0.4371052
50
209.063312
51
237.3492538
0
ARC
8
DEFAULT_255_1_234
10
5.8177106
20
5.1148685
40
0.5397041
50
205.1183774
51
209.6470015
0
ARC
8
DEFAULT_255_1_234
10
5.8974143
20
5.148683
40
0.6262326
50
188.7215458
51
204.8240747
0
ARC
8
DEFAULT_255_1_234
10
6.0971671
20
5.1823067
40
0.8287794
50
180.3723947
51
188.9252049
0
ARC
8
DEFAULT_255_1_234
10
6.0944423
20
5.2652402
40
0.8260467
50
169.5253763
51
180.2765336
0
ARC
8
DEFAULT_255_1_234
10
5.9041871
20
5.3002309
40
0.6326007
50
155.8315255
51
169.5089989
0
ARC
8
DEFAULT_255_1_234
10
5.7761373
20
5.3596348
40
0.4914567
50
139.6258461
51
156.0379525
0
ARC
8
DEFAULT_255_1_234
10
5.7171706
20
5.4070799
40
0.4158054
50
122.6416387
51
139.3430715
0
ARC
8
DEFAULT_255_1_234
10
5.7272326
20
5.3887451
40
0.4366739
50
93.0223692
51
122.455762
0
ARC
8
DEFAULT_255_1_234
10
5.7380323
20
5.2922709
40
0.5336137
50
89.975342
51
93.6341897
0
ARC
8
DEFAULT_255_1_234
10
5.7419102
20
5.3321242
40
0.4937738
50
73.746375
51
90.4233405
0
ARC
8
DEFAULT_255_1_234
10
5.7594681
20
5.4001287
40
0.4235786
50
57.662753
51
73.4518111
0
ARC
8
DEFAULT_255_1_234
10
5.7586687
20
5.4022832
40
0.4221899
50
29.1440151
51
57.414694
0
ARC
8
DEFAULT_255_1_234
10
5.6651882
20
5.3439005
40
0.5322966
50
24.0982783
51
29.7323517
0
ARC
8
DEFAULT_255_1_234
10
5.5618157
20
5.3010399
40
0.6441673
50
8.6655297
51
23.8241346
0
ARC
8
DEFAULT_255_1_234
10
5.3383895
20
5.2645854
40
0.8705386
50
359.7806941
51
8.8218784
0
ARC
8
DEFAULT_255_1_234
10
5.2236893
20
5.2671345
40
0.8318373
50
359.7055579
51
8.036044
0
ARC
8
DEFAULT_255_1_234
10
5.5236899
20
5.3108239
40
0.5286768
50
7.8928306
51
20.2962107
0
ARC
8
DEFAULT_255_1_234
10
5.686447
20
5.3708395
40
0.3552073
50
20.3231126
51
36.4992797
0
ARC
8
DEFAULT_255_1_234
10
5.7550016
20
5.4236402
40
0.2686974
50
36.1437156
51
85.6627023
0
ARC
8
DEFAULT_255_1_234
10
5.7387562
20
5.3196221
40
0.373739
50
84.3852322
51
90.0757696
0
ARC
8
DEFAULT_255_1_234
10
5.7345234
20
5.3856839
40
0.3076997
50
89.3038458
51
109.9045693
0
ARC
8
DEFAULT_255_1_234
10
5.7252625
20
5.4239062
40
0.2686424
50
110.8228367
51
143.9179474
0
ARC
8
DEFAULT_255_1_234
10
5.8186285
20
5.3526236
40
0.3860887
50
143.5289163
51
163.2980757
0
ARC
8
DEFAULT_255_1_234
10
6.0094106
20
5.2926433
40
0.5860659
50
163.0418846
51
174.3140048
0
ARC
8
DEFAULT_255_1_234
10
6.2498218
20
5.2648854
40
0.8280531
50
174.0509143
51
179.4176892
0
ARC
8
DEFAULT_255_1_234
10
6.1993957
20
5.1831954
40
0.7775954
50
179.6930361
51
188.7906598
0
ARC
8
DEFAULT_255_1_234
10
5.9330436
20
5.1405935
40
0.5078633
50
188.6331305
51
202.5629587
0
ARC
8
DEFAULT_255_1_234
10
5.8076028
20
5.0901996
40
0.3726913
50
202.8081362
51
216.1193925
0
ARC
8
DEFAULT_255_1_234
10
5.7266598
20
5.0250676
40
0.2689577
50
215.0755913
51
264.6379694
0
ARC
8
DEFAULT_255_1_234
10
5.7393548
20
5.1081513
40
0.3528978
50
263.846392
51
270.0833719
0
ARC
8
DEFAULT_255_1_234
10
5.7434938
20
5.0823374
40
0.3271036
50
269.3649385
51
287.5152008
0
ARC
8
DEFAULT_255_1_234
10
5.7613096
20
5.0176238
40
0.2600406
50
288.0630309
51
323.8113348
0
ARC
8
DEFAULT_255_1_234
10
5.6741937
20
5.0826049
40
0.3687189
50
323.6547608
51
342.6590488
0
ARC
8
DEFAULT_255_1_234
10
5.4710552
20
5.1486952
40
0.5823286
50
342.4091907
51
353.6451149
0
ARC
8
DEFAULT_255_1_234
10
5.1879063
20
5.183919
40
0.8676442
50
353.4029884
51
359.4847795
0
LINE
8
DEFAULT_255_1_234
10
6.4402358
20
5.8098211
11
6.6394229
21
5.8098211
0
LINE
8
DEFAULT_255_1_234
10
6.6394229
20
5.8098211
11
7.0217337
21
4.8556506
0
LINE
8
DEFAULT_255_1_234
10
7.0217337
20
4.8556506
11
7.4040444
21
5.8098211
0
LINE
8
DEFAULT_255_1_234
10
7.4040444
20
5.8098211
11
7.6040347
21
5.8098211
0
LINE
8
DEFAULT_255_1_234
10
7.6040347
20
5.8098211
11
7.6040347
21
4.6404
0
LINE
8
DEFAULT_255_1_234
10
7.6040347
20
4.6404
11
7.4498253
21
4.6404
0
LINE
8
DEFAULT_255_1_234
10
7.4498253
20
4.6404
11
7.4498253
21
5.0957996
0
LINE
8
DEFAULT_255_1_234
10
7.4498253
20
5.0957996
11
7.4642825
21
5.5873419
0
LINE
8
DEFAULT_255_1_234
10
7.4642825
20
5.5873419
11
7.0803654
21
4.6404
0
LINE
8
DEFAULT_255_1_234
10
7.0803654
20
4.6404
11
6.9622988
21
4.6404
0
LINE
8
DEFAULT_255_1_234
10
6.9622988
20
4.6404
11
6.5791849
21
5.5849324
0
LINE
8
DEFAULT_255_1_234
10
6.5791849
20
5.5849324
11
6.5944452
21
5.0957996
0
LINE
8
DEFAULT_255_1_234
10
6.5944452
20
5.0957996
11
6.5944452
21
4.6404
0
LINE
8
DEFAULT_255_1_234
10
6.5944452
20
4.6404
11
6.4402358
21
4.6404
0
LINE
8
DEFAULT_255_1_234
10
6.4402358
20
4.6404
11
6.4402358
21
5.8098211
0
LINE
8
DEFAULT_255_1_234
10
4.943923
20
12.9489663
11
5.0989355
21
12.9489663
0
LINE
8
DEFAULT_255_1_234
10
4.1985777
20
13.1079947
11
4.1985777
21
13.2204391
0
LINE
8
DEFAULT_255_1_234
10
5.0989355
20
13.3714357
11
4.943923
21
13.3714357
0
LINE
8
DEFAULT_255_1_234
10
4.3535902
20
13.2164232
11
4.3535902
21
13.1031757
0
ARC
8
DEFAULT_255_1_234
10
4.5508742
20
13.0086846
40
0.5513052
50
340.1774281
51
353.7814284
0
ARC
8
DEFAULT_255_1_234
10
4.7080095
20
12.9501582
40
0.3836379
50
311.4558989
51
340.4421614
0
ARC
8
DEFAULT_255_1_234
10
4.7046763
20
12.9612528
40
0.3941894
50
282.4333181
51
310.7513653
0
ARC
8
DEFAULT_255_1_234
10
4.6607502
20
13.1427679
40
0.5809175
50
269.9358511
51
282.809604
0
ARC
8
DEFAULT_255_1_234
10
4.6555568
20
13.2885212
40
0.7266847
50
270.0021091
51
270.3581957
0
ARC
8
DEFAULT_255_1_234
10
4.6502985
20
13.0284585
40
0.4666519
50
250.7884749
51
270.6489167
0
ARC
8
DEFAULT_255_1_234
10
4.633482
20
12.9647319
40
0.4009729
50
219.3627325
51
250.0611886
0
ARC
8
DEFAULT_255_1_234
10
4.7164031
20
13.0352042
40
0.5097822
50
193.5479632
51
219.5756669
0
ARC
8
DEFAULT_255_1_234
10
4.9535652
20
13.0967919
40
0.7547848
50
181.1218675
51
193.87563
0
ARC
8
DEFAULT_255_1_234
10
5.1605833
20
13.107858
40
0.9620055
50
179.9918545
51
181.5394234
0
ARC
8
DEFAULT_255_1_234
10
4.9754935
20
13.2241788
40
0.7769248
50
169.5837241
51
180.2757934
0
ARC
8
DEFAULT_255_1_234
10
4.7917873
20
13.2581229
40
0.590109
50
155.0365899
51
169.6003176
0
ARC
8
DEFAULT_255_1_234
10
4.6782337
20
13.3128677
40
0.4640625
50
136.783148
51
155.2472683
0
ARC
8
DEFAULT_255_1_234
10
4.6392814
20
13.3459562
40
0.4130255
50
121.7633186
51
136.428115
0
ARC
8
DEFAULT_255_1_234
10
4.6527776
20
13.3210227
40
0.4413323
50
95.6459699
51
121.5490577
0
ARC
8
DEFAULT_255_1_234
10
4.6685058
20
13.2101949
40
0.55319
50
89.924208
51
96.1377933
0
ARC
8
DEFAULT_255_1_234
10
4.6735491
20
13.2220542
40
0.5413475
50
76.6779277
51
90.4563316
0
ARC
8
DEFAULT_255_1_234
10
4.7129114
20
13.3811114
40
0.3775041
50
47.485847
51
76.9287264
0
ARC
8
DEFAULT_255_1_234
10
4.6982087
20
13.3711159
40
0.3948286
50
16.5424086
51
46.8933463
0
ARC
8
DEFAULT_255_1_234
10
4.5374244
20
13.3182861
40
0.564021
50
5.4072051
51
17.0365086
0
ARC
8
DEFAULT_255_1_234
10
4.3935261
20
13.2951679
40
0.5556559
50
7.8891745
51
15.9239216
0
ARC
8
DEFAULT_255_1_234
10
4.5922274
20
13.3528631
40
0.3487515
50
15.7653144
51
27.9410532
0
ARC
8
DEFAULT_255_1_234
10
4.7026492
20
13.411979
40
0.2235026
50
27.8166557
51
46.4008329
0
ARC
8
DEFAULT_255_1_234
10
4.7076135
20
13.4114082
40
0.2205286
50
47.4371857
51
75.0698205
0
ARC
8
DEFAULT_255_1_234
10
4.6767529
20
13.3039765
40
0.3322915
50
74.7008593
51
87.8124495
0
ARC
8
DEFAULT_255_1_234
10
4.6694217
20
13.1983844
40
0.4380987
50
87.3814673
51
90.0240855
0
ARC
8
DEFAULT_255_1_234
10
4.665576
20
13.3161291
40
0.3203749
50
89.3451631
51
108.5745436
0
ARC
8
DEFAULT_255_1_234
10
4.6518865
20
13.3674908
40
0.2673494
50
109.2998449
51
143.3037509
0
ARC
8
DEFAULT_255_1_234
10
4.7280938
20
13.3088881
40
0.3634757
50
143.0753173
51
163.1916937
0
ARC
8
DEFAULT_255_1_234
10
4.9232666
20
13.2472967
40
0.5681262
50
162.9373603
51
174.6208611
0
ARC
8
DEFAULT_255_1_234
10
5.1858708
20
13.218501
40
0.8322832
50
174.3419979
51
180.1430411
0
ARC
8
DEFAULT_255_1_234
10
5.0927864
20
13.0990698
40
0.7392076
50
179.6817502
51
189.150529
0
ARC
8
DEFAULT_255_1_234
10
4.8427112
20
13.057419
40
0.4856932
50
188.9910863
51
203.5773039
0
ARC
8
DEFAULT_255_1_234
10
4.7347445
20
13.0126211
40
0.3688271
50
203.9077269
51
215.1312379
0
ARC
8
DEFAULT_255_1_234
10
4.6424539
20
12.9410941
40
0.2522457
50
213.9071664
51
263.8849284
0
ARC
8
DEFAULT_255_1_234
10
4.6549868
20
13.0195518
40
0.3316174
50
263.1758525
51
270.1031083
0
ARC
8
DEFAULT_255_1_234
10
4.658196
20
13.1442365
40
0.4563091
50
269.6719807
51
279.0609165
0
ARC
8
DEFAULT_255_1_234
10
4.6848728
20
12.9829907
40
0.2928759
50
278.8750225
51
293.6346586
0
ARC
8
DEFAULT_255_1_234
10
4.7168936
20
12.90779
40
0.2111472
50
293.8553404
51
310.0518804
0
ARC
8
DEFAULT_255_1_234
10
4.717379
20
12.9015516
40
0.2060917
50
311.0646779
51
332.0108348
0
ARC
8
DEFAULT_255_1_234
10
4.5981517
20
12.9672978
40
0.3422352
50
331.6588543
51
343.2878891
0
ARC
8
DEFAULT_255_1_234
10
4.3919032
20
13.0306798
40
0.5580003
50
343.1446044
51
351.010618
0
ARC
8
DEFAULT_255_1_234
10
4.2377678
20
13.0587871
40
0.7146438
50
350.7157277
51
351.1602153
0
LINE
8
DEFAULT_255_1_234
10
6.2089218
20
13.1987534
11
6.2089218
21
13.1248614
0
LINE
8
DEFAULT_255_1_234
10
5.2684052
20
13.1144201
11
5.2684052
21
13.1987534
0
LINE
8
DEFAULT_255_1_234
10
6.0555156
20
13.1136169
11
6.0555156
21
13.2003597
0
LINE
8
DEFAULT_255_1_234
10
5.4218114
20
13.210801
11
5.4218114
21
13.1248614
0
ARC
8
DEFAULT_255_1_234
10
5.3447244
20
13.1209015
40
0.8642064
50
350.487711
51
0.2625388
0
ARC
8
DEFAULT_255_1_234
10
5.5740486
20
13.0814578
40
0.631518
50
336.0277639
51
350.5787438
0
ARC
8
DEFAULT_255_1_234
10
5.7085309
20
13.0206892
40
0.4839466
50
319.8877444
51
336.1328423
0
ARC
8
DEFAULT_255_1_234
10
5.768795
20
12.972458
40
0.4067874
50
302.4806467
51
319.6143626
0
ARC
8
DEFAULT_255_1_234
10
5.757296
20
12.9946202
40
0.4316636
50
275.8195682
51
302.1884709
0
ARC
8
DEFAULT_255_1_234
10
5.7406593
20
13.1088665
40
0.5470306
50
269.9171439
51
276.3397983
0
ARC
8
DEFAULT_255_1_234
10
5.7361803
20
13.0402681
40
0.4784458
50
252.5219675
51
270.4416499
0
ARC
8
DEFAULT_255_1_234
10
5.7218062
20
12.9863592
40
0.422716
50
237.5352116
51
252.1857531
0
ARC
8
DEFAULT_255_1_234
10
5.7307258
20
12.9977363
40
0.4371052
50
209.063312
51
237.3492538
0
ARC
8
DEFAULT_255_1_234
10
5.8177106
20
13.0523685
40
0.5397041
50
205.1183774
51
209.6470015
0
ARC
8
DEFAULT_255_1_234
10
5.8974143
20
13.086183
40
0.6262326
50
188.7215458
51
204.8240747
0
ARC
8
DEFAULT_255_1_234
10
6.0971671
20
13.1198067
40
0.8287794
50
180.3723947
51
188.9252049
0
ARC
8
DEFAULT_255_1_234
10
6.0944423
20
13.2027402
40
0.8260467
50
169.5253763
51
180.2765336
0
ARC
8
DEFAULT_255_1_234
10
5.9041871
20
13.2377309
40
0.6326007
50
155.8315255
51
169.5089989
0
ARC
8
DEFAULT_255_1_234
10
5.7761373
20
13.2971348
40
0.4914567
50
139.6258461
51
156.0379525
0
ARC
8
DEFAULT_255_1_234
10
5.7171706
20
13.3445799
40
0.4158054
50
122.6416387
51
139.3430715
0
ARC
8
DEFAULT_255_1_234
10
5.7272326
20
13.3262451
40
0.4366739
50
93.0223692
51
122.455762
0
ARC
8
DEFAULT_255_1_234
10
5.7380323
20
13.2297709
40
0.5336137
50
89.975342
51
93.6341897
0
ARC
8
DEFAULT_255_1_234
10
5.7419102
20
13.2696242
40
0.4937738
50
73.746375
51
90.4233405
0
ARC
8
DEFAULT_255_1_234
10
5.7594681
20
13.3376287
40
0.4235786
50
57.662753
51
73.4518111
0
ARC
8
DEFAULT_255_1_234
10
5.7586687
20
13.3397832
40
0.4221899
50
29.1440151
51
57.414694
0
ARC
8
DEFAULT_255_1_234
10
5.6651882
20
13.2814005
40
0.5322966
50
24.0982783
51
29.7323517
0
ARC
8
DEFAULT_255_1_234
10
5.5618157
20
13.2385399
40
0.6441673
50
8.6655297
51
23.8241346
0
ARC
8
DEFAULT_255_1_234
10
5.3383895
20
13.2020854
40
0.8705386
50
359.7806941
51
8.8218784
0
ARC
8
DEFAULT_255_1_234
10
5.2236893
20
13.2046345
40
0.8318373
50
359.7055579
51
8.036044
0
ARC
8
DEFAULT_255_1_234
10
5.5236899
20
13.2483239
40
0.5286768
50
7.8928306
51
20.2962107
0
ARC
8
DEFAULT_255_1_234
10
5.686447
20
13.3083395
40
0.3552073
50
20.3231126
51
36.4992797
0
ARC
8
DEFAULT_255_1_234
10
5.7550016
20
13.3611402
40
0.2686974
50
36.1437156
51
85.6627023
0
ARC
8
DEFAULT_255_1_234
10
5.7387562
20
13.2571221
40
0.373739
50
84.3852322
51
90.0757696
0
ARC
8
DEFAULT_255_1_234
10
5.7345234
20
13.3231839
40
0.3076997
50
89.3038458
51
109.9045693
0
ARC
8
DEFAULT_255_1_234
10
5.7252625
20
13.3614062
40
0.2686424
50
110.8228367
51
143.9179474
0
ARC
8
DEFAULT_255_1_234
10
5.8186285
20
13.2901236
40
0.3860887
50
143.5289163
51
163.2980757
0
ARC
8
DEFAULT_255_1_234
10
6.0094106
20
13.2301433
40
0.5860659
50
163.0418846
51
174.3140048
0
ARC
8
DEFAULT_255_1_234
10
6.2498218
20
13.2023854
40
0.8280531
50
174.0509143
51
179.4176892
0
ARC
8
DEFAULT_255_1_234
10
6.1993957
20
13.1206954
40
0.7775954
50
179.6930361
51
188.7906598
0
ARC
8
DEFAULT_255_1_234
10
5.9330436
20
13.0780935
40
0.5078633
50
188.6331305
51
202.5629587
0
ARC
8
DEFAULT_255_1_234
10
5.8076028
20
13.0276996
40
0.3726913
50
202.8081362
51
216.1193925
0
ARC
8
DEFAULT_255_1_234
10
5.7266598
20
12.9625676
40
0.2689577
50
215.0755913
51
264.6379694
0
ARC
8
DEFAULT_255_1_234
10
5.7393548
20
13.0456513
40
0.3528978
50
263.846392
51
270.0833719
0
ARC
8
DEFAULT_255_1_234
10
5.7434938
20
13.0198374
40
0.3271036
50
269.3649385
51
287.5152008
0
ARC
8
DEFAULT_255_1_234
10
5.7613096
20
12.9551238
40
0.2600406
50
288.0630309
51
323.8113348
0
ARC
8
DEFAULT_255_1_234
10
5.6741937
20
13.0201049
40
0.3687189
50
323.6547608
51
342.6590488
0
ARC
8
DEFAULT_255_1_234
10
5.4710552
20
13.0861952
40
0.5823286
50
342.4091907
51
353.6451149
0
ARC
8
DEFAULT_255_1_234
10
5.1879063
20
13.121419
40
0.8676442
50
353.4029884
51
359.4847795
0
LINE
8
DEFAULT_255_1_234
10
6.4402358
20
13.7473211
11
6.6394229
21
13.7473211
0
LINE
8
DEFAULT_255_1_234
10
6.6394229
20
13.7473211
11
7.0217337
21
12.7931506
0
LINE
8
DEFAULT_255_1_234
10
7.0217337
20
12.7931506
11
7.4040444
21
13.7473211
0
LINE
8
DEFAULT_255_1_234
10
7.4040444
20
13.7473211
11
7.6040347
21
13.7473211
0
LINE
8
DEFAULT_255_1_234
10
7.6040347
20
13.7473211
11
7.6040347
21
12.5779
0
LINE
8
DEFAULT_255_1_234
10
7.6040347
20
12.5779
11
7.4498253
21
12.5779
0
LINE
8
DEFAULT_255_1_234
10
7.4498253
20
12.5779
11
7.4498253
21
13.0332996
0
LINE
8
DEFAULT_255_1_234
10
7.4498253
20
13.0332996
11
7.4642825
21
13.5248419
0
LINE
8
DEFAULT_255_1_234
10
7.4642825
20
13.5248419
11
7.0803654
21
12.5779
0
LINE
8
DEFAULT_255_1_234
10
7.0803654
20
12.5779
11
6.9622988
21
12.5779
0
LINE
8
DEFAULT_255_1_234
10
6.9622988
20
12.5779
11
6.5791849
21
13.5224324
0
LINE
8
DEFAULT_255_1_234
10
6.5791849
20
13.5224324
11
6.5944452
21
13.0332996
0
LINE
8
DEFAULT_255_1_234
10
6.5944452
20
13.0332996
11
6.5944452
21
12.5779
0
LINE
8
DEFAULT_255_1_234
10
6.5944452
20
12.5779
11
6.4402358
21
12.5779
0
LINE
8
DEFAULT_255_1_234
10
6.4402358
20
12.5779
11
6.4402358
21
13.7473211
0
LINE
8
DEFAULT_255_1_234
10
4.3681299
20
21.6848211
11
4.6500439
21
21.2366501
0
LINE
8
DEFAULT_255_1_234
10
4.6500439
20
21.2366501
11
4.9303516
21
21.6848211
0
LINE
8
DEFAULT_255_1_234
10
4.9303516
20
21.6848211
11
5.1118689
21
21.6848211
0
LINE
8
DEFAULT_255_1_234
10
5.1118689
20
21.6848211
11
4.7424089
21
21.1049296
0
LINE
8
DEFAULT_255_1_234
10
4.7424089
20
21.1049296
11
5.1207038
21
20.5154
0
LINE
8
DEFAULT_255_1_234
10
5.1207038
20
20.5154
11
4.9375802
21
20.5154
0
LINE
8
DEFAULT_255_1_234
10
4.9375802
20
20.5154
11
4.6500439
21
20.9716027
0
LINE
8
DEFAULT_255_1_234
10
4.6500439
20
20.9716027
11
4.3609014
21
20.5154
0
LINE
8
DEFAULT_255_1_234
10
4.3609014
20
20.5154
11
4.1785809
21
20.5154
0
LINE
8
DEFAULT_255_1_234
10
4.1785809
20
20.5154
11
4.557679
21
21.1049296
0
LINE
8
DEFAULT_255_1_234
10
4.557679
20
21.1049296
11
4.1874158
21
21.6848211
0
LINE
8
DEFAULT_255_1_234
10
4.1874158
20
21.6848211
11
4.3681299
21
21.6848211
0
LINE
8
DEFAULT_255_1_234
10
5.7495889
20
21.6904433
11
5.7495889
21
20.5154
0
LINE
8
DEFAULT_255_1_234
10
5.7495889
20
20.5154
11
5.6001986
21
20.5154
0
LINE
8
DEFAULT_255_1_234
10
5.6001986
20
20.5154
11
5.6001986
21
21.5057133
0
LINE
8
DEFAULT_255_1_234
10
5.6001986
20
21.5057133
11
5.3006147
21
21.3956785
0
LINE
8
DEFAULT_255_1_234
10
5.3006147
20
21.3956785
11
5.3006147
21
21.5306117
0
LINE
8
DEFAULT_255_1_234
10
5.3006147
20
21.5306117
11
5.7262969
21
21.6904433
0
LINE
8
DEFAULT_255_1_234
10
5.7262969
20
21.6904433
11
5.7495889
21
21.6904433
0
LINE
8
DEFAULT_255_1_234
10
6.3720486
20
21.0711963
11
6.2531789
21
21.1017169
0
LINE
8
DEFAULT_255_1_234
10
6.2531789
20
21.1017169
11
6.3126138
21
21.6848211
0
LINE
8
DEFAULT_255_1_234
10
6.3126138
20
21.6848211
11
6.9117814
21
21.6848211
0
LINE
8
DEFAULT_255_1_234
10
6.9117814
20
21.6848211
11
6.9117814
21
21.5474784
0
LINE
8
DEFAULT_255_1_234
10
6.9117814
20
21.5474784
11
6.4387121
21
21.5474784
0
LINE
8
DEFAULT_255_1_234
10
6.4387121
20
21.5474784
11
6.4033724
21
21.2286184
0
LINE
8
DEFAULT_255_1_234
10
6.2114139
20
20.8230156
11
6.3519693
21
20.8230156
0
LINE
8
DEFAULT_255_1_234
10
6.4114042
20
21.1033232
11
6.3720486
21
21.0711963
0
ARC
8
DEFAULT_255_1_234
10
6.5888508
20
20.910623
40
0.3681349
50
93.7182161
51
120.2538958
0
ARC
8
DEFAULT_255_1_234
10
6.5982771
20
20.8298394
40
0.449379
50
89.9660152
51
94.2496022
0
ARC
8
DEFAULT_255_1_234
10
6.6023505
20
20.8887549
40
0.390482
50
73.8043271
51
90.5585896
0
ARC
8
DEFAULT_255_1_234
10
6.6258402
20
20.9745602
40
0.3015334
50
41.3071453
51
73.5430202
0
ARC
8
DEFAULT_255_1_234
10
6.5842229
20
20.9387324
40
0.3564457
50
13.5075983
51
41.2174222
0
ARC
8
DEFAULT_255_1_234
10
6.4200433
20
20.8957486
40
0.5261351
50
1.1331335
51
13.8829381
0
ARC
8
DEFAULT_255_1_234
10
6.2788802
20
20.8881665
40
0.6674378
50
359.9919444
51
1.544251
0
ARC
8
DEFAULT_255_1_234
10
6.4065628
20
20.884028
40
0.5397702
50
347.8572367
51
0.4293338
0
ARC
8
DEFAULT_255_1_234
10
6.5815946
20
20.8443736
40
0.3603188
50
323.673004
51
348.1672506
0
ARC
8
DEFAULT_255_1_234
10
6.6110454
20
20.8264168
40
0.3259678
50
316.8171152
51
323.1492751
0
ARC
8
DEFAULT_255_1_234
10
6.6171643
20
20.822746
40
0.3189975
50
281.8396411
51
316.5457803
0
ARC
8
DEFAULT_255_1_234
10
6.5795907
20
20.9782762
40
0.4789527
50
269.5770101
51
282.4214771
0
ARC
8
DEFAULT_255_1_234
10
6.5724718
20
20.9569125
40
0.45759
50
256.2427136
51
270.4486331
0
ARC
8
DEFAULT_255_1_234
10
6.542562
20
20.8369229
40
0.3339303
50
228.9023911
51
256.3314342
0
ARC
8
DEFAULT_255_1_234
10
6.5351853
20
20.8252746
40
0.32031
50
193.753695
51
228.5271154
0
ARC
8
DEFAULT_255_1_234
10
6.6589807
20
20.86158
40
0.4492253
50
184.924711
51
194.497588
0
ARC
8
DEFAULT_255_1_234
10
6.6782374
20
20.8651591
40
0.3289787
50
187.3600538
51
198.6732863
0
ARC
8
DEFAULT_255_1_234
10
6.5732668
20
20.8287674
40
0.217884
50
198.4451669
51
217.794479
0
ARC
8
DEFAULT_255_1_234
10
6.5436843
20
20.8078085
40
0.1816698
50
218.2887171
51
228.5612368
0
ARC
8
DEFAULT_255_1_234
10
6.553463
20
20.8209963
40
0.1980329
50
228.9654866
51
258.1234728
0
ARC
8
DEFAULT_255_1_234
10
6.574034
20
20.9090833
40
0.2884748
50
257.7258293
51
270.401361
0
ARC
8
DEFAULT_255_1_234
10
6.5785226
20
20.8645821
40
0.2439788
50
269.4204404
51
286.4209037
0
ARC
8
DEFAULT_255_1_234
10
6.5933714
20
20.8106657
40
0.1880666
50
286.7251356
51
320.600362
0
ARC
8
DEFAULT_255_1_234
10
6.5550539
20
20.8417595
40
0.2374121
50
320.6712579
51
344.5441685
0
ARC
8
DEFAULT_255_1_234
10
6.4393865
20
20.8757045
40
0.3579479
50
344.2412205
51
356.7357071
0
ARC
8
DEFAULT_255_1_234
10
6.3145014
20
20.8860444
40
0.4832297
50
356.3548756
51
0.0500261
0
ARC
8
DEFAULT_255_1_234
10
6.4481523
20
20.889165
40
0.3495889
50
359.5576869
51
12.953486
0
ARC
8
DEFAULT_255_1_234
10
6.553642
20
20.9147434
40
0.2410532
50
12.6490276
51
41.6081334
0
ARC
8
DEFAULT_255_1_234
10
6.5766791
20
20.9343321
40
0.2108218
50
41.7850273
51
85.9892764
0
ARC
8
DEFAULT_255_1_234
10
6.5643528
20
20.8530462
40
0.2928454
50
84.6957577
51
90.0676183
0
ARC
8
DEFAULT_255_1_234
10
6.5620012
20
20.7861716
40
0.3597255
50
89.6804936
51
99.1614436
0
ARC
8
DEFAULT_255_1_234
10
6.5414643
20
20.9089131
40
0.235281
50
98.9830931
51
113.8908934
0
ARC
8
DEFAULT_255_1_234
10
6.5185053
20
20.9630587
40
0.176479
50
114.1950727
51
127.3641004
0
LINE
8
DEFAULT_255_1_234
10
4.4740299
20
29.6223211
11
4.7559439
21
29.1741501
0
LINE
8
DEFAULT_255_1_234
10
4.7559439
20
29.1741501
11
5.0362516
21
29.6223211
0
LINE
8
DEFAULT_255_1_234
10
5.0362516
20
29.6223211
11
5.2177689
21
29.6223211
0
LINE
8
DEFAULT_255_1_234
10
5.2177689
20
29.6223211
11
4.8483089
21
29.0424296
0
LINE
8
DEFAULT_255_1_234
10
4.8483089
20
29.0424296
11
5.2266038
21
28.4529
0
LINE
8
DEFAULT_255_1_234
10
5.2266038
20
28.4529
11
5.0434802
21
28.4529
0
LINE
8
DEFAULT_255_1_234
10
5.0434802
20
28.4529
11
4.7559439
21
28.9091027
0
LINE
8
DEFAULT_255_1_234
10
4.7559439
20
28.9091027
11
4.4668014
21
28.4529
0
LINE
8
DEFAULT_255_1_234
10
4.4668014
20
28.4529
11
4.2844809
21
28.4529
0
LINE
8
DEFAULT_255_1_234
10
4.2844809
20
28.4529
11
4.663579
21
29.0424296
0
LINE
8
DEFAULT_255_1_234
10
4.663579
20
29.0424296
11
4.2933158
21
29.6223211
0
LINE
8
DEFAULT_255_1_234
10
4.2933158
20
29.6223211
11
4.4740299
21
29.6223211
0
LINE
8
DEFAULT_255_1_234
10
5.8554889
20
29.6279433
11
5.8554889
21
28.4529
0
LINE
8
DEFAULT_255_1_234
10
5.8554889
20
28.4529
11
5.7060986
21
28.4529
0
LINE
8
DEFAULT_255_1_234
10
5.7060986
20
28.4529
11
5.7060986
21
29.4432133
0
LINE
8
DEFAULT_255_1_234
10
5.7060986
20
29.4432133
11
5.4065147
21
29.3331785
0
LINE
8
DEFAULT_255_1_234
10
5.4065147
20
29.3331785
11
5.4065147
21
29.4681117
0
LINE
8
DEFAULT_255_1_234
10
5.4065147
20
29.4681117
11
5.8321969
21
29.6279433
0
LINE
8
DEFAULT_255_1_234
10
5.8321969
20
29.6279433
11
5.8554889
21
29.6279433
0
LINE
8
DEFAULT_255_1_234
10
6.9180879
20
29.6223211
11
6.9180879
21
28.845652
0
LINE
8
DEFAULT_255_1_234
10
6.9180879
20
28.845652
11
7.080329
21
28.845652
0
LINE
8
DEFAULT_255_1_234
10
7.080329
20
28.845652
11
7.080329
21
28.7243728
0
LINE
8
DEFAULT_255_1_234
10
7.080329
20
28.7243728
11
6.9180879
21
28.7243728
0
LINE
8
DEFAULT_255_1_234
10
6.9180879
20
28.7243728
11
6.9180879
21
28.4529
0
LINE
8
DEFAULT_255_1_234
10
6.9180879
20
28.4529
11
6.7686976
21
28.4529
0
LINE
8
DEFAULT_255_1_234
10
6.7686976
20
28.4529
11
6.7686976
21
28.7243728
0
LINE
8
DEFAULT_255_1_234
10
6.7686976
20
28.7243728
11
6.2361933
21
28.7243728
0
LINE
8
DEFAULT_255_1_234
10
6.2361933
20
28.7243728
11
6.2361933
21
28.8119187
0
LINE
8
DEFAULT_255_1_234
10
6.2361933
20
28.8119187
11
6.7598626
21
29.6223211
0
LINE
8
DEFAULT_255_1_234
10
6.7598626
20
29.6223211
11
6.9180879
21
29.6223211
0
LINE
8
DEFAULT_255_1_234
10
6.7510277
20
29.3869912
11
6.4048598
21
28.845652
0
LINE
8
DEFAULT_255_1_234
10
6.4048598
20
28.845652
11
6.7686976
21
28.845652
0
LINE
8
DEFAULT_255_1_234
10
6.7686976
20
28.845652
11
6.7686976
21
29.4191181
0
LINE
8
DEFAULT_255_1_234
10
6.7686976
20
29.4191181
11
6.7510277
21
29.3869912
0
LINE
8
DEFAULT_255_1_234
10
4.3681299
20
37.5598211
11
4.6500439
21
37.1116501
0
LINE
8
DEFAULT_255_1_234
10
4.6500439
20
37.1116501
11
4.9303516
21
37.5598211
0
LINE
8
DEFAULT_255_1_234
10
4.9303516
20
37.5598211
11
5.1118689
21
37.5598211
0
LINE
8
DEFAULT_255_1_234
10
5.1118689
20
37.5598211
11
4.7424089
21
36.9799296
0
LINE
8
DEFAULT_255_1_234
10
4.7424089
20
36.9799296
11
5.1207038
21
36.3904
0
LINE
8
DEFAULT_255_1_234
10
5.1207038
20
36.3904
11
4.9375802
21
36.3904
0
LINE
8
DEFAULT_255_1_234
10
4.9375802
20
36.3904
11
4.6500439
21
36.8466027
0
LINE
8
DEFAULT_255_1_234
10
4.6500439
20
36.8466027
11
4.3609014
21
36.3904
0
LINE
8
DEFAULT_255_1_234
10
4.3609014
20
36.3904
11
4.1785809
21
36.3904
0
LINE
8
DEFAULT_255_1_234
10
4.1785809
20
36.3904
11
4.557679
21
36.9799296
0
LINE
8
DEFAULT_255_1_234
10
4.557679
20
36.9799296
11
4.1874158
21
37.5598211
0
LINE
8
DEFAULT_255_1_234
10
4.1874158
20
37.5598211
11
4.3681299
21
37.5598211
0
LINE
8
DEFAULT_255_1_234
10
5.7495889
20
37.5654433
11
5.7495889
21
36.3904
0
LINE
8
DEFAULT_255_1_234
10
5.7495889
20
36.3904
11
5.6001986
21
36.3904
0
LINE
8
DEFAULT_255_1_234
10
5.6001986
20
36.3904
11
5.6001986
21
37.3807133
0
LINE
8
DEFAULT_255_1_234
10
5.6001986
20
37.3807133
11
5.3006147
21
37.2706785
0
LINE
8
DEFAULT_255_1_234
10
5.3006147
20
37.2706785
11
5.3006147
21
37.4056117
0
LINE
8
DEFAULT_255_1_234
10
5.3006147
20
37.4056117
11
5.7262969
21
37.5654433
0
LINE
8
DEFAULT_255_1_234
10
5.7262969
20
37.5654433
11
5.7495889
21
37.5654433
0
LINE
8
DEFAULT_255_1_234
10
6.4009629
20
36.9261169
11
6.4009629
21
37.0473962
0
LINE
8
DEFAULT_255_1_234
10
6.4009629
20
37.0473962
11
6.5126041
21
37.0473962
0
LINE
8
DEFAULT_255_1_234
10
6.3222519
20
37.2530087
11
6.1736647
21
37.2530087
0
LINE
8
DEFAULT_255_1_234
10
6.1632234
20
36.6988188
11
6.3126138
21
36.6988188
0
LINE
8
DEFAULT_255_1_234
10
6.5126041
20
36.9261169
11
6.4009629
21
36.9261169
0
ARC
8
DEFAULT_255_1_234
10
6.5096907
20
37.3866713
40
0.3392876
50
270.4919872
51
281.8951556
0
ARC
8
DEFAULT_255_1_234
10
6.5338169
20
37.2764702
40
0.2264817
50
281.6691735
51
301.2943132
0
ARC
8
DEFAULT_255_1_234
10
6.5508379
20
37.2453304
40
0.1910381
50
301.7833094
51
311.7545298
0
ARC
8
DEFAULT_255_1_234
10
6.5599955
20
37.2351748
40
0.1773635
50
311.7323931
51
354.2802411
0
ARC
8
DEFAULT_255_1_234
10
6.487358
20
37.2476722
40
0.2509385
50
353.0937916
51
0.1181479
0
ARC
8
DEFAULT_255_1_234
10
6.4412365
20
37.2524386
40
0.2970898
50
359.1805295
51
15.0453146
0
ARC
8
DEFAULT_255_1_234
10
6.5758202
20
37.2916992
40
0.1569564
50
13.9577229
51
77.6713066
0
ARC
8
DEFAULT_255_1_234
10
6.5371731
20
37.1531949
40
0.3006298
50
76.1116566
51
90.7026153
0
ARC
8
DEFAULT_255_1_234
10
6.5312569
20
37.1805545
40
0.2732568
50
89.5324876
51
103.531937
0
ARC
8
DEFAULT_255_1_234
10
6.5112013
20
37.2604884
40
0.1908508
50
103.2931773
51
133.5619022
0
ARC
8
DEFAULT_255_1_234
10
6.5067502
20
37.2664375
40
0.1834746
50
133.8349307
51
173.5344437
0
ARC
8
DEFAULT_255_1_234
10
6.5790545
20
37.2536213
40
0.2568033
50
172.5096846
51
180.1366907
0
ARC
8
DEFAULT_255_1_234
10
6.4839439
20
37.2570622
40
0.3103056
50
155.3484492
51
180.7484736
0
ARC
8
DEFAULT_255_1_234
10
6.4790528
20
37.2541846
40
0.3070957
50
131.5744599
51
154.4798489
0
ARC
8
DEFAULT_255_1_234
10
6.5103675
20
37.222531
40
0.3515643
50
96.9875458
51
131.9690667
0
ARC
8
DEFAULT_255_1_234
10
6.5323155
20
37.0979636
40
0.4779224
50
89.8596053
51
97.7825159
0
ARC
8
DEFAULT_255_1_234
10
6.5371218
20
37.0717616
40
0.5041361
50
78.3655447
51
90.4131539
0
ARC
8
DEFAULT_255_1_234
10
6.5729136
20
37.2376887
40
0.3344039
50
56.6229102
51
78.638727
0
ARC
8
DEFAULT_255_1_234
10
6.594408
20
37.2752805
40
0.2912001
50
47.0253525
51
56.0854072
0
ARC
8
DEFAULT_255_1_234
10
6.596386
20
37.2792223
40
0.2869704
50
10.9208013
51
46.7778124
0
ARC
8
DEFAULT_255_1_234
10
6.4599926
20
37.2476857
40
0.426899
50
359.6364486
51
11.6087304
0
ARC
8
DEFAULT_255_1_234
10
6.643477
20
37.2461752
40
0.243409
50
332.3549906
51
359.7179418
0
ARC
8
DEFAULT_255_1_234
10
6.5784372
20
37.2770142
40
0.3153459
50
325.2333722
51
332.8745602
0
ARC
8
DEFAULT_255_1_234
10
6.5936995
20
37.2663828
40
0.2967456
50
292.9802137
51
325.2392345
0
ARC
8
DEFAULT_255_1_234
10
6.5662369
20
37.3197863
40
0.3566604
50
292.5402179
51
293.6924929
0
ARC
8
DEFAULT_255_1_234
10
6.6054965
20
36.6743091
40
0.3307468
50
57.6435486
51
72.8625112
0
ARC
8
DEFAULT_255_1_234
10
6.6409465
20
36.7317549
40
0.2632492
50
36.7248896
51
57.4697979
0
ARC
8
DEFAULT_255_1_234
10
6.6398098
20
36.733022
40
0.2634081
50
8.0545065
51
36.356114
0
ARC
8
DEFAULT_255_1_234
10
6.5535283
20
36.7175174
40
0.3510261
50
359.8320645
51
8.5869982
0
ARC
8
DEFAULT_255_1_234
10
6.5160059
20
36.7127101
40
0.3885653
50
343.9829931
51
0.5571613
0
ARC
8
DEFAULT_255_1_234
10
6.6046256
20
36.6884438
40
0.2966924
50
311.6359546
51
343.7651759
0
ARC
8
DEFAULT_255_1_234
10
6.5667825
20
36.7311102
40
0.3537231
50
279.7829875
51
311.6255694
0
ARC
8
DEFAULT_255_1_234
10
6.5366601
20
36.874828
40
0.5004971
50
269.7286406
51
280.3856417
0
ARC
8
DEFAULT_255_1_234
10
6.5304674
20
36.8706996
40
0.4963778
50
256.6828919
51
270.4412052
0
ARC
8
DEFAULT_255_1_234
10
6.496597
20
36.7322394
40
0.3538406
50
229.4223008
51
256.8556159
0
ARC
8
DEFAULT_255_1_234
10
6.4551363
20
36.6855736
40
0.2914296
50
181.818294
51
229.6455059
0
ARC
8
DEFAULT_255_1_234
10
6.5591319
20
36.6986496
40
0.3959084
50
179.9755256
51
183.2323064
0
ARC
8
DEFAULT_255_1_234
10
6.5419065
20
36.6966037
40
0.2293034
50
179.4465117
51
196.2869258
0
ARC
8
DEFAULT_255_1_234
10
6.4931473
20
36.6832651
40
0.1787621
50
196.5661473
51
227.705904
0
ARC
8
DEFAULT_255_1_234
10
6.5095568
20
36.7016155
40
0.2033784
50
227.7652068
51
257.8762805
0
ARC
8
DEFAULT_255_1_234
10
6.5320538
20
36.7959156
40
0.3003081
50
257.4584385
51
270.426602
0
ARC
8
DEFAULT_255_1_234
10
6.5366104
20
36.8248996
40
0.329292
50
269.5962073
51
280.8789248
0
ARC
8
DEFAULT_255_1_234
10
6.5595633
20
36.7102685
40
0.2123908
50
280.6346389
51
299.8595945
0
ARC
8
DEFAULT_255_1_234
10
6.578654
20
36.6740212
40
0.171457
50
300.3576302
51
314.5517981
0
ARC
8
DEFAULT_255_1_234
10
6.57036
20
36.6800919
40
0.1816095
50
315.0728369
51
345.0431014
0
ARC
8
DEFAULT_255_1_234
10
6.4780414
20
36.7069841
40
0.2777492
50
344.5986631
51
357.9269593
0
ARC
8
DEFAULT_255_1_234
10
6.388474
20
36.7131276
40
0.3674917
50
357.4748886
51
0.0231117
0
ARC
8
DEFAULT_255_1_234
10
6.490785
20
36.7155679
40
0.2651907
50
359.5047933
51
13.4239635
0
ARC
8
DEFAULT_255_1_234
10
6.5774493
20
36.7377478
40
0.1757509
50
12.9498199
51
48.7551375
0
ARC
8
DEFAULT_255_1_234
10
6.5592227
20
36.71284
40
0.2065134
50
49.5088623
51
72.1836453
0
ARC
8
DEFAULT_255_1_234
10
6.523438
20
36.6066291
40
0.3185836
50
71.9010081
51
84.3554254
0
ARC
8
DEFAULT_255_1_234
10
6.5073012
20
36.4705326
40
0.4556151
50
84.0193428
51
89.333121
0
LINE
8
DEFAULT_255_1_234
10
4.3681299
20
45.4973211
11
4.6500439
21
45.0491501
0
LINE
8
DEFAULT_255_1_234
10
4.6500439
20
45.0491501
11
4.9303516
21
45.4973211
0
LINE
8
DEFAULT_255_1_234
10
4.9303516
20
45.4973211
11
5.1118689
21
45.4973211
0
LINE
8
DEFAULT_255_1_234
10
5.1118689
20
45.4973211
11
4.7424089
21
44.9174296
0
LINE
8
DEFAULT_255_1_234
10
4.7424089
20
44.9174296
11
5.1207038
21
44.3279
0
LINE
8
DEFAULT_255_1_234
10
5.1207038
20
44.3279
11
4.9375802
21
44.3279
0
LINE
8
DEFAULT_255_1_234
10
4.9375802
20
44.3279
11
4.6500439
21
44.7841027
0
LINE
8
DEFAULT_255_1_234
10
4.6500439
20
44.7841027
11
4.3609014
21
44.3279
0
LINE
8
DEFAULT_255_1_234
10
4.3609014
20
44.3279
11
4.1785809
21
44.3279
0
LINE
8
DEFAULT_255_1_234
10
4.1785809
20
44.3279
11
4.557679
21
44.9174296
0
LINE
8
DEFAULT_255_1_234
10
4.557679
20
44.9174296
11
4.1874158
21
45.4973211
0
LINE
8
DEFAULT_255_1_234
10
4.1874158
20
45.4973211
11
4.3681299
21
45.4973211
0
LINE
8
DEFAULT_255_1_234
10
5.7495889
20
45.5029433
11
5.7495889
21
44.3279
0
LINE
8
DEFAULT_255_1_234
10
5.7495889
20
44.3279
11
5.6001986
21
44.3279
0
LINE
8
DEFAULT_255_1_234
10
5.6001986
20
44.3279
11
5.6001986
21
45.3182133
0
LINE
8
DEFAULT_255_1_234
10
5.6001986
20
45.3182133
11
5.3006147
21
45.2081785
0
LINE
8
DEFAULT_255_1_234
10
5.3006147
20
45.2081785
11
5.3006147
21
45.3431117
0
LINE
8
DEFAULT_255_1_234
10
5.3006147
20
45.3431117
11
5.7262969
21
45.5029433
0
LINE
8
DEFAULT_255_1_234
10
5.7262969
20
45.5029433
11
5.7495889
21
45.5029433
0
LINE
8
DEFAULT_255_1_234
10
6.951137
20
44.4491792
11
6.951137
21
44.3279
0
LINE
8
DEFAULT_255_1_234
10
6.951137
20
44.3279
11
6.1849091
21
44.3279
0
LINE
8
DEFAULT_255_1_234
10
6.1849091
20
44.3279
11
6.1849091
21
44.4347221
0
LINE
8
DEFAULT_255_1_234
10
6.1849091
20
44.4347221
11
6.5897087
21
44.8844995
0
LINE
8
DEFAULT_255_1_234
10
6.3110074
20
45.1527595
11
6.1624203
21
45.1527595
0
LINE
8
DEFAULT_255_1_234
10
6.6772547
20
44.7889218
11
6.3640169
21
44.4491792
0
LINE
8
DEFAULT_255_1_234
10
6.3640169
20
44.4491792
11
6.951137
21
44.4491792
0
ARC
8
DEFAULT_255_1_234
10
5.2406921
20
46.0774527
40
1.8008286
50
318.5132453
51
320.7828378
0
ARC
8
DEFAULT_255_1_234
10
5.7693895
20
45.6471426
40
1.1191493
50
320.7372736
51
323.9737074
0
ARC
8
DEFAULT_255_1_234
10
6.1613751
20
45.3631361
40
0.6350923
50
323.8961724
51
328.6421089
0
ARC
8
DEFAULT_255_1_234
10
6.3660347
20
45.2369031
40
0.3946393
50
328.8299013
51
331.789948
0
ARC
8
DEFAULT_255_1_234
10
6.4657525
20
45.1854509
40
0.2824501
50
331.4255242
51
352.9364833
0
ARC
8
DEFAULT_255_1_234
10
6.4794026
20
45.1823976
40
0.2685315
50
353.2248685
51
0.0169286
0
ARC
8
DEFAULT_255_1_234
10
6.5003903
20
45.184695
40
0.2475536
50
359.4866256
51
15.9339782
0
ARC
8
DEFAULT_255_1_234
10
6.5510888
20
45.1983286
40
0.1950618
50
16.1714718
51
43.5284424
0
ARC
8
DEFAULT_255_1_234
10
6.5588197
20
45.2060573
40
0.184134
50
43.4415429
51
83.1661404
0
ARC
8
DEFAULT_255_1_234
10
6.5454115
20
45.1323771
40
0.258926
50
82.160215
51
90.1505798
0
ARC
8
DEFAULT_255_1_234
10
6.5422542
20
45.0786865
40
0.3126255
50
89.5460705
51
102.5418777
0
ARC
8
DEFAULT_255_1_234
10
6.5179628
20
45.1817665
40
0.2067346
50
102.1739365
51
129.2061916
0
ARC
8
DEFAULT_255_1_234
10
6.51007
20
45.1942094
40
0.1921118
50
129.7279328
51
135.7542026
0
ARC
8
DEFAULT_255_1_234
10
6.5222228
20
45.1845045
40
0.2075944
50
136.175737
51
166.3674722
0
ARC
8
DEFAULT_255_1_234
10
6.6229147
20
45.1575182
40
0.3118201
50
165.9092917
51
178.8683903
0
ARC
8
DEFAULT_255_1_234
10
6.7094008
20
45.1528179
40
0.3983935
50
178.438168
51
180.0083905
0
ARC
8
DEFAULT_255_1_234
10
6.569261
20
45.1567231
40
0.4068601
50
163.2878735
51
180.5581814
0
ARC
8
DEFAULT_255_1_234
10
6.4890872
20
45.178784
40
0.3237344
50
133.454115
51
162.9470031
0
ARC
8
DEFAULT_255_1_234
10
6.5069413
20
45.1598
40
0.349795
50
100.7869394
51
133.4384016
0
ARC
8
DEFAULT_255_1_234
10
6.5417185
20
45.0049319
40
0.5084616
50
89.6605301
51
101.3704185
0
ARC
8
DEFAULT_255_1_234
10
6.5483523
20
45.0110496
40
0.502348
50
78.2171172
51
90.4130393
0
ARC
8
DEFAULT_255_1_234
10
6.5838602
20
45.1734637
40
0.3361092
50
55.9268222
51
78.4888551
0
ARC
8
DEFAULT_255_1_234
10
6.6035042
20
45.2073324
40
0.2970617
50
47.9292255
51
55.4054003
0
ARC
8
DEFAULT_255_1_234
10
6.6136603
20
45.2176502
40
0.2825983
50
4.3347696
51
48.0560701
0
ARC
8
DEFAULT_255_1_234
10
6.5040996
20
45.2006601
40
0.393225
50
359.925209
51
5.5967654
0
ARC
8
DEFAULT_255_1_234
10
6.5469888
20
45.2062816
40
0.3503892
50
337.8914096
51
358.9967724
0
ARC
8
DEFAULT_255_1_234
10
6.27563
20
45.3109706
40
0.6412172
50
326.9135351
51
338.3505194
0
ARC
8
DEFAULT_255_1_234
10
5.8770604
20
45.5664284
40
1.1146189
50
319.6472867
51
327.095818
0
ARC
8
DEFAULT_255_1_234
10
5.4937607
20
45.8826
40
1.6114559
50
317.2586784
51
319.9046139
0
LINE
8
DEFAULT_255_1_234
10
4.3590299
20
53.4348211
11
4.6409439
21
52.9866501
0
LINE
8
DEFAULT_255_1_234
10
4.6409439
20
52.9866501
11
4.9212516
21
53.4348211
0
LINE
8
DEFAULT_255_1_234
10
4.9212516
20
53.4348211
11
5.1027689
21
53.4348211
0
LINE
8
DEFAULT_255_1_234
10
5.1027689
20
53.4348211
11
4.7333089
21
52.8549296
0
LINE
8
DEFAULT_255_1_234
10
4.7333089
20
52.8549296
11
5.1116038
21
52.2654
0
LINE
8
DEFAULT_255_1_234
10
5.1116038
20
52.2654
11
4.9284802
21
52.2654
0
LINE
8
DEFAULT_255_1_234
10
4.9284802
20
52.2654
11
4.6409439
21
52.7216027
0
LINE
8
DEFAULT_255_1_234
10
4.6409439
20
52.7216027
11
4.3518014
21
52.2654
0
LINE
8
DEFAULT_255_1_234
10
4.3518014
20
52.2654
11
4.1694809
21
52.2654
0
LINE
8
DEFAULT_255_1_234
10
4.1694809
20
52.2654
11
4.548579
21
52.8549296
0
LINE
8
DEFAULT_255_1_234
10
4.548579
20
52.8549296
11
4.1783158
21
53.4348211
0
LINE
8
DEFAULT_255_1_234
10
4.1783158
20
53.4348211
11
4.3590299
21
53.4348211
0
LINE
8
DEFAULT_255_1_234
10
5.7404889
20
53.4404433
11
5.7404889
21
52.2654
0
LINE
8
DEFAULT_255_1_234
10
5.7404889
20
52.2654
11
5.5910986
21
52.2654
0
LINE
8
DEFAULT_255_1_234
10
5.5910986
20
52.2654
11
5.5910986
21
53.2557133
0
LINE
8
DEFAULT_255_1_234
10
5.5910986
20
53.2557133
11
5.2915147
21
53.1456785
0
LINE
8
DEFAULT_255_1_234
10
5.2915147
20
53.1456785
11
5.2915147
21
53.2806117
0
LINE
8
DEFAULT_255_1_234
10
5.2915147
20
53.2806117
11
5.7171969
21
53.4404433
0
LINE
8
DEFAULT_255_1_234
10
5.7171969
20
53.4404433
11
5.7404889
21
53.4404433
0
LINE
8
DEFAULT_255_1_234
10
6.6641388
20
53.4404433
11
6.6641388
21
52.2654
0
LINE
8
DEFAULT_255_1_234
10
6.6641388
20
52.2654
11
6.5147485
21
52.2654
0
LINE
8
DEFAULT_255_1_234
10
6.5147485
20
52.2654
11
6.5147485
21
53.2557133
0
LINE
8
DEFAULT_255_1_234
10
6.5147485
20
53.2557133
11
6.2151646
21
53.1456785
0
LINE
8
DEFAULT_255_1_234
10
6.2151646
20
53.1456785
11
6.2151646
21
53.2806117
0
LINE
8
DEFAULT_255_1_234
10
6.2151646
20
53.2806117
11
6.6408468
21
53.4404433
0
LINE
8
DEFAULT_255_1_234
10
6.6408468
20
53.4404433
11
6.6641388
21
53.4404433
0
LINE
8
DEFAULT_255_1_234
10
4.3681299
20
61.3723211
11
4.6500439
21
60.9241501
0
LINE
8
DEFAULT_255_1_234
10
4.6500439
20
60.9241501
11
4.9303516
21
61.3723211
0
LINE
8
DEFAULT_255_1_234
10
4.9303516
20
61.3723211
11
5.1118689
21
61.3723211
0
LINE
8
DEFAULT_255_1_234
10
5.1118689
20
61.3723211
11
4.7424089
21
60.7924296
0
LINE
8
DEFAULT_255_1_234
10
4.7424089
20
60.7924296
11
5.1207038
21
60.2029
0
LINE
8
DEFAULT_255_1_234
10
5.1207038
20
60.2029
11
4.9375802
21
60.2029
0
LINE
8
DEFAULT_255_1_234
10
4.9375802
20
60.2029
11
4.6500439
21
60.6591027
0
LINE
8
DEFAULT_255_1_234
10
4.6500439
20
60.6591027
11
4.3609014
21
60.2029
0
LINE
8
DEFAULT_255_1_234
10
4.3609014
20
60.2029
11
4.1785809
21
60.2029
0
LINE
8
DEFAULT_255_1_234
10
4.1785809
20
60.2029
11
4.557679
21
60.7924296
0
LINE
8
DEFAULT_255_1_234
10
4.557679
20
60.7924296
11
4.1874158
21
61.3723211
0
LINE
8
DEFAULT_255_1_234
10
4.1874158
20
61.3723211
11
4.3681299
21
61.3723211
0
LINE
8
DEFAULT_255_1_234
10
5.7495889
20
61.3779433
11
5.7495889
21
60.2029
0
LINE
8
DEFAULT_255_1_234
10
5.7495889
20
60.2029
11
5.6001986
21
60.2029
0
LINE
8
DEFAULT_255_1_234
10
5.6001986
20
60.2029
11
5.6001986
21
61.1932133
0
LINE
8
DEFAULT_255_1_234
10
5.6001986
20
61.1932133
11
5.3006147
21
61.0831785
0
LINE
8
DEFAULT_255_1_234
10
5.3006147
20
61.0831785
11
5.3006147
21
61.2181117
0
LINE
8
DEFAULT_255_1_234
10
5.3006147
20
61.2181117
11
5.7262969
21
61.3779433
0
LINE
8
DEFAULT_255_1_234
10
5.7262969
20
61.3779433
11
5.7495889
21
61.3779433
0
LINE
8
DEFAULT_255_1_234
10
6.9182068
20
60.8944327
11
6.9182068
21
60.7016709
0
LINE
8
DEFAULT_255_1_234
10
6.1800901
20
60.6815916
11
6.1800901
21
60.8799755
0
LINE
8
DEFAULT_255_1_234
10
6.7696197
20
60.6615123
11
6.7696197
21
60.9048739
0
LINE
8
DEFAULT_255_1_234
10
6.3286772
20
60.9161184
11
6.3286772
21
60.6783789
0
ARC
8
DEFAULT_255_1_234
10
5.6934958
20
60.6967805
40
1.2247208
50
353.8441951
51
0.2287902
0
ARC
8
DEFAULT_255_1_234
10
6.1574462
20
60.6449806
40
0.7578929
50
344.4934747
51
353.9765454
0
ARC
8
DEFAULT_255_1_234
10
6.4567052
20
60.5598981
40
0.4467846
50
329.2803592
51
344.7472793
0
ARC
8
DEFAULT_255_1_234
10
6.5559877
20
60.5054018
40
0.3336173
50
324.9352394
51
328.6160465
0
ARC
8
DEFAULT_255_1_234
10
6.5936985
20
60.4790427
40
0.2876076
50
280.580143
51
324.9173126
0
ARC
8
DEFAULT_255_1_234
10
6.5535778
20
60.6461099
40
0.4592847
50
269.5977311
51
281.6734359
0
ARC
8
DEFAULT_255_1_234
10
6.5463684
20
60.6341173
40
0.4472986
50
256.6228859
51
270.51044
0
ARC
8
DEFAULT_255_1_234
10
6.5061661
20
60.4792877
40
0.2873874
50
215.8618325
51
257.2788573
0
ARC
8
DEFAULT_255_1_234
10
6.6082693
20
60.5477977
40
0.4102928
50
197.9693508
51
215.2623606
0
ARC
8
DEFAULT_255_1_234
10
6.8567809
20
60.6316709
40
0.6725652
50
187.8816417
51
198.2346507
0
ARC
8
DEFAULT_255_1_234
10
7.2526017
20
60.6888079
40
1.0724845
50
180.8976217
51
188.0055519
0
ARC
8
DEFAULT_255_1_234
10
7.5326205
20
60.6991777
40
1.3526448
50
180.7449369
51
181.1510016
0
ARC
8
DEFAULT_255_1_234
10
7.3748934
20
60.8848042
40
1.1948131
50
173.7675579
51
180.231553
0
ARC
8
DEFAULT_255_1_234
10
6.9231081
20
60.9358666
40
0.7401564
50
164.3058563
51
173.9002247
0
ARC
8
DEFAULT_255_1_234
10
6.631915
20
61.0197656
40
0.4371288
50
148.7922025
51
164.568378
0
ARC
8
DEFAULT_255_1_234
10
6.5367602
20
61.0728929
40
0.3282386
50
144.5883898
51
148.1176286
0
ARC
8
DEFAULT_255_1_234
10
6.50245
20
61.0968315
40
0.2864044
50
101.6440918
51
144.514236
0
ARC
8
DEFAULT_255_1_234
10
6.5449566
20
60.9279069
40
0.4604934
50
89.5284041
51
102.5819763
0
ARC
8
DEFAULT_255_1_234
10
6.5528654
20
60.9240018
40
0.464401
50
77.0437873
51
90.5081339
0
ARC
8
DEFAULT_255_1_234
10
6.5930656
20
61.0882615
40
0.2953195
50
48.2778575
51
77.4994676
0
ARC
8
DEFAULT_255_1_234
10
6.6003287
20
61.1011746
40
0.2808655
50
36.3142134
51
47.6305865
0
ARC
8
DEFAULT_255_1_234
10
6.5134594
20
61.0426515
40
0.3855453
50
18.2931786
51
35.6769206
0
ARC
8
DEFAULT_255_1_234
10
6.2591353
20
60.9553593
40
0.654423
50
8.024666
51
18.5605216
0
ARC
8
DEFAULT_255_1_234
10
5.8428273
20
60.8938792
40
1.0752407
50
1.1274072
51
8.1718305
0
ARC
8
DEFAULT_255_1_234
10
5.5192464
20
60.8811885
40
1.3990231
50
0.5424119
51
1.3863029
0
ARC
8
DEFAULT_255_1_234
10
5.7013841
20
60.9084342
40
1.0682415
50
359.8090433
51
4.9407866
0
ARC
8
DEFAULT_255_1_234
10
6.1223855
20
60.9460113
40
0.6455691
50
4.8362157
51
12.2904523
0
ARC
8
DEFAULT_255_1_234
10
6.397897
20
61.0073965
40
0.3633074
50
12.0805627
51
23.8173984
0
ARC
8
DEFAULT_255_1_234
10
6.5152676
20
61.0570919
40
0.2358723
50
24.2871213
51
31.3935614
0
ARC
8
DEFAULT_255_1_234
10
6.5677373
20
61.0914233
40
0.1732111
50
30.7407893
51
82.4657128
0
ARC
8
DEFAULT_255_1_234
10
6.5497507
20
61.0030691
40
0.263235
50
81.1060089
51
90.2184952
0
ARC
8
DEFAULT_255_1_234
10
6.5461806
20
61.0288924
40
0.2374236
50
89.3806855
51
105.6762551
0
ARC
8
DEFAULT_255_1_234
10
6.5278437
20
61.0955567
40
0.1682847
50
105.7981136
51
149.7388061
0
ARC
8
DEFAULT_255_1_234
10
6.6342515
20
61.031595
40
0.2924306
50
149.4208916
51
163.6286378
0
ARC
8
DEFAULT_255_1_234
10
6.8433403
20
60.967825
40
0.5110213
50
163.3763315
51
172.1410975
0
ARC
8
DEFAULT_255_1_234
10
7.1734122
20
60.9205518
40
0.8444586
50
172.0259487
51
178.0703232
0
ARC
8
DEFAULT_255_1_234
10
7.4764211
20
60.9061906
40
1.1477868
50
177.8631668
51
179.5044149
0
ARC
8
DEFAULT_255_1_234
10
7.3691616
20
60.6747389
40
1.0404907
50
179.7995573
51
185.2460446
0
ARC
8
DEFAULT_255_1_234
10
6.9648655
20
60.6364513
40
0.6343885
50
185.1411642
51
193.0079639
0
ARC
8
DEFAULT_255_1_234
10
6.7005128
20
60.5739641
40
0.3627568
50
192.7897626
51
205.2507664
0
ARC
8
DEFAULT_255_1_234
10
6.5958675
20
60.5272415
40
0.2481908
50
205.8005384
51
211.2537509
0
ARC
8
DEFAULT_255_1_234
10
6.5435115
20
60.492158
40
0.1852521
50
210.3789793
51
238.4008143
0
ARC
8
DEFAULT_255_1_234
10
6.5415637
20
60.4968376
40
0.1882621
50
239.6520629
51
265.9793761
0
ARC
8
DEFAULT_255_1_234
10
6.5500837
20
60.5640427
40
0.2559272
50
265.1315437
51
270.060332
0
ARC
8
DEFAULT_255_1_234
10
6.5529616
20
60.5316534
40
0.2235528
50
269.3314664
51
287.2178029
0
ARC
8
DEFAULT_255_1_234
10
6.5667468
20
60.4813279
40
0.1714108
50
287.7958004
51
329.080874
0
ARC
8
DEFAULT_255_1_234
10
6.4709925
20
60.541093
40
0.2842745
50
328.6634704
51
343.3325132
0
ARC
8
DEFAULT_255_1_234
10
6.2536945
20
60.6087863
40
0.5118644
50
343.0499468
51
351.9393422
0
ARC
8
DEFAULT_255_1_234
10
5.9070245
20
60.6598949
40
0.8622784
50
351.8069023
51
357.7959224
0
ARC
8
DEFAULT_255_1_234
10
5.5834801
20
60.6766721
40
1.1862365
50
357.5871873
51
359.2677531
0
LINE
8
DEFAULT_255_1_234
10
4.3084299
20
69.3098211
11
4.5903439
21
68.8616501
0
LINE
8
DEFAULT_255_1_234
10
4.5903439
20
68.8616501
11
4.8706516
21
69.3098211
0
LINE
8
DEFAULT_255_1_234
10
4.8706516
20
69.3098211
11
5.0521689
21
69.3098211
0
LINE
8
DEFAULT_255_1_234
10
5.0521689
20
69.3098211
11
4.6827089
21
68.7299296
0
LINE
8
DEFAULT_255_1_234
10
4.6827089
20
68.7299296
11
5.0610038
21
68.1404
0
LINE
8
DEFAULT_255_1_234
10
5.0610038
20
68.1404
11
4.8778802
21
68.1404
0
LINE
8
DEFAULT_255_1_234
10
4.8778802
20
68.1404
11
4.5903439
21
68.5966027
0
LINE
8
DEFAULT_255_1_234
10
4.5903439
20
68.5966027
11
4.3012014
21
68.1404
0
LINE
8
DEFAULT_255_1_234
10
4.3012014
20
68.1404
11
4.1188809
21
68.1404
0
LINE
8
DEFAULT_255_1_234
10
4.1188809
20
68.1404
11
4.497979
21
68.7299296
0
LINE
8
DEFAULT_255_1_234
10
4.497979
20
68.7299296
11
4.1277158
21
69.3098211
0
LINE
8
DEFAULT_255_1_234
10
4.1277158
20
69.3098211
11
4.3084299
21
69.3098211
0
LINE
8
DEFAULT_255_1_234
10
5.9203998
20
68.8423739
11
5.9203998
21
68.7990025
0
LINE
8
DEFAULT_255_1_234
10
5.3782575
20
68.1395968
11
5.3493432
21
68.1395968
0
LINE
8
DEFAULT_255_1_234
10
5.3493432
20
68.1395968
11
5.3493432
21
68.2648919
0
LINE
8
DEFAULT_255_1_234
10
5.3493432
20
68.2648919
11
5.380667
21
68.2648919
0
LINE
8
DEFAULT_255_1_234
10
5.7718126
20
68.8134597
11
5.7718126
21
68.8728945
0
ARC
8
DEFAULT_255_1_234
10
5.4924396
20
68.8880403
40
0.3635579
50
297.4037347
51
320.016758
0
ARC
8
DEFAULT_255_1_234
10
5.5214345
20
68.832324
40
0.3007486
50
270.2633101
51
297.3851877
0
ARC
8
DEFAULT_255_1_234
10
5.51803
20
68.8786904
40
0.3471448
50
269.9966443
51
270.7900392
0
ARC
8
DEFAULT_255_1_234
10
5.5154782
20
68.8785143
40
0.3469779
50
254.5999133
51
270.4180344
0
ARC
8
DEFAULT_255_1_234
10
5.5012141
20
68.8220647
40
0.2887697
50
236.4717942
51
254.3541279
0
ARC
8
DEFAULT_255_1_234
10
5.5168359
20
68.8430711
40
0.3149125
50
208.4727207
51
236.2134933
0
ARC
8
DEFAULT_255_1_234
10
5.5807134
20
68.8821455
40
0.3897115
50
204.3447514
51
209.0453999
0
ARC
8
DEFAULT_255_1_234
10
5.648671
20
68.9109656
40
0.4635101
50
183.9375985
51
204.1276318
0
ARC
8
DEFAULT_255_1_234
10
5.7394961
20
68.9207482
40
0.5548037
50
179.9652252
51
184.3013875
0
ARC
8
DEFAULT_255_1_234
10
5.7155007
20
68.9240507
40
0.5308164
50
166.7585989
51
180.3201225
0
ARC
8
DEFAULT_255_1_234
10
5.6308621
20
68.9424488
40
0.4442163
50
154.6955053
51
166.5679793
0
ARC
8
DEFAULT_255_1_234
10
5.5455491
20
68.985421
40
0.3487299
50
136.3324195
51
155.0871442
0
ARC
8
DEFAULT_255_1_234
10
5.5174564
20
69.0094954
40
0.3117924
50
121.236733
51
135.9680508
0
ARC
8
DEFAULT_255_1_234
10
5.5315062
20
68.9834743
40
0.3413302
50
96.845628
51
120.9881519
0
ARC
8
DEFAULT_255_1_234
10
5.5460643
20
68.8899515
40
0.4359341
50
89.8870174
51
97.2802754
0
ARC
8
DEFAULT_255_1_234
10
5.5513082
20
68.9537095
40
0.3722009
50
70.6505584
51
90.6749113
0
ARC
8
DEFAULT_255_1_234
10
5.5644361
20
69.0050361
40
0.3194571
50
36.7492984
51
69.8219918
0
ARC
8
DEFAULT_255_1_234
10
5.4645525
20
68.9271993
40
0.4460685
50
15.39587
51
37.0840084
0
ARC
8
DEFAULT_255_1_234
10
5.2515959
20
68.8651242
40
0.6678714
50
3.9488873
51
15.6798563
0
ARC
8
DEFAULT_255_1_234
10
5.0114587
20
68.8434964
40
0.9089418
50
359.929245
51
4.2665314
0
ARC
8
DEFAULT_255_1_234
10
4.5509024
20
68.7923513
40
1.3695135
50
352.8366322
51
0.2782669
0
ARC
8
DEFAULT_255_1_234
10
5.0796703
20
68.7236629
40
0.8363105
50
341.8359505
51
352.9884176
0
ARC
8
DEFAULT_255_1_234
10
5.4015422
20
68.61517
40
0.4966642
50
322.8578092
51
342.1527901
0
ARC
8
DEFAULT_255_1_234
10
5.4879378
20
68.5562384
40
0.3922466
50
319.334325
51
322.0998941
0
ARC
8
DEFAULT_255_1_234
10
5.4569715
20
68.5873209
40
0.4360033
50
285.9541367
51
318.8878087
0
ARC
8
DEFAULT_255_1_234
10
5.3842976
20
68.81836
40
0.678149
50
272.9281676
51
286.4922826
0
ARC
8
DEFAULT_255_1_234
10
5.3653094
20
69.0434587
40
0.9039547
50
270.8207226
51
273.4012994
0
ARC
8
DEFAULT_255_1_234
10
5.3741945
20
68.8615666
40
0.5967098
50
270.6214993
51
281.4062806
0
ARC
8
DEFAULT_255_1_234
10
5.4171925
20
68.6559833
40
0.3866861
50
281.1852553
51
299.0621114
0
ARC
8
DEFAULT_255_1_234
10
5.4545497
20
68.5838798
40
0.3055236
50
299.5067782
51
313.1200873
0
ARC
8
DEFAULT_255_1_234
10
5.4567464
20
68.5759554
40
0.2982623
50
313.8526205
51
338.5989322
0
ARC
8
DEFAULT_255_1_234
10
5.2943538
20
68.6426781
40
0.4738131
50
338.2523585
51
351.2430902
0
ARC
8
DEFAULT_255_1_234
10
5.0532834
20
68.6836447
40
0.7183203
50
350.9409515
51
357.6691871
0
ARC
8
DEFAULT_255_1_234
10
5.5423264
20
68.8838764
40
0.2294452
50
269.9447023
51
306.8248917
0
ARC
8
DEFAULT_255_1_234
10
5.5186179
20
68.9261898
40
0.2775994
50
305.5072438
51
327.0773448
0
ARC
8
DEFAULT_255_1_234
10
5.530462
20
68.9167025
40
0.2625056
50
327.4104943
51
336.840169
0
ARC
8
DEFAULT_255_1_234
10
5.2210685
20
68.8761302
40
0.5507537
50
359.6633817
51
10.117533
0
ARC
8
DEFAULT_255_1_234
10
5.3964483
20
68.9085777
40
0.372403
50
9.9430141
51
26.7700076
0
ARC
8
DEFAULT_255_1_234
10
5.4561695
20
68.9361187
40
0.3066865
50
27.2015464
51
34.6829435
0
ARC
8
DEFAULT_255_1_234
10
5.5051175
20
68.9728977
40
0.245519
50
34.1250343
51
50.3070065
0
ARC
8
DEFAULT_255_1_234
10
5.5497855
20
69.0263385
40
0.1758693
50
50.3851167
51
90.6705993
0
ARC
8
DEFAULT_255_1_234
10
5.5451088
20
68.9958799
40
0.2063326
50
89.272901
51
111.9140407
0
ARC
8
DEFAULT_255_1_234
10
5.5431616
20
69.009944
40
0.1925887
50
112.9382311
51
142.5320782
0
ARC
8
DEFAULT_255_1_234
10
5.5977796
20
68.9655969
40
0.2629232
50
142.1021256
51
166.3835592
0
ARC
8
DEFAULT_255_1_234
10
5.7159101
20
68.9350915
40
0.3849193
50
166.1100289
51
178.665427
0
ARC
8
DEFAULT_255_1_234
10
5.820669
20
68.9292117
40
0.4897989
50
178.2632126
51
180.0111093
0
ARC
8
DEFAULT_255_1_234
10
5.7404811
20
68.9263728
40
0.40962
50
179.6161962
51
191.8787166
0
ARC
8
DEFAULT_255_1_234
10
5.618465
20
68.8993896
40
0.2846655
50
191.6191692
51
215.2972286
0
ARC
8
DEFAULT_255_1_234
10
5.5987841
20
68.8878918
40
0.2619665
50
215.7320102
51
216.5355409
0
ARC
8
DEFAULT_255_1_234
10
5.5448927
20
68.8446647
40
0.1929497
50
215.7486685
51
239.9727502
0
ARC
8
DEFAULT_255_1_234
10
5.5378843
20
68.8395894
40
0.1850822
50
241.0650169
51
269.2810483
0
ARC
8
DEFAULT_255_1_234
10
5.5420758
20
68.8886371
40
0.2342059
50
268.4062526
51
270.0071348
0
LINE
8
DEFAULT_255_1_234
10
4.3084299
20
77.2473211
11
4.5903439
21
76.7991501
0
LINE
8
DEFAULT_255_1_234
10
4.5903439
20
76.7991501
11
4.8706516
21
77.2473211
0
LINE
8
DEFAULT_255_1_234
10
4.8706516
20
77.2473211
11
5.0521689
21
77.2473211
0
LINE
8
DEFAULT_255_1_234
10
5.0521689
20
77.2473211
11
4.6827089
21
76.6674296
0
LINE
8
DEFAULT_255_1_234
10
4.6827089
20
76.6674296
11
5.0610038
21
76.0779
0
LINE
8
DEFAULT_255_1_234
10
5.0610038
20
76.0779
11
4.8778802
21
76.0779
0
LINE
8
DEFAULT_255_1_234
10
4.8778802
20
76.0779
11
4.5903439
21
76.5341027
0
LINE
8
DEFAULT_255_1_234
10
4.5903439
20
76.5341027
11
4.3012014
21
76.0779
0
LINE
8
DEFAULT_255_1_234
10
4.3012014
20
76.0779
11
4.1188809
21
76.0779
0
LINE
8
DEFAULT_255_1_234
10
4.1188809
20
76.0779
11
4.497979
21
76.6674296
0
LINE
8
DEFAULT_255_1_234
10
4.497979
20
76.6674296
11
4.1277158
21
77.2473211
0
LINE
8
DEFAULT_255_1_234
10
4.1277158
20
77.2473211
11
4.3084299
21
77.2473211
0
ARC
8
DEFAULT_255_1_234
10
5.6285376
20
76.9395703
40
0.2822356
50
338.8763615
51
0.5166041
0
ARC
8
DEFAULT_255_1_234
10
5.645403
20
76.9350208
40
0.2648703
50
325.8412414
51
338.4795939
0
ARC
8
DEFAULT_255_1_234
10
5.6063398
20
76.9621042
40
0.3124019
50
296.7586019
51
325.753654
0
ARC
8
DEFAULT_255_1_234
10
5.5775506
20
77.0105789
40
0.368668
50
296.0902311
51
297.3618122
0
ARC
8
DEFAULT_255_1_234
10
5.6032964
20
76.3551041
40
0.3518806
50
47.9009248
51
67.1946869
0
ARC
8
DEFAULT_255_1_234
10
5.6229206
20
76.3797395
40
0.320451
50
35.236241
51
47.551371
0
ARC
8
DEFAULT_255_1_234
10
5.6490824
20
76.3971993
40
0.2890103
50
359.2759738
51
35.4014081
0
ARC
8
DEFAULT_255_1_234
10
5.5745855
20
76.3898826
40
0.3635026
50
343.1294516
51
0.5776525
0
ARC
8
DEFAULT_255_1_234
10
5.64704
20
76.369933
40
0.2883832
50
310.8497458
51
342.744803
0
ARC
8
DEFAULT_255_1_234
10
5.6052513
20
76.4176294
40
0.3517954
50
281.5473923
51
310.9169905
0
ARC
8
DEFAULT_255_1_234
10
5.5695962
20
76.5729084
40
0.5110832
50
269.6192722
51
281.9789957
0
ARC
8
DEFAULT_255_1_234
10
5.5623752
20
76.5729828
40
0.5111606
50
257.4584469
51
270.4287458
0
ARC
8
DEFAULT_255_1_234
10
5.5242895
20
76.4126344
40
0.3463762
50
228.7553743
51
257.8484423
0
ARC
8
DEFAULT_255_1_234
10
5.4933093
20
76.3753442
40
0.297916
50
184.0104442
51
228.5071787
0
ARC
8
DEFAULT_255_1_234
10
5.6096037
20
76.3930512
40
0.4152734
50
179.9315461
51
185.3254504
0
ARC
8
DEFAULT_255_1_234
10
5.4919683
20
76.3967992
40
0.2976554
50
145.6795913
51
180.6259649
0
ARC
8
DEFAULT_255_1_234
10
5.5083032
20
76.3853929
40
0.3175776
50
115.5537925
51
145.6416199
0
ARC
8
DEFAULT_255_1_234
10
5.5423962
20
76.3243028
40
0.3874232
50
113.2437915
51
116.2054627
0
ARC
8
DEFAULT_255_1_234
10
5.5271175
20
76.964158
40
0.3154751
50
222.9548379
51
244.1372485
0
ARC
8
DEFAULT_255_1_234
10
5.514925
20
76.9504834
40
0.2972382
50
213.3439227
51
222.6271327
0
ARC
8
DEFAULT_255_1_234
10
5.4957184
20
76.9374308
40
0.274019
50
180.4316517
51
213.2713999
0
ARC
8
DEFAULT_255_1_234
10
5.5532186
20
76.942111
40
0.33158
50
179.9992944
51
181.1655061
0
ARC
8
DEFAULT_255_1_234
10
5.5941603
20
76.9455561
40
0.3725376
50
164.6186108
51
180.5292368
0
ARC
8
DEFAULT_255_1_234
10
5.5043466
20
76.9697101
40
0.2795349
50
132.2454369
51
164.5092287
0
ARC
8
DEFAULT_255_1_234
10
5.533057
20
76.9372028
40
0.3229019
50
100.7052766
51
132.1387266
0
ARC
8
DEFAULT_255_1_234
10
5.5635542
20
76.7994086
40
0.4639835
50
89.6732617
51
101.2449487
0
ARC
8
DEFAULT_255_1_234
10
5.569774
20
76.816899
40
0.4464999
50
76.2876631
51
90.4586123
0
ARC
8
DEFAULT_255_1_234
10
5.6003972
20
76.939122
40
0.3205023
50
47.8240157
51
76.4266918
0
ARC
8
DEFAULT_255_1_234
10
5.6226522
20
76.965159
40
0.2862661
50
6.9168658
51
47.6261438
0
ARC
8
DEFAULT_255_1_234
10
5.5039925
20
76.943237
40
0.4067708
50
359.8419705
51
7.9694496
0
ARC
8
DEFAULT_255_1_234
10
5.5381822
20
76.3991925
40
0.2513121
50
359.4454068
51
16.9256425
0
ARC
8
DEFAULT_255_1_234
10
5.5850633
20
76.4121033
40
0.2027071
50
17.292259
51
45.462717
0
ARC
8
DEFAULT_255_1_234
10
5.5796569
20
76.4074434
40
0.2098212
50
45.3028762
51
83.1921472
0
ARC
8
DEFAULT_255_1_234
10
5.5653253
20
76.3272895
40
0.2911472
50
82.2614531
51
90.143954
0
ARC
8
DEFAULT_255_1_234
10
5.5622373
20
76.350595
40
0.2678513
50
89.4959189
51
104.8579811
0
ARC
8
DEFAULT_255_1_234
10
5.5445632
20
76.417589
40
0.1985654
50
104.8855873
51
135.2448349
0
ARC
8
DEFAULT_255_1_234
10
5.5495405
20
76.4131336
40
0.2052373
50
135.3398955
51
172.104394
0
ARC
8
DEFAULT_255_1_234
10
5.6302463
20
76.3976925
40
0.2873299
50
171.2651929
51
180.1859362
0
ARC
8
DEFAULT_255_1_234
10
5.6133164
20
76.3944733
40
0.2704083
50
179.515471
51
193.6466734
0
ARC
8
DEFAULT_255_1_234
10
5.5316933
20
76.3736777
40
0.1861855
50
193.3540587
51
225.8256931
0
ARC
8
DEFAULT_255_1_234
10
5.535769
20
76.3807524
40
0.1941102
50
226.418029
51
255.8553723
0
ARC
8
DEFAULT_255_1_234
10
5.5614123
20
76.4743998
40
0.2911917
50
255.4655572
51
268.7985967
0
ARC
8
DEFAULT_255_1_234
10
5.5661315
20
76.5582491
40
0.3751331
50
268.3464808
51
270.0104874
0
ARC
8
DEFAULT_255_1_234
10
5.5684703
20
76.4898138
40
0.3067064
50
269.575914
51
282.0823146
0
ARC
8
DEFAULT_255_1_234
10
5.5909612
20
76.3903803
40
0.2047712
50
281.7522535
51
306.6056425
0
ARC
8
DEFAULT_255_1_234
10
5.6008038
20
76.3742487
40
0.1859604
50
307.1350025
51
314.0277951
0
ARC
8
DEFAULT_255_1_234
10
5.5972122
20
76.3768766
40
0.1903475
50
314.2553419
51
350.169324
0
ARC
8
DEFAULT_255_1_234
10
5.5120591
20
76.3953409
40
0.2774269
50
349.4145679
51
0.2930737
0
ARC
8
DEFAULT_255_1_234
10
5.5641024
20
76.9112353
40
0.2300764
50
89.477591
51
105.729794
0
ARC
8
DEFAULT_255_1_234
10
5.5504937
20
76.9617637
40
0.1777519
50
105.922966
51
135.1662921
0
ARC
8
DEFAULT_255_1_234
10
5.552544
20
76.9603419
40
0.1802087
50
135.3053131
51
168.9882338
0
ARC
8
DEFAULT_255_1_234
10
5.6353012
20
76.9413721
40
0.2650806
50
168.3802067
51
180.3602358
0
ARC
8
DEFAULT_255_1_234
10
5.6124592
20
76.9376041
40
0.2422425
50
179.5029707
51
194.9126783
0
ARC
8
DEFAULT_255_1_234
10
5.5539253
20
76.922211
40
0.1817188
50
194.9722181
51
224.1943972
0
ARC
8
DEFAULT_255_1_234
10
5.551112
20
76.9199169
40
0.1781027
50
224.2961434
51
262.0157375
0
ARC
8
DEFAULT_255_1_234
10
5.5653363
20
76.9930661
40
0.2525492
50
261.1250369
51
270.1959853
0
ARC
8
DEFAULT_255_1_234
10
5.5683118
20
76.9743339
40
0.233825
50
269.4825617
51
285.0988277
0
ARC
8
DEFAULT_255_1_234
10
5.5837277
20
76.916499
40
0.1739712
50
285.1585659
51
315.9484648
0
ARC
8
DEFAULT_255_1_234
10
5.5748289
20
76.9246886
40
0.1860616
50
316.0412958
51
351.9162715
0
ARC
8
DEFAULT_255_1_234
10
5.5015244
20
76.9388245
40
0.2606517
50
351.1056823
51
0.1936567
0
ARC
8
DEFAULT_255_1_234
10
5.5278073
20
76.9418369
40
0.234377
50
359.4789506
51
16.0679113
0
ARC
8
DEFAULT_255_1_234
10
5.5754032
20
76.954681
40
0.1850875
50
16.3251951
51
44.791304
0
ARC
8
DEFAULT_255_1_234
10
5.5736313
20
76.9547339
40
0.186312
50
44.3958661
51
88.2498933
0
ARC
8
DEFAULT_255_1_234
10
5.5662867
20
76.8936154
40
0.2476868
50
86.9833827
51
90.0200148
0
LINE
8
DEFAULT_255_1_234
10
4.3084299
20
85.1848211
11
4.5903439
21
84.7366501
0
LINE
8
DEFAULT_255_1_234
10
4.5903439
20
84.7366501
11
4.8706516
21
85.1848211
0
LINE
8
DEFAULT_255_1_234
10
4.8706516
20
85.1848211
11
5.0521689
21
85.1848211
0
LINE
8
DEFAULT_255_1_234
10
5.0521689
20
85.1848211
11
4.6827089
21
84.6049296
0
LINE
8
DEFAULT_255_1_234
10
4.6827089
20
84.6049296
11
5.0610038
21
84.0154
0
LINE
8
DEFAULT_255_1_234
10
5.0610038
20
84.0154
11
4.8778802
21
84.0154
0
LINE
8
DEFAULT_255_1_234
10
4.8778802
20
84.0154
11
4.5903439
21
84.4716027
0
LINE
8
DEFAULT_255_1_234
10
4.5903439
20
84.4716027
11
4.3012014
21
84.0154
0
LINE
8
DEFAULT_255_1_234
10
4.3012014
20
84.0154
11
4.1188809
21
84.0154
0
LINE
8
DEFAULT_255_1_234
10
4.1188809
20
84.0154
11
4.497979
21
84.6049296
0
LINE
8
DEFAULT_255_1_234
10
4.497979
20
84.6049296
11
4.1277158
21
85.1848211
0
LINE
8
DEFAULT_255_1_234
10
4.1277158
20
85.1848211
11
4.3084299
21
85.1848211
0
LINE
8
DEFAULT_255_1_234
10
5.9565426
20
85.1848211
11
5.9565426
21
85.101291
0
LINE
8
DEFAULT_255_1_234
10
5.9565426
20
85.101291
11
5.4722288
21
84.0154
0
LINE
8
DEFAULT_255_1_234
10
5.4722288
20
84.0154
11
5.3164131
21
84.0154
0
LINE
8
DEFAULT_255_1_234
10
5.3164131
20
84.0154
11
5.7991206
21
85.0627387
0
LINE
8
DEFAULT_255_1_234
10
5.7991206
20
85.0627387
11
5.1662196
21
85.0627387
0
LINE
8
DEFAULT_255_1_234
10
5.1662196
20
85.0627387
11
5.1662196
21
85.1848211
0
LINE
8
DEFAULT_255_1_234
10
5.1662196
20
85.1848211
11
5.9565426
21
85.1848211
0
LINE
8
DEFAULT_255_1_234
10
4.3084299
20
93.1223211
11
4.5903439
21
92.6741501
0
LINE
8
DEFAULT_255_1_234
10
4.5903439
20
92.6741501
11
4.8706516
21
93.1223211
0
LINE
8
DEFAULT_255_1_234
10
4.8706516
20
93.1223211
11
5.0521689
21
93.1223211
0
LINE
8
DEFAULT_255_1_234
10
5.0521689
20
93.1223211
11
4.6827089
21
92.5424296
0
LINE
8
DEFAULT_255_1_234
10
4.6827089
20
92.5424296
11
5.0610038
21
91.9529
0
LINE
8
DEFAULT_255_1_234
10
5.0610038
20
91.9529
11
4.8778802
21
91.9529
0
LINE
8
DEFAULT_255_1_234
10
4.8778802
20
91.9529
11
4.5903439
21
92.4091027
0
LINE
8
DEFAULT_255_1_234
10
4.5903439
20
92.4091027
11
4.3012014
21
91.9529
0
LINE
8
DEFAULT_255_1_234
10
4.3012014
20
91.9529
11
4.1188809
21
91.9529
0
LINE
8
DEFAULT_255_1_234
10
4.1188809
20
91.9529
11
4.497979
21
92.5424296
0
LINE
8
DEFAULT_255_1_234
10
4.497979
20
92.5424296
11
4.1277158
21
93.1223211
0
LINE
8
DEFAULT_255_1_234
10
4.1277158
20
93.1223211
11
4.3084299
21
93.1223211
0
LINE
8
DEFAULT_255_1_234
10
5.7581587
20
93.1231243
11
5.7846634
21
93.1231243
0
LINE
8
DEFAULT_255_1_234
10
5.7846634
20
93.1231243
11
5.7846634
21
92.997026
0
LINE
8
DEFAULT_255_1_234
10
5.7846634
20
92.997026
11
5.7573555
21
92.997026
0
LINE
8
DEFAULT_255_1_234
10
5.2103941
20
92.3978583
11
5.2103941
21
92.4548836
0
LINE
8
DEFAULT_255_1_234
10
5.3597845
20
92.4356075
11
5.3597845
21
92.3809917
0
ARC
8
DEFAULT_255_1_234
10
5.7625903
20
92.4972455
40
0.4998079
50
90.6001036
51
104.514704
0
ARC
8
DEFAULT_255_1_234
10
5.7237419
20
92.6417131
40
0.3502176
50
104.2855254
51
133.862935
0
ARC
8
DEFAULT_255_1_234
10
5.7401176
20
92.630883
40
0.3693984
50
134.5302688
51
161.6210873
0
ARC
8
DEFAULT_255_1_234
10
5.9054365
20
92.5725895
40
0.5446739
50
161.2849839
51
174.2076652
0
ARC
8
DEFAULT_255_1_234
10
6.0461302
20
92.5531787
40
0.6866274
50
173.7810589
51
174.9254635
0
ARC
8
DEFAULT_255_1_234
10
5.5911134
20
92.4148839
40
0.3033419
50
95.8330959
51
138.9954921
0
ARC
8
DEFAULT_255_1_234
10
5.613449
20
92.2870375
40
0.4328947
50
89.8753725
51
97.0544009
0
ARC
8
DEFAULT_255_1_234
10
5.6181956
20
92.3705748
40
0.3493769
50
71.6407809
51
90.6240094
0
ARC
8
DEFAULT_255_1_234
10
5.6332529
20
92.4260082
40
0.2920396
50
39.6367836
51
71.019018
0
ARC
8
DEFAULT_255_1_234
10
5.5696002
20
92.3709998
40
0.3761538
50
10.658731
51
39.9043955
0
ARC
8
DEFAULT_255_1_234
10
5.4148085
20
92.3373686
40
0.5345136
50
359.682601
51
11.132623
0
ARC
8
DEFAULT_255_1_234
10
5.4108216
20
92.330301
40
0.5385081
50
347.2486944
51
0.4369317
0
ARC
8
DEFAULT_255_1_234
10
5.5775693
20
92.2901807
40
0.3670249
50
318.1409698
51
347.6118597
0
ARC
8
DEFAULT_255_1_234
10
5.6100686
20
92.2634702
40
0.3250007
50
275.6342139
51
317.8248465
0
ARC
8
DEFAULT_255_1_234
10
5.5879797
20
92.3934219
40
0.4565864
50
269.8874292
51
276.7917694
0
ARC
8
DEFAULT_255_1_234
10
5.5824868
20
92.2908743
40
0.3540676
50
246.9140195
51
270.7437342
0
ARC
8
DEFAULT_255_1_234
10
5.5831258
20
92.2766384
40
0.3412781
50
218.1665114
51
245.878116
0
ARC
8
DEFAULT_255_1_234
10
5.6710719
20
92.3502279
40
0.455911
50
191.4115814
51
218.6077802
0
ARC
8
DEFAULT_255_1_234
10
5.8648808
20
92.3936833
40
0.6545001
50
179.6345085
51
191.7836486
0
ARC
8
DEFAULT_255_1_234
10
6.4231145
20
92.4615697
40
1.2127388
50
171.4525249
51
180.3158839
0
ARC
8
DEFAULT_255_1_234
10
5.9836021
20
92.5299608
40
0.7679464
50
157.9802646
51
171.6246686
0
ARC
8
DEFAULT_255_1_234
10
5.7622042
20
92.6182421
40
0.5296008
50
141.4298019
51
157.854097
0
ARC
8
DEFAULT_255_1_234
10
5.6980362
20
92.6636381
40
0.4511509
50
102.8715806
51
140.8564722
0
ARC
8
DEFAULT_255_1_234
10
5.7627978
20
92.4196552
40
0.7034845
50
90.3778349
51
103.5869322
0
ARC
8
DEFAULT_255_1_234
10
5.5889754
20
92.359173
40
0.2370698
50
89.8751008
51
126.2071704
0
ARC
8
DEFAULT_255_1_234
10
5.5935544
20
92.3437303
40
0.2522934
50
124.9745049
51
144.895901
0
ARC
8
DEFAULT_255_1_234
10
5.5759734
20
92.358056
40
0.2296779
50
145.2974905
51
160.2660252
0
ARC
8
DEFAULT_255_1_234
10
5.8832273
20
92.3778071
40
0.5234525
50
179.6514266
51
190.2855912
0
ARC
8
DEFAULT_255_1_234
10
5.713841
20
92.3458786
40
0.3510893
50
190.0945431
51
207.5098196
0
ARC
8
DEFAULT_255_1_234
10
5.657268
20
92.3189623
40
0.288489
50
207.9583163
51
216.3251085
0
ARC
8
DEFAULT_255_1_234
10
5.6232788
20
92.2910105
40
0.2445587
50
215.7661442
51
232.5456785
0
ARC
8
DEFAULT_255_1_234
10
5.5849771
20
92.2423482
40
0.1826382
50
232.8005391
51
270.6605633
0
ARC
8
DEFAULT_255_1_234
10
5.5895472
20
92.2787612
40
0.2190529
50
269.35537
51
288.4744281
0
ARC
8
DEFAULT_255_1_234
10
5.5988369
20
92.2438118
40
0.1829749
50
289.1833337
51
322.9683818
0
ARC
8
DEFAULT_255_1_234
10
5.5376891
20
92.2920391
40
0.2608399
50
322.6007884
51
346.5182367
0
ARC
8
DEFAULT_255_1_234
10
5.4219487
20
92.3215616
40
0.3802777
50
346.2582162
51
358.7741648
0
ARC
8
DEFAULT_255_1_234
10
5.3201156
20
92.3270965
40
0.4822176
50
358.3755224
51
0.0098023
0
ARC
8
DEFAULT_255_1_234
10
5.3957343
20
92.3298657
40
0.4066078
50
359.6214041
51
11.2839074
0
ARC
8
DEFAULT_255_1_234
10
5.523449
20
92.3565066
40
0.2761514
50
11.0482309
51
31.8146458
0
ARC
8
DEFAULT_255_1_234
10
5.5543533
20
92.3732584
40
0.2410679
50
32.3035391
51
38.082671
0
ARC
8
DEFAULT_255_1_234
10
5.5964193
20
92.4113662
40
0.1844966
50
36.825067
51
85.7415724
0
ARC
8
DEFAULT_255_1_234
10
5.5897026
20
92.3613301
40
0.2349122
50
85.0140713
51
90.0513278
0
LINE
8
DEFAULT_255_1_234
10
4.3084299
20
101.0598211
11
4.5903439
21
100.6116501
0
LINE
8
DEFAULT_255_1_234
10
4.5903439
20
100.6116501
11
4.8706516
21
101.0598211
0
LINE
8
DEFAULT_255_1_234
10
4.8706516
20
101.0598211
11
5.0521689
21
101.0598211
0
LINE
8
DEFAULT_255_1_234
10
5.0521689
20
101.0598211
11
4.6827089
21
100.4799296
0
LINE
8
DEFAULT_255_1_234
10
4.6827089
20
100.4799296
11
5.0610038
21
99.8904
0
LINE
8
DEFAULT_255_1_234
10
5.0610038
20
99.8904
11
4.8778802
21
99.8904
0
LINE
8
DEFAULT_255_1_234
10
4.8778802
20
99.8904
11
4.5903439
21
100.3466027
0
LINE
8
DEFAULT_255_1_234
10
4.5903439
20
100.3466027
11
4.3012014
21
99.8904
0
LINE
8
DEFAULT_255_1_234
10
4.3012014
20
99.8904
11
4.1188809
21
99.8904
0
LINE
8
DEFAULT_255_1_234
10
4.1188809
20
99.8904
11
4.497979
21
100.4799296
0
LINE
8
DEFAULT_255_1_234
10
4.497979
20
100.4799296
11
4.1277158
21
101.0598211
0
LINE
8
DEFAULT_255_1_234
10
4.1277158
20
101.0598211
11
4.3084299
21
101.0598211
0
LINE
8
DEFAULT_255_1_234
10
5.3886987
20
100.4461963
11
5.269829
21
100.4767169
0
LINE
8
DEFAULT_255_1_234
10
5.269829
20
100.4767169
11
5.3292639
21
101.0598211
0
LINE
8
DEFAULT_255_1_234
10
5.3292639
20
101.0598211
11
5.9284315
21
101.0598211
0
LINE
8
DEFAULT_255_1_234
10
5.9284315
20
101.0598211
11
5.9284315
21
100.9224784
0
LINE
8
DEFAULT_255_1_234
10
5.9284315
20
100.9224784
11
5.4553622
21
100.9224784
0
LINE
8
DEFAULT_255_1_234
10
5.4553622
20
100.9224784
11
5.4200225
21
100.6036184
0
LINE
8
DEFAULT_255_1_234
10
5.228064
20
100.1980156
11
5.3686194
21
100.1980156
0
LINE
8
DEFAULT_255_1_234
10
5.4280542
20
100.4783232
11
5.3886987
21
100.4461963
0
ARC
8
DEFAULT_255_1_234
10
5.6055009
20
100.285623
40
0.3681349
50
93.7182161
51
120.2538958
0
ARC
8
DEFAULT_255_1_234
10
5.6149272
20
100.2048394
40
0.449379
50
89.9660152
51
94.2496022
0
ARC
8
DEFAULT_255_1_234
10
5.6190006
20
100.2637549
40
0.390482
50
73.8043271
51
90.5585896
0
ARC
8
DEFAULT_255_1_234
10
5.6424903
20
100.3495602
40
0.3015334
50
41.3071453
51
73.5430202
0
ARC
8
DEFAULT_255_1_234
10
5.600873
20
100.3137324
40
0.3564457
50
13.5075983
51
41.2174222
0
ARC
8
DEFAULT_255_1_234
10
5.4366934
20
100.2707486
40
0.5261351
50
1.1331335
51
13.8829381
0
ARC
8
DEFAULT_255_1_234
10
5.2955303
20
100.2631665
40
0.6674378
50
359.9919444
51
1.544251
0
ARC
8
DEFAULT_255_1_234
10
5.4232129
20
100.259028
40
0.5397702
50
347.8572367
51
0.4293338
0
ARC
8
DEFAULT_255_1_234
10
5.5982447
20
100.2193736
40
0.3603188
50
323.673004
51
348.1672506
0
ARC
8
DEFAULT_255_1_234
10
5.6276955
20
100.2014168
40
0.3259678
50
316.8171152
51
323.1492751
0
ARC
8
DEFAULT_255_1_234
10
5.6338144
20
100.197746
40
0.3189975
50
281.8396411
51
316.5457803
0
ARC
8
DEFAULT_255_1_234
10
5.5962408
20
100.3532762
40
0.4789527
50
269.5770101
51
282.4214771
0
ARC
8
DEFAULT_255_1_234
10
5.5891219
20
100.3319125
40
0.45759
50
256.2427136
51
270.4486331
0
ARC
8
DEFAULT_255_1_234
10
5.5592121
20
100.2119229
40
0.3339303
50
228.9023911
51
256.3314342
0
ARC
8
DEFAULT_255_1_234
10
5.5518354
20
100.2002746
40
0.32031
50
193.753695
51
228.5271154
0
ARC
8
DEFAULT_255_1_234
10
5.6756308
20
100.23658
40
0.4492253
50
184.924711
51
194.497588
0
ARC
8
DEFAULT_255_1_234
10
5.6948875
20
100.2401591
40
0.3289787
50
187.3600538
51
198.6732863
0
ARC
8
DEFAULT_255_1_234
10
5.5899169
20
100.2037674
40
0.217884
50
198.4451669
51
217.794479
0
ARC
8
DEFAULT_255_1_234
10
5.5603344
20
100.1828085
40
0.1816698
50
218.2887171
51
228.5612368
0
ARC
8
DEFAULT_255_1_234
10
5.5701131
20
100.1959963
40
0.1980329
50
228.9654866
51
258.1234728
0
ARC
8
DEFAULT_255_1_234
10
5.5906841
20
100.2840833
40
0.2884748
50
257.7258293
51
270.401361
0
ARC
8
DEFAULT_255_1_234
10
5.5951727
20
100.2395821
40
0.2439788
50
269.4204404
51
286.4209037
0
ARC
8
DEFAULT_255_1_234
10
5.6100215
20
100.1856657
40
0.1880666
50
286.7251356
51
320.600362
0
ARC
8
DEFAULT_255_1_234
10
5.571704
20
100.2167595
40
0.2374121
50
320.6712579
51
344.5441685
0
ARC
8
DEFAULT_255_1_234
10
5.4560366
20
100.2507045
40
0.3579479
50
344.2412205
51
356.7357071
0
ARC
8
DEFAULT_255_1_234
10
5.3311515
20
100.2610444
40
0.4832297
50
356.3548756
51
0.0500261
0
ARC
8
DEFAULT_255_1_234
10
5.4648024
20
100.264165
40
0.3495889
50
359.5576869
51
12.953486
0
ARC
8
DEFAULT_255_1_234
10
5.5702921
20
100.2897434
40
0.2410532
50
12.6490276
51
41.6081334
0
ARC
8
DEFAULT_255_1_234
10
5.5933292
20
100.3093321
40
0.2108218
50
41.7850273
51
85.9892764
0
ARC
8
DEFAULT_255_1_234
10
5.5810029
20
100.2280462
40
0.2928454
50
84.6957577
51
90.0676183
0
ARC
8
DEFAULT_255_1_234
10
5.5786513
20
100.1611716
40
0.3597255
50
89.6804936
51
99.1614436
0
ARC
8
DEFAULT_255_1_234
10
5.5581144
20
100.2839131
40
0.235281
50
98.9830931
51
113.8908934
0
ARC
8
DEFAULT_255_1_234
10
5.5351554
20
100.3380587
40
0.176479
50
114.1950727
51
127.3641004
0
LINE
8
DEFAULT_255_1_234
10
4.4142299
20
108.9973211
11
4.6961439
21
108.5491501
0
LINE
8
DEFAULT_255_1_234
10
4.6961439
20
108.5491501
11
4.9764516
21
108.9973211
0
LINE
8
DEFAULT_255_1_234
10
4.9764516
20
108.9973211
11
5.1579689
21
108.9973211
0
LINE
8
DEFAULT_255_1_234
10
5.1579689
20
108.9973211
11
4.7885089
21
108.4174296
0
LINE
8
DEFAULT_255_1_234
10
4.7885089
20
108.4174296
11
5.1668038
21
107.8279
0
LINE
8
DEFAULT_255_1_234
10
5.1668038
20
107.8279
11
4.9836802
21
107.8279
0
LINE
8
DEFAULT_255_1_234
10
4.9836802
20
107.8279
11
4.6961439
21
108.2841027
0
LINE
8
DEFAULT_255_1_234
10
4.6961439
20
108.2841027
11
4.4070014
21
107.8279
0
LINE
8
DEFAULT_255_1_234
10
4.4070014
20
107.8279
11
4.2246809
21
107.8279
0
LINE
8
DEFAULT_255_1_234
10
4.2246809
20
107.8279
11
4.603779
21
108.4174296
0
LINE
8
DEFAULT_255_1_234
10
4.603779
20
108.4174296
11
4.2335158
21
108.9973211
0
LINE
8
DEFAULT_255_1_234
10
4.2335158
20
108.9973211
11
4.4142299
21
108.9973211
0
LINE
8
DEFAULT_255_1_234
10
5.934638
20
108.9973211
11
5.934638
21
108.220652
0
LINE
8
DEFAULT_255_1_234
10
5.934638
20
108.220652
11
6.0968791
21
108.220652
0
LINE
8
DEFAULT_255_1_234
10
6.0968791
20
108.220652
11
6.0968791
21
108.0993728
0
LINE
8
DEFAULT_255_1_234
10
6.0968791
20
108.0993728
11
5.934638
21
108.0993728
0
LINE
8
DEFAULT_255_1_234
10
5.934638
20
108.0993728
11
5.934638
21
107.8279
0
LINE
8
DEFAULT_255_1_234
10
5.934638
20
107.8279
11
5.7852477
21
107.8279
0
LINE
8
DEFAULT_255_1_234
10
5.7852477
20
107.8279
11
5.7852477
21
108.0993728
0
LINE
8
DEFAULT_255_1_234
10
5.7852477
20
108.0993728
11
5.2527434
21
108.0993728
0
LINE
8
DEFAULT_255_1_234
10
5.2527434
20
108.0993728
11
5.2527434
21
108.1869187
0
LINE
8
DEFAULT_255_1_234
10
5.2527434
20
108.1869187
11
5.7764127
21
108.9973211
0
LINE
8
DEFAULT_255_1_234
10
5.7764127
20
108.9973211
11
5.934638
21
108.9973211
0
LINE
8
DEFAULT_255_1_234
10
5.7675778
20
108.7619912
11
5.4214099
21
108.220652
0
LINE
8
DEFAULT_255_1_234
10
5.4214099
20
108.220652
11
5.7852477
21
108.220652
0
LINE
8
DEFAULT_255_1_234
10
5.7852477
20
108.220652
11
5.7852477
21
108.7941181
0
LINE
8
DEFAULT_255_1_234
10
5.7852477
20
108.7941181
11
5.7675778
21
108.7619912
0
LINE
8
DEFAULT_255_1_234
10
4.3084299
20
116.9348211
11
4.5903439
21
116.4866501
0
LINE
8
DEFAULT_255_1_234
10
4.5903439
20
116.4866501
11
4.8706516
21
116.9348211
0
LINE
8
DEFAULT_255_1_234
10
4.8706516
20
116.9348211
11
5.0521689
21
116.9348211
0
LINE
8
DEFAULT_255_1_234
10
5.0521689
20
116.9348211
11
4.6827089
21
116.3549296
0
LINE
8
DEFAULT_255_1_234
10
4.6827089
20
116.3549296
11
5.0610038
21
115.7654
0
LINE
8
DEFAULT_255_1_234
10
5.0610038
20
115.7654
11
4.8778802
21
115.7654
0
LINE
8
DEFAULT_255_1_234
10
4.8778802
20
115.7654
11
4.5903439
21
116.2216027
0
LINE
8
DEFAULT_255_1_234
10
4.5903439
20
116.2216027
11
4.3012014
21
115.7654
0
LINE
8
DEFAULT_255_1_234
10
4.3012014
20
115.7654
11
4.1188809
21
115.7654
0
LINE
8
DEFAULT_255_1_234
10
4.1188809
20
115.7654
11
4.497979
21
116.3549296
0
LINE
8
DEFAULT_255_1_234
10
4.497979
20
116.3549296
11
4.1277158
21
116.9348211
0
LINE
8
DEFAULT_255_1_234
10
4.1277158
20
116.9348211
11
4.3084299
21
116.9348211
0
LINE
8
DEFAULT_255_1_234
10
5.417613
20
116.3011169
11
5.417613
21
116.4223962
0
LINE
8
DEFAULT_255_1_234
10
5.417613
20
116.4223962
11
5.5292542
21
116.4223962
0
LINE
8
DEFAULT_255_1_234
10
5.338902
20
116.6280087
11
5.1903148
21
116.6280087
0
LINE
8
DEFAULT_255_1_234
10
5.1798735
20
116.0738188
11
5.3292639
21
116.0738188
0
LINE
8
DEFAULT_255_1_234
10
5.5292542
20
116.3011169
11
5.417613
21
116.3011169
0
ARC
8
DEFAULT_255_1_234
10
5.5263408
20
116.7616713
40
0.3392876
50
270.4919872
51
281.8951556
0
ARC
8
DEFAULT_255_1_234
10
5.550467
20
116.6514702
40
0.2264817
50
281.6691735
51
301.2943132
0
ARC
8
DEFAULT_255_1_234
10
5.567488
20
116.6203304
40
0.1910381
50
301.7833094
51
311.7545298
0
ARC
8
DEFAULT_255_1_234
10
5.5766456
20
116.6101748
40
0.1773635
50
311.7323931
51
354.2802411
0
ARC
8
DEFAULT_255_1_234
10
5.5040081
20
116.6226722
40
0.2509385
50
353.0937916
51
0.1181479
0
ARC
8
DEFAULT_255_1_234
10
5.4578866
20
116.6274386
40
0.2970898
50
359.1805295
51
15.0453146
0
ARC
8
DEFAULT_255_1_234
10
5.5924703
20
116.6666992
40
0.1569564
50
13.9577229
51
77.6713066
0
ARC
8
DEFAULT_255_1_234
10
5.5538232
20
116.5281949
40
0.3006298
50
76.1116566
51
90.7026153
0
ARC
8
DEFAULT_255_1_234
10
5.547907
20
116.5555545
40
0.2732568
50
89.5324876
51
103.531937
0
ARC
8
DEFAULT_255_1_234
10
5.5278514
20
116.6354884
40
0.1908508
50
103.2931773
51
133.5619022
0
ARC
8
DEFAULT_255_1_234
10
5.5234003
20
116.6414375
40
0.1834746
50
133.8349307
51
173.5344437
0
ARC
8
DEFAULT_255_1_234
10
5.5957046
20
116.6286213
40
0.2568033
50
172.5096846
51
180.1366907
0
ARC
8
DEFAULT_255_1_234
10
5.500594
20
116.6320622
40
0.3103056
50
155.3484492
51
180.7484736
0
ARC
8
DEFAULT_255_1_234
10
5.4957029
20
116.6291846
40
0.3070957
50
131.5744599
51
154.4798489
0
ARC
8
DEFAULT_255_1_234
10
5.5270176
20
116.597531
40
0.3515643
50
96.9875458
51
131.9690667
0
ARC
8
DEFAULT_255_1_234
10
5.5489656
20
116.4729636
40
0.4779224
50
89.8596053
51
97.7825159
0
ARC
8
DEFAULT_255_1_234
10
5.5537719
20
116.4467616
40
0.5041361
50
78.3655447
51
90.4131539
0
ARC
8
DEFAULT_255_1_234
10
5.5895637
20
116.6126887
40
0.3344039
50
56.6229102
51
78.638727
0
ARC
8
DEFAULT_255_1_234
10
5.6110581
20
116.6502805
40
0.2912001
50
47.0253525
51
56.0854072
0
ARC
8
DEFAULT_255_1_234
10
5.6130361
20
116.6542223
40
0.2869704
50
10.9208013
51
46.7778124
0
ARC
8
DEFAULT_255_1_234
10
5.4766427
20
116.6226857
40
0.426899
50
359.6364486
51
11.6087304
0
ARC
8
DEFAULT_255_1_234
10
5.6601271
20
116.6211752
40
0.243409
50
332.3549906
51
359.7179418
0
ARC
8
DEFAULT_255_1_234
10
5.5950873
20
116.6520142
40
0.3153459
50
325.2333722
51
332.8745602
0
ARC
8
DEFAULT_255_1_234
10
5.6103496
20
116.6413828
40
0.2967456
50
292.9802137
51
325.2392345
0
ARC
8
DEFAULT_255_1_234
10
5.582887
20
116.6947863
40
0.3566604
50
292.5402179
51
293.6924929
0
ARC
8
DEFAULT_255_1_234
10
5.6221466
20
116.0493091
40
0.3307468
50
57.6435486
51
72.8625112
0
ARC
8
DEFAULT_255_1_234
10
5.6575966
20
116.1067549
40
0.2632492
50
36.7248896
51
57.4697979
0
ARC
8
DEFAULT_255_1_234
10
5.6564598
20
116.108022
40
0.2634081
50
8.0545065
51
36.356114
0
ARC
8
DEFAULT_255_1_234
10
5.5701784
20
116.0925174
40
0.3510261
50
359.8320645
51
8.5869982
0
ARC
8
DEFAULT_255_1_234
10
5.532656
20
116.0877101
40
0.3885653
50
343.9829931
51
0.5571613
0
ARC
8
DEFAULT_255_1_234
10
5.6212757
20
116.0634438
40
0.2966924
50
311.6359546
51
343.7651759
0
ARC
8
DEFAULT_255_1_234
10
5.5834326
20
116.1061102
40
0.3537231
50
279.7829875
51
311.6255694
0
ARC
8
DEFAULT_255_1_234
10
5.5533102
20
116.249828
40
0.5004971
50
269.7286406
51
280.3856417
0
ARC
8
DEFAULT_255_1_234
10
5.5471175
20
116.2456996
40
0.4963778
50
256.6828919
51
270.4412052
0
ARC
8
DEFAULT_255_1_234
10
5.5132471
20
116.1072394
40
0.3538406
50
229.4223008
51
256.8556159
0
ARC
8
DEFAULT_255_1_234
10
5.4717864
20
116.0605736
40
0.2914296
50
181.818294
51
229.6455059
0
ARC
8
DEFAULT_255_1_234
10
5.575782
20
116.0736496
40
0.3959084
50
179.9755256
51
183.2323064
0
ARC
8
DEFAULT_255_1_234
10
5.5585566
20
116.0716037
40
0.2293034
50
179.4465117
51
196.2869258
0
ARC
8
DEFAULT_255_1_234
10
5.5097974
20
116.0582651
40
0.1787621
50
196.5661473
51
227.705904
0
ARC
8
DEFAULT_255_1_234
10
5.5262069
20
116.0766155
40
0.2033784
50
227.7652068
51
257.8762805
0
ARC
8
DEFAULT_255_1_234
10
5.5487039
20
116.1709156
40
0.3003081
50
257.4584385
51
270.426602
0
ARC
8
DEFAULT_255_1_234
10
5.5532605
20
116.1998996
40
0.329292
50
269.5962073
51
280.8789248
0
ARC
8
DEFAULT_255_1_234
10
5.5762134
20
116.0852685
40
0.2123908
50
280.6346389
51
299.8595945
0
ARC
8
DEFAULT_255_1_234
10
5.595304
20
116.0490212
40
0.171457
50
300.3576302
51
314.5517981
0
ARC
8
DEFAULT_255_1_234
10
5.5870101
20
116.0550919
40
0.1816095
50
315.0728369
51
345.0431014
0
ARC
8
DEFAULT_255_1_234
10
5.4946915
20
116.0819841
40
0.2777492
50
344.5986631
51
357.9269593
0
ARC
8
DEFAULT_255_1_234
10
5.4051241
20
116.0881276
40
0.3674917
50
357.4748886
51
0.0231117
0
ARC
8
DEFAULT_255_1_234
10
5.5074351
20
116.0905679
40
0.2651907
50
359.5047933
51
13.4239635
0
ARC
8
DEFAULT_255_1_234
10
5.5940994
20
116.1127478
40
0.1757509
50
12.9498199
51
48.7551375
0
ARC
8
DEFAULT_255_1_234
10
5.5758728
20
116.08784
40
0.2065134
50
49.5088623
51
72.1836453
0
ARC
8
DEFAULT_255_1_234
10
5.5400881
20
115.9816291
40
0.3185836
50
71.9010081
51
84.3554254
0
ARC
8
DEFAULT_255_1_234
10
5.5239513
20
115.8455326
40
0.4556151
50
84.0193428
51
89.333121
0
LINE
8
DEFAULT_255_1_234
10
4.3084299
20
124.8723211
11
4.5903439
21
124.4241501
0
LINE
8
DEFAULT_255_1_234
10
4.5903439
20
124.4241501
11
4.8706516
21
124.8723211
0
LINE
8
DEFAULT_255_1_234
10
4.8706516
20
124.8723211
11
5.0521689
21
124.8723211
0
LINE
8
DEFAULT_255_1_234
10
5.0521689
20
124.8723211
11
4.6827089
21
124.2924296
0
LINE
8
DEFAULT_255_1_234
10
4.6827089
20
124.2924296
11
5.0610038
21
123.7029
0
LINE
8
DEFAULT_255_1_234
10
5.0610038
20
123.7029
11
4.8778802
21
123.7029
0
LINE
8
DEFAULT_255_1_234
10
4.8778802
20
123.7029
11
4.5903439
21
124.1591027
0
LINE
8
DEFAULT_255_1_234
10
4.5903439
20
124.1591027
11
4.3012014
21
123.7029
0
LINE
8
DEFAULT_255_1_234
10
4.3012014
20
123.7029
11
4.1188809
21
123.7029
0
LINE
8
DEFAULT_255_1_234
10
4.1188809
20
123.7029
11
4.497979
21
124.2924296
0
LINE
8
DEFAULT_255_1_234
10
4.497979
20
124.2924296
11
4.1277158
21
124.8723211
0
LINE
8
DEFAULT_255_1_234
10
4.1277158
20
124.8723211
11
4.3084299
21
124.8723211
0
LINE
8
DEFAULT_255_1_234
10
5.9677871
20
123.8241792
11
5.9677871
21
123.7029
0
LINE
8
DEFAULT_255_1_234
10
5.9677871
20
123.7029
11
5.2015592
21
123.7029
0
LINE
8
DEFAULT_255_1_234
10
5.2015592
20
123.7029
11
5.2015592
21
123.8097221
0
LINE
8
DEFAULT_255_1_234
10
5.2015592
20
123.8097221
11
5.6063588
21
124.2594995
0
LINE
8
DEFAULT_255_1_234
10
5.3276575
20
124.5277595
11
5.1790704
21
124.5277595
0
LINE
8
DEFAULT_255_1_234
10
5.6939048
20
124.1639218
11
5.380667
21
123.8241792
0
LINE
8
DEFAULT_255_1_234
10
5.380667
20
123.8241792
11
5.9677871
21
123.8241792
0
ARC
8
DEFAULT_255_1_234
10
4.2573422
20
125.4524527
40
1.8008286
50
318.5132453
51
320.7828378
0
ARC
8
DEFAULT_255_1_234
10
4.7860396
20
125.0221426
40
1.1191493
50
320.7372736
51
323.9737074
0
ARC
8
DEFAULT_255_1_234
10
5.1780252
20
124.7381361
40
0.6350923
50
323.8961724
51
328.6421089
0
ARC
8
DEFAULT_255_1_234
10
5.3826848
20
124.6119031
40
0.3946393
50
328.8299013
51
331.789948
0
ARC
8
DEFAULT_255_1_234
10
5.4824026
20
124.5604509
40
0.2824501
50
331.4255242
51
352.9364833
0
ARC
8
DEFAULT_255_1_234
10
5.4960527
20
124.5573976
40
0.2685315
50
353.2248685
51
0.0169286
0
ARC
8
DEFAULT_255_1_234
10
5.5170404
20
124.559695
40
0.2475536
50
359.4866256
51
15.9339782
0
ARC
8
DEFAULT_255_1_234
10
5.5677389
20
124.5733286
40
0.1950618
50
16.1714718
51
43.5284424
0
ARC
8
DEFAULT_255_1_234
10
5.5754698
20
124.5810573
40
0.184134
50
43.4415429
51
83.1661404
0
ARC
8
DEFAULT_255_1_234
10
5.5620616
20
124.5073771
40
0.258926
50
82.160215
51
90.1505798
0
ARC
8
DEFAULT_255_1_234
10
5.5589043
20
124.4536865
40
0.3126255
50
89.5460705
51
102.5418777
0
ARC
8
DEFAULT_255_1_234
10
5.5346129
20
124.5567665
40
0.2067346
50
102.1739365
51
129.2061916
0
ARC
8
DEFAULT_255_1_234
10
5.5267201
20
124.5692094
40
0.1921118
50
129.7279328
51
135.7542026
0
ARC
8
DEFAULT_255_1_234
10
5.5388729
20
124.5595045
40
0.2075944
50
136.175737
51
166.3674722
0
ARC
8
DEFAULT_255_1_234
10
5.6395648
20
124.5325182
40
0.3118201
50
165.9092917
51
178.8683903
0
ARC
8
DEFAULT_255_1_234
10
5.7260509
20
124.5278179
40
0.3983935
50
178.438168
51
180.0083905
0
ARC
8
DEFAULT_255_1_234
10
5.5859111
20
124.5317231
40
0.4068601
50
163.2878735
51
180.5581814
0
ARC
8
DEFAULT_255_1_234
10
5.5057373
20
124.553784
40
0.3237344
50
133.454115
51
162.9470031
0
ARC
8
DEFAULT_255_1_234
10
5.5235914
20
124.5348
40
0.349795
50
100.7869394
51
133.4384016
0
ARC
8
DEFAULT_255_1_234
10
5.5583686
20
124.3799319
40
0.5084616
50
89.6605301
51
101.3704185
0
ARC
8
DEFAULT_255_1_234
10
5.5650024
20
124.3860496
40
0.502348
50
78.2171172
51
90.4130393
0
ARC
8
DEFAULT_255_1_234
10
5.6005103
20
124.5484637
40
0.3361092
50
55.9268222
51
78.4888551
0
ARC
8
DEFAULT_255_1_234
10
5.6201543
20
124.5823324
40
0.2970617
50
47.9292255
51
55.4054003
0
ARC
8
DEFAULT_255_1_234
10
5.6303103
20
124.5926502
40
0.2825983
50
4.3347696
51
48.0560701
0
ARC
8
DEFAULT_255_1_234
10
5.5207497
20
124.5756601
40
0.393225
50
359.925209
51
5.5967654
0
ARC
8
DEFAULT_255_1_234
10
5.5636389
20
124.5812816
40
0.3503892
50
337.8914096
51
358.9967724
0
ARC
8
DEFAULT_255_1_234
10
5.2922801
20
124.6859706
40
0.6412172
50
326.9135351
51
338.3505194
0
ARC
8
DEFAULT_255_1_234
10
4.8937105
20
124.9414284
40
1.1146189
50
319.6472867
51
327.095818
0
ARC
8
DEFAULT_255_1_234
10
4.5104108
20
125.2576
40
1.6114559
50
317.2586784
51
319.9046139
0
LINE
8
DEFAULT_255_1_234
10
4.3000299
20
132.8098211
11
4.5819439
21
132.3616501
0
LINE
8
DEFAULT_255_1_234
10
4.5819439
20
132.3616501
11
4.8622516
21
132.8098211
0
LINE
8
DEFAULT_255_1_234
10
4.8622516
20
132.8098211
11
5.0437689
21
132.8098211
0
LINE
8
DEFAULT_255_1_234
10
5.0437689
20
132.8098211
11
4.6743089
21
132.2299296
0
LINE
8
DEFAULT_255_1_234
10
4.6743089
20
132.2299296
11
5.0526038
21
131.6404
0
LINE
8
DEFAULT_255_1_234
10
5.0526038
20
131.6404
11
4.8694802
21
131.6404
0
LINE
8
DEFAULT_255_1_234
10
4.8694802
20
131.6404
11
4.5819439
21
132.0966027
0
LINE
8
DEFAULT_255_1_234
10
4.5819439
20
132.0966027
11
4.2928014
21
131.6404
0
LINE
8
DEFAULT_255_1_234
10
4.2928014
20
131.6404
11
4.1104809
21
131.6404
0
LINE
8
DEFAULT_255_1_234
10
4.1104809
20
131.6404
11
4.489579
21
132.2299296
0
LINE
8
DEFAULT_255_1_234
10
4.489579
20
132.2299296
11
4.1193158
21
132.8098211
0
LINE
8
DEFAULT_255_1_234
10
4.1193158
20
132.8098211
11
4.3000299
21
132.8098211
0
LINE
8
DEFAULT_255_1_234
10
5.6814889
20
132.8154433
11
5.6814889
21
131.6404
0
LINE
8
DEFAULT_255_1_234
10
5.6814889
20
131.6404
11
5.5320986
21
131.6404
0
LINE
8
DEFAULT_255_1_234
10
5.5320986
20
131.6404
11
5.5320986
21
132.6307133
0
LINE
8
DEFAULT_255_1_234
10
5.5320986
20
132.6307133
11
5.2325147
21
132.5206785
0
LINE
8
DEFAULT_255_1_234
10
5.2325147
20
132.5206785
11
5.2325147
21
132.6556117
0
LINE
8
DEFAULT_255_1_234
10
5.2325147
20
132.6556117
11
5.6581969
21
132.8154433
0
LINE
8
DEFAULT_255_1_234
10
5.6581969
20
132.8154433
11
5.6814889
21
132.8154433
0
LINE
8
DEFAULT_255_1_234
10
4.3084299
20
140.7473211
11
4.5903439
21
140.2991501
0
LINE
8
DEFAULT_255_1_234
10
4.5903439
20
140.2991501
11
4.8706516
21
140.7473211
0
LINE
8
DEFAULT_255_1_234
10
4.8706516
20
140.7473211
11
5.0521689
21
140.7473211
0
LINE
8
DEFAULT_255_1_234
10
5.0521689
20
140.7473211
11
4.6827089
21
140.1674296
0
LINE
8
DEFAULT_255_1_234
10
4.6827089
20
140.1674296
11
5.0610038
21
139.5779
0
LINE
8
DEFAULT_255_1_234
10
5.0610038
20
139.5779
11
4.8778802
21
139.5779
0
LINE
8
DEFAULT_255_1_234
10
4.8778802
20
139.5779
11
4.5903439
21
140.0341027
0
LINE
8
DEFAULT_255_1_234
10
4.5903439
20
140.0341027
11
4.3012014
21
139.5779
0
LINE
8
DEFAULT_255_1_234
10
4.3012014
20
139.5779
11
4.1188809
21
139.5779
0
LINE
8
DEFAULT_255_1_234
10
4.1188809
20
139.5779
11
4.497979
21
140.1674296
0
LINE
8
DEFAULT_255_1_234
10
4.497979
20
140.1674296
11
4.1277158
21
140.7473211
0
LINE
8
DEFAULT_255_1_234
10
4.1277158
20
140.7473211
11
4.3084299
21
140.7473211
0
LINE
8
DEFAULT_255_1_234
10
5.9348569
20
140.2694327
11
5.9348569
21
140.0766709
0
LINE
8
DEFAULT_255_1_234
10
5.1967402
20
140.0565916
11
5.1967402
21
140.2549755
0
LINE
8
DEFAULT_255_1_234
10
5.7862698
20
140.0365123
11
5.7862698
21
140.2798739
0
LINE
8
DEFAULT_255_1_234
10
5.3453273
20
140.2911184
11
5.3453273
21
140.0533789
0
ARC
8
DEFAULT_255_1_234
10
4.7101459
20
140.0717805
40
1.2247208
50
353.8441951
51
0.2287902
0
ARC
8
DEFAULT_255_1_234
10
5.1740963
20
140.0199806
40
0.7578929
50
344.4934747
51
353.9765454
0
ARC
8
DEFAULT_255_1_234
10
5.4733553
20
139.9348981
40
0.4467846
50
329.2803592
51
344.7472793
0
ARC
8
DEFAULT_255_1_234
10
5.5726378
20
139.8804018
40
0.3336173
50
324.9352394
51
328.6160465
0
ARC
8
DEFAULT_255_1_234
10
5.6103486
20
139.8540427
40
0.2876076
50
280.580143
51
324.9173126
0
ARC
8
DEFAULT_255_1_234
10
5.5702279
20
140.0211099
40
0.4592847
50
269.5977311
51
281.6734359
0
ARC
8
DEFAULT_255_1_234
10
5.5630185
20
140.0091173
40
0.4472986
50
256.6228859
51
270.51044
0
ARC
8
DEFAULT_255_1_234
10
5.5228162
20
139.8542877
40
0.2873874
50
215.8618325
51
257.2788573
0
ARC
8
DEFAULT_255_1_234
10
5.6249194
20
139.9227977
40
0.4102928
50
197.9693508
51
215.2623606
0
ARC
8
DEFAULT_255_1_234
10
5.873431
20
140.0066709
40
0.6725652
50
187.8816417
51
198.2346507
0
ARC
8
DEFAULT_255_1_234
10
6.2692518
20
140.0638079
40
1.0724845
50
180.8976217
51
188.0055519
0
ARC
8
DEFAULT_255_1_234
10
6.5492706
20
140.0741777
40
1.3526448
50
180.7449369
51
181.1510016
0
ARC
8
DEFAULT_255_1_234
10
6.3915435
20
140.2598042
40
1.1948131
50
173.7675579
51
180.231553
0
ARC
8
DEFAULT_255_1_234
10
5.9397582
20
140.3108666
40
0.7401564
50
164.3058563
51
173.9002247
0
ARC
8
DEFAULT_255_1_234
10
5.648565
20
140.3947656
40
0.4371288
50
148.7922025
51
164.568378
0
ARC
8
DEFAULT_255_1_234
10
5.5534103
20
140.4478929
40
0.3282386
50
144.5883898
51
148.1176286
0
ARC
8
DEFAULT_255_1_234
10
5.5191001
20
140.4718315
40
0.2864044
50
101.6440918
51
144.514236
0
ARC
8
DEFAULT_255_1_234
10
5.5616067
20
140.3029069
40
0.4604934
50
89.5284041
51
102.5819763
0
ARC
8
DEFAULT_255_1_234
10
5.5695155
20
140.2990018
40
0.464401
50
77.0437873
51
90.5081339
0
ARC
8
DEFAULT_255_1_234
10
5.6097157
20
140.4632615
40
0.2953195
50
48.2778575
51
77.4994676
0
ARC
8
DEFAULT_255_1_234
10
5.6169788
20
140.4761746
40
0.2808655
50
36.3142134
51
47.6305865
0
ARC
8
DEFAULT_255_1_234
10
5.5301095
20
140.4176515
40
0.3855453
50
18.2931786
51
35.6769206
0
ARC
8
DEFAULT_255_1_234
10
5.2757854
20
140.3303593
40
0.654423
50
8.024666
51
18.5605216
0
ARC
8
DEFAULT_255_1_234
10
4.8594774
20
140.2688792
40
1.0752407
50
1.1274072
51
8.1718305
0
ARC
8
DEFAULT_255_1_234
10
4.5358964
20
140.2561885
40
1.3990231
50
0.5424119
51
1.3863029
0
ARC
8
DEFAULT_255_1_234
10
4.7180342
20
140.2834342
40
1.0682415
50
359.8090433
51
4.9407866
0
ARC
8
DEFAULT_255_1_234
10
5.1390356
20
140.3210113
40
0.6455691
50
4.8362157
51
12.2904523
0
ARC
8
DEFAULT_255_1_234
10
5.4145471
20
140.3823965
40
0.3633074
50
12.0805627
51
23.8173984
0
ARC
8
DEFAULT_255_1_234
10
5.5319176
20
140.4320919
40
0.2358723
50
24.2871213
51
31.3935614
0
ARC
8
DEFAULT_255_1_234
10
5.5843874
20
140.4664233
40
0.1732111
50
30.7407893
51
82.4657128
0
ARC
8
DEFAULT_255_1_234
10
5.5664008
20
140.3780691
40
0.263235
50
81.1060089
51
90.2184952
0
ARC
8
DEFAULT_255_1_234
10
5.5628307
20
140.4038924
40
0.2374236
50
89.3806855
51
105.6762551
0
ARC
8
DEFAULT_255_1_234
10
5.5444938
20
140.4705567
40
0.1682847
50
105.7981136
51
149.7388061
0
ARC
8
DEFAULT_255_1_234
10
5.6509016
20
140.406595
40
0.2924306
50
149.4208916
51
163.6286378
0
ARC
8
DEFAULT_255_1_234
10
5.8599904
20
140.342825
40
0.5110213
50
163.3763315
51
172.1410975
0
ARC
8
DEFAULT_255_1_234
10
6.1900623
20
140.2955518
40
0.8444586
50
172.0259487
51
178.0703232
0
ARC
8
DEFAULT_255_1_234
10
6.4930712
20
140.2811906
40
1.1477868
50
177.8631668
51
179.5044149
0
ARC
8
DEFAULT_255_1_234
10
6.3858117
20
140.0497389
40
1.0404907
50
179.7995573
51
185.2460446
0
ARC
8
DEFAULT_255_1_234
10
5.9815156
20
140.0114513
40
0.6343885
50
185.1411642
51
193.0079639
0
ARC
8
DEFAULT_255_1_234
10
5.7171629
20
139.9489641
40
0.3627568
50
192.7897626
51
205.2507664
0
ARC
8
DEFAULT_255_1_234
10
5.6125176
20
139.9022415
40
0.2481908
50
205.8005384
51
211.2537509
0
ARC
8
DEFAULT_255_1_234
10
5.5601616
20
139.867158
40
0.1852521
50
210.3789793
51
238.4008143
0
ARC
8
DEFAULT_255_1_234
10
5.5582138
20
139.8718376
40
0.1882621
50
239.6520629
51
265.9793761
0
ARC
8
DEFAULT_255_1_234
10
5.5667338
20
139.9390427
40
0.2559272
50
265.1315437
51
270.060332
0
ARC
8
DEFAULT_255_1_234
10
5.5696117
20
139.9066534
40
0.2235528
50
269.3314664
51
287.2178029
0
ARC
8
DEFAULT_255_1_234
10
5.5833969
20
139.8563279
40
0.1714108
50
287.7958004
51
329.080874
0
ARC
8
DEFAULT_255_1_234
10
5.4876426
20
139.916093
40
0.2842745
50
328.6634704
51
343.3325132
0
ARC
8
DEFAULT_255_1_234
10
5.2703446
20
139.9837863
40
0.5118644
50
343.0499468
51
351.9393422
0
ARC
8
DEFAULT_255_1_234
10
4.9236746
20
140.0348949
40
0.8622784
50
351.8069023
51
357.7959224
0
ARC
8
DEFAULT_255_1_234
10
4.6001302
20
140.0516721
40
1.1862365
50
357.5871873
51
359.2677531
0
LINE
8
DEFAULT_255_1_234
10
22.1784119
20
147.6366792
11
22.1784119
21
147.5154
0
LINE
8
DEFAULT_255_1_234
10
22.1784119
20
147.5154
11
21.412184
21
147.5154
0
LINE
8
DEFAULT_255_1_234
10
21.412184
20
147.5154
11
21.412184
21
147.6222221
0
LINE
8
DEFAULT_255_1_234
10
21.412184
20
147.6222221
11
21.8169836
21
148.0719995
0
LINE
8
DEFAULT_255_1_234
10
21.5382823
20
148.3402595
11
21.3896952
21
148.3402595
0
LINE
8
DEFAULT_255_1_234
10
21.9045296
20
147.9764218
11
21.5912918
21
147.6366792
0
LINE
8
DEFAULT_255_1_234
10
21.5912918
20
147.6366792
11
22.1784119
21
147.6366792
0
ARC
8
DEFAULT_255_1_234
10
20.467967
20
149.2649527
40
1.8008286
50
318.5132453
51
320.7828378
0
ARC
8
DEFAULT_255_1_234
10
20.9966644
20
148.8346426
40
1.1191493
50
320.7372736
51
323.9737074
0
ARC
8
DEFAULT_255_1_234
10
21.3886501
20
148.5506361
40
0.6350923
50
323.8961724
51
328.6421089
0
ARC
8
DEFAULT_255_1_234
10
21.5933096
20
148.4244031
40
0.3946393
50
328.8299013
51
331.789948
0
ARC
8
DEFAULT_255_1_234
10
21.6930274
20
148.3729509
40
0.2824501
50
331.4255242
51
352.9364833
0
ARC
8
DEFAULT_255_1_234
10
21.7066775
20
148.3698976
40
0.2685315
50
353.2248685
51
0.0169286
0
ARC
8
DEFAULT_255_1_234
10
21.7276652
20
148.372195
40
0.2475536
50
359.4866256
51
15.9339782
0
ARC
8
DEFAULT_255_1_234
10
21.7783637
20
148.3858286
40
0.1950618
50
16.1714718
51
43.5284424
0
ARC
8
DEFAULT_255_1_234
10
21.7860946
20
148.3935573
40
0.184134
50
43.4415429
51
83.1661404
0
ARC
8
DEFAULT_255_1_234
10
21.7726864
20
148.3198771
40
0.258926
50
82.160215
51
90.1505798
0
ARC
8
DEFAULT_255_1_234
10
21.7695291
20
148.2661865
40
0.3126255
50
89.5460705
51
102.5418777
0
ARC
8
DEFAULT_255_1_234
10
21.7452377
20
148.3692665
40
0.2067346
50
102.1739365
51
129.2061916
0
ARC
8
DEFAULT_255_1_234
10
21.7373449
20
148.3817094
40
0.1921118
50
129.7279328
51
135.7542026
0
ARC
8
DEFAULT_255_1_234
10
21.7494977
20
148.3720045
40
0.2075944
50
136.175737
51
166.3674722
0
ARC
8
DEFAULT_255_1_234
10
21.8501896
20
148.3450182
40
0.3118201
50
165.9092917
51
178.8683903
0
ARC
8
DEFAULT_255_1_234
10
21.9366757
20
148.3403179
40
0.3983935
50
178.438168
51
180.0083905
0
ARC
8
DEFAULT_255_1_234
10
21.7965359
20
148.3442231
40
0.4068601
50
163.2878735
51
180.5581814
0
ARC
8
DEFAULT_255_1_234
10
21.7163621
20
148.366284
40
0.3237344
50
133.454115
51
162.9470031
0
ARC
8
DEFAULT_255_1_234
10
21.7342162
20
148.3473
40
0.349795
50
100.7869394
51
133.4384016
0
ARC
8
DEFAULT_255_1_234
10
21.7689934
20
148.1924319
40
0.5084616
50
89.6605301
51
101.3704185
0
ARC
8
DEFAULT_255_1_234
10
21.7756273
20
148.1985496
40
0.502348
50
78.2171172
51
90.4130393
0
ARC
8
DEFAULT_255_1_234
10
21.8111351
20
148.3609637
40
0.3361092
50
55.9268222
51
78.4888551
0
ARC
8
DEFAULT_255_1_234
10
21.8307791
20
148.3948324
40
0.2970617
50
47.9292255
51
55.4054003
0
ARC
8
DEFAULT_255_1_234
10
21.8409352
20
148.4051502
40
0.2825983
50
4.3347696
51
48.0560701
0
ARC
8
DEFAULT_255_1_234
10
21.7313745
20
148.3881601
40
0.393225
50
359.925209
51
5.5967654
0
ARC
8
DEFAULT_255_1_234
10
21.7742637
20
148.3937816
40
0.3503892
50
337.8914096
51
358.9967724
0
ARC
8
DEFAULT_255_1_234
10
21.5029049
20
148.4984706
40
0.6412172
50
326.9135351
51
338.3505194
0
ARC
8
DEFAULT_255_1_234
10
21.1043353
20
148.7539284
40
1.1146189
50
319.6472867
51
327.095818
0
ARC
8
DEFAULT_255_1_234
10
20.7210356
20
149.0701
40
1.6114559
50
317.2586784
51
319.9046139
0
LINE
8
DEFAULT_255_1_234
10
22.9631127
20
148.6848211
11
22.9631127
21
147.908152
0
LINE
8
DEFAULT_255_1_234
10
22.9631127
20
147.908152
11
23.1253538
21
147.908152
0
LINE
8
DEFAULT_255_1_234
10
23.1253538
20
147.908152
11
23.1253538
21
147.7868728
0
LINE
8
DEFAULT_255_1_234
10
23.1253538
20
147.7868728
11
22.9631127
21
147.7868728
0
LINE
8
DEFAULT_255_1_234
10
22.9631127
20
147.7868728
11
22.9631127
21
147.5154
0
LINE
8
DEFAULT_255_1_234
10
22.9631127
20
147.5154
11
22.8137224
21
147.5154
0
LINE
8
DEFAULT_255_1_234
10
22.8137224
20
147.5154
11
22.8137224
21
147.7868728
0
LINE
8
DEFAULT_255_1_234
10
22.8137224
20
147.7868728
11
22.2812181
21
147.7868728
0
LINE
8
DEFAULT_255_1_234
10
22.2812181
20
147.7868728
11
22.2812181
21
147.8744187
0
LINE
8
DEFAULT_255_1_234
10
22.2812181
20
147.8744187
11
22.8048875
21
148.6848211
0
LINE
8
DEFAULT_255_1_234
10
22.8048875
20
148.6848211
11
22.9631127
21
148.6848211
0
LINE
8
DEFAULT_255_1_234
10
22.7960525
20
148.4494912
11
22.4498846
21
147.908152
0
LINE
8
DEFAULT_255_1_234
10
22.4498846
20
147.908152
11
22.8137224
21
147.908152
0
LINE
8
DEFAULT_255_1_234
10
22.8137224
20
147.908152
11
22.8137224
21
148.4816181
0
LINE
8
DEFAULT_255_1_234
10
22.8137224
20
148.4816181
11
22.7960525
21
148.4494912
0
LINE
8
DEFAULT_255_1_234
10
24.161448
20
148.097701
11
24.161448
21
147.6688062
0
LINE
8
DEFAULT_255_1_234
10
23.260287
20
148.0438884
11
23.260287
21
148.1458915
0
LINE
8
DEFAULT_255_1_234
10
24.161448
20
148.3418659
11
24.0072387
21
148.3418659
0
LINE
8
DEFAULT_255_1_234
10
23.4152996
20
148.1499073
11
23.4152996
21
148.0543296
0
LINE
8
DEFAULT_255_1_234
10
24.0080418
20
147.7097681
11
24.0080418
21
147.9724059
0
LINE
8
DEFAULT_255_1_234
10
24.0080418
20
147.9724059
11
23.7373723
21
147.9724059
0
LINE
8
DEFAULT_255_1_234
10
23.7373723
20
147.9724059
11
23.7373723
21
148.097701
0
LINE
8
DEFAULT_255_1_234
10
23.7373723
20
148.097701
11
24.161448
21
148.097701
0
ARC
8
DEFAULT_255_1_234
10
23.8782987
20
147.8681396
40
0.3462765
50
295.8437914
51
324.8549609
0
ARC
8
DEFAULT_255_1_234
10
23.8366954
20
147.9434567
40
0.4322211
50
291.5695085
51
296.4549398
0
ARC
8
DEFAULT_255_1_234
10
23.7856205
20
148.0799275
40
0.5779178
50
278.6622409
51
291.3045483
0
ARC
8
DEFAULT_255_1_234
10
23.7516697
20
148.2947408
40
0.7953952
50
270.020006
51
278.7494541
0
ARC
8
DEFAULT_255_1_234
10
23.7478621
20
148.4264036
40
0.927067
50
269.9969998
51
270.2524872
0
ARC
8
DEFAULT_255_1_234
10
23.7440334
20
148.0180589
40
0.5187361
50
253.5786322
51
270.4175299
0
ARC
8
DEFAULT_255_1_234
10
23.726699
20
147.9509236
40
0.4494451
50
238.8203306
51
253.2788235
0
ARC
8
DEFAULT_255_1_234
10
23.7247363
20
147.9458231
40
0.4440665
50
206.7883783
51
238.6962764
0
ARC
8
DEFAULT_255_1_234
10
23.8021273
20
147.9922405
40
0.5341121
50
206.1129412
51
207.4916643
0
ARC
8
DEFAULT_255_1_234
10
23.8618188
20
148.0176488
40
0.5989041
50
188.6921119
51
205.7821245
0
ARC
8
DEFAULT_255_1_234
10
24.047455
20
148.049223
40
0.7871862
50
180.3882829
51
188.9219216
0
ARC
8
DEFAULT_255_1_234
10
24.1702364
20
148.1515464
40
0.909967
50
170.2024264
51
180.3560651
0
ARC
8
DEFAULT_255_1_234
10
23.8538882
20
148.2081237
40
0.5886083
50
154.2857445
51
170.3893044
0
ARC
8
DEFAULT_255_1_234
10
23.7257085
20
148.266795
40
0.4476743
50
139.8401567
51
153.9332699
0
ARC
8
DEFAULT_255_1_234
10
23.6897821
20
148.2955577
40
0.4016697
50
98.4190291
51
139.6707122
0
ARC
8
DEFAULT_255_1_234
10
23.7277339
20
148.1110328
40
0.5898566
50
89.7659205
51
99.4415478
0
ARC
8
DEFAULT_255_1_234
10
23.7342588
20
148.1175844
40
0.5833147
50
78.0551672
51
90.4042112
0
ARC
8
DEFAULT_255_1_234
10
23.7747098
20
148.2994644
40
0.3970055
50
54.6380464
51
78.3339173
0
ARC
8
DEFAULT_255_1_234
10
23.7937154
20
148.3314795
40
0.3599102
50
50.031736
51
54.1558201
0
ARC
8
DEFAULT_255_1_234
10
23.7829942
20
148.3218766
40
0.3741624
50
18.1092409
51
49.7180913
0
ARC
8
DEFAULT_255_1_234
10
23.6373142
20
148.2685089
40
0.5292424
50
7.9672797
51
18.6984571
0
ARC
8
DEFAULT_255_1_234
10
23.652362
20
148.2808504
40
0.3600838
50
9.7557294
51
27.3215714
0
ARC
8
DEFAULT_255_1_234
10
23.7651092
20
148.3371912
40
0.2340608
50
27.7361077
51
84.5257964
0
ARC
8
DEFAULT_255_1_234
10
23.7323479
20
148.172864
40
0.4011215
50
82.106034
51
90.2001166
0
ARC
8
DEFAULT_255_1_234
10
23.7273696
20
148.2236215
40
0.3503799
50
89.4150119
51
105.5823402
0
ARC
8
DEFAULT_255_1_234
10
23.7016694
20
148.3171867
40
0.2533503
50
105.6678618
51
144.2648758
0
ARC
8
DEFAULT_255_1_234
10
23.7909949
20
148.2536289
40
0.3629787
50
144.3561283
51
162.8564086
0
ARC
8
DEFAULT_255_1_234
10
23.9993858
20
148.1867017
40
0.5818441
50
162.6076014
51
173.6780284
0
ARC
8
DEFAULT_255_1_234
10
24.3055002
20
148.149489
40
0.8902007
50
173.4670142
51
179.9730753
0
ARC
8
DEFAULT_255_1_234
10
24.1146673
20
148.050126
40
0.6993804
50
179.6556203
51
190.0080463
0
ARC
8
DEFAULT_255_1_234
10
23.8830502
20
148.0076375
40
0.4639066
50
189.8116607
51
206.6796816
0
ARC
8
DEFAULT_255_1_234
10
23.7985654
20
147.9682503
40
0.3707421
50
207.1031645
51
217.7074368
0
ARC
8
DEFAULT_255_1_234
10
23.7351343
20
147.9130559
40
0.2868417
50
216.7345547
51
265.6812148
0
ARC
8
DEFAULT_255_1_234
10
23.7482134
20
148.0034855
40
0.3780509
50
264.7366618
51
270.0611241
0
ARC
8
DEFAULT_255_1_234
10
23.7505397
20
148.2875111
40
0.662079
50
269.8335834
51
276.0539546
0
ARC
8
DEFAULT_255_1_234
10
23.7712402
20
148.097356
40
0.4708016
50
275.9894168
51
284.4615085
0
ARC
8
DEFAULT_255_1_234
10
23.7910409
20
148.0140663
40
0.3852094
50
284.7034461
51
286.4953897
0
ARC
8
DEFAULT_255_1_234
10
23.8317422
20
147.8829965
40
0.2479842
50
286.0770838
51
304.2625829
0
ARC
8
DEFAULT_255_1_234
10
23.8450836
20
147.8611594
40
0.2224291
50
304.5891602
51
317.1073298
0
LINE
8
DEFAULT_255_1_234
10
20.466323
20
5.0114663
11
20.6213355
21
5.0114663
0
LINE
8
DEFAULT_255_1_234
10
19.7209777
20
5.1704947
11
19.7209777
21
5.2829391
0
LINE
8
DEFAULT_255_1_234
10
20.6213355
20
5.4339357
11
20.466323
21
5.4339357
0
LINE
8
DEFAULT_255_1_234
10
19.8759902
20
5.2789232
11
19.8759902
21
5.1656757
0
ARC
8
DEFAULT_255_1_234
10
20.0732742
20
5.0711846
40
0.5513052
50
340.1774281
51
353.7814284
0
ARC
8
DEFAULT_255_1_234
10
20.2304095
20
5.0126582
40
0.3836379
50
311.4558989
51
340.4421614
0
ARC
8
DEFAULT_255_1_234
10
20.2270763
20
5.0237528
40
0.3941894
50
282.4333181
51
310.7513653
0
ARC
8
DEFAULT_255_1_234
10
20.1831502
20
5.2052679
40
0.5809175
50
269.9358511
51
282.809604
0
ARC
8
DEFAULT_255_1_234
10
20.1779568
20
5.3510212
40
0.7266847
50
270.0021091
51
270.3581957
0
ARC
8
DEFAULT_255_1_234
10
20.1726985
20
5.0909585
40
0.4666519
50
250.7884749
51
270.6489167
0
ARC
8
DEFAULT_255_1_234
10
20.155882
20
5.0272319
40
0.4009729
50
219.3627325
51
250.0611886
0
ARC
8
DEFAULT_255_1_234
10
20.2388031
20
5.0977042
40
0.5097822
50
193.5479632
51
219.5756669
0
ARC
8
DEFAULT_255_1_234
10
20.4759652
20
5.1592919
40
0.7547848
50
181.1218675
51
193.87563
0
ARC
8
DEFAULT_255_1_234
10
20.6829833
20
5.170358
40
0.9620055
50
179.9918545
51
181.5394234
0
ARC
8
DEFAULT_255_1_234
10
20.4978935
20
5.2866788
40
0.7769248
50
169.5837241
51
180.2757934
0
ARC
8
DEFAULT_255_1_234
10
20.3141873
20
5.3206229
40
0.590109
50
155.0365899
51
169.6003176
0
ARC
8
DEFAULT_255_1_234
10
20.2006337
20
5.3753677
40
0.4640625
50
136.783148
51
155.2472683
0
ARC
8
DEFAULT_255_1_234
10
20.1616814
20
5.4084562
40
0.4130255
50
121.7633186
51
136.428115
0
ARC
8
DEFAULT_255_1_234
10
20.1751776
20
5.3835227
40
0.4413323
50
95.6459699
51
121.5490577
0
ARC
8
DEFAULT_255_1_234
10
20.1909058
20
5.2726949
40
0.55319
50
89.924208
51
96.1377933
0
ARC
8
DEFAULT_255_1_234
10
20.1959491
20
5.2845542
40
0.5413475
50
76.6779277
51
90.4563316
0
ARC
8
DEFAULT_255_1_234
10
20.2353114
20
5.4436114
40
0.3775041
50
47.485847
51
76.9287264
0
ARC
8
DEFAULT_255_1_234
10
20.2206087
20
5.4336159
40
0.3948286
50
16.5424086
51
46.8933463
0
ARC
8
DEFAULT_255_1_234
10
20.0598244
20
5.3807861
40
0.564021
50
5.4072051
51
17.0365086
0
ARC
8
DEFAULT_255_1_234
10
19.9159261
20
5.3576679
40
0.5556559
50
7.8891745
51
15.9239216
0
ARC
8
DEFAULT_255_1_234
10
20.1146274
20
5.4153631
40
0.3487515
50
15.7653144
51
27.9410532
0
ARC
8
DEFAULT_255_1_234
10
20.2250492
20
5.474479
40
0.2235026
50
27.8166557
51
46.4008329
0
ARC
8
DEFAULT_255_1_234
10
20.2300135
20
5.4739082
40
0.2205286
50
47.4371857
51
75.0698205
0
ARC
8
DEFAULT_255_1_234
10
20.1991529
20
5.3664765
40
0.3322915
50
74.7008593
51
87.8124495
0
ARC
8
DEFAULT_255_1_234
10
20.1918217
20
5.2608844
40
0.4380987
50
87.3814673
51
90.0240855
0
ARC
8
DEFAULT_255_1_234
10
20.187976
20
5.3786291
40
0.3203749
50
89.3451631
51
108.5745436
0
ARC
8
DEFAULT_255_1_234
10
20.1742865
20
5.4299908
40
0.2673494
50
109.2998449
51
143.3037509
0
ARC
8
DEFAULT_255_1_234
10
20.2504938
20
5.3713881
40
0.3634757
50
143.0753173
51
163.1916937
0
ARC
8
DEFAULT_255_1_234
10
20.4456666
20
5.3097967
40
0.5681262
50
162.9373603
51
174.6208611
0
ARC
8
DEFAULT_255_1_234
10
20.7082708
20
5.281001
40
0.8322832
50
174.3419979
51
180.1430411
0
ARC
8
DEFAULT_255_1_234
10
20.6151864
20
5.1615698
40
0.7392076
50
179.6817502
51
189.150529
0
ARC
8
DEFAULT_255_1_234
10
20.3651112
20
5.119919
40
0.4856932
50
188.9910863
51
203.5773039
0
ARC
8
DEFAULT_255_1_234
10
20.2571445
20
5.0751211
40
0.3688271
50
203.9077269
51
215.1312379
0
ARC
8
DEFAULT_255_1_234
10
20.1648539
20
5.0035941
40
0.2522457
50
213.9071664
51
263.8849284
0
ARC
8
DEFAULT_255_1_234
10
20.1773868
20
5.0820518
40
0.3316174
50
263.1758525
51
270.1031083
0
ARC
8
DEFAULT_255_1_234
10
20.180596
20
5.2067365
40
0.4563091
50
269.6719807
51
279.0609165
0
ARC
8
DEFAULT_255_1_234
10
20.2072728
20
5.0454907
40
0.2928759
50
278.8750225
51
293.6346586
0
ARC
8
DEFAULT_255_1_234
10
20.2392936
20
4.97029
40
0.2111472
50
293.8553404
51
310.0518804
0
ARC
8
DEFAULT_255_1_234
10
20.239779
20
4.9640516
40
0.2060917
50
311.0646779
51
332.0108348
0
ARC
8
DEFAULT_255_1_234
10
20.1205517
20
5.0297978
40
0.3422352
50
331.6588543
51
343.2878891
0
ARC
8
DEFAULT_255_1_234
10
19.9143032
20
5.0931798
40
0.5580003
50
343.1446044
51
351.010618
0
ARC
8
DEFAULT_255_1_234
10
19.7601678
20
5.1212871
40
0.7146438
50
350.7157277
51
351.1602153
0
LINE
8
DEFAULT_255_1_234
10
21.7313218
20
5.2612534
11
21.7313218
21
5.1873614
0
LINE
8
DEFAULT_255_1_234
10
20.7908052
20
5.1769201
11
20.7908052
21
5.2612534
0
LINE
8
DEFAULT_255_1_234
10
21.5779156
20
5.1761169
11
21.5779156
21
5.2628597
0
LINE
8
DEFAULT_255_1_234
10
20.9442114
20
5.273301
11
20.9442114
21
5.1873614
0
ARC
8
DEFAULT_255_1_234
10
20.8671244
20
5.1834015
40
0.8642064
50
350.487711
51
0.2625388
0
ARC
8
DEFAULT_255_1_234
10
21.0964486
20
5.1439578
40
0.631518
50
336.0277639
51
350.5787438
0
ARC
8
DEFAULT_255_1_234
10
21.2309309
20
5.0831892
40
0.4839466
50
319.8877444
51
336.1328423
0
ARC
8
DEFAULT_255_1_234
10
21.291195
20
5.034958
40
0.4067874
50
302.4806467
51
319.6143626
0
ARC
8
DEFAULT_255_1_234
10
21.279696
20
5.0571202
40
0.4316636
50
275.8195682
51
302.1884709
0
ARC
8
DEFAULT_255_1_234
10
21.2630593
20
5.1713665
40
0.5470306
50
269.9171439
51
276.3397983
0
ARC
8
DEFAULT_255_1_234
10
21.2585803
20
5.1027681
40
0.4784458
50
252.5219675
51
270.4416499
0
ARC
8
DEFAULT_255_1_234
10
21.2442062
20
5.0488592
40
0.422716
50
237.5352116
51
252.1857531
0
ARC
8
DEFAULT_255_1_234
10
21.2531258
20
5.0602363
40
0.4371052
50
209.063312
51
237.3492538
0
ARC
8
DEFAULT_255_1_234
10
21.3401106
20
5.1148685
40
0.5397041
50
205.1183774
51
209.6470015
0
ARC
8
DEFAULT_255_1_234
10
21.4198143
20
5.148683
40
0.6262326
50
188.7215458
51
204.8240747
0
ARC
8
DEFAULT_255_1_234
10
21.6195671
20
5.1823067
40
0.8287794
50
180.3723947
51
188.9252049
0
ARC
8
DEFAULT_255_1_234
10
21.6168423
20
5.2652402
40
0.8260467
50
169.5253763
51
180.2765336
0
ARC
8
DEFAULT_255_1_234
10
21.4265871
20
5.3002309
40
0.6326007
50
155.8315255
51
169.5089989
0
ARC
8
DEFAULT_255_1_234
10
21.2985373
20
5.3596348
40
0.4914567
50
139.6258461
51
156.0379525
0
ARC
8
DEFAULT_255_1_234
10
21.2395706
20
5.4070799
40
0.4158054
50
122.6416387
51
139.3430715
0
ARC
8
DEFAULT_255_1_234
10
21.2496326
20
5.3887451
40
0.4366739
50
93.0223692
51
122.455762
0
ARC
8
DEFAULT_255_1_234
10
21.2604323
20
5.2922709
40
0.5336137
50
89.975342
51
93.6341897
0
ARC
8
DEFAULT_255_1_234
10
21.2643102
20
5.3321242
40
0.4937738
50
73.746375
51
90.4233405
0
ARC
8
DEFAULT_255_1_234
10
21.2818681
20
5.4001287
40
0.4235786
50
57.662753
51
73.4518111
0
ARC
8
DEFAULT_255_1_234
10
21.2810687
20
5.4022832
40
0.4221899
50
29.1440151
51
57.414694
0
ARC
8
DEFAULT_255_1_234
10
21.1875882
20
5.3439005
40
0.5322966
50
24.0982783
51
29.7323517
0
ARC
8
DEFAULT_255_1_234
10
21.0842157
20
5.3010399
40
0.6441673
50
8.6655297
51
23.8241346
0
ARC
8
DEFAULT_255_1_234
10
20.8607895
20
5.2645854
40
0.8705386
50
359.7806941
51
8.8218784
0
ARC
8
DEFAULT_255_1_234
10
20.7460893
20
5.2671345
40
0.8318373
50
359.7055579
51
8.036044
0
ARC
8
DEFAULT_255_1_234
10
21.0460899
20
5.3108239
40
0.5286768
50
7.8928306
51
20.2962107
0
ARC
8
DEFAULT_255_1_234
10
21.208847
20
5.3708395
40
0.3552073
50
20.3231126
51
36.4992797
0
ARC
8
DEFAULT_255_1_234
10
21.2774016
20
5.4236402
40
0.2686974
50
36.1437156
51
85.6627023
0
ARC
8
DEFAULT_255_1_234
10
21.2611562
20
5.3196221
40
0.373739
50
84.3852322
51
90.0757696
0
ARC
8
DEFAULT_255_1_234
10
21.2569234
20
5.3856839
40
0.3076997
50
89.3038458
51
109.9045693
0
ARC
8
DEFAULT_255_1_234
10
21.2476625
20
5.4239062
40
0.2686424
50
110.8228367
51
143.9179474
0
ARC
8
DEFAULT_255_1_234
10
21.3410285
20
5.3526236
40
0.3860887
50
143.5289163
51
163.2980757
0
ARC
8
DEFAULT_255_1_234
10
21.5318106
20
5.2926433
40
0.5860659
50
163.0418846
51
174.3140048
0
ARC
8
DEFAULT_255_1_234
10
21.7722218
20
5.2648854
40
0.8280531
50
174.0509143
51
179.4176892
0
ARC
8
DEFAULT_255_1_234
10
21.7217957
20
5.1831954
40
0.7775954
50
179.6930361
51
188.7906598
0
ARC
8
DEFAULT_255_1_234
10
21.4554436
20
5.1405935
40
0.5078633
50
188.6331305
51
202.5629587
0
ARC
8
DEFAULT_255_1_234
10
21.3300028
20
5.0901996
40
0.3726913
50
202.8081362
51
216.1193925
0
ARC
8
DEFAULT_255_1_234
10
21.2490598
20
5.0250676
40
0.2689577
50
215.0755913
51
264.6379694
0
ARC
8
DEFAULT_255_1_234
10
21.2617548
20
5.1081513
40
0.3528978
50
263.846392
51
270.0833719
0
ARC
8
DEFAULT_255_1_234
10
21.2658938
20
5.0823374
40
0.3271036
50
269.3649385
51
287.5152008
0
ARC
8
DEFAULT_255_1_234
10
21.2837096
20
5.0176238
40
0.2600406
50
288.0630309
51
323.8113348
0
ARC
8
DEFAULT_255_1_234
10
21.1965937
20
5.0826049
40
0.3687189
50
323.6547608
51
342.6590488
0
ARC
8
DEFAULT_255_1_234
10
20.9934552
20
5.1486952
40
0.5823286
50
342.4091907
51
353.6451149
0
ARC
8
DEFAULT_255_1_234
10
20.7103063
20
5.183919
40
0.8676442
50
353.4029884
51
359.4847795
0
LINE
8
DEFAULT_255_1_234
10
21.9626358
20
5.8098211
11
22.1618229
21
5.8098211
0
LINE
8
DEFAULT_255_1_234
10
22.1618229
20
5.8098211
11
22.5441337
21
4.8556506
0
LINE
8
DEFAULT_255_1_234
10
22.5441337
20
4.8556506
11
22.9264444
21
5.8098211
0
LINE
8
DEFAULT_255_1_234
10
22.9264444
20
5.8098211
11
23.1264347
21
5.8098211
0
LINE
8
DEFAULT_255_1_234
10
23.1264347
20
5.8098211
11
23.1264347
21
4.6404
0
LINE
8
DEFAULT_255_1_234
10
23.1264347
20
4.6404
11
22.9722253
21
4.6404
0
LINE
8
DEFAULT_255_1_234
10
22.9722253
20
4.6404
11
22.9722253
21
5.0957996
0
LINE
8
DEFAULT_255_1_234
10
22.9722253
20
5.0957996
11
22.9866825
21
5.5873419
0
LINE
8
DEFAULT_255_1_234
10
22.9866825
20
5.5873419
11
22.6027654
21
4.6404
0
LINE
8
DEFAULT_255_1_234
10
22.6027654
20
4.6404
11
22.4846988
21
4.6404
0
LINE
8
DEFAULT_255_1_234
10
22.4846988
20
4.6404
11
22.1015849
21
5.5849324
0
LINE
8
DEFAULT_255_1_234
10
22.1015849
20
5.5849324
11
22.1168452
21
5.0957996
0
LINE
8
DEFAULT_255_1_234
10
22.1168452
20
5.0957996
11
22.1168452
21
4.6404
0
LINE
8
DEFAULT_255_1_234
10
22.1168452
20
4.6404
11
21.9626358
21
4.6404
0
LINE
8
DEFAULT_255_1_234
10
21.9626358
20
4.6404
11
21.9626358
21
5.8098211
0
LINE
8
DEFAULT_255_1_234
10
23.848488
20
5.8154433
11
23.848488
21
4.6404
0
LINE
8
DEFAULT_255_1_234
10
23.848488
20
4.6404
11
23.6990977
21
4.6404
0
LINE
8
DEFAULT_255_1_234
10
23.6990977
20
4.6404
11
23.6990977
21
5.6307133
0
LINE
8
DEFAULT_255_1_234
10
23.6990977
20
5.6307133
11
23.3995138
21
5.5206785
0
LINE
8
DEFAULT_255_1_234
10
23.3995138
20
5.5206785
11
23.3995138
21
5.6556117
0
LINE
8
DEFAULT_255_1_234
10
23.3995138
20
5.6556117
11
23.8251959
21
5.8154433
0
LINE
8
DEFAULT_255_1_234
10
23.8251959
20
5.8154433
11
23.848488
21
5.8154433
0
LINE
8
DEFAULT_255_1_234
10
20.466323
20
12.9489663
11
20.6213355
21
12.9489663
0
LINE
8
DEFAULT_255_1_234
10
19.7209777
20
13.1079947
11
19.7209777
21
13.2204391
0
LINE
8
DEFAULT_255_1_234
10
20.6213355
20
13.3714357
11
20.466323
21
13.3714357
0
LINE
8
DEFAULT_255_1_234
10
19.8759902
20
13.2164232
11
19.8759902
21
13.1031757
0
ARC
8
DEFAULT_255_1_234
10
20.0732742
20
13.0086846
40
0.5513052
50
340.1774281
51
353.7814284
0
ARC
8
DEFAULT_255_1_234
10
20.2304095
20
12.9501582
40
0.3836379
50
311.4558989
51
340.4421614
0
ARC
8
DEFAULT_255_1_234
10
20.2270763
20
12.9612528
40
0.3941894
50
282.4333181
51
310.7513653
0
ARC
8
DEFAULT_255_1_234
10
20.1831502
20
13.1427679
40
0.5809175
50
269.9358511
51
282.809604
0
ARC
8
DEFAULT_255_1_234
10
20.1779568
20
13.2885212
40
0.7266847
50
270.0021091
51
270.3581957
0
ARC
8
DEFAULT_255_1_234
10
20.1726985
20
13.0284585
40
0.4666519
50
250.7884749
51
270.6489167
0
ARC
8
DEFAULT_255_1_234
10
20.155882
20
12.9647319
40
0.4009729
50
219.3627325
51
250.0611886
0
ARC
8
DEFAULT_255_1_234
10
20.2388031
20
13.0352042
40
0.5097822
50
193.5479632
51
219.5756669
0
ARC
8
DEFAULT_255_1_234
10
20.4759652
20
13.0967919
40
0.7547848
50
181.1218675
51
193.87563
0
ARC
8
DEFAULT_255_1_234
10
20.6829833
20
13.107858
40
0.9620055
50
179.9918545
51
181.5394234
0
ARC
8
DEFAULT_255_1_234
10
20.4978935
20
13.2241788
40
0.7769248
50
169.5837241
51
180.2757934
0
ARC
8
DEFAULT_255_1_234
10
20.3141873
20
13.2581229
40
0.590109
50
155.0365899
51
169.6003176
0
ARC
8
DEFAULT_255_1_234
10
20.2006337
20
13.3128677
40
0.4640625
50
136.783148
51
155.2472683
0
ARC
8
DEFAULT_255_1_234
10
20.1616814
20
13.3459562
40
0.4130255
50
121.7633186
51
136.428115
0
ARC
8
DEFAULT_255_1_234
10
20.1751776
20
13.3210227
40
0.4413323
50
95.6459699
51
121.5490577
0
ARC
8
DEFAULT_255_1_234
10
20.1909058
20
13.2101949
40
0.55319
50
89.924208
51
96.1377933
0
ARC
8
DEFAULT_255_1_234
10
20.1959491
20
13.2220542
40
0.5413475
50
76.6779277
51
90.4563316
0
ARC
8
DEFAULT_255_1_234
10
20.2353114
20
13.3811114
40
0.3775041
50
47.485847
51
76.9287264
0
ARC
8
DEFAULT_255_1_234
10
20.2206087
20
13.3711159
40
0.3948286
50
16.5424086
51
46.8933463
0
ARC
8
DEFAULT_255_1_234
10
20.0598244
20
13.3182861
40
0.564021
50
5.4072051
51
17.0365086
0
ARC
8
DEFAULT_255_1_234
10
19.9159261
20
13.2951679
40
0.5556559
50
7.8891745
51
15.9239216
0
ARC
8
DEFAULT_255_1_234
10
20.1146274
20
13.3528631
40
0.3487515
50
15.7653144
51
27.9410532
0
ARC
8
DEFAULT_255_1_234
10
20.2250492
20
13.411979
40
0.2235026
50
27.8166557
51
46.4008329
0
ARC
8
DEFAULT_255_1_234
10
20.2300135
20
13.4114082
40
0.2205286
50
47.4371857
51
75.0698205
0
ARC
8
DEFAULT_255_1_234
10
20.1991529
20
13.3039765
40
0.3322915
50
74.7008593
51
87.8124495
0
ARC
8
DEFAULT_255_1_234
10
20.1918217
20
13.1983844
40
0.4380987
50
87.3814673
51
90.0240855
0
ARC
8
DEFAULT_255_1_234
10
20.187976
20
13.3161291
40
0.3203749
50
89.3451631
51
108.5745436
0
ARC
8
DEFAULT_255_1_234
10
20.1742865
20
13.3674908
40
0.2673494
50
109.2998449
51
143.3037509
0
ARC
8
DEFAULT_255_1_234
10
20.2504938
20
13.3088881
40
0.3634757
50
143.0753173
51
163.1916937
0
ARC
8
DEFAULT_255_1_234
10
20.4456666
20
13.2472967
40
0.5681262
50
162.9373603
51
174.6208611
0
ARC
8
DEFAULT_255_1_234
10
20.7082708
20
13.218501
40
0.8322832
50
174.3419979
51
180.1430411
0
ARC
8
DEFAULT_255_1_234
10
20.6151864
20
13.0990698
40
0.7392076
50
179.6817502
51
189.150529
0
ARC
8
DEFAULT_255_1_234
10
20.3651112
20
13.057419
40
0.4856932
50
188.9910863
51
203.5773039
0
ARC
8
DEFAULT_255_1_234
10
20.2571445
20
13.0126211
40
0.3688271
50
203.9077269
51
215.1312379
0
ARC
8
DEFAULT_255_1_234
10
20.1648539
20
12.9410941
40
0.2522457
50
213.9071664
51
263.8849284
0
ARC
8
DEFAULT_255_1_234
10
20.1773868
20
13.0195518
40
0.3316174
50
263.1758525
51
270.1031083
0
ARC
8
DEFAULT_255_1_234
10
20.180596
20
13.1442365
40
0.4563091
50
269.6719807
51
279.0609165
0
ARC
8
DEFAULT_255_1_234
10
20.2072728
20
12.9829907
40
0.2928759
50
278.8750225
51
293.6346586
0
ARC
8
DEFAULT_255_1_234
10
20.2392936
20
12.90779
40
0.2111472
50
293.8553404
51
310.0518804
0
ARC
8
DEFAULT_255_1_234
10
20.239779
20
12.9015516
40
0.2060917
50
311.0646779
51
332.0108348
0
ARC
8
DEFAULT_255_1_234
10
20.1205517
20
12.9672978
40
0.3422352
50
331.6588543
51
343.2878891
0
ARC
8
DEFAULT_255_1_234
10
19.9143032
20
13.0306798
40
0.5580003
50
343.1446044
51
351.010618
0
ARC
8
DEFAULT_255_1_234
10
19.7601678
20
13.0587871
40
0.7146438
50
350.7157277
51
351.1602153
0
LINE
8
DEFAULT_255_1_234
10
21.7313218
20
13.1987534
11
21.7313218
21
13.1248614
0
LINE
8
DEFAULT_255_1_234
10
20.7908052
20
13.1144201
11
20.7908052
21
13.1987534
0
LINE
8
DEFAULT_255_1_234
10
21.5779156
20
13.1136169
11
21.5779156
21
13.2003597
0
LINE
8
DEFAULT_255_1_234
10
20.9442114
20
13.210801
11
20.9442114
21
13.1248614
0
ARC
8
DEFAULT_255_1_234
10
20.8671244
20
13.1209015
40
0.8642064
50
350.487711
51
0.2625388
0
ARC
8
DEFAULT_255_1_234
10
21.0964486
20
13.0814578
40
0.631518
50
336.0277639
51
350.5787438
0
ARC
8
DEFAULT_255_1_234
10
21.2309309
20
13.0206892
40
0.4839466
50
319.8877444
51
336.1328423
0
ARC
8
DEFAULT_255_1_234
10
21.291195
20
12.972458
40
0.4067874
50
302.4806467
51
319.6143626
0
ARC
8
DEFAULT_255_1_234
10
21.279696
20
12.9946202
40
0.4316636
50
275.8195682
51
302.1884709
0
ARC
8
DEFAULT_255_1_234
10
21.2630593
20
13.1088665
40
0.5470306
50
269.9171439
51
276.3397983
0
ARC
8
DEFAULT_255_1_234
10
21.2585803
20
13.0402681
40
0.4784458
50
252.5219675
51
270.4416499
0
ARC
8
DEFAULT_255_1_234
10
21.2442062
20
12.9863592
40
0.422716
50
237.5352116
51
252.1857531
0
ARC
8
DEFAULT_255_1_234
10
21.2531258
20
12.9977363
40
0.4371052
50
209.063312
51
237.3492538
0
ARC
8
DEFAULT_255_1_234
10
21.3401106
20
13.0523685
40
0.5397041
50
205.1183774
51
209.6470015
0
ARC
8
DEFAULT_255_1_234
10
21.4198143
20
13.086183
40
0.6262326
50
188.7215458
51
204.8240747
0
ARC
8
DEFAULT_255_1_234
10
21.6195671
20
13.1198067
40
0.8287794
50
180.3723947
51
188.9252049
0
ARC
8
DEFAULT_255_1_234
10
21.6168423
20
13.2027402
40
0.8260467
50
169.5253763
51
180.2765336
0
ARC
8
DEFAULT_255_1_234
10
21.4265871
20
13.2377309
40
0.6326007
50
155.8315255
51
169.5089989
0
ARC
8
DEFAULT_255_1_234
10
21.2985373
20
13.2971348
40
0.4914567
50
139.6258461
51
156.0379525
0
ARC
8
DEFAULT_255_1_234
10
21.2395706
20
13.3445799
40
0.4158054
50
122.6416387
51
139.3430715
0
ARC
8
DEFAULT_255_1_234
10
21.2496326
20
13.3262451
40
0.4366739
50
93.0223692
51
122.455762
0
ARC
8
DEFAULT_255_1_234
10
21.2604323
20
13.2297709
40
0.5336137
50
89.975342
51
93.6341897
0
ARC
8
DEFAULT_255_1_234
10
21.2643102
20
13.2696242
40
0.4937738
50
73.746375
51
90.4233405
0
ARC
8
DEFAULT_255_1_234
10
21.2818681
20
13.3376287
40
0.4235786
50
57.662753
51
73.4518111
0
ARC
8
DEFAULT_255_1_234
10
21.2810687
20
13.3397832
40
0.4221899
50
29.1440151
51
57.414694
0
ARC
8
DEFAULT_255_1_234
10
21.1875882
20
13.2814005
40
0.5322966
50
24.0982783
51
29.7323517
0
ARC
8
DEFAULT_255_1_234
10
21.0842157
20
13.2385399
40
0.6441673
50
8.6655297
51
23.8241346
0
ARC
8
DEFAULT_255_1_234
10
20.8607895
20
13.2020854
40
0.8705386
50
359.7806941
51
8.8218784
0
ARC
8
DEFAULT_255_1_234
10
20.7460893
20
13.2046345
40
0.8318373
50
359.7055579
51
8.036044
0
ARC
8
DEFAULT_255_1_234
10
21.0460899
20
13.2483239
40
0.5286768
50
7.8928306
51
20.2962107
0
ARC
8
DEFAULT_255_1_234
10
21.208847
20
13.3083395
40
0.3552073
50
20.3231126
51
36.4992797
0
ARC
8
DEFAULT_255_1_234
10
21.2774016
20
13.3611402
40
0.2686974
50
36.1437156
51
85.6627023
0
ARC
8
DEFAULT_255_1_234
10
21.2611562
20
13.2571221
40
0.373739
50
84.3852322
51
90.0757696
0
ARC
8
DEFAULT_255_1_234
10
21.2569234
20
13.3231839
40
0.3076997
50
89.3038458
51
109.9045693
0
ARC
8
DEFAULT_255_1_234
10
21.2476625
20
13.3614062
40
0.2686424
50
110.8228367
51
143.9179474
0
ARC
8
DEFAULT_255_1_234
10
21.3410285
20
13.2901236
40
0.3860887
50
143.5289163
51
163.2980757
0
ARC
8
DEFAULT_255_1_234
10
21.5318106
20
13.2301433
40
0.5860659
50
163.0418846
51
174.3140048
0
ARC
8
DEFAULT_255_1_234
10
21.7722218
20
13.2023854
40
0.8280531
50
174.0509143
51
179.4176892
0
ARC
8
DEFAULT_255_1_234
10
21.7217957
20
13.1206954
40
0.7775954
50
179.6930361
51
188.7906598
0
ARC
8
DEFAULT_255_1_234
10
21.4554436
20
13.0780935
40
0.5078633
50
188.6331305
51
202.5629587
0
ARC
8
DEFAULT_255_1_234
10
21.3300028
20
13.0276996
40
0.3726913
50
202.8081362
51
216.1193925
0
ARC
8
DEFAULT_255_1_234
10
21.2490598
20
12.9625676
40
0.2689577
50
215.0755913
51
264.6379694
0
ARC
8
DEFAULT_255_1_234
10
21.2617548
20
13.0456513
40
0.3528978
50
263.846392
51
270.0833719
0
ARC
8
DEFAULT_255_1_234
10
21.2658938
20
13.0198374
40
0.3271036
50
269.3649385
51
287.5152008
0
ARC
8
DEFAULT_255_1_234
10
21.2837096
20
12.9551238
40
0.2600406
50
288.0630309
51
323.8113348
0
ARC
8
DEFAULT_255_1_234
10
21.1965937
20
13.0201049
40
0.3687189
50
323.6547608
51
342.6590488
0
ARC
8
DEFAULT_255_1_234
10
20.9934552
20
13.0861952
40
0.5823286
50
342.4091907
51
353.6451149
0
ARC
8
DEFAULT_255_1_234
10
20.7103063
20
13.121419
40
0.8676442
50
353.4029884
51
359.4847795
0
LINE
8
DEFAULT_255_1_234
10
21.9626358
20
13.7473211
11
22.1618229
21
13.7473211
0
LINE
8
DEFAULT_255_1_234
10
22.1618229
20
13.7473211
11
22.5441337
21
12.7931506
0
LINE
8
DEFAULT_255_1_234
10
22.5441337
20
12.7931506
11
22.9264444
21
13.7473211
0
LINE
8
DEFAULT_255_1_234
10
22.9264444
20
13.7473211
11
23.1264347
21
13.7473211
0
LINE
8
DEFAULT_255_1_234
10
23.1264347
20
13.7473211
11
23.1264347
21
12.5779
0
LINE
8
DEFAULT_255_1_234
10
23.1264347
20
12.5779
11
22.9722253
21
12.5779
0
LINE
8
DEFAULT_255_1_234
10
22.9722253
20
12.5779
11
22.9722253
21
13.0332996
0
LINE
8
DEFAULT_255_1_234
10
22.9722253
20
13.0332996
11
22.9866825
21
13.5248419
0
LINE
8
DEFAULT_255_1_234
10
22.9866825
20
13.5248419
11
22.6027654
21
12.5779
0
LINE
8
DEFAULT_255_1_234
10
22.6027654
20
12.5779
11
22.4846988
21
12.5779
0
LINE
8
DEFAULT_255_1_234
10
22.4846988
20
12.5779
11
22.1015849
21
13.5224324
0
LINE
8
DEFAULT_255_1_234
10
22.1015849
20
13.5224324
11
22.1168452
21
13.0332996
0
LINE
8
DEFAULT_255_1_234
10
22.1168452
20
13.0332996
11
22.1168452
21
12.5779
0
LINE
8
DEFAULT_255_1_234
10
22.1168452
20
12.5779
11
21.9626358
21
12.5779
0
LINE
8
DEFAULT_255_1_234
10
21.9626358
20
12.5779
11
21.9626358
21
13.7473211
0
LINE
8
DEFAULT_255_1_234
10
23.848488
20
13.7529433
11
23.848488
21
12.5779
0
LINE
8
DEFAULT_255_1_234
10
23.848488
20
12.5779
11
23.6990977
21
12.5779
0
LINE
8
DEFAULT_255_1_234
10
23.6990977
20
12.5779
11
23.6990977
21
13.5682133
0
LINE
8
DEFAULT_255_1_234
10
23.6990977
20
13.5682133
11
23.3995138
21
13.4581785
0
LINE
8
DEFAULT_255_1_234
10
23.3995138
20
13.4581785
11
23.3995138
21
13.5931117
0
LINE
8
DEFAULT_255_1_234
10
23.3995138
20
13.5931117
11
23.8251959
21
13.7529433
0
LINE
8
DEFAULT_255_1_234
10
23.8251959
20
13.7529433
11
23.848488
21
13.7529433
0
LINE
8
DEFAULT_255_1_234
10
21.5337458
20
21.6848211
11
21.8373456
21
21.097701
0
LINE
8
DEFAULT_255_1_234
10
21.8373456
20
21.097701
11
22.1425516
21
21.6848211
0
LINE
8
DEFAULT_255_1_234
10
22.1425516
20
21.6848211
11
22.3176435
21
21.6848211
0
LINE
8
DEFAULT_255_1_234
10
22.3176435
20
21.6848211
11
21.9144502
21
20.9515234
0
LINE
8
DEFAULT_255_1_234
10
21.9144502
20
20.9515234
11
21.9144502
21
20.5154
0
LINE
8
DEFAULT_255_1_234
10
21.9144502
20
20.5154
11
21.7602409
21
20.5154
0
LINE
8
DEFAULT_255_1_234
10
21.7602409
20
20.5154
11
21.7602409
21
20.9515234
0
LINE
8
DEFAULT_255_1_234
10
21.7602409
20
20.9515234
11
21.3570476
21
21.6848211
0
LINE
8
DEFAULT_255_1_234
10
21.3570476
20
21.6848211
11
21.5337458
21
21.6848211
0
LINE
8
DEFAULT_255_1_234
10
22.9184175
20
21.6904433
11
22.9184175
21
20.5154
0
LINE
8
DEFAULT_255_1_234
10
22.9184175
20
20.5154
11
22.7690272
21
20.5154
0
LINE
8
DEFAULT_255_1_234
10
22.7690272
20
20.5154
11
22.7690272
21
21.5057133
0
LINE
8
DEFAULT_255_1_234
10
22.7690272
20
21.5057133
11
22.4694434
21
21.3956785
0
LINE
8
DEFAULT_255_1_234
10
22.4694434
20
21.3956785
11
22.4694434
21
21.5306117
0
LINE
8
DEFAULT_255_1_234
10
22.4694434
20
21.5306117
11
22.8951255
21
21.6904433
0
LINE
8
DEFAULT_255_1_234
10
22.8951255
20
21.6904433
11
22.9184175
21
21.6904433
0
LINE
8
DEFAULT_255_1_234
10
23.5408772
20
21.0711963
11
23.4220075
21
21.1017169
0
LINE
8
DEFAULT_255_1_234
10
23.4220075
20
21.1017169
11
23.4814424
21
21.6848211
0
LINE
8
DEFAULT_255_1_234
10
23.4814424
20
21.6848211
11
24.0806101
21
21.6848211
0
LINE
8
DEFAULT_255_1_234
10
24.0806101
20
21.6848211
11
24.0806101
21
21.5474784
0
LINE
8
DEFAULT_255_1_234
10
24.0806101
20
21.5474784
11
23.6075407
21
21.5474784
0
LINE
8
DEFAULT_255_1_234
10
23.6075407
20
21.5474784
11
23.572201
21
21.2286184
0
LINE
8
DEFAULT_255_1_234
10
23.3802425
20
20.8230156
11
23.5207979
21
20.8230156
0
LINE
8
DEFAULT_255_1_234
10
23.5802328
20
21.1033232
11
23.5408772
21
21.0711963
0
ARC
8
DEFAULT_255_1_234
10
23.7576794
20
20.910623
40
0.3681349
50
93.7182161
51
120.2538958
0
ARC
8
DEFAULT_255_1_234
10
23.7671057
20
20.8298394
40
0.449379
50
89.9660152
51
94.2496022
0
ARC
8
DEFAULT_255_1_234
10
23.7711791
20
20.8887549
40
0.390482
50
73.8043271
51
90.5585896
0
ARC
8
DEFAULT_255_1_234
10
23.7946688
20
20.9745602
40
0.3015334
50
41.3071453
51
73.5430202
0
ARC
8
DEFAULT_255_1_234
10
23.7530515
20
20.9387324
40
0.3564457
50
13.5075983
51
41.2174222
0
ARC
8
DEFAULT_255_1_234
10
23.5888719
20
20.8957486
40
0.5261351
50
1.1331335
51
13.8829381
0
ARC
8
DEFAULT_255_1_234
10
23.4477088
20
20.8881665
40
0.6674378
50
359.9919444
51
1.544251
0
ARC
8
DEFAULT_255_1_234
10
23.5753914
20
20.884028
40
0.5397702
50
347.8572367
51
0.4293338
0
ARC
8
DEFAULT_255_1_234
10
23.7504232
20
20.8443736
40
0.3603188
50
323.673004
51
348.1672506
0
ARC
8
DEFAULT_255_1_234
10
23.779874
20
20.8264168
40
0.3259678
50
316.8171152
51
323.1492751
0
ARC
8
DEFAULT_255_1_234
10
23.7859929
20
20.822746
40
0.3189975
50
281.8396411
51
316.5457803
0
ARC
8
DEFAULT_255_1_234
10
23.7484193
20
20.9782762
40
0.4789527
50
269.5770101
51
282.4214771
0
ARC
8
DEFAULT_255_1_234
10
23.7413004
20
20.9569125
40
0.45759
50
256.2427136
51
270.4486331
0
ARC
8
DEFAULT_255_1_234
10
23.7113907
20
20.8369229
40
0.3339303
50
228.9023911
51
256.3314342
0
ARC
8
DEFAULT_255_1_234
10
23.7040139
20
20.8252746
40
0.32031
50
193.753695
51
228.5271154
0
ARC
8
DEFAULT_255_1_234
10
23.8278093
20
20.86158
40
0.4492253
50
184.924711
51
194.497588
0
ARC
8
DEFAULT_255_1_234
10
23.847066
20
20.8651591
40
0.3289787
50
187.3600538
51
198.6732863
0
ARC
8
DEFAULT_255_1_234
10
23.7420954
20
20.8287674
40
0.217884
50
198.4451669
51
217.794479
0
ARC
8
DEFAULT_255_1_234
10
23.7125129
20
20.8078085
40
0.1816698
50
218.2887171
51
228.5612368
0
ARC
8
DEFAULT_255_1_234
10
23.7222916
20
20.8209963
40
0.1980329
50
228.9654866
51
258.1234728
0
ARC
8
DEFAULT_255_1_234
10
23.7428626
20
20.9090833
40
0.2884748
50
257.7258293
51
270.401361
0
ARC
8
DEFAULT_255_1_234
10
23.7473513
20
20.8645821
40
0.2439788
50
269.4204404
51
286.4209037
0
ARC
8
DEFAULT_255_1_234
10
23.7622
20
20.8106657
40
0.1880666
50
286.7251356
51
320.600362
0
ARC
8
DEFAULT_255_1_234
10
23.7238825
20
20.8417595
40
0.2374121
50
320.6712579
51
344.5441685
0
ARC
8
DEFAULT_255_1_234
10
23.6082151
20
20.8757045
40
0.3579479
50
344.2412205
51
356.7357071
0
ARC
8
DEFAULT_255_1_234
10
23.48333
20
20.8860444
40
0.4832297
50
356.3548756
51
0.0500261
0
ARC
8
DEFAULT_255_1_234
10
23.6169809
20
20.889165
40
0.3495889
50
359.5576869
51
12.953486
0
ARC
8
DEFAULT_255_1_234
10
23.7224706
20
20.9147434
40
0.2410532
50
12.6490276
51
41.6081334
0
ARC
8
DEFAULT_255_1_234
10
23.7455077
20
20.9343321
40
0.2108218
50
41.7850273
51
85.9892764
0
ARC
8
DEFAULT_255_1_234
10
23.7331814
20
20.8530462
40
0.2928454
50
84.6957577
51
90.0676183
0
ARC
8
DEFAULT_255_1_234
10
23.7308298
20
20.7861716
40
0.3597255
50
89.6804936
51
99.1614436
0
ARC
8
DEFAULT_255_1_234
10
23.7102929
20
20.9089131
40
0.235281
50
98.9830931
51
113.8908934
0
ARC
8
DEFAULT_255_1_234
10
23.6873339
20
20.9630587
40
0.176479
50
114.1950727
51
127.3641004
0
LINE
8
DEFAULT_255_1_234
10
21.4279458
20
29.6223211
11
21.7315456
21
29.035201
0
LINE
8
DEFAULT_255_1_234
10
21.7315456
20
29.035201
11
22.0367516
21
29.6223211
0
LINE
8
DEFAULT_255_1_234
10
22.0367516
20
29.6223211
11
22.2118435
21
29.6223211
0
LINE
8
DEFAULT_255_1_234
10
22.2118435
20
29.6223211
11
21.8086502
21
28.8890234
0
LINE
8
DEFAULT_255_1_234
10
21.8086502
20
28.8890234
11
21.8086502
21
28.4529
0
LINE
8
DEFAULT_255_1_234
10
21.8086502
20
28.4529
11
21.6544409
21
28.4529
0
LINE
8
DEFAULT_255_1_234
10
21.6544409
20
28.4529
11
21.6544409
21
28.8890234
0
LINE
8
DEFAULT_255_1_234
10
21.6544409
20
28.8890234
11
21.2512476
21
29.6223211
0
LINE
8
DEFAULT_255_1_234
10
21.2512476
20
29.6223211
11
21.4279458
21
29.6223211
0
LINE
8
DEFAULT_255_1_234
10
22.8126175
20
29.6279433
11
22.8126175
21
28.4529
0
LINE
8
DEFAULT_255_1_234
10
22.8126175
20
28.4529
11
22.6632272
21
28.4529
0
LINE
8
DEFAULT_255_1_234
10
22.6632272
20
28.4529
11
22.6632272
21
29.4432133
0
LINE
8
DEFAULT_255_1_234
10
22.6632272
20
29.4432133
11
22.3636434
21
29.3331785
0
LINE
8
DEFAULT_255_1_234
10
22.3636434
20
29.3331785
11
22.3636434
21
29.4681117
0
LINE
8
DEFAULT_255_1_234
10
22.3636434
20
29.4681117
11
22.7893255
21
29.6279433
0
LINE
8
DEFAULT_255_1_234
10
22.7893255
20
29.6279433
11
22.8126175
21
29.6279433
0
LINE
8
DEFAULT_255_1_234
10
23.8752165
20
29.6223211
11
23.8752165
21
28.845652
0
LINE
8
DEFAULT_255_1_234
10
23.8752165
20
28.845652
11
24.0374576
21
28.845652
0
LINE
8
DEFAULT_255_1_234
10
24.0374576
20
28.845652
11
24.0374576
21
28.7243728
0
LINE
8
DEFAULT_255_1_234
10
24.0374576
20
28.7243728
11
23.8752165
21
28.7243728
0
LINE
8
DEFAULT_255_1_234
10
23.8752165
20
28.7243728
11
23.8752165
21
28.4529
0
LINE
8
DEFAULT_255_1_234
10
23.8752165
20
28.4529
11
23.7258262
21
28.4529
0
LINE
8
DEFAULT_255_1_234
10
23.7258262
20
28.4529
11
23.7258262
21
28.7243728
0
LINE
8
DEFAULT_255_1_234
10
23.7258262
20
28.7243728
11
23.1933219
21
28.7243728
0
LINE
8
DEFAULT_255_1_234
10
23.1933219
20
28.7243728
11
23.1933219
21
28.8119187
0
LINE
8
DEFAULT_255_1_234
10
23.1933219
20
28.8119187
11
23.7169913
21
29.6223211
0
LINE
8
DEFAULT_255_1_234
10
23.7169913
20
29.6223211
11
23.8752165
21
29.6223211
0
LINE
8
DEFAULT_255_1_234
10
23.7081563
20
29.3869912
11
23.3619884
21
28.845652
0
LINE
8
DEFAULT_255_1_234
10
23.3619884
20
28.845652
11
23.7258262
21
28.845652
0
LINE
8
DEFAULT_255_1_234
10
23.7258262
20
28.845652
11
23.7258262
21
29.4191181
0
LINE
8
DEFAULT_255_1_234
10
23.7258262
20
29.4191181
11
23.7081563
21
29.3869912
0
LINE
8
DEFAULT_255_1_234
10
21.5337458
20
37.5598211
11
21.8373456
21
36.972701
0
LINE
8
DEFAULT_255_1_234
10
21.8373456
20
36.972701
11
22.1425516
21
37.5598211
0
LINE
8
DEFAULT_255_1_234
10
22.1425516
20
37.5598211
11
22.3176435
21
37.5598211
0
LINE
8
DEFAULT_255_1_234
10
22.3176435
20
37.5598211
11
21.9144502
21
36.8265234
0
LINE
8
DEFAULT_255_1_234
10
21.9144502
20
36.8265234
11
21.9144502
21
36.3904
0
LINE
8
DEFAULT_255_1_234
10
21.9144502
20
36.3904
11
21.7602409
21
36.3904
0
LINE
8
DEFAULT_255_1_234
10
21.7602409
20
36.3904
11
21.7602409
21
36.8265234
0
LINE
8
DEFAULT_255_1_234
10
21.7602409
20
36.8265234
11
21.3570476
21
37.5598211
0
LINE
8
DEFAULT_255_1_234
10
21.3570476
20
37.5598211
11
21.5337458
21
37.5598211
0
LINE
8
DEFAULT_255_1_234
10
22.9184175
20
37.5654433
11
22.9184175
21
36.3904
0
LINE
8
DEFAULT_255_1_234
10
22.9184175
20
36.3904
11
22.7690272
21
36.3904
0
LINE
8
DEFAULT_255_1_234
10
22.7690272
20
36.3904
11
22.7690272
21
37.3807133
0
LINE
8
DEFAULT_255_1_234
10
22.7690272
20
37.3807133
11
22.4694434
21
37.2706785
0
LINE
8
DEFAULT_255_1_234
10
22.4694434
20
37.2706785
11
22.4694434
21
37.4056117
0
LINE
8
DEFAULT_255_1_234
10
22.4694434
20
37.4056117
11
22.8951255
21
37.5654433
0
LINE
8
DEFAULT_255_1_234
10
22.8951255
20
37.5654433
11
22.9184175
21
37.5654433
0
LINE
8
DEFAULT_255_1_234
10
23.5697915
20
36.9261169
11
23.5697915
21
37.0473962
0
LINE
8
DEFAULT_255_1_234
10
23.5697915
20
37.0473962
11
23.6814327
21
37.0473962
0
LINE
8
DEFAULT_255_1_234
10
23.4910805
20
37.2530087
11
23.3424933
21
37.2530087
0
LINE
8
DEFAULT_255_1_234
10
23.3320521
20
36.6988188
11
23.4814424
21
36.6988188
0
LINE
8
DEFAULT_255_1_234
10
23.6814327
20
36.9261169
11
23.5697915
21
36.9261169
0
ARC
8
DEFAULT_255_1_234
10
23.6785193
20
37.3866713
40
0.3392876
50
270.4919872
51
281.8951556
0
ARC
8
DEFAULT_255_1_234
10
23.7026455
20
37.2764702
40
0.2264817
50
281.6691735
51
301.2943132
0
ARC
8
DEFAULT_255_1_234
10
23.7196665
20
37.2453304
40
0.1910381
50
301.7833094
51
311.7545298
0
ARC
8
DEFAULT_255_1_234
10
23.7288241
20
37.2351748
40
0.1773635
50
311.7323931
51
354.2802411
0
ARC
8
DEFAULT_255_1_234
10
23.6561866
20
37.2476722
40
0.2509385
50
353.0937916
51
0.1181479
0
ARC
8
DEFAULT_255_1_234
10
23.6100651
20
37.2524386
40
0.2970898
50
359.1805295
51
15.0453146
0
ARC
8
DEFAULT_255_1_234
10
23.7446488
20
37.2916992
40
0.1569564
50
13.9577229
51
77.6713066
0
ARC
8
DEFAULT_255_1_234
10
23.7060017
20
37.1531949
40
0.3006298
50
76.1116566
51
90.7026153
0
ARC
8
DEFAULT_255_1_234
10
23.7000855
20
37.1805545
40
0.2732568
50
89.5324876
51
103.531937
0
ARC
8
DEFAULT_255_1_234
10
23.68003
20
37.2604884
40
0.1908508
50
103.2931773
51
133.5619022
0
ARC
8
DEFAULT_255_1_234
10
23.6755788
20
37.2664375
40
0.1834746
50
133.8349307
51
173.5344437
0
ARC
8
DEFAULT_255_1_234
10
23.7478831
20
37.2536213
40
0.2568033
50
172.5096846
51
180.1366907
0
ARC
8
DEFAULT_255_1_234
10
23.6527725
20
37.2570622
40
0.3103056
50
155.3484492
51
180.7484736
0
ARC
8
DEFAULT_255_1_234
10
23.6478814
20
37.2541846
40
0.3070957
50
131.5744599
51
154.4798489
0
ARC
8
DEFAULT_255_1_234
10
23.6791961
20
37.222531
40
0.3515643
50
96.9875458
51
131.9690667
0
ARC
8
DEFAULT_255_1_234
10
23.7011441
20
37.0979636
40
0.4779224
50
89.8596053
51
97.7825159
0
ARC
8
DEFAULT_255_1_234
10
23.7059504
20
37.0717616
40
0.5041361
50
78.3655447
51
90.4131539
0
ARC
8
DEFAULT_255_1_234
10
23.7417422
20
37.2376887
40
0.3344039
50
56.6229102
51
78.638727
0
ARC
8
DEFAULT_255_1_234
10
23.7632366
20
37.2752805
40
0.2912001
50
47.0253525
51
56.0854072
0
ARC
8
DEFAULT_255_1_234
10
23.7652146
20
37.2792223
40
0.2869704
50
10.9208013
51
46.7778124
0
ARC
8
DEFAULT_255_1_234
10
23.6288212
20
37.2476857
40
0.426899
50
359.6364486
51
11.6087304
0
ARC
8
DEFAULT_255_1_234
10
23.8123057
20
37.2461752
40
0.243409
50
332.3549906
51
359.7179418
0
ARC
8
DEFAULT_255_1_234
10
23.7472658
20
37.2770142
40
0.3153459
50
325.2333722
51
332.8745602
0
ARC
8
DEFAULT_255_1_234
10
23.7625282
20
37.2663828
40
0.2967456
50
292.9802137
51
325.2392345
0
ARC
8
DEFAULT_255_1_234
10
23.7350656
20
37.3197863
40
0.3566604
50
292.5402179
51
293.6924929
0
ARC
8
DEFAULT_255_1_234
10
23.7743251
20
36.6743091
40
0.3307468
50
57.6435486
51
72.8625112
0
ARC
8
DEFAULT_255_1_234
10
23.8097751
20
36.7317549
40
0.2632492
50
36.7248896
51
57.4697979
0
ARC
8
DEFAULT_255_1_234
10
23.8086384
20
36.733022
40
0.2634081
50
8.0545065
51
36.356114
0
ARC
8
DEFAULT_255_1_234
10
23.7223569
20
36.7175174
40
0.3510261
50
359.8320645
51
8.5869982
0
ARC
8
DEFAULT_255_1_234
10
23.6848345
20
36.7127101
40
0.3885653
50
343.9829931
51
0.5571613
0
ARC
8
DEFAULT_255_1_234
10
23.7734542
20
36.6884438
40
0.2966924
50
311.6359546
51
343.7651759
0
ARC
8
DEFAULT_255_1_234
10
23.7356112
20
36.7311102
40
0.3537231
50
279.7829875
51
311.6255694
0
ARC
8
DEFAULT_255_1_234
10
23.7054888
20
36.874828
40
0.5004971
50
269.7286406
51
280.3856417
0
ARC
8
DEFAULT_255_1_234
10
23.699296
20
36.8706996
40
0.4963778
50
256.6828919
51
270.4412052
0
ARC
8
DEFAULT_255_1_234
10
23.6654256
20
36.7322394
40
0.3538406
50
229.4223008
51
256.8556159
0
ARC
8
DEFAULT_255_1_234
10
23.6239649
20
36.6855736
40
0.2914296
50
181.818294
51
229.6455059
0
ARC
8
DEFAULT_255_1_234
10
23.7279605
20
36.6986496
40
0.3959084
50
179.9755256
51
183.2323064
0
ARC
8
DEFAULT_255_1_234
10
23.7107351
20
36.6966037
40
0.2293034
50
179.4465117
51
196.2869258
0
ARC
8
DEFAULT_255_1_234
10
23.6619759
20
36.6832651
40
0.1787621
50
196.5661473
51
227.705904
0
ARC
8
DEFAULT_255_1_234
10
23.6783854
20
36.7016155
40
0.2033784
50
227.7652068
51
257.8762805
0
ARC
8
DEFAULT_255_1_234
10
23.7008824
20
36.7959156
40
0.3003081
50
257.4584385
51
270.426602
0
ARC
8
DEFAULT_255_1_234
10
23.705439
20
36.8248996
40
0.329292
50
269.5962073
51
280.8789248
0
ARC
8
DEFAULT_255_1_234
10
23.7283919
20
36.7102685
40
0.2123908
50
280.6346389
51
299.8595945
0
ARC
8
DEFAULT_255_1_234
10
23.7474826
20
36.6740212
40
0.171457
50
300.3576302
51
314.5517981
0
ARC
8
DEFAULT_255_1_234
10
23.7391886
20
36.6800919
40
0.1816095
50
315.0728369
51
345.0431014
0
ARC
8
DEFAULT_255_1_234
10
23.64687
20
36.7069841
40
0.2777492
50
344.5986631
51
357.9269593
0
ARC
8
DEFAULT_255_1_234
10
23.5573027
20
36.7131276
40
0.3674917
50
357.4748886
51
0.0231117
0
ARC
8
DEFAULT_255_1_234
10
23.6596136
20
36.7155679
40
0.2651907
50
359.5047933
51
13.4239635
0
ARC
8
DEFAULT_255_1_234
10
23.746278
20
36.7377478
40
0.1757509
50
12.9498199
51
48.7551375
0
ARC
8
DEFAULT_255_1_234
10
23.7280513
20
36.71284
40
0.2065134
50
49.5088623
51
72.1836453
0
ARC
8
DEFAULT_255_1_234
10
23.6922666
20
36.6066291
40
0.3185836
50
71.9010081
51
84.3554254
0
ARC
8
DEFAULT_255_1_234
10
23.6761298
20
36.4705326
40
0.4556151
50
84.0193428
51
89.333121
0
LINE
8
DEFAULT_255_1_234
10
21.5337458
20
45.4973211
11
21.8373456
21
44.910201
0
LINE
8
DEFAULT_255_1_234
10
21.8373456
20
44.910201
11
22.1425516
21
45.4973211
0
LINE
8
DEFAULT_255_1_234
10
22.1425516
20
45.4973211
11
22.3176435
21
45.4973211
0
LINE
8
DEFAULT_255_1_234
10
22.3176435
20
45.4973211
11
21.9144502
21
44.7640234
0
LINE
8
DEFAULT_255_1_234
10
21.9144502
20
44.7640234
11
21.9144502
21
44.3279
0
LINE
8
DEFAULT_255_1_234
10
21.9144502
20
44.3279
11
21.7602409
21
44.3279
0
LINE
8
DEFAULT_255_1_234
10
21.7602409
20
44.3279
11
21.7602409
21
44.7640234
0
LINE
8
DEFAULT_255_1_234
10
21.7602409
20
44.7640234
11
21.3570476
21
45.4973211
0
LINE
8
DEFAULT_255_1_234
10
21.3570476
20
45.4973211
11
21.5337458
21
45.4973211
0
LINE
8
DEFAULT_255_1_234
10
22.9184175
20
45.5029433
11
22.9184175
21
44.3279
0
LINE
8
DEFAULT_255_1_234
10
22.9184175
20
44.3279
11
22.7690272
21
44.3279
0
LINE
8
DEFAULT_255_1_234
10
22.7690272
20
44.3279
11
22.7690272
21
45.3182133
0
LINE
8
DEFAULT_255_1_234
10
22.7690272
20
45.3182133
11
22.4694434
21
45.2081785
0
LINE
8
DEFAULT_255_1_234
10
22.4694434
20
45.2081785
11
22.4694434
21
45.3431117
0
LINE
8
DEFAULT_255_1_234
10
22.4694434
20
45.3431117
11
22.8951255
21
45.5029433
0
LINE
8
DEFAULT_255_1_234
10
22.8951255
20
45.5029433
11
22.9184175
21
45.5029433
0
LINE
8
DEFAULT_255_1_234
10
24.1199656
20
44.4491792
11
24.1199656
21
44.3279
0
LINE
8
DEFAULT_255_1_234
10
24.1199656
20
44.3279
11
23.3537377
21
44.3279
0
LINE
8
DEFAULT_255_1_234
10
23.3537377
20
44.3279
11
23.3537377
21
44.4347221
0
LINE
8
DEFAULT_255_1_234
10
23.3537377
20
44.4347221
11
23.7585374
21
44.8844995
0
LINE
8
DEFAULT_255_1_234
10
23.479836
20
45.1527595
11
23.3312489
21
45.1527595
0
LINE
8
DEFAULT_255_1_234
10
23.8460833
20
44.7889218
11
23.5328455
21
44.4491792
0
LINE
8
DEFAULT_255_1_234
10
23.5328455
20
44.4491792
11
24.1199656
21
44.4491792
0
ARC
8
DEFAULT_255_1_234
10
22.4095207
20
46.0774527
40
1.8008286
50
318.5132453
51
320.7828378
0
ARC
8
DEFAULT_255_1_234
10
22.9382181
20
45.6471426
40
1.1191493
50
320.7372736
51
323.9737074
0
ARC
8
DEFAULT_255_1_234
10
23.3302038
20
45.3631361
40
0.6350923
50
323.8961724
51
328.6421089
0
ARC
8
DEFAULT_255_1_234
10
23.5348633
20
45.2369031
40
0.3946393
50
328.8299013
51
331.789948
0
ARC
8
DEFAULT_255_1_234
10
23.6345812
20
45.1854509
40
0.2824501
50
331.4255242
51
352.9364833
0
ARC
8
DEFAULT_255_1_234
10
23.6482312
20
45.1823976
40
0.2685315
50
353.2248685
51
0.0169286
0
ARC
8
DEFAULT_255_1_234
10
23.6692189
20
45.184695
40
0.2475536
50
359.4866256
51
15.9339782
0
ARC
8
DEFAULT_255_1_234
10
23.7199174
20
45.1983286
40
0.1950618
50
16.1714718
51
43.5284424
0
ARC
8
DEFAULT_255_1_234
10
23.7276483
20
45.2060573
40
0.184134
50
43.4415429
51
83.1661404
0
ARC
8
DEFAULT_255_1_234
10
23.7142401
20
45.1323771
40
0.258926
50
82.160215
51
90.1505798
0
ARC
8
DEFAULT_255_1_234
10
23.7110828
20
45.0786865
40
0.3126255
50
89.5460705
51
102.5418777
0
ARC
8
DEFAULT_255_1_234
10
23.6867915
20
45.1817665
40
0.2067346
50
102.1739365
51
129.2061916
0
ARC
8
DEFAULT_255_1_234
10
23.6788986
20
45.1942094
40
0.1921118
50
129.7279328
51
135.7542026
0
ARC
8
DEFAULT_255_1_234
10
23.6910514
20
45.1845045
40
0.2075944
50
136.175737
51
166.3674722
0
ARC
8
DEFAULT_255_1_234
10
23.7917433
20
45.1575182
40
0.3118201
50
165.9092917
51
178.8683903
0
ARC
8
DEFAULT_255_1_234
10
23.8782295
20
45.1528179
40
0.3983935
50
178.438168
51
180.0083905
0
ARC
8
DEFAULT_255_1_234
10
23.7380897
20
45.1567231
40
0.4068601
50
163.2878735
51
180.5581814
0
ARC
8
DEFAULT_255_1_234
10
23.6579158
20
45.178784
40
0.3237344
50
133.454115
51
162.9470031
0
ARC
8
DEFAULT_255_1_234
10
23.6757699
20
45.1598
40
0.349795
50
100.7869394
51
133.4384016
0
ARC
8
DEFAULT_255_1_234
10
23.7105471
20
45.0049319
40
0.5084616
50
89.6605301
51
101.3704185
0
ARC
8
DEFAULT_255_1_234
10
23.717181
20
45.0110496
40
0.502348
50
78.2171172
51
90.4130393
0
ARC
8
DEFAULT_255_1_234
10
23.7526888
20
45.1734637
40
0.3361092
50
55.9268222
51
78.4888551
0
ARC
8
DEFAULT_255_1_234
10
23.7723328
20
45.2073324
40
0.2970617
50
47.9292255
51
55.4054003
0
ARC
8
DEFAULT_255_1_234
10
23.7824889
20
45.2176502
40
0.2825983
50
4.3347696
51
48.0560701
0
ARC
8
DEFAULT_255_1_234
10
23.6729282
20
45.2006601
40
0.393225
50
359.925209
51
5.5967654
0
ARC
8
DEFAULT_255_1_234
10
23.7158174
20
45.2062816
40
0.3503892
50
337.8914096
51
358.9967724
0
ARC
8
DEFAULT_255_1_234
10
23.4444586
20
45.3109706
40
0.6412172
50
326.9135351
51
338.3505194
0
ARC
8
DEFAULT_255_1_234
10
23.045889
20
45.5664284
40
1.1146189
50
319.6472867
51
327.095818
0
ARC
8
DEFAULT_255_1_234
10
22.6625893
20
45.8826
40
1.6114559
50
317.2586784
51
319.9046139
0
LINE
8
DEFAULT_255_1_234
10
21.5416458
20
53.4348211
11
21.8452456
21
52.847701
0
LINE
8
DEFAULT_255_1_234
10
21.8452456
20
52.847701
11
22.1504516
21
53.4348211
0
LINE
8
DEFAULT_255_1_234
10
22.1504516
20
53.4348211
11
22.3255435
21
53.4348211
0
LINE
8
DEFAULT_255_1_234
10
22.3255435
20
53.4348211
11
21.9223502
21
52.7015234
0
LINE
8
DEFAULT_255_1_234
10
21.9223502
20
52.7015234
11
21.9223502
21
52.2654
0
LINE
8
DEFAULT_255_1_234
10
21.9223502
20
52.2654
11
21.7681409
21
52.2654
0
LINE
8
DEFAULT_255_1_234
10
21.7681409
20
52.2654
11
21.7681409
21
52.7015234
0
LINE
8
DEFAULT_255_1_234
10
21.7681409
20
52.7015234
11
21.3649476
21
53.4348211
0
LINE
8
DEFAULT_255_1_234
10
21.3649476
20
53.4348211
11
21.5416458
21
53.4348211
0
LINE
8
DEFAULT_255_1_234
10
22.9263175
20
53.4404433
11
22.9263175
21
52.2654
0
LINE
8
DEFAULT_255_1_234
10
22.9263175
20
52.2654
11
22.7769272
21
52.2654
0
LINE
8
DEFAULT_255_1_234
10
22.7769272
20
52.2654
11
22.7769272
21
53.2557133
0
LINE
8
DEFAULT_255_1_234
10
22.7769272
20
53.2557133
11
22.4773434
21
53.1456785
0
LINE
8
DEFAULT_255_1_234
10
22.4773434
20
53.1456785
11
22.4773434
21
53.2806117
0
LINE
8
DEFAULT_255_1_234
10
22.4773434
20
53.2806117
11
22.9030255
21
53.4404433
0
LINE
8
DEFAULT_255_1_234
10
22.9030255
20
53.4404433
11
22.9263175
21
53.4404433
0
LINE
8
DEFAULT_255_1_234
10
23.8499674
20
53.4404433
11
23.8499674
21
52.2654
0
LINE
8
DEFAULT_255_1_234
10
23.8499674
20
52.2654
11
23.7005771
21
52.2654
0
LINE
8
DEFAULT_255_1_234
10
23.7005771
20
52.2654
11
23.7005771
21
53.2557133
0
LINE
8
DEFAULT_255_1_234
10
23.7005771
20
53.2557133
11
23.4009933
21
53.1456785
0
LINE
8
DEFAULT_255_1_234
10
23.4009933
20
53.1456785
11
23.4009933
21
53.2806117
0
LINE
8
DEFAULT_255_1_234
10
23.4009933
20
53.2806117
11
23.8266754
21
53.4404433
0
LINE
8
DEFAULT_255_1_234
10
23.8266754
20
53.4404433
11
23.8499674
21
53.4404433
0
LINE
8
DEFAULT_255_1_234
10
21.5337458
20
61.3723211
11
21.8373456
21
60.785201
0
LINE
8
DEFAULT_255_1_234
10
21.8373456
20
60.785201
11
22.1425516
21
61.3723211
0
LINE
8
DEFAULT_255_1_234
10
22.1425516
20
61.3723211
11
22.3176435
21
61.3723211
0
LINE
8
DEFAULT_255_1_234
10
22.3176435
20
61.3723211
11
21.9144502
21
60.6390234
0
LINE
8
DEFAULT_255_1_234
10
21.9144502
20
60.6390234
11
21.9144502
21
60.2029
0
LINE
8
DEFAULT_255_1_234
10
21.9144502
20
60.2029
11
21.7602409
21
60.2029
0
LINE
8
DEFAULT_255_1_234
10
21.7602409
20
60.2029
11
21.7602409
21
60.6390234
0
LINE
8
DEFAULT_255_1_234
10
21.7602409
20
60.6390234
11
21.3570476
21
61.3723211
0
LINE
8
DEFAULT_255_1_234
10
21.3570476
20
61.3723211
11
21.5337458
21
61.3723211
0
LINE
8
DEFAULT_255_1_234
10
22.9184175
20
61.3779433
11
22.9184175
21
60.2029
0
LINE
8
DEFAULT_255_1_234
10
22.9184175
20
60.2029
11
22.7690272
21
60.2029
0
LINE
8
DEFAULT_255_1_234
10
22.7690272
20
60.2029
11
22.7690272
21
61.1932133
0
LINE
8
DEFAULT_255_1_234
10
22.7690272
20
61.1932133
11
22.4694434
21
61.0831785
0
LINE
8
DEFAULT_255_1_234
10
22.4694434
20
61.0831785
11
22.4694434
21
61.2181117
0
LINE
8
DEFAULT_255_1_234
10
22.4694434
20
61.2181117
11
22.8951255
21
61.3779433
0
LINE
8
DEFAULT_255_1_234
10
22.8951255
20
61.3779433
11
22.9184175
21
61.3779433
0
LINE
8
DEFAULT_255_1_234
10
24.0870354
20
60.8944327
11
24.0870354
21
60.7016709
0
LINE
8
DEFAULT_255_1_234
10
23.3489187
20
60.6815916
11
23.3489187
21
60.8799755
0
LINE
8
DEFAULT_255_1_234
10
23.9384483
20
60.6615123
11
23.9384483
21
60.9048739
0
LINE
8
DEFAULT_255_1_234
10
23.4975059
20
60.9161184
11
23.4975059
21
60.6783789
0
ARC
8
DEFAULT_255_1_234
10
22.8623244
20
60.6967805
40
1.2247208
50
353.8441951
51
0.2287902
0
ARC
8
DEFAULT_255_1_234
10
23.3262748
20
60.6449806
40
0.7578929
50
344.4934747
51
353.9765454
0
ARC
8
DEFAULT_255_1_234
10
23.6255338
20
60.5598981
40
0.4467846
50
329.2803592
51
344.7472793
0
ARC
8
DEFAULT_255_1_234
10
23.7248163
20
60.5054018
40
0.3336173
50
324.9352394
51
328.6160465
0
ARC
8
DEFAULT_255_1_234
10
23.7625272
20
60.4790427
40
0.2876076
50
280.580143
51
324.9173126
0
ARC
8
DEFAULT_255_1_234
10
23.7224064
20
60.6461099
40
0.4592847
50
269.5977311
51
281.6734359
0
ARC
8
DEFAULT_255_1_234
10
23.715197
20
60.6341173
40
0.4472986
50
256.6228859
51
270.51044
0
ARC
8
DEFAULT_255_1_234
10
23.6749948
20
60.4792877
40
0.2873874
50
215.8618325
51
257.2788573
0
ARC
8
DEFAULT_255_1_234
10
23.7770979
20
60.5477977
40
0.4102928
50
197.9693508
51
215.2623606
0
ARC
8
DEFAULT_255_1_234
10
24.0256095
20
60.6316709
40
0.6725652
50
187.8816417
51
198.2346507
0
ARC
8
DEFAULT_255_1_234
10
24.4214303
20
60.6888079
40
1.0724845
50
180.8976217
51
188.0055519
0
ARC
8
DEFAULT_255_1_234
10
24.7014491
20
60.6991777
40
1.3526448
50
180.7449369
51
181.1510016
0
ARC
8
DEFAULT_255_1_234
10
24.543722
20
60.8848042
40
1.1948131
50
173.7675579
51
180.231553
0
ARC
8
DEFAULT_255_1_234
10
24.0919367
20
60.9358666
40
0.7401564
50
164.3058563
51
173.9002247
0
ARC
8
DEFAULT_255_1_234
10
23.8007436
20
61.0197656
40
0.4371288
50
148.7922025
51
164.568378
0
ARC
8
DEFAULT_255_1_234
10
23.7055888
20
61.0728929
40
0.3282386
50
144.5883898
51
148.1176286
0
ARC
8
DEFAULT_255_1_234
10
23.6712786
20
61.0968315
40
0.2864044
50
101.6440918
51
144.514236
0
ARC
8
DEFAULT_255_1_234
10
23.7137853
20
60.9279069
40
0.4604934
50
89.5284041
51
102.5819763
0
ARC
8
DEFAULT_255_1_234
10
23.721694
20
60.9240018
40
0.464401
50
77.0437873
51
90.5081339
0
ARC
8
DEFAULT_255_1_234
10
23.7618942
20
61.0882615
40
0.2953195
50
48.2778575
51
77.4994676
0
ARC
8
DEFAULT_255_1_234
10
23.7691573
20
61.1011746
40
0.2808655
50
36.3142134
51
47.6305865
0
ARC
8
DEFAULT_255_1_234
10
23.682288
20
61.0426515
40
0.3855453
50
18.2931786
51
35.6769206
0
ARC
8
DEFAULT_255_1_234
10
23.4279639
20
60.9553593
40
0.654423
50
8.024666
51
18.5605216
0
ARC
8
DEFAULT_255_1_234
10
23.0116559
20
60.8938792
40
1.0752407
50
1.1274072
51
8.1718305
0
ARC
8
DEFAULT_255_1_234
10
22.688075
20
60.8811885
40
1.3990231
50
0.5424119
51
1.3863029
0
ARC
8
DEFAULT_255_1_234
10
22.8702128
20
60.9084342
40
1.0682415
50
359.8090433
51
4.9407866
0
ARC
8
DEFAULT_255_1_234
10
23.2912142
20
60.9460113
40
0.6455691
50
4.8362157
51
12.2904523
0
ARC
8
DEFAULT_255_1_234
10
23.5667256
20
61.0073965
40
0.3633074
50
12.0805627
51
23.8173984
0
ARC
8
DEFAULT_255_1_234
10
23.6840962
20
61.0570919
40
0.2358723
50
24.2871213
51
31.3935614
0
ARC
8
DEFAULT_255_1_234
10
23.7365659
20
61.0914233
40
0.1732111
50
30.7407893
51
82.4657128
0
ARC
8
DEFAULT_255_1_234
10
23.7185793
20
61.0030691
40
0.263235
50
81.1060089
51
90.2184952
0
ARC
8
DEFAULT_255_1_234
10
23.7150092
20
61.0288924
40
0.2374236
50
89.3806855
51
105.6762551
0
ARC
8
DEFAULT_255_1_234
10
23.6966723
20
61.0955567
40
0.1682847
50
105.7981136
51
149.7388061
0
ARC
8
DEFAULT_255_1_234
10
23.8030801
20
61.031595
40
0.2924306
50
149.4208916
51
163.6286378
0
ARC
8
DEFAULT_255_1_234
10
24.0121689
20
60.967825
40
0.5110213
50
163.3763315
51
172.1410975
0
ARC
8
DEFAULT_255_1_234
10
24.3422408
20
60.9205518
40
0.8444586
50
172.0259487
51
178.0703232
0
ARC
8
DEFAULT_255_1_234
10
24.6452498
20
60.9061906
40
1.1477868
50
177.8631668
51
179.5044149
0
ARC
8
DEFAULT_255_1_234
10
24.5379902
20
60.6747389
40
1.0404907
50
179.7995573
51
185.2460446
0
ARC
8
DEFAULT_255_1_234
10
24.1336941
20
60.6364513
40
0.6343885
50
185.1411642
51
193.0079639
0
ARC
8
DEFAULT_255_1_234
10
23.8693414
20
60.5739641
40
0.3627568
50
192.7897626
51
205.2507664
0
ARC
8
DEFAULT_255_1_234
10
23.7646961
20
60.5272415
40
0.2481908
50
205.8005384
51
211.2537509
0
ARC
8
DEFAULT_255_1_234
10
23.7123401
20
60.492158
40
0.1852521
50
210.3789793
51
238.4008143
0
ARC
8
DEFAULT_255_1_234
10
23.7103923
20
60.4968376
40
0.1882621
50
239.6520629
51
265.9793761
0
ARC
8
DEFAULT_255_1_234
10
23.7189123
20
60.5640427
40
0.2559272
50
265.1315437
51
270.060332
0
ARC
8
DEFAULT_255_1_234
10
23.7217902
20
60.5316534
40
0.2235528
50
269.3314664
51
287.2178029
0
ARC
8
DEFAULT_255_1_234
10
23.7355754
20
60.4813279
40
0.1714108
50
287.7958004
51
329.080874
0
ARC
8
DEFAULT_255_1_234
10
23.6398211
20
60.541093
40
0.2842745
50
328.6634704
51
343.3325132
0
ARC
8
DEFAULT_255_1_234
10
23.4225231
20
60.6087863
40
0.5118644
50
343.0499468
51
351.9393422
0
ARC
8
DEFAULT_255_1_234
10
23.0758531
20
60.6598949
40
0.8622784
50
351.8069023
51
357.7959224
0
ARC
8
DEFAULT_255_1_234
10
22.7523087
20
60.6766721
40
1.1862365
50
357.5871873
51
359.2677531
0
LINE
8
DEFAULT_255_1_234
10
22.5167458
20
69.3098211
11
22.8203456
21
68.722701
0
LINE
8
DEFAULT_255_1_234
10
22.8203456
20
68.722701
11
23.1255516
21
69.3098211
0
LINE
8
DEFAULT_255_1_234
10
23.1255516
20
69.3098211
11
23.3006435
21
69.3098211
0
LINE
8
DEFAULT_255_1_234
10
23.3006435
20
69.3098211
11
22.8974502
21
68.5765234
0
LINE
8
DEFAULT_255_1_234
10
22.8974502
20
68.5765234
11
22.8974502
21
68.1404
0
LINE
8
DEFAULT_255_1_234
10
22.8974502
20
68.1404
11
22.7432409
21
68.1404
0
LINE
8
DEFAULT_255_1_234
10
22.7432409
20
68.1404
11
22.7432409
21
68.5765234
0
LINE
8
DEFAULT_255_1_234
10
22.7432409
20
68.5765234
11
22.3400476
21
69.3098211
0
LINE
8
DEFAULT_255_1_234
10
22.3400476
20
69.3098211
11
22.5167458
21
69.3098211
0
LINE
8
DEFAULT_255_1_234
10
24.1319284
20
68.8423739
11
24.1319284
21
68.7990025
0
LINE
8
DEFAULT_255_1_234
10
23.5897861
20
68.1395968
11
23.5608718
21
68.1395968
0
LINE
8
DEFAULT_255_1_234
10
23.5608718
20
68.1395968
11
23.5608718
21
68.2648919
0
LINE
8
DEFAULT_255_1_234
10
23.5608718
20
68.2648919
11
23.5921956
21
68.2648919
0
LINE
8
DEFAULT_255_1_234
10
23.9833413
20
68.8134597
11
23.9833413
21
68.8728945
0
ARC
8
DEFAULT_255_1_234
10
23.7039682
20
68.8880403
40
0.3635579
50
297.4037347
51
320.016758
0
ARC
8
DEFAULT_255_1_234
10
23.7329631
20
68.832324
40
0.3007486
50
270.2633101
51
297.3851877
0
ARC
8
DEFAULT_255_1_234
10
23.7295587
20
68.8786904
40
0.3471448
50
269.9966443
51
270.7900392
0
ARC
8
DEFAULT_255_1_234
10
23.7270068
20
68.8785143
40
0.3469779
50
254.5999133
51
270.4180344
0
ARC
8
DEFAULT_255_1_234
10
23.7127428
20
68.8220647
40
0.2887697
50
236.4717942
51
254.3541279
0
ARC
8
DEFAULT_255_1_234
10
23.7283645
20
68.8430711
40
0.3149125
50
208.4727207
51
236.2134933
0
ARC
8
DEFAULT_255_1_234
10
23.792242
20
68.8821455
40
0.3897115
50
204.3447514
51
209.0453999
0
ARC
8
DEFAULT_255_1_234
10
23.8601996
20
68.9109656
40
0.4635101
50
183.9375985
51
204.1276318
0
ARC
8
DEFAULT_255_1_234
10
23.9510247
20
68.9207482
40
0.5548037
50
179.9652252
51
184.3013875
0
ARC
8
DEFAULT_255_1_234
10
23.9270294
20
68.9240507
40
0.5308164
50
166.7585989
51
180.3201225
0
ARC
8
DEFAULT_255_1_234
10
23.8423907
20
68.9424488
40
0.4442163
50
154.6955053
51
166.5679793
0
ARC
8
DEFAULT_255_1_234
10
23.7570777
20
68.985421
40
0.3487299
50
136.3324195
51
155.0871442
0
ARC
8
DEFAULT_255_1_234
10
23.728985
20
69.0094954
40
0.3117924
50
121.236733
51
135.9680508
0
ARC
8
DEFAULT_255_1_234
10
23.7430348
20
68.9834743
40
0.3413302
50
96.845628
51
120.9881519
0
ARC
8
DEFAULT_255_1_234
10
23.757593
20
68.8899515
40
0.4359341
50
89.8870174
51
97.2802754
0
ARC
8
DEFAULT_255_1_234
10
23.7628368
20
68.9537095
40
0.3722009
50
70.6505584
51
90.6749113
0
ARC
8
DEFAULT_255_1_234
10
23.7759647
20
69.0050361
40
0.3194571
50
36.7492984
51
69.8219918
0
ARC
8
DEFAULT_255_1_234
10
23.6760812
20
68.9271993
40
0.4460685
50
15.39587
51
37.0840084
0
ARC
8
DEFAULT_255_1_234
10
23.4631245
20
68.8651242
40
0.6678714
50
3.9488873
51
15.6798563
0
ARC
8
DEFAULT_255_1_234
10
23.2229873
20
68.8434964
40
0.9089418
50
359.929245
51
4.2665314
0
ARC
8
DEFAULT_255_1_234
10
22.762431
20
68.7923513
40
1.3695135
50
352.8366322
51
0.2782669
0
ARC
8
DEFAULT_255_1_234
10
23.2911989
20
68.7236629
40
0.8363105
50
341.8359505
51
352.9884176
0
ARC
8
DEFAULT_255_1_234
10
23.6130708
20
68.61517
40
0.4966642
50
322.8578092
51
342.1527901
0
ARC
8
DEFAULT_255_1_234
10
23.6994664
20
68.5562384
40
0.3922466
50
319.334325
51
322.0998941
0
ARC
8
DEFAULT_255_1_234
10
23.6685001
20
68.5873209
40
0.4360033
50
285.9541367
51
318.8878087
0
ARC
8
DEFAULT_255_1_234
10
23.5958262
20
68.81836
40
0.678149
50
272.9281676
51
286.4922826
0
ARC
8
DEFAULT_255_1_234
10
23.576838
20
69.0434587
40
0.9039547
50
270.8207226
51
273.4012994
0
ARC
8
DEFAULT_255_1_234
10
23.5857231
20
68.8615666
40
0.5967098
50
270.6214993
51
281.4062806
0
ARC
8
DEFAULT_255_1_234
10
23.6287212
20
68.6559833
40
0.3866861
50
281.1852553
51
299.0621114
0
ARC
8
DEFAULT_255_1_234
10
23.6660783
20
68.5838798
40
0.3055236
50
299.5067782
51
313.1200873
0
ARC
8
DEFAULT_255_1_234
10
23.668275
20
68.5759554
40
0.2982623
50
313.8526205
51
338.5989322
0
ARC
8
DEFAULT_255_1_234
10
23.5058824
20
68.6426781
40
0.4738131
50
338.2523585
51
351.2430902
0
ARC
8
DEFAULT_255_1_234
10
23.264812
20
68.6836447
40
0.7183203
50
350.9409515
51
357.6691871
0
ARC
8
DEFAULT_255_1_234
10
23.753855
20
68.8838764
40
0.2294452
50
269.9447023
51
306.8248917
0
ARC
8
DEFAULT_255_1_234
10
23.7301465
20
68.9261898
40
0.2775994
50
305.5072438
51
327.0773448
0
ARC
8
DEFAULT_255_1_234
10
23.7419906
20
68.9167025
40
0.2625056
50
327.4104943
51
336.840169
0
ARC
8
DEFAULT_255_1_234
10
23.4325971
20
68.8761302
40
0.5507537
50
359.6633817
51
10.117533
0
ARC
8
DEFAULT_255_1_234
10
23.6079769
20
68.9085777
40
0.372403
50
9.9430141
51
26.7700076
0
ARC
8
DEFAULT_255_1_234
10
23.6676981
20
68.9361187
40
0.3066865
50
27.2015464
51
34.6829435
0
ARC
8
DEFAULT_255_1_234
10
23.7166462
20
68.9728977
40
0.245519
50
34.1250343
51
50.3070065
0
ARC
8
DEFAULT_255_1_234
10
23.7613141
20
69.0263385
40
0.1758693
50
50.3851167
51
90.6705993
0
ARC
8
DEFAULT_255_1_234
10
23.7566374
20
68.9958799
40
0.2063326
50
89.272901
51
111.9140407
0
ARC
8
DEFAULT_255_1_234
10
23.7546902
20
69.009944
40
0.1925887
50
112.9382311
51
142.5320782
0
ARC
8
DEFAULT_255_1_234
10
23.8093082
20
68.9655969
40
0.2629232
50
142.1021256
51
166.3835592
0
ARC
8
DEFAULT_255_1_234
10
23.9274387
20
68.9350915
40
0.3849193
50
166.1100289
51
178.665427
0
ARC
8
DEFAULT_255_1_234
10
24.0321977
20
68.9292117
40
0.4897989
50
178.2632126
51
180.0111093
0
ARC
8
DEFAULT_255_1_234
10
23.9520097
20
68.9263728
40
0.40962
50
179.6161962
51
191.8787166
0
ARC
8
DEFAULT_255_1_234
10
23.8299936
20
68.8993896
40
0.2846655
50
191.6191692
51
215.2972286
0
ARC
8
DEFAULT_255_1_234
10
23.8103127
20
68.8878918
40
0.2619665
50
215.7320102
51
216.5355409
0
ARC
8
DEFAULT_255_1_234
10
23.7564213
20
68.8446647
40
0.1929497
50
215.7486685
51
239.9727502
0
ARC
8
DEFAULT_255_1_234
10
23.7494129
20
68.8395894
40
0.1850822
50
241.0650169
51
269.2810483
0
ARC
8
DEFAULT_255_1_234
10
23.7536044
20
68.8886371
40
0.2342059
50
268.4062526
51
270.0071348
0
LINE
8
DEFAULT_255_1_234
10
22.5167458
20
77.2473211
11
22.8203456
21
76.660201
0
LINE
8
DEFAULT_255_1_234
10
22.8203456
20
76.660201
11
23.1255516
21
77.2473211
0
LINE
8
DEFAULT_255_1_234
10
23.1255516
20
77.2473211
11
23.3006435
21
77.2473211
0
LINE
8
DEFAULT_255_1_234
10
23.3006435
20
77.2473211
11
22.8974502
21
76.5140234
0
LINE
8
DEFAULT_255_1_234
10
22.8974502
20
76.5140234
11
22.8974502
21
76.0779
0
LINE
8
DEFAULT_255_1_234
10
22.8974502
20
76.0779
11
22.7432409
21
76.0779
0
LINE
8
DEFAULT_255_1_234
10
22.7432409
20
76.0779
11
22.7432409
21
76.5140234
0
LINE
8
DEFAULT_255_1_234
10
22.7432409
20
76.5140234
11
22.3400476
21
77.2473211
0
LINE
8
DEFAULT_255_1_234
10
22.3400476
20
77.2473211
11
22.5167458
21
77.2473211
0
ARC
8
DEFAULT_255_1_234
10
23.8400662
20
76.9395703
40
0.2822356
50
338.8763615
51
0.5166041
0
ARC
8
DEFAULT_255_1_234
10
23.8569316
20
76.9350208
40
0.2648703
50
325.8412414
51
338.4795939
0
ARC
8
DEFAULT_255_1_234
10
23.8178684
20
76.9621042
40
0.3124019
50
296.7586019
51
325.753654
0
ARC
8
DEFAULT_255_1_234
10
23.7890792
20
77.0105789
40
0.368668
50
296.0902311
51
297.3618122
0
ARC
8
DEFAULT_255_1_234
10
23.814825
20
76.3551041
40
0.3518806
50
47.9009248
51
67.1946869
0
ARC
8
DEFAULT_255_1_234
10
23.8344492
20
76.3797395
40
0.320451
50
35.236241
51
47.551371
0
ARC
8
DEFAULT_255_1_234
10
23.860611
20
76.3971993
40
0.2890103
50
359.2759738
51
35.4014081
0
ARC
8
DEFAULT_255_1_234
10
23.7861141
20
76.3898826
40
0.3635026
50
343.1294516
51
0.5776525
0
ARC
8
DEFAULT_255_1_234
10
23.8585686
20
76.369933
40
0.2883832
50
310.8497458
51
342.744803
0
ARC
8
DEFAULT_255_1_234
10
23.8167799
20
76.4176294
40
0.3517954
50
281.5473923
51
310.9169905
0
ARC
8
DEFAULT_255_1_234
10
23.7811249
20
76.5729084
40
0.5110832
50
269.6192722
51
281.9789957
0
ARC
8
DEFAULT_255_1_234
10
23.7739038
20
76.5729828
40
0.5111606
50
257.4584469
51
270.4287458
0
ARC
8
DEFAULT_255_1_234
10
23.7358181
20
76.4126344
40
0.3463762
50
228.7553743
51
257.8484423
0
ARC
8
DEFAULT_255_1_234
10
23.7048379
20
76.3753442
40
0.297916
50
184.0104442
51
228.5071787
0
ARC
8
DEFAULT_255_1_234
10
23.8211323
20
76.3930512
40
0.4152734
50
179.9315461
51
185.3254504
0
ARC
8
DEFAULT_255_1_234
10
23.7034969
20
76.3967992
40
0.2976554
50
145.6795913
51
180.6259649
0
ARC
8
DEFAULT_255_1_234
10
23.7198318
20
76.3853929
40
0.3175776
50
115.5537925
51
145.6416199
0
ARC
8
DEFAULT_255_1_234
10
23.7539249
20
76.3243028
40
0.3874232
50
113.2437915
51
116.2054627
0
ARC
8
DEFAULT_255_1_234
10
23.7386461
20
76.964158
40
0.3154751
50
222.9548379
51
244.1372485
0
ARC
8
DEFAULT_255_1_234
10
23.7264536
20
76.9504834
40
0.2972382
50
213.3439227
51
222.6271327
0
ARC
8
DEFAULT_255_1_234
10
23.7072471
20
76.9374308
40
0.274019
50
180.4316517
51
213.2713999
0
ARC
8
DEFAULT_255_1_234
10
23.7647472
20
76.942111
40
0.33158
50
179.9992944
51
181.1655061
0
ARC
8
DEFAULT_255_1_234
10
23.8056889
20
76.9455561
40
0.3725376
50
164.6186108
51
180.5292368
0
ARC
8
DEFAULT_255_1_234
10
23.7158752
20
76.9697101
40
0.2795349
50
132.2454369
51
164.5092287
0
ARC
8
DEFAULT_255_1_234
10
23.7445856
20
76.9372028
40
0.3229019
50
100.7052766
51
132.1387266
0
ARC
8
DEFAULT_255_1_234
10
23.7750828
20
76.7994086
40
0.4639835
50
89.6732617
51
101.2449487
0
ARC
8
DEFAULT_255_1_234
10
23.7813026
20
76.816899
40
0.4464999
50
76.2876631
51
90.4586123
0
ARC
8
DEFAULT_255_1_234
10
23.8119258
20
76.939122
40
0.3205023
50
47.8240157
51
76.4266918
0
ARC
8
DEFAULT_255_1_234
10
23.8341808
20
76.965159
40
0.2862661
50
6.9168658
51
47.6261438
0
ARC
8
DEFAULT_255_1_234
10
23.7155211
20
76.943237
40
0.4067708
50
359.8419705
51
7.9694496
0
ARC
8
DEFAULT_255_1_234
10
23.7497108
20
76.3991925
40
0.2513121
50
359.4454068
51
16.9256425
0
ARC
8
DEFAULT_255_1_234
10
23.7965919
20
76.4121033
40
0.2027071
50
17.292259
51
45.462717
0
ARC
8
DEFAULT_255_1_234
10
23.7911855
20
76.4074434
40
0.2098212
50
45.3028762
51
83.1921472
0
ARC
8
DEFAULT_255_1_234
10
23.7768539
20
76.3272895
40
0.2911472
50
82.2614531
51
90.143954
0
ARC
8
DEFAULT_255_1_234
10
23.7737659
20
76.350595
40
0.2678513
50
89.4959189
51
104.8579811
0
ARC
8
DEFAULT_255_1_234
10
23.7560918
20
76.417589
40
0.1985654
50
104.8855873
51
135.2448349
0
ARC
8
DEFAULT_255_1_234
10
23.7610691
20
76.4131336
40
0.2052373
50
135.3398955
51
172.104394
0
ARC
8
DEFAULT_255_1_234
10
23.8417749
20
76.3976925
40
0.2873299
50
171.2651929
51
180.1859362
0
ARC
8
DEFAULT_255_1_234
10
23.824845
20
76.3944733
40
0.2704083
50
179.515471
51
193.6466734
0
ARC
8
DEFAULT_255_1_234
10
23.7432219
20
76.3736777
40
0.1861855
50
193.3540587
51
225.8256931
0
ARC
8
DEFAULT_255_1_234
10
23.7472976
20
76.3807524
40
0.1941102
50
226.418029
51
255.8553723
0
ARC
8
DEFAULT_255_1_234
10
23.7729409
20
76.4743998
40
0.2911917
50
255.4655572
51
268.7985967
0
ARC
8
DEFAULT_255_1_234
10
23.7776601
20
76.5582491
40
0.3751331
50
268.3464808
51
270.0104874
0
ARC
8
DEFAULT_255_1_234
10
23.7799989
20
76.4898138
40
0.3067064
50
269.575914
51
282.0823146
0
ARC
8
DEFAULT_255_1_234
10
23.8024898
20
76.3903803
40
0.2047712
50
281.7522535
51
306.6056425
0
ARC
8
DEFAULT_255_1_234
10
23.8123324
20
76.3742487
40
0.1859604
50
307.1350025
51
314.0277951
0
ARC
8
DEFAULT_255_1_234
10
23.8087408
20
76.3768766
40
0.1903475
50
314.2553419
51
350.169324
0
ARC
8
DEFAULT_255_1_234
10
23.7235877
20
76.3953409
40
0.2774269
50
349.4145679
51
0.2930737
0
ARC
8
DEFAULT_255_1_234
10
23.775631
20
76.9112353
40
0.2300764
50
89.477591
51
105.729794
0
ARC
8
DEFAULT_255_1_234
10
23.7620224
20
76.9617637
40
0.1777519
50
105.922966
51
135.1662921
0
ARC
8
DEFAULT_255_1_234
10
23.7640726
20
76.9603419
40
0.1802087
50
135.3053131
51
168.9882338
0
ARC
8
DEFAULT_255_1_234
10
23.8468299
20
76.9413721
40
0.2650806
50
168.3802067
51
180.3602358
0
ARC
8
DEFAULT_255_1_234
10
23.8239878
20
76.9376041
40
0.2422425
50
179.5029707
51
194.9126783
0
ARC
8
DEFAULT_255_1_234
10
23.7654539
20
76.922211
40
0.1817188
50
194.9722181
51
224.1943972
0
ARC
8
DEFAULT_255_1_234
10
23.7626406
20
76.9199169
40
0.1781027
50
224.2961434
51
262.0157375
0
ARC
8
DEFAULT_255_1_234
10
23.7768649
20
76.9930661
40
0.2525492
50
261.1250369
51
270.1959853
0
ARC
8
DEFAULT_255_1_234
10
23.7798404
20
76.9743339
40
0.233825
50
269.4825617
51
285.0988277
0
ARC
8
DEFAULT_255_1_234
10
23.7952563
20
76.916499
40
0.1739712
50
285.1585659
51
315.9484648
0
ARC
8
DEFAULT_255_1_234
10
23.7863575
20
76.9246886
40
0.1860616
50
316.0412958
51
351.9162715
0
ARC
8
DEFAULT_255_1_234
10
23.713053
20
76.9388245
40
0.2606517
50
351.1056823
51
0.1936567
0
ARC
8
DEFAULT_255_1_234
10
23.7393359
20
76.9418369
40
0.234377
50
359.4789506
51
16.0679113
0
ARC
8
DEFAULT_255_1_234
10
23.7869318
20
76.954681
40
0.1850875
50
16.3251951
51
44.791304
0
ARC
8
DEFAULT_255_1_234
10
23.7851599
20
76.9547339
40
0.186312
50
44.3958661
51
88.2498933
0
ARC
8
DEFAULT_255_1_234
10
23.7778153
20
76.8936154
40
0.2476868
50
86.9833827
51
90.0200148
0
LINE
8
DEFAULT_255_1_234
10
22.5167458
20
85.1848211
11
22.8203456
21
84.597701
0
LINE
8
DEFAULT_255_1_234
10
22.8203456
20
84.597701
11
23.1255516
21
85.1848211
0
LINE
8
DEFAULT_255_1_234
10
23.1255516
20
85.1848211
11
23.3006435
21
85.1848211
0
LINE
8
DEFAULT_255_1_234
10
23.3006435
20
85.1848211
11
22.8974502
21
84.4515234
0
LINE
8
DEFAULT_255_1_234
10
22.8974502
20
84.4515234
11
22.8974502
21
84.0154
0
LINE
8
DEFAULT_255_1_234
10
22.8974502
20
84.0154
11
22.7432409
21
84.0154
0
LINE
8
DEFAULT_255_1_234
10
22.7432409
20
84.0154
11
22.7432409
21
84.4515234
0
LINE
8
DEFAULT_255_1_234
10
22.7432409
20
84.4515234
11
22.3400476
21
85.1848211
0
LINE
8
DEFAULT_255_1_234
10
22.3400476
20
85.1848211
11
22.5167458
21
85.1848211
0
LINE
8
DEFAULT_255_1_234
10
24.1680712
20
85.1848211
11
24.1680712
21
85.101291
0
LINE
8
DEFAULT_255_1_234
10
24.1680712
20
85.101291
11
23.6837574
21
84.0154
0
LINE
8
DEFAULT_255_1_234
10
23.6837574
20
84.0154
11
23.5279417
21
84.0154
0
LINE
8
DEFAULT_255_1_234
10
23.5279417
20
84.0154
11
24.0106492
21
85.0627387
0
LINE
8
DEFAULT_255_1_234
10
24.0106492
20
85.0627387
11
23.3777482
21
85.0627387
0
LINE
8
DEFAULT_255_1_234
10
23.3777482
20
85.0627387
11
23.3777482
21
85.1848211
0
LINE
8
DEFAULT_255_1_234
10
23.3777482
20
85.1848211
11
24.1680712
21
85.1848211
0
LINE
8
DEFAULT_255_1_234
10
22.5167458
20
93.1223211
11
22.8203456
21
92.535201
0
LINE
8
DEFAULT_255_1_234
10
22.8203456
20
92.535201
11
23.1255516
21
93.1223211
0
LINE
8
DEFAULT_255_1_234
10
23.1255516
20
93.1223211
11
23.3006435
21
93.1223211
0
LINE
8
DEFAULT_255_1_234
10
23.3006435
20
93.1223211
11
22.8974502
21
92.3890234
0
LINE
8
DEFAULT_255_1_234
10
22.8974502
20
92.3890234
11
22.8974502
21
91.9529
0
LINE
8
DEFAULT_255_1_234
10
22.8974502
20
91.9529
11
22.7432409
21
91.9529
0
LINE
8
DEFAULT_255_1_234
10
22.7432409
20
91.9529
11
22.7432409
21
92.3890234
0
LINE
8
DEFAULT_255_1_234
10
22.7432409
20
92.3890234
11
22.3400476
21
93.1223211
0
LINE
8
DEFAULT_255_1_234
10
22.3400476
20
93.1223211
11
22.5167458
21
93.1223211
0
LINE
8
DEFAULT_255_1_234
10
23.9696873
20
93.1231243
11
23.996192
21
93.1231243
0
LINE
8
DEFAULT_255_1_234
10
23.996192
20
93.1231243
11
23.996192
21
92.997026
0
LINE
8
DEFAULT_255_1_234
10
23.996192
20
92.997026
11
23.9688841
21
92.997026
0
LINE
8
DEFAULT_255_1_234
10
23.4219228
20
92.3978583
11
23.4219228
21
92.4548836
0
LINE
8
DEFAULT_255_1_234
10
23.5713131
20
92.4356075
11
23.5713131
21
92.3809917
0
ARC
8
DEFAULT_255_1_234
10
23.9741189
20
92.4972455
40
0.4998079
50
90.6001036
51
104.514704
0
ARC
8
DEFAULT_255_1_234
10
23.9352705
20
92.6417131
40
0.3502176
50
104.2855254
51
133.862935
0
ARC
8
DEFAULT_255_1_234
10
23.9516462
20
92.630883
40
0.3693984
50
134.5302688
51
161.6210873
0
ARC
8
DEFAULT_255_1_234
10
24.1169651
20
92.5725895
40
0.5446739
50
161.2849839
51
174.2076652
0
ARC
8
DEFAULT_255_1_234
10
24.2576588
20
92.5531787
40
0.6866274
50
173.7810589
51
174.9254635
0
ARC
8
DEFAULT_255_1_234
10
23.802642
20
92.4148839
40
0.3033419
50
95.8330959
51
138.9954921
0
ARC
8
DEFAULT_255_1_234
10
23.8249776
20
92.2870375
40
0.4328947
50
89.8753725
51
97.0544009
0
ARC
8
DEFAULT_255_1_234
10
23.8297242
20
92.3705748
40
0.3493769
50
71.6407809
51
90.6240094
0
ARC
8
DEFAULT_255_1_234
10
23.8447815
20
92.4260082
40
0.2920396
50
39.6367836
51
71.019018
0
ARC
8
DEFAULT_255_1_234
10
23.7811288
20
92.3709998
40
0.3761538
50
10.658731
51
39.9043955
0
ARC
8
DEFAULT_255_1_234
10
23.6263371
20
92.3373686
40
0.5345136
50
359.682601
51
11.132623
0
ARC
8
DEFAULT_255_1_234
10
23.6223502
20
92.330301
40
0.5385081
50
347.2486944
51
0.4369317
0
ARC
8
DEFAULT_255_1_234
10
23.7890979
20
92.2901807
40
0.3670249
50
318.1409698
51
347.6118597
0
ARC
8
DEFAULT_255_1_234
10
23.8215972
20
92.2634702
40
0.3250007
50
275.6342139
51
317.8248465
0
ARC
8
DEFAULT_255_1_234
10
23.7995083
20
92.3934219
40
0.4565864
50
269.8874292
51
276.7917694
0
ARC
8
DEFAULT_255_1_234
10
23.7940154
20
92.2908743
40
0.3540676
50
246.9140195
51
270.7437342
0
ARC
8
DEFAULT_255_1_234
10
23.7946544
20
92.2766384
40
0.3412781
50
218.1665114
51
245.878116
0
ARC
8
DEFAULT_255_1_234
10
23.8826005
20
92.3502279
40
0.455911
50
191.4115814
51
218.6077802
0
ARC
8
DEFAULT_255_1_234
10
24.0764094
20
92.3936833
40
0.6545001
50
179.6345085
51
191.7836486
0
ARC
8
DEFAULT_255_1_234
10
24.6346431
20
92.4615697
40
1.2127388
50
171.4525249
51
180.3158839
0
ARC
8
DEFAULT_255_1_234
10
24.1951307
20
92.5299608
40
0.7679464
50
157.9802646
51
171.6246686
0
ARC
8
DEFAULT_255_1_234
10
23.9737328
20
92.6182421
40
0.5296008
50
141.4298019
51
157.854097
0
ARC
8
DEFAULT_255_1_234
10
23.9095649
20
92.6636381
40
0.4511509
50
102.8715806
51
140.8564722
0
ARC
8
DEFAULT_255_1_234
10
23.9743264
20
92.4196552
40
0.7034845
50
90.3778349
51
103.5869322
0
ARC
8
DEFAULT_255_1_234
10
23.800504
20
92.359173
40
0.2370698
50
89.8751008
51
126.2071704
0
ARC
8
DEFAULT_255_1_234
10
23.805083
20
92.3437303
40
0.2522934
50
124.9745049
51
144.895901
0
ARC
8
DEFAULT_255_1_234
10
23.7875021
20
92.358056
40
0.2296779
50
145.2974905
51
160.2660252
0
ARC
8
DEFAULT_255_1_234
10
24.0947559
20
92.3778071
40
0.5234525
50
179.6514266
51
190.2855912
0
ARC
8
DEFAULT_255_1_234
10
23.9253697
20
92.3458786
40
0.3510893
50
190.0945431
51
207.5098196
0
ARC
8
DEFAULT_255_1_234
10
23.8687966
20
92.3189623
40
0.288489
50
207.9583163
51
216.3251085
0
ARC
8
DEFAULT_255_1_234
10
23.8348074
20
92.2910105
40
0.2445587
50
215.7661442
51
232.5456785
0
ARC
8
DEFAULT_255_1_234
10
23.7965057
20
92.2423482
40
0.1826382
50
232.8005391
51
270.6605633
0
ARC
8
DEFAULT_255_1_234
10
23.8010758
20
92.2787612
40
0.2190529
50
269.35537
51
288.4744281
0
ARC
8
DEFAULT_255_1_234
10
23.8103655
20
92.2438118
40
0.1829749
50
289.1833337
51
322.9683818
0
ARC
8
DEFAULT_255_1_234
10
23.7492177
20
92.2920391
40
0.2608399
50
322.6007884
51
346.5182367
0
ARC
8
DEFAULT_255_1_234
10
23.6334773
20
92.3215616
40
0.3802777
50
346.2582162
51
358.7741648
0
ARC
8
DEFAULT_255_1_234
10
23.5316442
20
92.3270965
40
0.4822176
50
358.3755224
51
0.0098023
0
ARC
8
DEFAULT_255_1_234
10
23.6072629
20
92.3298657
40
0.4066078
50
359.6214041
51
11.2839074
0
ARC
8
DEFAULT_255_1_234
10
23.7349776
20
92.3565066
40
0.2761514
50
11.0482309
51
31.8146458
0
ARC
8
DEFAULT_255_1_234
10
23.7658819
20
92.3732584
40
0.2410679
50
32.3035391
51
38.082671
0
ARC
8
DEFAULT_255_1_234
10
23.8079479
20
92.4113662
40
0.1844966
50
36.825067
51
85.7415724
0
ARC
8
DEFAULT_255_1_234
10
23.8012312
20
92.3613301
40
0.2349122
50
85.0140713
51
90.0513278
0
LINE
8
DEFAULT_255_1_234
10
22.5167458
20
101.0598211
11
22.8203456
21
100.472701
0
LINE
8
DEFAULT_255_1_234
10
22.8203456
20
100.472701
11
23.1255516
21
101.0598211
0
LINE
8
DEFAULT_255_1_234
10
23.1255516
20
101.0598211
11
23.3006435
21
101.0598211
0
LINE
8
DEFAULT_255_1_234
10
23.3006435
20
101.0598211
11
22.8974502
21
100.3265234
0
LINE
8
DEFAULT_255_1_234
10
22.8974502
20
100.3265234
11
22.8974502
21
99.8904
0
LINE
8
DEFAULT_255_1_234
10
22.8974502
20
99.8904
11
22.7432409
21
99.8904
0
LINE
8
DEFAULT_255_1_234
10
22.7432409
20
99.8904
11
22.7432409
21
100.3265234
0
LINE
8
DEFAULT_255_1_234
10
22.7432409
20
100.3265234
11
22.3400476
21
101.0598211
0
LINE
8
DEFAULT_255_1_234
10
22.3400476
20
101.0598211
11
22.5167458
21
101.0598211
0
LINE
8
DEFAULT_255_1_234
10
23.6002273
20
100.4461963
11
23.4813576
21
100.4767169
0
LINE
8
DEFAULT_255_1_234
10
23.4813576
20
100.4767169
11
23.5407925
21
101.0598211
0
LINE
8
DEFAULT_255_1_234
10
23.5407925
20
101.0598211
11
24.1399602
21
101.0598211
0
LINE
8
DEFAULT_255_1_234
10
24.1399602
20
101.0598211
11
24.1399602
21
100.9224784
0
LINE
8
DEFAULT_255_1_234
10
24.1399602
20
100.9224784
11
23.6668908
21
100.9224784
0
LINE
8
DEFAULT_255_1_234
10
23.6668908
20
100.9224784
11
23.6315511
21
100.6036184
0
LINE
8
DEFAULT_255_1_234
10
23.4395926
20
100.1980156
11
23.580148
21
100.1980156
0
LINE
8
DEFAULT_255_1_234
10
23.6395829
20
100.4783232
11
23.6002273
21
100.4461963
0
ARC
8
DEFAULT_255_1_234
10
23.8170295
20
100.285623
40
0.3681349
50
93.7182161
51
120.2538958
0
ARC
8
DEFAULT_255_1_234
10
23.8264558
20
100.2048394
40
0.449379
50
89.9660152
51
94.2496022
0
ARC
8
DEFAULT_255_1_234
10
23.8305292
20
100.2637549
40
0.390482
50
73.8043271
51
90.5585896
0
ARC
8
DEFAULT_255_1_234
10
23.8540189
20
100.3495602
40
0.3015334
50
41.3071453
51
73.5430202
0
ARC
8
DEFAULT_255_1_234
10
23.8124016
20
100.3137324
40
0.3564457
50
13.5075983
51
41.2174222
0
ARC
8
DEFAULT_255_1_234
10
23.648222
20
100.2707486
40
0.5261351
50
1.1331335
51
13.8829381
0
ARC
8
DEFAULT_255_1_234
10
23.5070589
20
100.2631665
40
0.6674378
50
359.9919444
51
1.544251
0
ARC
8
DEFAULT_255_1_234
10
23.6347415
20
100.259028
40
0.5397702
50
347.8572367
51
0.4293338
0
ARC
8
DEFAULT_255_1_234
10
23.8097733
20
100.2193736
40
0.3603188
50
323.673004
51
348.1672506
0
ARC
8
DEFAULT_255_1_234
10
23.8392241
20
100.2014168
40
0.3259678
50
316.8171152
51
323.1492751
0
ARC
8
DEFAULT_255_1_234
10
23.845343
20
100.197746
40
0.3189975
50
281.8396411
51
316.5457803
0
ARC
8
DEFAULT_255_1_234
10
23.8077694
20
100.3532762
40
0.4789527
50
269.5770101
51
282.4214771
0
ARC
8
DEFAULT_255_1_234
10
23.8006505
20
100.3319125
40
0.45759
50
256.2427136
51
270.4486331
0
ARC
8
DEFAULT_255_1_234
10
23.7707408
20
100.2119229
40
0.3339303
50
228.9023911
51
256.3314342
0
ARC
8
DEFAULT_255_1_234
10
23.763364
20
100.2002746
40
0.32031
50
193.753695
51
228.5271154
0
ARC
8
DEFAULT_255_1_234
10
23.8871594
20
100.23658
40
0.4492253
50
184.924711
51
194.497588
0
ARC
8
DEFAULT_255_1_234
10
23.9064161
20
100.2401591
40
0.3289787
50
187.3600538
51
198.6732863
0
ARC
8
DEFAULT_255_1_234
10
23.8014455
20
100.2037674
40
0.217884
50
198.4451669
51
217.794479
0
ARC
8
DEFAULT_255_1_234
10
23.771863
20
100.1828085
40
0.1816698
50
218.2887171
51
228.5612368
0
ARC
8
DEFAULT_255_1_234
10
23.7816417
20
100.1959963
40
0.1980329
50
228.9654866
51
258.1234728
0
ARC
8
DEFAULT_255_1_234
10
23.8022127
20
100.2840833
40
0.2884748
50
257.7258293
51
270.401361
0
ARC
8
DEFAULT_255_1_234
10
23.8067014
20
100.2395821
40
0.2439788
50
269.4204404
51
286.4209037
0
ARC
8
DEFAULT_255_1_234
10
23.8215501
20
100.1856657
40
0.1880666
50
286.7251356
51
320.600362
0
ARC
8
DEFAULT_255_1_234
10
23.7832326
20
100.2167595
40
0.2374121
50
320.6712579
51
344.5441685
0
ARC
8
DEFAULT_255_1_234
10
23.6675652
20
100.2507045
40
0.3579479
50
344.2412205
51
356.7357071
0
ARC
8
DEFAULT_255_1_234
10
23.5426801
20
100.2610444
40
0.4832297
50
356.3548756
51
0.0500261
0
ARC
8
DEFAULT_255_1_234
10
23.676331
20
100.264165
40
0.3495889
50
359.5576869
51
12.953486
0
ARC
8
DEFAULT_255_1_234
10
23.7818207
20
100.2897434
40
0.2410532
50
12.6490276
51
41.6081334
0
ARC
8
DEFAULT_255_1_234
10
23.8048578
20
100.3093321
40
0.2108218
50
41.7850273
51
85.9892764
0
ARC
8
DEFAULT_255_1_234
10
23.7925315
20
100.2280462
40
0.2928454
50
84.6957577
51
90.0676183
0
ARC
8
DEFAULT_255_1_234
10
23.7901799
20
100.1611716
40
0.3597255
50
89.6804936
51
99.1614436
0
ARC
8
DEFAULT_255_1_234
10
23.769643
20
100.2839131
40
0.235281
50
98.9830931
51
113.8908934
0
ARC
8
DEFAULT_255_1_234
10
23.746684
20
100.3380587
40
0.176479
50
114.1950727
51
127.3641004
0
LINE
8
DEFAULT_255_1_234
10
22.4109458
20
108.9973211
11
22.7145456
21
108.410201
0
LINE
8
DEFAULT_255_1_234
10
22.7145456
20
108.410201
11
23.0197516
21
108.9973211
0
LINE
8
DEFAULT_255_1_234
10
23.0197516
20
108.9973211
11
23.1948435
21
108.9973211
0
LINE
8
DEFAULT_255_1_234
10
23.1948435
20
108.9973211
11
22.7916502
21
108.2640234
0
LINE
8
DEFAULT_255_1_234
10
22.7916502
20
108.2640234
11
22.7916502
21
107.8279
0
LINE
8
DEFAULT_255_1_234
10
22.7916502
20
107.8279
11
22.6374409
21
107.8279
0
LINE
8
DEFAULT_255_1_234
10
22.6374409
20
107.8279
11
22.6374409
21
108.2640234
0
LINE
8
DEFAULT_255_1_234
10
22.6374409
20
108.2640234
11
22.2342476
21
108.9973211
0
LINE
8
DEFAULT_255_1_234
10
22.2342476
20
108.9973211
11
22.4109458
21
108.9973211
0
LINE
8
DEFAULT_255_1_234
10
23.9345666
20
108.9973211
11
23.9345666
21
108.220652
0
LINE
8
DEFAULT_255_1_234
10
23.9345666
20
108.220652
11
24.0968077
21
108.220652
0
LINE
8
DEFAULT_255_1_234
10
24.0968077
20
108.220652
11
24.0968077
21
108.0993728
0
LINE
8
DEFAULT_255_1_234
10
24.0968077
20
108.0993728
11
23.9345666
21
108.0993728
0
LINE
8
DEFAULT_255_1_234
10
23.9345666
20
108.0993728
11
23.9345666
21
107.8279
0
LINE
8
DEFAULT_255_1_234
10
23.9345666
20
107.8279
11
23.7851763
21
107.8279
0
LINE
8
DEFAULT_255_1_234
10
23.7851763
20
107.8279
11
23.7851763
21
108.0993728
0
LINE
8
DEFAULT_255_1_234
10
23.7851763
20
108.0993728
11
23.252672
21
108.0993728
0
LINE
8
DEFAULT_255_1_234
10
23.252672
20
108.0993728
11
23.252672
21
108.1869187
0
LINE
8
DEFAULT_255_1_234
10
23.252672
20
108.1869187
11
23.7763414
21
108.9973211
0
LINE
8
DEFAULT_255_1_234
10
23.7763414
20
108.9973211
11
23.9345666
21
108.9973211
0
LINE
8
DEFAULT_255_1_234
10
23.7675064
20
108.7619912
11
23.4213385
21
108.220652
0
LINE
8
DEFAULT_255_1_234
10
23.4213385
20
108.220652
11
23.7851763
21
108.220652
0
LINE
8
DEFAULT_255_1_234
10
23.7851763
20
108.220652
11
23.7851763
21
108.7941181
0
LINE
8
DEFAULT_255_1_234
10
23.7851763
20
108.7941181
11
23.7675064
21
108.7619912
0
LINE
8
DEFAULT_255_1_234
10
22.5167458
20
116.9348211
11
22.8203456
21
116.347701
0
LINE
8
DEFAULT_255_1_234
10
22.8203456
20
116.347701
11
23.1255516
21
116.9348211
0
LINE
8
DEFAULT_255_1_234
10
23.1255516
20
116.9348211
11
23.3006435
21
116.9348211
0
LINE
8
DEFAULT_255_1_234
10
23.3006435
20
116.9348211
11
22.8974502
21
116.2015234
0
LINE
8
DEFAULT_255_1_234
10
22.8974502
20
116.2015234
11
22.8974502
21
115.7654
0
LINE
8
DEFAULT_255_1_234
10
22.8974502
20
115.7654
11
22.7432409
21
115.7654
0
LINE
8
DEFAULT_255_1_234
10
22.7432409
20
115.7654
11
22.7432409
21
116.2015234
0
LINE
8
DEFAULT_255_1_234
10
22.7432409
20
116.2015234
11
22.3400476
21
116.9348211
0
LINE
8
DEFAULT_255_1_234
10
22.3400476
20
116.9348211
11
22.5167458
21
116.9348211
0
LINE
8
DEFAULT_255_1_234
10
23.6291416
20
116.3011169
11
23.6291416
21
116.4223962
0
LINE
8
DEFAULT_255_1_234
10
23.6291416
20
116.4223962
11
23.7407828
21
116.4223962
0
LINE
8
DEFAULT_255_1_234
10
23.5504306
20
116.6280087
11
23.4018434
21
116.6280087
0
LINE
8
DEFAULT_255_1_234
10
23.3914021
20
116.0738188
11
23.5407925
21
116.0738188
0
LINE
8
DEFAULT_255_1_234
10
23.7407828
20
116.3011169
11
23.6291416
21
116.3011169
0
ARC
8
DEFAULT_255_1_234
10
23.7378694
20
116.7616713
40
0.3392876
50
270.4919872
51
281.8951556
0
ARC
8
DEFAULT_255_1_234
10
23.7619956
20
116.6514702
40
0.2264817
50
281.6691735
51
301.2943132
0
ARC
8
DEFAULT_255_1_234
10
23.7790166
20
116.6203304
40
0.1910381
50
301.7833094
51
311.7545298
0
ARC
8
DEFAULT_255_1_234
10
23.7881742
20
116.6101748
40
0.1773635
50
311.7323931
51
354.2802411
0
ARC
8
DEFAULT_255_1_234
10
23.7155367
20
116.6226722
40
0.2509385
50
353.0937916
51
0.1181479
0
ARC
8
DEFAULT_255_1_234
10
23.6694152
20
116.6274386
40
0.2970898
50
359.1805295
51
15.0453146
0
ARC
8
DEFAULT_255_1_234
10
23.8039989
20
116.6666992
40
0.1569564
50
13.9577229
51
77.6713066
0
ARC
8
DEFAULT_255_1_234
10
23.7653518
20
116.5281949
40
0.3006298
50
76.1116566
51
90.7026153
0
ARC
8
DEFAULT_255_1_234
10
23.7594356
20
116.5555545
40
0.2732568
50
89.5324876
51
103.531937
0
ARC
8
DEFAULT_255_1_234
10
23.7393801
20
116.6354884
40
0.1908508
50
103.2931773
51
133.5619022
0
ARC
8
DEFAULT_255_1_234
10
23.7349289
20
116.6414375
40
0.1834746
50
133.8349307
51
173.5344437
0
ARC
8
DEFAULT_255_1_234
10
23.8072332
20
116.6286213
40
0.2568033
50
172.5096846
51
180.1366907
0
ARC
8
DEFAULT_255_1_234
10
23.7121226
20
116.6320622
40
0.3103056
50
155.3484492
51
180.7484736
0
ARC
8
DEFAULT_255_1_234
10
23.7072315
20
116.6291846
40
0.3070957
50
131.5744599
51
154.4798489
0
ARC
8
DEFAULT_255_1_234
10
23.7385462
20
116.597531
40
0.3515643
50
96.9875458
51
131.9690667
0
ARC
8
DEFAULT_255_1_234
10
23.7604942
20
116.4729636
40
0.4779224
50
89.8596053
51
97.7825159
0
ARC
8
DEFAULT_255_1_234
10
23.7653005
20
116.4467616
40
0.5041361
50
78.3655447
51
90.4131539
0
ARC
8
DEFAULT_255_1_234
10
23.8010923
20
116.6126887
40
0.3344039
50
56.6229102
51
78.638727
0
ARC
8
DEFAULT_255_1_234
10
23.8225867
20
116.6502805
40
0.2912001
50
47.0253525
51
56.0854072
0
ARC
8
DEFAULT_255_1_234
10
23.8245647
20
116.6542223
40
0.2869704
50
10.9208013
51
46.7778124
0
ARC
8
DEFAULT_255_1_234
10
23.6881713
20
116.6226857
40
0.426899
50
359.6364486
51
11.6087304
0
ARC
8
DEFAULT_255_1_234
10
23.8716557
20
116.6211752
40
0.243409
50
332.3549906
51
359.7179418
0
ARC
8
DEFAULT_255_1_234
10
23.8066159
20
116.6520142
40
0.3153459
50
325.2333722
51
332.8745602
0
ARC
8
DEFAULT_255_1_234
10
23.8218783
20
116.6413828
40
0.2967456
50
292.9802137
51
325.2392345
0
ARC
8
DEFAULT_255_1_234
10
23.7944157
20
116.6947863
40
0.3566604
50
292.5402179
51
293.6924929
0
ARC
8
DEFAULT_255_1_234
10
23.8336752
20
116.0493091
40
0.3307468
50
57.6435486
51
72.8625112
0
ARC
8
DEFAULT_255_1_234
10
23.8691252
20
116.1067549
40
0.2632492
50
36.7248896
51
57.4697979
0
ARC
8
DEFAULT_255_1_234
10
23.8679885
20
116.108022
40
0.2634081
50
8.0545065
51
36.356114
0
ARC
8
DEFAULT_255_1_234
10
23.781707
20
116.0925174
40
0.3510261
50
359.8320645
51
8.5869982
0
ARC
8
DEFAULT_255_1_234
10
23.7441846
20
116.0877101
40
0.3885653
50
343.9829931
51
0.5571613
0
ARC
8
DEFAULT_255_1_234
10
23.8328043
20
116.0634438
40
0.2966924
50
311.6359546
51
343.7651759
0
ARC
8
DEFAULT_255_1_234
10
23.7949613
20
116.1061102
40
0.3537231
50
279.7829875
51
311.6255694
0
ARC
8
DEFAULT_255_1_234
10
23.7648389
20
116.249828
40
0.5004971
50
269.7286406
51
280.3856417
0
ARC
8
DEFAULT_255_1_234
10
23.7586461
20
116.2456996
40
0.4963778
50
256.6828919
51
270.4412052
0
ARC
8
DEFAULT_255_1_234
10
23.7247757
20
116.1072394
40
0.3538406
50
229.4223008
51
256.8556159
0
ARC
8
DEFAULT_255_1_234
10
23.683315
20
116.0605736
40
0.2914296
50
181.818294
51
229.6455059
0
ARC
8
DEFAULT_255_1_234
10
23.7873106
20
116.0736496
40
0.3959084
50
179.9755256
51
183.2323064
0
ARC
8
DEFAULT_255_1_234
10
23.7700852
20
116.0716037
40
0.2293034
50
179.4465117
51
196.2869258
0
ARC
8
DEFAULT_255_1_234
10
23.721326
20
116.0582651
40
0.1787621
50
196.5661473
51
227.705904
0
ARC
8
DEFAULT_255_1_234
10
23.7377355
20
116.0766155
40
0.2033784
50
227.7652068
51
257.8762805
0
ARC
8
DEFAULT_255_1_234
10
23.7602325
20
116.1709156
40
0.3003081
50
257.4584385
51
270.426602
0
ARC
8
DEFAULT_255_1_234
10
23.7647891
20
116.1998996
40
0.329292
50
269.5962073
51
280.8789248
0
ARC
8
DEFAULT_255_1_234
10
23.787742
20
116.0852685
40
0.2123908
50
280.6346389
51
299.8595945
0
ARC
8
DEFAULT_255_1_234
10
23.8068327
20
116.0490212
40
0.171457
50
300.3576302
51
314.5517981
0
ARC
8
DEFAULT_255_1_234
10
23.7985387
20
116.0550919
40
0.1816095
50
315.0728369
51
345.0431014
0
ARC
8
DEFAULT_255_1_234
10
23.7062201
20
116.0819841
40
0.2777492
50
344.5986631
51
357.9269593
0
ARC
8
DEFAULT_255_1_234
10
23.6166528
20
116.0881276
40
0.3674917
50
357.4748886
51
0.0231117
0
ARC
8
DEFAULT_255_1_234
10
23.7189637
20
116.0905679
40
0.2651907
50
359.5047933
51
13.4239635
0
ARC
8
DEFAULT_255_1_234
10
23.8056281
20
116.1127478
40
0.1757509
50
12.9498199
51
48.7551375
0
ARC
8
DEFAULT_255_1_234
10
23.7874014
20
116.08784
40
0.2065134
50
49.5088623
51
72.1836453
0
ARC
8
DEFAULT_255_1_234
10
23.7516167
20
115.9816291
40
0.3185836
50
71.9010081
51
84.3554254
0
ARC
8
DEFAULT_255_1_234
10
23.7354799
20
115.8455326
40
0.4556151
50
84.0193428
51
89.333121
0
LINE
8
DEFAULT_255_1_234
10
22.5167458
20
124.8723211
11
22.8203456
21
124.285201
0
LINE
8
DEFAULT_255_1_234
10
22.8203456
20
124.285201
11
23.1255516
21
124.8723211
0
LINE
8
DEFAULT_255_1_234
10
23.1255516
20
124.8723211
11
23.3006435
21
124.8723211
0
LINE
8
DEFAULT_255_1_234
10
23.3006435
20
124.8723211
11
22.8974502
21
124.1390234
0
LINE
8
DEFAULT_255_1_234
10
22.8974502
20
124.1390234
11
22.8974502
21
123.7029
0
LINE
8
DEFAULT_255_1_234
10
22.8974502
20
123.7029
11
22.7432409
21
123.7029
0
LINE
8
DEFAULT_255_1_234
10
22.7432409
20
123.7029
11
22.7432409
21
124.1390234
0
LINE
8
DEFAULT_255_1_234
10
22.7432409
20
124.1390234
11
22.3400476
21
124.8723211
0
LINE
8
DEFAULT_255_1_234
10
22.3400476
20
124.8723211
11
22.5167458
21
124.8723211
0
LINE
8
DEFAULT_255_1_234
10
24.1793157
20
123.8241792
11
24.1793157
21
123.7029
0
LINE
8
DEFAULT_255_1_234
10
24.1793157
20
123.7029
11
23.4130878
21
123.7029
0
LINE
8
DEFAULT_255_1_234
10
23.4130878
20
123.7029
11
23.4130878
21
123.8097221
0
LINE
8
DEFAULT_255_1_234
10
23.4130878
20
123.8097221
11
23.8178875
21
124.2594995
0
LINE
8
DEFAULT_255_1_234
10
23.5391861
20
124.5277595
11
23.390599
21
124.5277595
0
LINE
8
DEFAULT_255_1_234
10
23.9054334
20
124.1639218
11
23.5921956
21
123.8241792
0
LINE
8
DEFAULT_255_1_234
10
23.5921956
20
123.8241792
11
24.1793157
21
123.8241792
0
ARC
8
DEFAULT_255_1_234
10
22.4688708
20
125.4524527
40
1.8008286
50
318.5132453
51
320.7828378
0
ARC
8
DEFAULT_255_1_234
10
22.9975682
20
125.0221426
40
1.1191493
50
320.7372736
51
323.9737074
0
ARC
8
DEFAULT_255_1_234
10
23.3895539
20
124.7381361
40
0.6350923
50
323.8961724
51
328.6421089
0
ARC
8
DEFAULT_255_1_234
10
23.5942134
20
124.6119031
40
0.3946393
50
328.8299013
51
331.789948
0
ARC
8
DEFAULT_255_1_234
10
23.6939313
20
124.5604509
40
0.2824501
50
331.4255242
51
352.9364833
0
ARC
8
DEFAULT_255_1_234
10
23.7075813
20
124.5573976
40
0.2685315
50
353.2248685
51
0.0169286
0
ARC
8
DEFAULT_255_1_234
10
23.728569
20
124.559695
40
0.2475536
50
359.4866256
51
15.9339782
0
ARC
8
DEFAULT_255_1_234
10
23.7792675
20
124.5733286
40
0.1950618
50
16.1714718
51
43.5284424
0
ARC
8
DEFAULT_255_1_234
10
23.7869984
20
124.5810573
40
0.184134
50
43.4415429
51
83.1661404
0
ARC
8
DEFAULT_255_1_234
10
23.7735902
20
124.5073771
40
0.258926
50
82.160215
51
90.1505798
0
ARC
8
DEFAULT_255_1_234
10
23.7704329
20
124.4536865
40
0.3126255
50
89.5460705
51
102.5418777
0
ARC
8
DEFAULT_255_1_234
10
23.7461416
20
124.5567665
40
0.2067346
50
102.1739365
51
129.2061916
0
ARC
8
DEFAULT_255_1_234
10
23.7382487
20
124.5692094
40
0.1921118
50
129.7279328
51
135.7542026
0
ARC
8
DEFAULT_255_1_234
10
23.7504015
20
124.5595045
40
0.2075944
50
136.175737
51
166.3674722
0
ARC
8
DEFAULT_255_1_234
10
23.8510934
20
124.5325182
40
0.3118201
50
165.9092917
51
178.8683903
0
ARC
8
DEFAULT_255_1_234
10
23.9375795
20
124.5278179
40
0.3983935
50
178.438168
51
180.0083905
0
ARC
8
DEFAULT_255_1_234
10
23.7974398
20
124.5317231
40
0.4068601
50
163.2878735
51
180.5581814
0
ARC
8
DEFAULT_255_1_234
10
23.7172659
20
124.553784
40
0.3237344
50
133.454115
51
162.9470031
0
ARC
8
DEFAULT_255_1_234
10
23.73512
20
124.5348
40
0.349795
50
100.7869394
51
133.4384016
0
ARC
8
DEFAULT_255_1_234
10
23.7698972
20
124.3799319
40
0.5084616
50
89.6605301
51
101.3704185
0
ARC
8
DEFAULT_255_1_234
10
23.7765311
20
124.3860496
40
0.502348
50
78.2171172
51
90.4130393
0
ARC
8
DEFAULT_255_1_234
10
23.8120389
20
124.5484637
40
0.3361092
50
55.9268222
51
78.4888551
0
ARC
8
DEFAULT_255_1_234
10
23.8316829
20
124.5823324
40
0.2970617
50
47.9292255
51
55.4054003
0
ARC
8
DEFAULT_255_1_234
10
23.841839
20
124.5926502
40
0.2825983
50
4.3347696
51
48.0560701
0
ARC
8
DEFAULT_255_1_234
10
23.7322783
20
124.5756601
40
0.393225
50
359.925209
51
5.5967654
0
ARC
8
DEFAULT_255_1_234
10
23.7751675
20
124.5812816
40
0.3503892
50
337.8914096
51
358.9967724
0
ARC
8
DEFAULT_255_1_234
10
23.5038087
20
124.6859706
40
0.6412172
50
326.9135351
51
338.3505194
0
ARC
8
DEFAULT_255_1_234
10
23.1052391
20
124.9414284
40
1.1146189
50
319.6472867
51
327.095818
0
ARC
8
DEFAULT_255_1_234
10
22.7219394
20
125.2576
40
1.6114559
50
317.2586784
51
319.9046139
0
LINE
8
DEFAULT_255_1_234
10
22.5255458
20
132.8098211
11
22.8291456
21
132.222701
0
LINE
8
DEFAULT_255_1_234
10
22.8291456
20
132.222701
11
23.1343516
21
132.8098211
0
LINE
8
DEFAULT_255_1_234
10
23.1343516
20
132.8098211
11
23.3094435
21
132.8098211
0
LINE
8
DEFAULT_255_1_234
10
23.3094435
20
132.8098211
11
22.9062502
21
132.0765234
0
LINE
8
DEFAULT_255_1_234
10
22.9062502
20
132.0765234
11
22.9062502
21
131.6404
0
LINE
8
DEFAULT_255_1_234
10
22.9062502
20
131.6404
11
22.7520409
21
131.6404
0
LINE
8
DEFAULT_255_1_234
10
22.7520409
20
131.6404
11
22.7520409
21
132.0765234
0
LINE
8
DEFAULT_255_1_234
10
22.7520409
20
132.0765234
11
22.3488476
21
132.8098211
0
LINE
8
DEFAULT_255_1_234
10
22.3488476
20
132.8098211
11
22.5255458
21
132.8098211
0
LINE
8
DEFAULT_255_1_234
10
23.9102175
20
132.8154433
11
23.9102175
21
131.6404
0
LINE
8
DEFAULT_255_1_234
10
23.9102175
20
131.6404
11
23.7608272
21
131.6404
0
LINE
8
DEFAULT_255_1_234
10
23.7608272
20
131.6404
11
23.7608272
21
132.6307133
0
LINE
8
DEFAULT_255_1_234
10
23.7608272
20
132.6307133
11
23.4612434
21
132.5206785
0
LINE
8
DEFAULT_255_1_234
10
23.4612434
20
132.5206785
11
23.4612434
21
132.6556117
0
LINE
8
DEFAULT_255_1_234
10
23.4612434
20
132.6556117
11
23.8869255
21
132.8154433
0
LINE
8
DEFAULT_255_1_234
10
23.8869255
20
132.8154433
11
23.9102175
21
132.8154433
0
LINE
8
DEFAULT_255_1_234
10
22.5167458
20
140.7473211
11
22.8203456
21
140.160201
0
LINE
8
DEFAULT_255_1_234
10
22.8203456
20
140.160201
11
23.1255516
21
140.7473211
0
LINE
8
DEFAULT_255_1_234
10
23.1255516
20
140.7473211
11
23.3006435
21
140.7473211
0
LINE
8
DEFAULT_255_1_234
10
23.3006435
20
140.7473211
11
22.8974502
21
140.0140234
0
LINE
8
DEFAULT_255_1_234
10
22.8974502
20
140.0140234
11
22.8974502
21
139.5779
0
LINE
8
DEFAULT_255_1_234
10
22.8974502
20
139.5779
11
22.7432409
21
139.5779
0
LINE
8
DEFAULT_255_1_234
10
22.7432409
20
139.5779
11
22.7432409
21
140.0140234
0
LINE
8
DEFAULT_255_1_234
10
22.7432409
20
140.0140234
11
22.3400476
21
140.7473211
0
LINE
8
DEFAULT_255_1_234
10
22.3400476
20
140.7473211
11
22.5167458
21
140.7473211
0
LINE
8
DEFAULT_255_1_234
10
24.1463855
20
140.2694327
11
24.1463855
21
140.0766709
0
LINE
8
DEFAULT_255_1_234
10
23.4082688
20
140.0565916
11
23.4082688
21
140.2549755
0
LINE
8
DEFAULT_255_1_234
10
23.9977984
20
140.0365123
11
23.9977984
21
140.2798739
0
LINE
8
DEFAULT_255_1_234
10
23.556856
20
140.2911184
11
23.556856
21
140.0533789
0
ARC
8
DEFAULT_255_1_234
10
22.9216745
20
140.0717805
40
1.2247208
50
353.8441951
51
0.2287902
0
ARC
8
DEFAULT_255_1_234
10
23.3856249
20
140.0199806
40
0.7578929
50
344.4934747
51
353.9765454
0
ARC
8
DEFAULT_255_1_234
10
23.6848839
20
139.9348981
40
0.4467846
50
329.2803592
51
344.7472793
0
ARC
8
DEFAULT_255_1_234
10
23.7841664
20
139.8804018
40
0.3336173
50
324.9352394
51
328.6160465
0
ARC
8
DEFAULT_255_1_234
10
23.8218773
20
139.8540427
40
0.2876076
50
280.580143
51
324.9173126
0
ARC
8
DEFAULT_255_1_234
10
23.7817565
20
140.0211099
40
0.4592847
50
269.5977311
51
281.6734359
0
ARC
8
DEFAULT_255_1_234
10
23.7745471
20
140.0091173
40
0.4472986
50
256.6228859
51
270.51044
0
ARC
8
DEFAULT_255_1_234
10
23.7343449
20
139.8542877
40
0.2873874
50
215.8618325
51
257.2788573
0
ARC
8
DEFAULT_255_1_234
10
23.836448
20
139.9227977
40
0.4102928
50
197.9693508
51
215.2623606
0
ARC
8
DEFAULT_255_1_234
10
24.0849596
20
140.0066709
40
0.6725652
50
187.8816417
51
198.2346507
0
ARC
8
DEFAULT_255_1_234
10
24.4807804
20
140.0638079
40
1.0724845
50
180.8976217
51
188.0055519
0
ARC
8
DEFAULT_255_1_234
10
24.7607992
20
140.0741777
40
1.3526448
50
180.7449369
51
181.1510016
0
ARC
8
DEFAULT_255_1_234
10
24.6030721
20
140.2598042
40
1.1948131
50
173.7675579
51
180.231553
0
ARC
8
DEFAULT_255_1_234
10
24.1512868
20
140.3108666
40
0.7401564
50
164.3058563
51
173.9002247
0
ARC
8
DEFAULT_255_1_234
10
23.8600937
20
140.3947656
40
0.4371288
50
148.7922025
51
164.568378
0
ARC
8
DEFAULT_255_1_234
10
23.7649389
20
140.4478929
40
0.3282386
50
144.5883898
51
148.1176286
0
ARC
8
DEFAULT_255_1_234
10
23.7306287
20
140.4718315
40
0.2864044
50
101.6440918
51
144.514236
0
ARC
8
DEFAULT_255_1_234
10
23.7731354
20
140.3029069
40
0.4604934
50
89.5284041
51
102.5819763
0
ARC
8
DEFAULT_255_1_234
10
23.7810441
20
140.2990018
40
0.464401
50
77.0437873
51
90.5081339
0
ARC
8
DEFAULT_255_1_234
10
23.8212443
20
140.4632615
40
0.2953195
50
48.2778575
51
77.4994676
0
ARC
8
DEFAULT_255_1_234
10
23.8285074
20
140.4761746
40
0.2808655
50
36.3142134
51
47.6305865
0
ARC
8
DEFAULT_255_1_234
10
23.7416381
20
140.4176515
40
0.3855453
50
18.2931786
51
35.6769206
0
ARC
8
DEFAULT_255_1_234
10
23.487314
20
140.3303593
40
0.654423
50
8.024666
51
18.5605216
0
ARC
8
DEFAULT_255_1_234
10
23.071006
20
140.2688792
40
1.0752407
50
1.1274072
51
8.1718305
0
ARC
8
DEFAULT_255_1_234
10
22.7474251
20
140.2561885
40
1.3990231
50
0.5424119
51
1.3863029
0
ARC
8
DEFAULT_255_1_234
10
22.9295629
20
140.2834342
40
1.0682415
50
359.8090433
51
4.9407866
0
ARC
8
DEFAULT_255_1_234
10
23.3505643
20
140.3210113
40
0.6455691
50
4.8362157
51
12.2904523
0
ARC
8
DEFAULT_255_1_234
10
23.6260757
20
140.3823965
40
0.3633074
50
12.0805627
51
23.8173984
0
ARC
8
DEFAULT_255_1_234
10
23.7434463
20
140.4320919
40
0.2358723
50
24.2871213
51
31.3935614
0
ARC
8
DEFAULT_255_1_234
10
23.795916
20
140.4664233
40
0.1732111
50
30.7407893
51
82.4657128
0
ARC
8
DEFAULT_255_1_234
10
23.7779294
20
140.3780691
40
0.263235
50
81.1060089
51
90.2184952
0
ARC
8
DEFAULT_255_1_234
10
23.7743593
20
140.4038924
40
0.2374236
50
89.3806855
51
105.6762551
0
ARC
8
DEFAULT_255_1_234
10
23.7560224
20
140.4705567
40
0.1682847
50
105.7981136
51
149.7388061
0
ARC
8
DEFAULT_255_1_234
10
23.8624302
20
140.406595
40
0.2924306
50
149.4208916
51
163.6286378
0
ARC
8
DEFAULT_255_1_234
10
24.071519
20
140.342825
40
0.5110213
50
163.3763315
51
172.1410975
0
ARC
8
DEFAULT_255_1_234
10
24.4015909
20
140.2955518
40
0.8444586
50
172.0259487
51
178.0703232
0
ARC
8
DEFAULT_255_1_234
10
24.7045999
20
140.2811906
40
1.1477868
50
177.8631668
51
179.5044149
0
ARC
8
DEFAULT_255_1_234
10
24.5973403
20
140.0497389
40
1.0404907
50
179.7995573
51
185.2460446
0
ARC
8
DEFAULT_255_1_234
10
24.1930442
20
140.0114513
40
0.6343885
50
185.1411642
51
193.0079639
0
ARC
8
DEFAULT_255_1_234
10
23.9286915
20
139.9489641
40
0.3627568
50
192.7897626
51
205.2507664
0
ARC
8
DEFAULT_255_1_234
10
23.8240462
20
139.9022415
40
0.2481908
50
205.8005384
51
211.2537509
0
ARC
8
DEFAULT_255_1_234
10
23.7716902
20
139.867158
40
0.1852521
50
210.3789793
51
238.4008143
0
ARC
8
DEFAULT_255_1_234
10
23.7697424
20
139.8718376
40
0.1882621
50
239.6520629
51
265.9793761
0
ARC
8
DEFAULT_255_1_234
10
23.7782624
20
139.9390427
40
0.2559272
50
265.1315437
51
270.060332
0
ARC
8
DEFAULT_255_1_234
10
23.7811403
20
139.9066534
40
0.2235528
50
269.3314664
51
287.2178029
0
ARC
8
DEFAULT_255_1_234
10
23.7949255
20
139.8563279
40
0.1714108
50
287.7958004
51
329.080874
0
ARC
8
DEFAULT_255_1_234
10
23.6991712
20
139.916093
40
0.2842745
50
328.6634704
51
343.3325132
0
ARC
8
DEFAULT_255_1_234
10
23.4818732
20
139.9837863
40
0.5118644
50
343.0499468
51
351.9393422
0
ARC
8
DEFAULT_255_1_234
10
23.1352032
20
140.0348949
40
0.8622784
50
351.8069023
51
357.7959224
0
ARC
8
DEFAULT_255_1_234
10
22.8116588
20
140.0516721
40
1.1862365
50
357.5871873
51
359.2677531
0
ENDSEC
0
EOF