0
SECTION
2
HEADER
9
$MEASUREMENT
70
1
0
ENDSEC
0
SECTION
2
TABLES
0
TABLE
2
LTYPE
0
LTYPE
72
65
70
64
2
CONTINUOUS
3
______
73
0
40
0
0
ENDTAB
0
TABLE
2
LAYER
0
LAYER
2
DEFAULT_255_2_778
70
0
62
255
6
CONTINUOUS
0
ENDTAB
0
ENDSEC
0
SECTION
2
ENTITIES
0
LINE
8
DEFAULT_255_2_778
10
28.4091082
20
9.1572685
11
28.4091082
21
9.7573685
0
LINE
8
DEFAULT_255_2_778
10
28.4091082
20
9.7573685
11
29.4092082
21
9.7573685
0
LINE
8
DEFAULT_255_2_778
10
29.4092082
20
9.7573685
11
29.4092082
21
10.7574685
0
LINE
8
DEFAULT_255_2_778
10
29.4092082
20
10.7574685
11
28.4091082
21
10.7574685
0
LINE
8
DEFAULT_255_2_778
10
28.4091082
20
10.7574685
11
28.4091082
21
11.3575685
0
LINE
8
DEFAULT_255_2_778
10
28.4091082
20
11.3575685
11
27.4090082
21
10.2576685
0
LINE
8
DEFAULT_255_2_778
10
27.4090082
20
10.2576685
11
28.4091082
21
9.1578685
0
LINE
8
DEFAULT_255_2_778
10
138.1416082
20
65.7572685
11
92.1416082
21
65.7572685
0
LINE
8
DEFAULT_255_2_778
10
92.1416082
20
65.7572685
11
92.1416082
21
23.7572685
0
LINE
8
DEFAULT_255_2_778
10
1.0292082
20
0.2572685
11
29.8415082
21
0.2572685
0
LINE
8
DEFAULT_255_2_778
10
29.8415082
20
0.2572685
11
29.8415082
21
22.2568685
0
LINE
8
DEFAULT_255_2_778
10
138.2416082
20
65.7572685
11
138.1416082
21
65.7572685
0
LINE
8
DEFAULT_255_2_778
10
138.1416082
20
65.7572685
11
138.1416082
21
23.7572685
0
LINE
8
DEFAULT_255_2_778
10
29.8415082
20
67.2576685
11
29.8415082
21
89.2572685
0
LINE
8
DEFAULT_255_2_778
10
29.8415082
20
89.2572685
11
24.6414082
21
89.2572685
0
LINE
8
DEFAULT_255_2_778
10
6.6415082
20
0.2569685
11
6.6437082
21
-0.0801315
0
LINE
8
DEFAULT_255_2_778
10
6.6437082
20
-0.0801315
11
6.6638082
21
-0.1840315
0
LINE
8
DEFAULT_255_2_778
10
6.6638082
20
-0.1840315
11
6.6778082
21
-0.2250315
0
LINE
8
DEFAULT_255_2_778
10
6.6778082
20
-0.2250315
11
6.6979082
21
-0.2430315
0
LINE
8
DEFAULT_255_2_778
10
138.2416082
20
58.2573685
11
138.1416082
21
58.2573685
0
LINE
8
DEFAULT_255_2_778
10
138.1416082
20
60.0573685
11
138.2416082
21
60.0573685
0
ARC
8
DEFAULT_255_2_778
10
149.6417147
20
65.2573879
40
0.5000969
50
359.9996485
51
90.0003515
0
LINE
8
DEFAULT_255_2_778
10
138.2416116
20
58.9370848
11
138.1416116
21
58.9571848
0
LINE
8
DEFAULT_255_2_778
10
138.2416116
20
29.4571848
11
138.1416116
21
29.4571848
0
LINE
8
DEFAULT_255_2_778
10
138.1416116
20
31.2573848
11
138.2416116
21
31.2573848
0
LINE
8
DEFAULT_255_2_778
10
138.1416116
20
30.5570848
11
138.2416116
21
30.5771848
0
LINE
8
DEFAULT_255_2_778
10
149.6417116
20
65.3999848
11
149.9542116
21
65.3687848
0
LINE
8
DEFAULT_255_2_778
10
149.9542116
20
65.3687848
11
150.0904116
21
65.3203848
0
LINE
8
DEFAULT_255_2_778
10
150.0904116
20
65.3203848
11
150.1264116
21
65.2931848
0
LINE
8
DEFAULT_255_2_778
10
150.1264116
20
65.2931848
11
150.1323116
21
65.2851848
0
LINE
8
DEFAULT_255_2_778
10
150.1323116
20
65.2851848
11
150.1373116
21
65.2729848
0
LINE
8
DEFAULT_255_2_778
10
150.1373116
20
65.2729848
11
150.1418116
21
65.2573848
0
LINE
8
DEFAULT_255_2_778
10
149.6417116
20
65.7574848
11
149.6417116
21
24.1146848
0
LINE
8
DEFAULT_255_2_778
10
149.6417116
20
24.1146848
11
138.2416116
21
24.1146848
0
LINE
8
DEFAULT_255_2_778
10
149.6417179
20
24.1147411
11
149.6417179
21
23.7572411
0
LINE
8
DEFAULT_255_2_778
10
149.6417179
20
23.7572411
11
138.2416179
21
23.7572411
0
LINE
8
DEFAULT_255_2_778
10
138.2416179
20
23.7572411
11
138.2416179
21
65.7572411
0
LINE
8
DEFAULT_255_2_778
10
138.2416179
20
65.7572411
11
149.6417179
21
65.7572411
0
LINE
8
DEFAULT_255_2_778
10
149.6417179
20
65.7572411
11
149.6417179
21
66.7573411
0
LINE
8
DEFAULT_255_2_778
10
149.6417179
20
66.7573411
11
150.1418179
21
66.7573411
0
LINE
8
DEFAULT_255_2_778
10
74.73555
20
62.4480031
11
75.15945
21
62.4480031
0
LINE
8
DEFAULT_255_2_778
10
75.15945
20
62.4480031
11
75.97305
21
60.4179031
0
LINE
8
DEFAULT_255_2_778
10
75.97305
20
60.4179031
11
76.78655
21
62.4480031
0
LINE
8
DEFAULT_255_2_778
10
76.78655
20
62.4480031
11
77.21205
21
62.4480031
0
LINE
8
DEFAULT_255_2_778
10
77.21205
20
62.4480031
11
77.21205
21
59.9596031
0
LINE
8
DEFAULT_255_2_778
10
77.21205
20
59.9596031
11
76.88395
21
59.9596031
0
LINE
8
DEFAULT_255_2_778
10
76.88395
20
59.9596031
11
76.88395
21
60.9285031
0
LINE
8
DEFAULT_255_2_778
10
76.88395
20
60.9285031
11
76.91465
21
61.9744031
0
LINE
8
DEFAULT_255_2_778
10
76.91465
20
61.9744031
11
76.09785
21
59.9596031
0
LINE
8
DEFAULT_255_2_778
10
76.09785
20
59.9596031
11
75.84675
21
59.9596031
0
LINE
8
DEFAULT_255_2_778
10
75.84675
20
59.9596031
11
75.03165
21
61.9694031
0
LINE
8
DEFAULT_255_2_778
10
75.03165
20
61.9694031
11
75.06415
21
60.9285031
0
LINE
8
DEFAULT_255_2_778
10
75.06415
20
60.9285031
11
75.06415
21
59.9596031
0
LINE
8
DEFAULT_255_2_778
10
75.06415
20
59.9596031
11
74.73605
21
59.9596031
0
LINE
8
DEFAULT_255_2_778
10
74.73605
20
59.9596031
11
74.73605
21
62.4480031
0
LINE
8
DEFAULT_255_2_778
10
74.73605
20
62.4480031
11
74.73555
21
62.4480031
0
LINE
8
DEFAULT_255_2_778
10
79.1976573
20
61.3783031
11
79.1976573
21
61.1100031
0
LINE
8
DEFAULT_255_2_778
10
79.1976573
20
61.1100031
11
78.1192573
21
61.1100031
0
LINE
8
DEFAULT_255_2_778
10
78.1192573
20
61.1100031
11
78.1192573
21
60.2282031
0
LINE
8
DEFAULT_255_2_778
10
78.1192573
20
60.2282031
11
79.3720573
21
60.2282031
0
LINE
8
DEFAULT_255_2_778
10
79.3720573
20
60.2282031
11
79.3720573
21
59.9599031
0
LINE
8
DEFAULT_255_2_778
10
79.3720573
20
59.9599031
11
77.7911573
21
59.9599031
0
LINE
8
DEFAULT_255_2_778
10
77.7911573
20
59.9599031
11
77.7911573
21
62.4483031
0
LINE
8
DEFAULT_255_2_778
10
77.7911573
20
62.4483031
11
79.3548573
21
62.4483031
0
LINE
8
DEFAULT_255_2_778
10
79.3548573
20
62.4483031
11
79.3548573
21
62.1782031
0
LINE
8
DEFAULT_255_2_778
10
79.3548573
20
62.1782031
11
78.1192573
21
62.1782031
0
LINE
8
DEFAULT_255_2_778
10
78.1192573
20
62.1782031
11
78.1192573
21
61.3783031
0
LINE
8
DEFAULT_255_2_778
10
78.1192573
20
61.3783031
11
79.1976573
21
61.3783031
0
LINE
8
DEFAULT_255_2_778
10
79.1976573
20
61.3783031
11
79.1976573
21
61.3783031
0
ARC
8
DEFAULT_255_2_778
10
83.0894268
20
63.519456
40
2.5466136
50
247.7075024
51
254.2241397
0
ARC
8
DEFAULT_255_2_778
10
82.6630511
20
62.4914638
40
1.4337221
50
237.7673682
51
247.8895246
0
ARC
8
DEFAULT_255_2_778
10
82.3562522
20
61.9987891
40
0.8533463
50
227.7659868
51
237.5488815
0
ARC
8
DEFAULT_255_2_778
10
82.1598667
20
61.7938814
40
0.5696807
50
179.0359152
51
228.5378328
0
ARC
8
DEFAULT_255_2_778
10
82.1922379
20
61.8125004
40
0.602039
50
127.5567735
51
180.8597696
0
ARC
8
DEFAULT_255_2_778
10
82.3530601
20
61.6305387
40
0.8444805
50
98.339251
51
128.6815829
0
ARC
8
DEFAULT_255_2_778
10
82.4309562
20
61.2262337
40
1.2559435
50
89.7622984
51
99.1802604
0
ARC
8
DEFAULT_255_2_778
10
82.4502779
20
61.431392
40
1.0508694
50
68.8607322
51
90.7693945
0
ARC
8
DEFAULT_255_2_778
10
82.4986967
20
61.5838249
40
0.8912866
50
63.71674
51
68.2299493
0
ARC
8
DEFAULT_255_2_778
10
82.5705791
20
61.7015883
40
0.7539683
50
32.7681332
51
64.6517961
0
ARC
8
DEFAULT_255_2_778
10
82.6159119
20
61.7327843
40
0.6989669
50
359.662464
51
32.6291347
0
ARC
8
DEFAULT_255_2_778
10
82.4903504
20
61.7429384
40
0.4948222
50
358.3472316
51
29.6723727
0
ARC
8
DEFAULT_255_2_778
10
82.5669443
20
61.7752326
40
0.4124029
50
31.0420361
51
48.303825
0
ARC
8
DEFAULT_255_2_778
10
82.511155
20
61.6998738
40
0.5058529
50
49.2632563
51
82.0383701
0
ARC
8
DEFAULT_255_2_778
10
82.4407938
20
61.3437951
40
0.868484
50
80.6948848
51
90.3052585
0
ARC
8
DEFAULT_255_2_778
10
82.4234376
20
61.4354771
40
0.7768938
50
89.0611885
51
106.2845596
0
ARC
8
DEFAULT_255_2_778
10
82.3361513
20
61.743982
40
0.4562983
50
106.6264544
51
127.6279505
0
ARC
8
DEFAULT_255_2_778
10
82.2773512
20
61.8251088
40
0.3561596
50
128.1043411
51
182.6299061
0
ARC
8
DEFAULT_255_2_778
10
82.2415849
20
61.8084972
40
0.3200183
50
179.9517663
51
233.3742798
0
ARC
8
DEFAULT_255_2_778
10
82.4818376
20
62.104341
40
0.7009688
50
232.0402964
51
245.5651047
0
ARC
8
DEFAULT_255_2_778
10
82.8776632
20
62.9430353
40
1.6283353
50
245.0922339
51
252.3453496
0
ARC
8
DEFAULT_255_2_778
10
83.2222022
20
63.9700428
40
2.7115165
50
251.9894635
51
254.332966
0
ARC
8
DEFAULT_255_2_778
10
81.7053385
20
58.5225877
40
2.9431937
50
69.5135393
51
74.5385021
0
ARC
8
DEFAULT_255_2_778
10
82.1817865
20
59.782696
40
1.5960397
50
61.5009096
51
69.7036143
0
ARC
8
DEFAULT_255_2_778
10
82.4343164
20
60.2662802
40
1.0505975
50
59.0157373
51
61.0204259
0
ARC
8
DEFAULT_255_2_778
10
82.573267
20
60.4719803
40
0.8028259
50
40.1441868
51
59.9598753
0
ARC
8
DEFAULT_255_2_778
10
82.731408
20
60.6166401
40
0.5887381
50
31.2050417
51
39.3046945
0
ARC
8
DEFAULT_255_2_778
10
82.6948085
20
60.6072296
40
0.6250132
50
358.7181763
51
30.2045547
0
ARC
8
DEFAULT_255_2_778
10
82.4060471
20
60.5916437
40
0.9136197
50
0.0077075
51
0.1006027
0
ARC
8
DEFAULT_255_2_778
10
82.7385042
20
60.5749806
40
0.5814049
50
306.4423584
51
1.6544438
0
ARC
8
DEFAULT_255_2_778
10
82.5746168
20
60.7848596
40
0.8476247
50
281.0810096
51
306.9269588
0
ARC
8
DEFAULT_255_2_778
10
82.46385
20
61.285691
40
1.3604647
50
269.558493
51
281.6050754
0
ARC
8
DEFAULT_255_2_778
10
82.4441596
20
61.0968697
40
1.1716392
50
246.3824812
51
270.4502534
0
ARC
8
DEFAULT_255_2_778
10
82.3016893
20
60.7985088
40
0.8412632
50
222.8819015
51
247.1320148
0
ARC
8
DEFAULT_255_2_778
10
82.2054809
20
60.6961573
40
0.7011813
50
215.1507199
51
222.1031434
0
ARC
8
DEFAULT_255_2_778
10
82.1688359
20
60.6716784
40
0.6571266
50
179.2424402
51
215.2451244
0
ARC
8
DEFAULT_255_2_778
10
82.2698355
20
60.6634497
40
0.4285029
50
177.7374264
51
232.3966494
0
ARC
8
DEFAULT_255_2_778
10
82.3800307
20
60.8157369
40
0.6164188
50
232.9191953
51
262.3629424
0
ARC
8
DEFAULT_255_2_778
10
82.4492568
20
61.1897995
40
0.9965426
50
261.2762254
51
270.2535447
0
ARC
8
DEFAULT_255_2_778
10
82.4661404
20
61.0952736
40
0.9020932
50
269.2077162
51
283.7135908
0
ARC
8
DEFAULT_255_2_778
10
82.5680666
20
60.6831666
40
0.4775724
50
283.5548749
51
306.4596024
0
ARC
8
DEFAULT_255_2_778
10
82.6463275
20
60.5751328
40
0.3441786
50
306.6687471
51
2.136959
0
ARC
8
DEFAULT_255_2_778
10
82.6526637
20
60.6055491
40
0.3380605
50
357.0187181
51
51.7042853
0
ARC
8
DEFAULT_255_2_778
10
82.4475859
20
60.3168665
40
0.691949
50
53.1910014
51
65.298663
0
ARC
8
DEFAULT_255_2_778
10
82.0006866
20
59.3776178
40
1.7320616
50
64.8518749
51
71.3406668
0
ARC
8
DEFAULT_255_2_778
10
81.5019705
20
57.9506162
40
3.2436553
50
71.058986
51
73.9775135
0
LINE
8
DEFAULT_255_2_778
10
80.1102667
20
62.4480666
11
80.1102667
21
60.2281666
0
LINE
8
DEFAULT_255_2_778
10
80.1102667
20
60.2281666
11
81.2894667
21
60.2281666
0
LINE
8
DEFAULT_255_2_778
10
81.2894667
20
60.2281666
11
81.2894667
21
59.9598666
0
LINE
8
DEFAULT_255_2_778
10
81.2894667
20
59.9598666
11
79.7805667
21
59.9598666
0
LINE
8
DEFAULT_255_2_778
10
79.7805667
20
59.9598666
11
79.7805667
21
62.4482666
0
LINE
8
DEFAULT_255_2_778
10
79.7805667
20
62.4482666
11
80.1104667
21
62.4482666
0
LINE
8
DEFAULT_255_2_778
10
80.1104667
20
62.4482666
11
80.1102667
21
62.4480666
0
LINE
8
DEFAULT_255_2_778
10
83.3148667
20
61.7286666
11
82.9849667
21
61.7286666
0
LINE
8
DEFAULT_255_2_778
10
81.5117667
20
60.6803666
11
81.8416667
21
60.6803666
0
LINE
8
DEFAULT_255_2_778
10
82.3972667
20
61.0682666
11
82.3970667
21
61.0687666
0
LINE
8
DEFAULT_255_2_778
10
85.1465573
20
61.3783031
11
85.1465573
21
61.1100031
0
LINE
8
DEFAULT_255_2_778
10
85.1465573
20
61.1100031
11
84.0681573
21
61.1100031
0
LINE
8
DEFAULT_255_2_778
10
84.0681573
20
61.1100031
11
84.0681573
21
60.2282031
0
LINE
8
DEFAULT_255_2_778
10
84.0681573
20
60.2282031
11
85.3209573
21
60.2282031
0
LINE
8
DEFAULT_255_2_778
10
85.3209573
20
60.2282031
11
85.3209573
21
59.9599031
0
LINE
8
DEFAULT_255_2_778
10
85.3209573
20
59.9599031
11
83.7400573
21
59.9599031
0
LINE
8
DEFAULT_255_2_778
10
83.7400573
20
59.9599031
11
83.7400573
21
62.4483031
0
LINE
8
DEFAULT_255_2_778
10
83.7400573
20
62.4483031
11
85.3037573
21
62.4483031
0
LINE
8
DEFAULT_255_2_778
10
85.3037573
20
62.4483031
11
85.3037573
21
62.1782031
0
LINE
8
DEFAULT_255_2_778
10
85.3037573
20
62.1782031
11
84.0681573
21
62.1782031
0
LINE
8
DEFAULT_255_2_778
10
84.0681573
20
62.1782031
11
84.0681573
21
61.3783031
0
LINE
8
DEFAULT_255_2_778
10
84.0681573
20
61.3783031
11
85.1465573
21
61.3783031
0
LINE
8
DEFAULT_255_2_778
10
85.1465573
20
61.3783031
11
85.1465573
21
61.3783031
0
ARC
8
DEFAULT_255_2_778
10
86.4423368
20
60.8663553
40
1.1237024
50
336.7918547
51
354.0122003
0
ARC
8
DEFAULT_255_2_778
10
86.7381564
20
60.7429437
40
0.8031939
50
311.3325562
51
336.5671935
0
ARC
8
DEFAULT_255_2_778
10
86.7127269
20
60.788594
40
0.854338
50
279.5884626
51
310.5912004
0
ARC
8
DEFAULT_255_2_778
10
86.6234759
20
61.2138552
40
1.2886391
50
269.6946536
51
280.351826
0
ARC
8
DEFAULT_255_2_778
10
86.6024023
20
60.8925607
40
0.9674306
50
247.399677
51
270.8413768
0
ARC
8
DEFAULT_255_2_778
10
86.5741052
20
60.7881057
40
0.8602365
50
219.4562997
51
246.4659744
0
ARC
8
DEFAULT_255_2_778
10
86.7508952
20
60.9351195
40
1.0901642
50
192.8758077
51
219.5174021
0
ARC
8
DEFAULT_255_2_778
10
87.2896772
20
61.0687926
40
1.6452182
50
180.2862474
51
193.2327907
0
ARC
8
DEFAULT_255_2_778
10
87.7253378
20
61.0872662
40
2.0810294
50
179.9981242
51
180.7349446
0
ARC
8
DEFAULT_255_2_778
10
87.2192799
20
61.3399003
40
1.5750283
50
165.756814
51
180.4862279
0
ARC
8
DEFAULT_255_2_778
10
86.8705284
20
61.4209081
40
1.2170882
50
154.9292046
51
165.413698
0
ARC
8
DEFAULT_255_2_778
10
86.6120008
20
61.558386
40
0.9247844
50
122.1997633
51
155.8571892
0
ARC
8
DEFAULT_255_2_778
10
86.6207662
20
61.516146
40
0.9653166
50
90.7332095
51
121.303988
0
ARC
8
DEFAULT_255_2_778
10
86.6453655
20
61.241708
40
1.2402261
50
89.9934022
51
91.7073605
0
ARC
8
DEFAULT_255_2_778
10
86.6588167
20
61.3785948
40
1.1034198
50
73.2031381
51
90.6910625
0
ARC
8
DEFAULT_255_2_778
10
86.7460946
20
61.6795898
40
0.7900525
50
47.3560178
51
72.9545981
0
ARC
8
DEFAULT_255_2_778
10
86.6943429
20
61.6378951
40
0.8558371
50
13.3707362
51
46.698469
0
ARC
8
DEFAULT_255_2_778
10
86.3162279
20
61.5267918
40
1.2495665
50
5.563429
51
14.3177362
0
ARC
8
DEFAULT_255_2_778
10
86.1762718
20
61.5093814
40
1.0627073
50
7.4913957
51
20.2250726
0
ARC
8
DEFAULT_255_2_778
10
86.6732717
20
61.6995732
40
0.5306421
50
19.5072725
51
45.599242
0
ARC
8
DEFAULT_255_2_778
10
86.7103014
20
61.7065405
40
0.5002225
50
48.0781322
51
83.1327875
0
ARC
8
DEFAULT_255_2_778
10
86.6488991
20
61.3790957
40
0.8329455
50
81.6323945
51
90.2332377
0
ARC
8
DEFAULT_255_2_778
10
86.620755
20
61.6254828
40
0.5870736
50
87.5834639
51
142.8848227
0
ARC
8
DEFAULT_255_2_778
10
86.7942754
20
61.501535
40
0.800257
50
143.3048507
51
166.1533934
0
ARC
8
DEFAULT_255_2_778
10
87.3514013
20
61.3542726
40
1.3764699
50
165.7517187
51
178.1372698
0
ARC
8
DEFAULT_255_2_778
10
87.9037734
20
61.3192162
40
1.9297652
50
177.6300595
51
180.0261817
0
ARC
8
DEFAULT_255_2_778
10
87.4764727
20
61.0644283
40
1.5025189
50
179.5116608
51
191.4941558
0
ARC
8
DEFAULT_255_2_778
10
86.888627
20
60.9391725
40
0.9015204
50
191.137928
51
212.8207719
0
ARC
8
DEFAULT_255_2_778
10
86.7470253
20
60.859751
40
0.7395429
50
213.5960504
51
215.2398615
0
ARC
8
DEFAULT_255_2_778
10
86.5953264
20
60.7401634
40
0.5467356
50
214.1769439
51
272.2098556
0
ARC
8
DEFAULT_255_2_778
10
86.6288549
20
61.0580247
40
0.86428
50
269.1748514
51
284.9193094
0
ARC
8
DEFAULT_255_2_778
10
86.72657
20
60.6933349
40
0.4867268
50
284.8570921
51
309.4759074
0
ARC
8
DEFAULT_255_2_778
10
86.7157881
20
60.6761712
40
0.4807179
50
311.7690169
51
338.5836721
0
ARC
8
DEFAULT_255_2_778
10
86.2362331
20
60.8797264
40
1.0015905
50
337.7602156
51
350.4546577
0
ARC
8
DEFAULT_255_2_778
10
85.7716118
20
60.975396
40
1.475745
50
349.7830599
51
351.1806093
0
LINE
8
DEFAULT_255_2_778
10
87.2299084
20
60.7491343
11
87.5599084
21
60.7491343
0
LINE
8
DEFAULT_255_2_778
10
85.6443084
20
61.0873343
11
85.6443084
21
61.3265343
0
LINE
8
DEFAULT_255_2_778
10
87.5599084
20
61.6479343
11
87.2299084
21
61.6479343
0
LINE
8
DEFAULT_255_2_778
10
85.9740084
20
61.3183343
11
85.9740084
21
61.0772343
0
LINE
8
DEFAULT_255_2_778
10
87.2299084
20
60.7491343
11
87.2299084
21
60.7491343
0
ARC
8
DEFAULT_255_2_778
10
33.0732701
20
32.1749064
40
0.5629802
50
269.5609815
51
292.9682383
0
ARC
8
DEFAULT_255_2_778
10
33.1381455
20
32.0035141
40
0.3799273
50
294.04638
51
311.6539207
0
ARC
8
DEFAULT_255_2_778
10
33.1478449
20
31.9859558
40
0.3603889
50
312.357062
51
2.6220479
0
ARC
8
DEFAULT_255_2_778
10
32.9753263
20
32.0149426
40
0.5326768
50
358.6553545
51
19.8537245
0
ARC
8
DEFAULT_255_2_778
10
33.1837683
20
32.0824013
40
0.3137997
50
21.1943947
51
84.9236098
0
ARC
8
DEFAULT_255_2_778
10
33.1128348
20
31.7562931
40
0.6462585
50
81.21513
51
90.2995164
0
ARC
8
DEFAULT_255_2_778
10
33.0953841
20
31.9556238
40
0.4471404
50
88.1964939
51
120.1575104
0
ARC
8
DEFAULT_255_2_778
10
33.0589022
20
32.0365614
40
0.358946
50
121.6129971
51
133.8672124
0
ARC
8
DEFAULT_255_2_778
10
33.0731454
20
32.0280954
40
0.3749458
50
134.5398714
51
182.4996636
0
ARC
8
DEFAULT_255_2_778
10
32.9896998
20
32.0246122
40
0.580486
50
131.2503031
51
181.2703676
0
ARC
8
DEFAULT_255_2_778
10
33.0733046
20
31.936732
40
0.7016996
50
92.013644
51
131.6514986
0
ARC
8
DEFAULT_255_2_778
10
33.108929
20
31.6538193
40
0.9860234
50
89.9693518
51
93.504951
0
ARC
8
DEFAULT_255_2_778
10
33.1225822
20
31.7360804
40
0.9038576
50
72.8746511
51
90.8320733
0
ARC
8
DEFAULT_255_2_778
10
33.2110098
20
32.03235
40
0.5946915
50
47.3064362
51
72.611292
0
ARC
8
DEFAULT_255_2_778
10
33.2168482
20
32.0522053
40
0.576212
50
5.2642109
51
46.3943508
0
ARC
8
DEFAULT_255_2_778
10
32.9066619
20
31.9982654
40
0.8903971
50
359.8634041
51
6.8894386
0
ARC
8
DEFAULT_255_2_778
10
33.2971412
20
32.0031906
40
0.4999649
50
323.8900127
51
359.1922834
0
ARC
8
DEFAULT_255_2_778
10
33.2260014
20
32.0383878
40
0.5783382
50
291.6484448
51
325.2265846
0
ARC
8
DEFAULT_255_2_778
10
33.2868208
20
30.9648178
40
0.5573058
50
37.5513011
51
74.1153307
0
ARC
8
DEFAULT_255_2_778
10
33.169048
20
30.8884188
40
0.6973301
50
36.5752568
51
36.6302463
0
ARC
8
DEFAULT_255_2_778
10
33.2891304
20
30.9868971
40
0.5422664
50
359.3011734
51
35.7795108
0
ARC
8
DEFAULT_255_2_778
10
33.0735798
20
30.967972
40
0.7578767
50
359.9977802
51
0.9307774
0
ARC
8
DEFAULT_255_2_778
10
33.1342545
20
30.954075
40
0.6973398
50
335.3751398
51
1.1394933
0
ARC
8
DEFAULT_255_2_778
10
33.246948
20
30.9137308
40
0.5781764
50
311.6851441
51
334.3562113
0
ARC
8
DEFAULT_255_2_778
10
33.1645224
20
31.0127753
40
0.7069729
50
275.062524
51
311.3356936
0
ARC
8
DEFAULT_255_2_778
10
33.112894
20
31.3339068
40
1.031666
50
269.8923954
51
276.3449527
0
ARC
8
DEFAULT_255_2_778
10
33.0974418
20
31.201332
40
0.8991909
50
250.5732991
51
270.8611727
0
ARC
8
DEFAULT_255_2_778
10
33.0276251
20
30.9827647
40
0.669881
50
229.2164248
51
249.9870855
0
ARC
8
DEFAULT_255_2_778
10
32.9643818
20
30.912662
40
0.5754935
50
177.9505588
51
229.4250357
0
ARC
8
DEFAULT_255_2_778
10
33.0517033
20
30.9171348
40
0.3722954
50
177.5202402
51
226.8225761
0
ARC
8
DEFAULT_255_2_778
10
33.0781357
20
30.9648214
40
0.4253667
50
228.6216934
51
267.9608618
0
ARC
8
DEFAULT_255_2_778
10
33.1103707
20
31.2060709
40
0.6680286
50
265.9336949
51
270.0502407
0
ARC
8
DEFAULT_255_2_778
10
33.1239127
20
31.0807658
40
0.5428777
50
268.6324543
51
291.462776
0
ARC
8
DEFAULT_255_2_778
10
33.1908885
20
30.8940453
40
0.3446513
50
292.4584575
51
314.2670816
0
ARC
8
DEFAULT_255_2_778
10
33.1559236
20
30.9133242
40
0.3830375
50
315.9997324
51
355.3216628
0
ARC
8
DEFAULT_255_2_778
10
32.8842014
20
30.9595351
40
0.6580574
50
353.2407281
51
0.1573835
0
ARC
8
DEFAULT_255_2_778
10
33.1091674
20
30.9749174
40
0.4333018
50
358.2047097
51
28.5677979
0
ARC
8
DEFAULT_255_2_778
10
33.2028264
20
31.0156764
40
0.3316765
50
30.1211341
51
49.0387164
0
ARC
8
DEFAULT_255_2_778
10
33.1367725
20
30.9238454
40
0.4444441
50
50.3691139
51
81.600873
0
ARC
8
DEFAULT_255_2_778
10
33.063062
20
30.5646642
40
0.8107979
50
80.1552425
51
89.6046615
0
ARC
8
DEFAULT_255_2_778
10
34.7288972
20
31.0845624
40
0.8991135
50
339.9157874
51
0.6296311
0
ARC
8
DEFAULT_255_2_778
10
34.9341595
20
31.0174076
40
0.6833128
50
319.6554316
51
339.2939287
0
ARC
8
DEFAULT_255_2_778
10
34.9629399
20
30.9975937
40
0.6485597
50
274.7254082
51
319.3435304
0
ARC
8
DEFAULT_255_2_778
10
34.9133923
20
31.254761
40
0.9093718
50
274.7728055
51
276.5020559
0
ARC
8
DEFAULT_255_2_778
10
34.9070617
20
31.1166414
40
0.7714203
50
247.6673714
51
271.0172024
0
ARC
8
DEFAULT_255_2_778
10
34.8539909
20
30.9638071
40
0.6099498
50
223.4873879
51
246.8234043
0
ARC
8
DEFAULT_255_2_778
10
34.9134289
20
31.0119477
40
0.6862299
50
189.1957281
51
222.9882865
0
ARC
8
DEFAULT_255_2_778
10
35.2961634
20
31.0938273
40
1.0773102
50
180.1374604
51
190.2415649
0
ARC
8
DEFAULT_255_2_778
10
35.1917559
20
31.087771
40
0.7190128
50
178.982217
51
197.6740373
0
ARC
8
DEFAULT_255_2_778
10
34.9223954
20
31.0056611
40
0.4374522
50
198.1382173
51
220.3995034
0
ARC
8
DEFAULT_255_2_778
10
34.8870364
20
30.9871752
40
0.3986416
50
221.6699762
51
268.7129458
0
ARC
8
DEFAULT_255_2_778
10
34.92027
20
31.2274269
40
0.6401843
50
266.2215119
51
270.0435347
0
ARC
8
DEFAULT_255_2_778
10
34.9342278
20
31.0709709
40
0.4839157
50
268.404778
51
296.2712012
0
ARC
8
DEFAULT_255_2_778
10
34.9816884
20
30.9552689
40
0.3592621
50
297.6514451
51
319.3731832
0
ARC
8
DEFAULT_255_2_778
10
34.8826852
20
31.0271773
40
0.4813256
50
320.5502891
51
352.4388271
0
ARC
8
DEFAULT_255_2_778
10
34.5299065
20
31.0946262
40
0.8401609
50
351.0446116
51
0.2943683
0
ARC
8
DEFAULT_255_2_778
10
37.5470701
20
32.1802064
40
0.5629802
50
269.5609815
51
292.9682383
0
ARC
8
DEFAULT_255_2_778
10
37.6119455
20
32.0088141
40
0.3799273
50
294.04638
51
311.6539207
0
ARC
8
DEFAULT_255_2_778
10
37.6218923
20
31.9912805
40
0.3602405
50
312.3253374
51
2.6191958
0
ARC
8
DEFAULT_255_2_778
10
37.4493476
20
32.0202428
40
0.5325555
50
358.6550356
51
19.8584342
0
ARC
8
DEFAULT_255_2_778
10
37.6576151
20
32.0876317
40
0.3138672
50
21.2032533
51
84.9285802
0
ARC
8
DEFAULT_255_2_778
10
37.5866356
20
31.7612702
40
0.6465814
50
81.2173303
51
90.2994422
0
ARC
8
DEFAULT_255_2_778
10
37.5691693
20
31.9611779
40
0.4468868
50
88.1935735
51
120.1564043
0
ARC
8
DEFAULT_255_2_778
10
37.5325786
20
32.0423254
40
0.3584566
50
121.6154248
51
133.8928444
0
ARC
8
DEFAULT_255_2_778
10
37.5467703
20
32.0333717
40
0.3747697
50
134.5073427
51
182.4972084
0
ARC
8
DEFAULT_255_2_778
10
37.463063
20
32.0299221
40
0.5800496
50
131.2175967
51
181.2723011
0
ARC
8
DEFAULT_255_2_778
10
37.5470866
20
31.9426323
40
0.701098
50
92.0138102
51
131.682321
0
ARC
8
DEFAULT_255_2_778
10
37.5827348
20
31.6596012
40
0.9855416
50
89.9696756
51
93.5069459
0
ARC
8
DEFAULT_255_2_778
10
37.5963793
20
31.7415852
40
0.9036528
50
72.8900623
51
90.8320806
0
ARC
8
DEFAULT_255_2_778
10
37.684948
20
32.0384549
40
0.5938706
50
47.2777619
51
72.6303376
0
ARC
8
DEFAULT_255_2_778
10
37.6904482
20
32.0575053
40
0.576212
50
5.2642109
51
46.3943508
0
ARC
8
DEFAULT_255_2_778
10
37.3802619
20
32.0035654
40
0.8903971
50
359.8634041
51
6.8894386
0
ARC
8
DEFAULT_255_2_778
10
37.7710889
20
32.0085149
40
0.4996176
50
323.8575101
51
359.1889401
0
ARC
8
DEFAULT_255_2_778
10
37.6998703
20
32.0431203
40
0.5777115
50
291.6444118
51
325.2519444
0
ARC
8
DEFAULT_255_2_778
10
37.7604208
20
30.9701178
40
0.5573058
50
37.5513011
51
74.1153307
0
ARC
8
DEFAULT_255_2_778
10
37.642648
20
30.8937188
40
0.6973301
50
36.5752568
51
36.6302463
0
ARC
8
DEFAULT_255_2_778
10
37.7627304
20
30.9921971
40
0.5422664
50
359.3011734
51
35.7795108
0
ARC
8
DEFAULT_255_2_778
10
37.5471798
20
30.973272
40
0.7578767
50
359.9977802
51
0.9307774
0
ARC
8
DEFAULT_255_2_778
10
37.6078545
20
30.959375
40
0.6973398
50
335.3751398
51
1.1394933
0
ARC
8
DEFAULT_255_2_778
10
37.720548
20
30.9190308
40
0.5781764
50
311.6851441
51
334.3562113
0
ARC
8
DEFAULT_255_2_778
10
37.6379826
20
31.0184123
40
0.7073183
50
275.0689351
51
311.3261649
0
ARC
8
DEFAULT_255_2_778
10
37.5864907
20
31.3387159
40
1.0311751
50
269.8925278
51
276.3464669
0
ARC
8
DEFAULT_255_2_778
10
37.5710418
20
31.206632
40
0.8991909
50
250.5732991
51
270.8611727
0
ARC
8
DEFAULT_255_2_778
10
37.5012251
20
30.9880647
40
0.669881
50
229.2164248
51
249.9870855
0
ARC
8
DEFAULT_255_2_778
10
37.4377559
20
30.9179885
40
0.5753667
50
177.9527488
51
229.4438394
0
ARC
8
DEFAULT_255_2_778
10
37.5250461
20
30.9224593
40
0.3721374
50
177.5229594
51
226.8540225
0
ARC
8
DEFAULT_255_2_778
10
37.5517357
20
30.9701214
40
0.4253667
50
228.6216934
51
267.9608618
0
ARC
8
DEFAULT_255_2_778
10
37.5839707
20
31.2113709
40
0.6680286
50
265.9336949
51
270.0502407
0
ARC
8
DEFAULT_255_2_778
10
37.5975264
20
31.0858066
40
0.542619
50
268.6303603
51
291.4680727
0
ARC
8
DEFAULT_255_2_778
10
37.6645811
20
30.898932
40
0.3442208
50
292.4652081
51
314.292145
0
ARC
8
DEFAULT_255_2_778
10
37.6296742
20
30.9186668
40
0.3828869
50
315.9690946
51
355.3134199
0
ARC
8
DEFAULT_255_2_778
10
37.3583722
20
30.9648384
40
0.6574868
50
353.2345425
51
0.1572297
0
ARC
8
DEFAULT_255_2_778
10
37.5827674
20
30.9802174
40
0.4333018
50
358.2047097
51
28.5677979
0
ARC
8
DEFAULT_255_2_778
10
37.6764264
20
31.0209764
40
0.3316765
50
30.1211341
51
49.0387164
0
ARC
8
DEFAULT_255_2_778
10
37.6097843
20
30.9271844
40
0.4463303
50
50.4715181
51
81.5410295
0
ARC
8
DEFAULT_255_2_778
10
37.5355597
20
30.566913
40
0.8138573
50
80.1032494
51
89.5285424
0
ARC
8
DEFAULT_255_2_778
10
37.1720505
20
33.4796404
40
3.0993188
50
318.3955807
51
322.2251496
0
ARC
8
DEFAULT_255_2_778
10
38.5347016
20
32.4307925
40
1.3797759
50
321.9896489
51
328.8586095
0
ARC
8
DEFAULT_255_2_778
10
39.0757538
20
32.0955222
40
0.7433417
50
329.4097004
51
331.7988734
0
ARC
8
DEFAULT_255_2_778
10
39.2586452
20
32.0033245
40
0.5386157
50
331.2483385
51
359.7679081
0
ARC
8
DEFAULT_255_2_778
10
39.3893683
20
32.0166555
40
0.408183
50
357.8219716
51
42.6568324
0
ARC
8
DEFAULT_255_2_778
10
39.4191588
20
32.0308612
40
0.3767744
50
44.1379938
51
92.6168547
0
ARC
8
DEFAULT_255_2_778
10
39.3886351
20
31.8855424
40
0.5218703
50
88.5373001
51
114.4789397
0
ARC
8
DEFAULT_255_2_778
10
39.3345362
20
32.0235822
40
0.3739069
50
115.6990702
51
135.7389176
0
ARC
8
DEFAULT_255_2_778
10
39.3829227
20
31.98897
40
0.4328098
50
136.9280803
51
175.6476693
0
ARC
8
DEFAULT_255_2_778
10
39.6544321
20
31.9447922
40
0.7072774
50
173.7480054
51
180.1255225
0
ARC
8
DEFAULT_255_2_778
10
39.3927633
20
31.957519
40
0.7349455
50
154.5184765
51
181.1130402
0
ARC
8
DEFAULT_255_2_778
10
39.2961241
20
31.9916759
40
0.633103
50
133.4960441
51
153.5462929
0
ARC
8
DEFAULT_255_2_778
10
39.3377215
20
31.9417583
40
0.6979586
50
96.3950729
51
133.1526721
0
ARC
8
DEFAULT_255_2_778
10
39.3988133
20
31.6007206
40
1.0439261
50
89.8384678
51
97.6424702
0
ARC
8
DEFAULT_255_2_778
10
39.4149141
20
31.7444359
40
0.900303
50
72.5576616
51
90.8373923
0
ARC
8
DEFAULT_255_2_778
10
39.5000994
20
32.0275183
40
0.6047137
50
48.1751137
51
72.2180446
0
ARC
8
DEFAULT_255_2_778
10
39.5247242
20
32.0615803
40
0.5629268
50
359.067239
51
47.7308882
0
ARC
8
DEFAULT_255_2_778
10
39.2734356
20
32.0352955
40
0.8143208
50
359.9962825
51
1.2047185
0
ARC
8
DEFAULT_255_2_778
10
39.4000288
20
32.0480002
40
0.6878459
50
337.3544898
51
358.9372677
0
ARC
8
DEFAULT_255_2_778
10
38.8482565
20
32.266051
40
1.2810838
50
326.3757059
51
337.8557697
0
ARC
8
DEFAULT_255_2_778
10
38.0311525
20
32.8008202
40
2.2576123
50
319.0538155
51
326.5577205
0
ARC
8
DEFAULT_255_2_778
10
37.3021303
20
33.4120368
40
3.2088624
50
317.2812143
51
319.341239
0
LINE
8
DEFAULT_255_2_778
10
32.8517564
20
31.3759427
11
32.8517564
21
31.6119427
0
LINE
8
DEFAULT_255_2_778
10
32.8517564
20
31.6119427
11
33.0689564
21
31.6119427
0
LINE
8
DEFAULT_255_2_778
10
32.6985564
20
32.0117427
11
32.4093564
21
32.0117427
0
LINE
8
DEFAULT_255_2_778
10
32.3892564
20
30.9332427
11
32.6797564
21
30.9332427
0
LINE
8
DEFAULT_255_2_778
10
33.0686564
20
31.3754427
11
32.8514564
21
31.3754427
0
LINE
8
DEFAULT_255_2_778
10
32.8514564
20
31.3754427
11
32.8517564
21
31.3759427
0
LINE
8
DEFAULT_255_2_778
10
35.3700564
20
32.6202427
11
35.6279564
21
32.6202427
0
LINE
8
DEFAULT_255_2_778
10
35.6279564
20
32.6202427
11
35.6279564
21
31.0944427
0
LINE
8
DEFAULT_255_2_778
10
34.9890564
20
30.3485427
11
34.9207564
21
30.3453427
0
LINE
8
DEFAULT_255_2_778
10
34.2188564
20
31.0912427
11
34.2188564
21
32.6202427
0
LINE
8
DEFAULT_255_2_778
10
34.2188564
20
32.6202427
11
34.4728564
21
32.6202427
0
LINE
8
DEFAULT_255_2_778
10
34.4728564
20
32.6202427
11
34.4728564
21
31.1005427
0
LINE
8
DEFAULT_255_2_778
10
35.3700564
20
31.0989427
11
35.3700564
21
32.6202427
0
LINE
8
DEFAULT_255_2_778
10
35.3700564
20
32.6202427
11
35.3700564
21
32.6202427
0
LINE
8
DEFAULT_255_2_778
10
30.0069564
20
31.5891427
11
30.0069564
21
31.3439427
0
LINE
8
DEFAULT_255_2_778
10
30.0069564
20
31.3439427
11
29.0522564
21
31.3439427
0
LINE
8
DEFAULT_255_2_778
10
29.0522564
20
31.3439427
11
29.0522564
21
30.3393427
0
LINE
8
DEFAULT_255_2_778
10
29.0522564
20
30.3393427
11
28.7522564
21
30.3393427
0
LINE
8
DEFAULT_255_2_778
10
28.7522564
20
30.3393427
11
28.7522564
21
32.6141427
0
LINE
8
DEFAULT_255_2_778
10
28.7522564
20
32.6141427
11
30.1616564
21
32.6141427
0
LINE
8
DEFAULT_255_2_778
10
30.1616564
20
32.6141427
11
30.1616564
21
32.3673427
0
LINE
8
DEFAULT_255_2_778
10
30.1616564
20
32.3673427
11
29.0522564
21
32.3673427
0
LINE
8
DEFAULT_255_2_778
10
29.0522564
20
32.3673427
11
29.0522564
21
31.5891427
0
LINE
8
DEFAULT_255_2_778
10
29.0522564
20
31.5891427
11
30.0069564
21
31.5891427
0
LINE
8
DEFAULT_255_2_778
10
30.0069564
20
31.5891427
11
30.0069564
21
31.5891427
0
LINE
8
DEFAULT_255_2_778
10
30.7149564
20
32.6141427
11
31.2634564
21
31.7423427
0
LINE
8
DEFAULT_255_2_778
10
31.2634564
20
31.7423427
11
31.8087564
21
32.6141427
0
LINE
8
DEFAULT_255_2_778
10
31.8087564
20
32.6141427
11
32.1619564
21
32.6141427
0
LINE
8
DEFAULT_255_2_778
10
32.1619564
20
32.6141427
11
31.4430564
21
31.4860427
0
LINE
8
DEFAULT_255_2_778
10
31.4430564
20
31.4860427
11
32.1788564
21
30.3390427
0
LINE
8
DEFAULT_255_2_778
10
32.1788564
20
30.3390427
11
31.8227564
21
30.3390427
0
LINE
8
DEFAULT_255_2_778
10
31.8227564
20
30.3390427
11
31.2634564
21
31.2264427
0
LINE
8
DEFAULT_255_2_778
10
31.2634564
20
31.2264427
11
30.7009564
21
30.3390427
0
LINE
8
DEFAULT_255_2_778
10
30.7009564
20
30.3390427
11
30.3460564
21
30.3390427
0
LINE
8
DEFAULT_255_2_778
10
30.3460564
20
30.3390427
11
31.0834564
21
31.4860427
0
LINE
8
DEFAULT_255_2_778
10
31.0834564
20
31.4860427
11
30.3632564
21
32.6141427
0
LINE
8
DEFAULT_255_2_778
10
30.3632564
20
32.6141427
11
30.7149564
21
32.6141427
0
LINE
8
DEFAULT_255_2_778
10
30.7149564
20
32.6141427
11
30.7149564
21
32.6141427
0
LINE
8
DEFAULT_255_2_778
10
36.6537564
20
31.4235427
11
36.6537564
21
31.1875427
0
LINE
8
DEFAULT_255_2_778
10
36.6537564
20
31.1875427
11
35.8912564
21
31.1875427
0
LINE
8
DEFAULT_255_2_778
10
35.8912564
20
31.1875427
11
35.8912564
21
31.4235427
0
LINE
8
DEFAULT_255_2_778
10
35.8912564
20
31.4235427
11
36.6537564
21
31.4235427
0
LINE
8
DEFAULT_255_2_778
10
36.6537564
20
31.4235427
11
36.6537564
21
31.4235427
0
LINE
8
DEFAULT_255_2_778
10
37.3255564
20
31.3812427
11
37.3255564
21
31.6172427
0
LINE
8
DEFAULT_255_2_778
10
37.3255564
20
31.6172427
11
37.5427564
21
31.6172427
0
LINE
8
DEFAULT_255_2_778
10
37.1723564
20
32.0170427
11
36.8831564
21
32.0170427
0
LINE
8
DEFAULT_255_2_778
10
36.8627564
20
30.9385427
11
37.1532564
21
30.9385427
0
LINE
8
DEFAULT_255_2_778
10
37.5422564
20
31.3807427
11
37.3250564
21
31.3807427
0
LINE
8
DEFAULT_255_2_778
10
37.3250564
20
31.3807427
11
37.3255564
21
31.3812427
0
LINE
8
DEFAULT_255_2_778
10
40.1928564
20
30.5750427
11
40.1928564
21
30.3390427
0
LINE
8
DEFAULT_255_2_778
10
40.1928564
20
30.3390427
11
38.7021564
21
30.3390427
0
LINE
8
DEFAULT_255_2_778
10
38.7021564
20
30.3390427
11
38.7021564
21
30.5467427
0
LINE
8
DEFAULT_255_2_778
10
38.7021564
20
30.5467427
11
39.4895564
21
31.4217427
0
LINE
8
DEFAULT_255_2_778
10
38.9471564
20
31.9432427
11
38.6579564
21
31.9432427
0
LINE
8
DEFAULT_255_2_778
10
39.6596564
20
31.2351427
11
39.0503564
21
30.5742427
0
LINE
8
DEFAULT_255_2_778
10
39.0503564
20
30.5742427
11
40.1925564
21
30.5742427
0
LINE
8
DEFAULT_255_2_778
10
40.1925564
20
30.5742427
11
40.1928564
21
30.5750427
0
LINE
8
DEFAULT_255_2_778
10
40.5740564
20
32.6141427
11
40.9617564
21
32.6141427
0
LINE
8
DEFAULT_255_2_778
10
40.9617564
20
32.6141427
11
41.7054564
21
30.7578427
0
LINE
8
DEFAULT_255_2_778
10
41.7054564
20
30.7578427
11
42.4491564
21
32.6141427
0
LINE
8
DEFAULT_255_2_778
10
42.4491564
20
32.6141427
11
42.8381564
21
32.6141427
0
LINE
8
DEFAULT_255_2_778
10
42.8381564
20
32.6141427
11
42.8381564
21
30.3393427
0
LINE
8
DEFAULT_255_2_778
10
42.8381564
20
30.3393427
11
42.5380564
21
30.3393427
0
LINE
8
DEFAULT_255_2_778
10
42.5380564
20
30.3393427
11
42.5380564
21
31.2251427
0
LINE
8
DEFAULT_255_2_778
10
42.5380564
20
31.2251427
11
42.5661564
21
32.1813427
0
LINE
8
DEFAULT_255_2_778
10
42.5661564
20
32.1813427
11
41.8192564
21
30.3390427
0
LINE
8
DEFAULT_255_2_778
10
41.8192564
20
30.3390427
11
41.5895564
21
30.3390427
0
LINE
8
DEFAULT_255_2_778
10
41.5895564
20
30.3390427
11
40.8442564
21
32.1765427
0
LINE
8
DEFAULT_255_2_778
10
40.8442564
20
32.1765427
11
40.8738564
21
31.2251427
0
LINE
8
DEFAULT_255_2_778
10
40.8738564
20
31.2251427
11
40.8738564
21
30.3393427
0
LINE
8
DEFAULT_255_2_778
10
40.8738564
20
30.3393427
11
40.5738564
21
30.3393427
0
LINE
8
DEFAULT_255_2_778
10
40.5738564
20
30.3393427
11
40.5738564
21
32.6141427
0
LINE
8
DEFAULT_255_2_778
10
40.5738564
20
32.6141427
11
40.5740564
21
32.6141427
0
LINE
8
DEFAULT_255_2_778
10
29.0102532
20
62.8697468
11
29.6167532
21
62.8697468
0
LINE
8
DEFAULT_255_2_778
10
29.6167532
20
62.8697468
11
30.7808532
21
59.8124468
0
LINE
8
DEFAULT_255_2_778
10
30.7808532
20
59.8124468
11
31.9450532
21
62.8697468
0
LINE
8
DEFAULT_255_2_778
10
31.9450532
20
62.8697468
11
32.5538532
21
62.8697468
0
LINE
8
DEFAULT_255_2_778
10
32.5538532
20
62.8697468
11
32.5538532
21
59.1227468
0
LINE
8
DEFAULT_255_2_778
10
32.5538532
20
59.1227468
11
32.0842532
21
59.1227468
0
LINE
8
DEFAULT_255_2_778
10
32.0842532
20
59.1227468
11
32.0842532
21
60.5818468
0
LINE
8
DEFAULT_255_2_778
10
32.0842532
20
60.5818468
11
32.1281532
21
62.1569468
0
LINE
8
DEFAULT_255_2_778
10
32.1281532
20
62.1569468
11
30.9591532
21
59.1227468
0
LINE
8
DEFAULT_255_2_778
10
30.9591532
20
59.1227468
11
30.5996532
21
59.1227468
0
LINE
8
DEFAULT_255_2_778
10
30.5996532
20
59.1227468
11
29.4330532
21
62.1490468
0
LINE
8
DEFAULT_255_2_778
10
29.4330532
20
62.1490468
11
29.4793532
21
60.5816468
0
LINE
8
DEFAULT_255_2_778
10
29.4793532
20
60.5816468
11
29.4793532
21
59.1224468
0
LINE
8
DEFAULT_255_2_778
10
29.4793532
20
59.1224468
11
29.0097532
21
59.1224468
0
LINE
8
DEFAULT_255_2_778
10
29.0097532
20
59.1224468
11
29.0097532
21
62.8694468
0
LINE
8
DEFAULT_255_2_778
10
29.0097532
20
62.8694468
11
29.0102532
21
62.8697468
0
LINE
8
DEFAULT_255_2_778
10
33.8867823
20
62.8698145
11
33.8867823
21
59.1228145
0
LINE
8
DEFAULT_255_2_778
10
33.8867823
20
59.1228145
11
33.4171823
21
59.1228145
0
LINE
8
DEFAULT_255_2_778
10
33.4171823
20
59.1228145
11
33.4171823
21
62.8698145
0
LINE
8
DEFAULT_255_2_778
10
33.4171823
20
62.8698145
11
33.8867823
21
62.8698145
0
LINE
8
DEFAULT_255_2_778
10
33.8867823
20
62.8698145
11
33.8867823
21
62.8698145
0
LINE
8
DEFAULT_255_2_778
10
37.1339407
20
62.8698145
11
37.1339407
21
62.4631145
0
LINE
8
DEFAULT_255_2_778
10
37.1339407
20
62.4631145
11
35.9893407
21
62.4631145
0
LINE
8
DEFAULT_255_2_778
10
35.9893407
20
62.4631145
11
35.9893407
21
59.1228145
0
LINE
8
DEFAULT_255_2_778
10
35.9893407
20
59.1228145
11
35.5223407
21
59.1228145
0
LINE
8
DEFAULT_255_2_778
10
35.5223407
20
59.1228145
11
35.5223407
21
62.4631145
0
LINE
8
DEFAULT_255_2_778
10
35.5223407
20
62.4631145
11
34.3804407
21
62.4631145
0
LINE
8
DEFAULT_255_2_778
10
34.3804407
20
62.4631145
11
34.3804407
21
62.8698145
0
LINE
8
DEFAULT_255_2_778
10
34.3804407
20
62.8698145
11
37.1339407
21
62.8698145
0
LINE
8
DEFAULT_255_2_778
10
37.1339407
20
62.8698145
11
37.1339407
21
62.8698145
0
ARC
8
DEFAULT_255_2_778
10
39.7223892
20
64.3056485
40
3.6660636
50
247.762957
51
253.360042
0
ARC
8
DEFAULT_255_2_778
10
39.2003548
20
63.0395251
40
2.2965519
50
239.8198819
51
247.864192
0
ARC
8
DEFAULT_255_2_778
10
38.727603
20
62.2357101
40
1.3640404
50
227.5279063
51
240.0120979
0
ARC
8
DEFAULT_255_2_778
10
38.5106145
20
61.9833841
40
1.0314575
50
225.9446471
51
226.9542897
0
ARC
8
DEFAULT_255_2_778
10
38.3967072
20
61.8809712
40
0.8787152
50
178.7912154
51
226.638989
0
ARC
8
DEFAULT_255_2_778
10
38.4408583
20
61.9185968
40
0.9228682
50
130.2915612
51
181.185188
0
ARC
8
DEFAULT_255_2_778
10
38.6129929
20
61.7501347
40
1.1628954
50
130.7118962
51
131.3931731
0
ARC
8
DEFAULT_255_2_778
10
38.6115726
20
61.7401708
40
1.1695463
50
100.5520011
51
130.3407682
0
ARC
8
DEFAULT_255_2_778
10
38.7193684
20
61.2439689
40
1.6771653
50
89.6816361
51
101.0680122
0
ARC
8
DEFAULT_255_2_778
10
38.7427395
20
61.4327985
40
1.4883761
50
72.3090125
51
90.5409457
0
ARC
8
DEFAULT_255_2_778
10
38.8040614
20
61.6558113
40
1.2573097
50
62.5839632
51
71.8830248
0
ARC
8
DEFAULT_255_2_778
10
38.8911583
20
61.7939511
40
1.0946672
50
31.150448
51
63.3014942
0
ARC
8
DEFAULT_255_2_778
10
38.8918167
20
61.7943442
40
1.0939004
50
359.5790946
51
31.1506666
0
ARC
8
DEFAULT_255_2_778
10
38.6712014
20
61.7997567
40
0.8425934
50
359.0854767
51
19.8201087
0
ARC
8
DEFAULT_255_2_778
10
38.8833669
20
61.8692716
40
0.6194606
50
20.4251702
51
46.7148472
0
ARC
8
DEFAULT_255_2_778
10
38.8392554
20
61.8104607
40
0.6925649
50
47.3942062
51
79.0454652
0
ARC
8
DEFAULT_255_2_778
10
38.7376772
20
61.3713737
40
1.1430699
50
78.2290309
51
90.4506088
0
ARC
8
DEFAULT_255_2_778
10
38.7158837
20
61.390557
40
1.1239243
50
89.3472655
51
103.6964449
0
ARC
8
DEFAULT_255_2_778
10
38.604079
20
61.8360101
40
0.6646727
50
103.4247444
51
128.8558848
0
ARC
8
DEFAULT_255_2_778
10
38.5314714
20
61.9401086
40
0.5381285
50
129.7892801
51
179.7737782
0
ARC
8
DEFAULT_255_2_778
10
38.7988017
20
61.907239
40
0.8062143
50
177.5122557
51
180.0163964
0
ARC
8
DEFAULT_255_2_778
10
38.4839392
20
61.9035396
40
0.4913639
50
179.5955296
51
231.3851135
0
ARC
8
DEFAULT_255_2_778
10
38.7707786
20
62.2340339
40
0.9287818
50
230.282746
51
242.6095272
0
ARC
8
DEFAULT_255_2_778
10
39.2289737
20
63.0952241
40
1.9042488
50
242.2895268
51
249.5151427
0
ARC
8
DEFAULT_255_2_778
10
39.7552498
20
64.4745928
40
3.3805838
50
249.3410265
51
253.686847
0
ARC
8
DEFAULT_255_2_778
10
37.612819
20
57.1529602
40
4.2480668
50
69.3428742
51
73.6918834
0
ARC
8
DEFAULT_255_2_778
10
38.2018914
20
58.703889
40
2.5890432
50
63.1288775
51
69.4329736
0
ARC
8
DEFAULT_255_2_778
10
38.6177232
20
59.5345726
40
1.6601086
50
57.8883903
51
62.9727357
0
ARC
8
DEFAULT_255_2_778
10
38.8633118
20
59.9078026
40
1.2134681
50
42.1580174
51
58.342578
0
ARC
8
DEFAULT_255_2_778
10
39.08465
20
60.1175045
40
0.9086698
50
29.9613371
51
41.7233078
0
ARC
8
DEFAULT_255_2_778
10
39.0515522
20
60.112663
40
0.9398434
50
3.146434
51
29.2093326
0
ARC
8
DEFAULT_255_2_778
10
38.7279476
20
60.0756079
40
1.2651403
50
359.9592575
51
4.017683
0
ARC
8
DEFAULT_255_2_778
10
39.0222365
20
60.0602874
40
0.9709581
50
336.6807135
51
0.8510003
0
ARC
8
DEFAULT_255_2_778
10
39.1032487
20
60.0425531
40
0.8896833
50
308.3682845
51
335.6642048
0
ARC
8
DEFAULT_255_2_778
10
38.9269746
20
60.2586568
40
1.1685396
50
283.7019731
51
308.5676949
0
ARC
8
DEFAULT_255_2_778
10
38.7825723
20
60.8096177
40
1.738053
50
271.5358983
51
284.0245662
0
ARC
8
DEFAULT_255_2_778
10
38.7535051
20
61.3057219
40
2.2348136
50
269.9867304
51
271.9399412
0
ARC
8
DEFAULT_255_2_778
10
38.741035
20
60.6744264
40
1.6035627
50
245.1948938
51
270.4270723
0
ARC
8
DEFAULT_255_2_778
10
38.5792194
20
60.3505833
40
1.2417593
50
225.363176
51
245.7035376
0
ARC
8
DEFAULT_255_2_778
10
38.4545126
20
60.2110517
40
1.0548927
50
213.8072697
51
224.8581485
0
ARC
8
DEFAULT_255_2_778
10
38.4309484
20
60.1935343
40
1.0255673
50
179.1745886
51
213.7265798
0
ARC
8
DEFAULT_255_2_778
10
38.604941
20
60.1939143
40
0.7275959
50
178.8664444
51
205.6027555
0
ARC
8
DEFAULT_255_2_778
10
38.5164099
20
60.1651231
40
0.6354351
50
206.711229
51
230.9268508
0
ARC
8
DEFAULT_255_2_778
10
38.6431731
20
60.3257897
40
0.8400725
50
231.1218108
51
259.2947945
0
ARC
8
DEFAULT_255_2_778
10
38.7440432
20
60.7838915
40
1.3090137
50
258.6811481
51
270.3914964
0
ARC
8
DEFAULT_255_2_778
10
38.7654401
20
60.7787091
40
1.3038603
50
269.4527881
51
281.5457324
0
ARC
8
DEFAULT_255_2_778
10
38.8871231
20
60.2131619
40
0.725427
50
281.0697361
51
303.8827844
0
ARC
8
DEFAULT_255_2_778
10
38.9687309
20
60.0744681
40
0.5648714
50
304.8537402
51
308.8268322
0
ARC
8
DEFAULT_255_2_778
10
38.9929687
20
60.0473831
40
0.5285779
50
308.6207873
51
2.388139
0
ARC
8
DEFAULT_255_2_778
10
38.9262061
20
60.0832209
40
0.5950418
50
358.6698849
51
25.5428908
0
ARC
8
DEFAULT_255_2_778
10
39.0373726
20
60.1252536
40
0.4767216
50
26.745928
51
50.9374635
0
ARC
8
DEFAULT_255_2_778
10
38.7741926
20
59.7876582
40
0.9047372
50
51.4690197
51
62.3522444
0
ARC
8
DEFAULT_255_2_778
10
38.2826255
20
58.8721945
40
1.9438038
50
62.0388594
51
68.323382
0
ARC
8
DEFAULT_255_2_778
10
37.6584881
20
57.3246591
40
3.6124486
50
68.1902922
51
72.1972959
0
ARC
8
DEFAULT_255_2_778
10
37.1738253
20
55.8623904
40
5.1528974
50
72.0373987
51
73.0906597
0
LINE
8
DEFAULT_255_2_778
10
39.9856875
20
61.7863083
11
39.5136875
21
61.7863083
0
LINE
8
DEFAULT_255_2_778
10
37.4054875
20
60.2083083
11
37.8774875
21
60.2083083
0
LINE
8
DEFAULT_255_2_778
10
38.6725875
20
60.7925083
11
38.6725875
21
60.7931083
0
ARC
8
DEFAULT_255_2_778
10
41.6395335
20
60.3152259
40
1.461889
50
343.8694593
51
0.2698634
0
ARC
8
DEFAULT_255_2_778
10
41.9584033
20
60.2272886
40
1.131149
50
316.9282387
51
343.661012
0
ARC
8
DEFAULT_255_2_778
10
41.9360427
20
60.2537656
40
1.1655719
50
282.6426002
51
316.7281175
0
ARC
8
DEFAULT_255_2_778
10
41.8132566
20
60.7023144
40
1.630263
50
274.1912686
51
283.4030124
0
ARC
8
DEFAULT_255_2_778
10
41.794979
20
60.7448022
40
1.6734399
50
256.9943969
51
270.4391913
0
ARC
8
DEFAULT_255_2_778
10
41.6725371
20
60.2443586
40
1.1582978
50
226.5537617
51
257.3247293
0
ARC
8
DEFAULT_255_2_778
10
41.6454504
20
60.2005669
40
1.1079264
50
191.1766333
51
226.0133952
0
ARC
8
DEFAULT_255_2_778
10
42.155279
20
60.3206709
40
1.6314769
50
180.1285189
51
191.8440456
0
ARC
8
DEFAULT_255_2_778
10
42.1783826
20
60.3196201
40
1.1900472
50
179.3745122
51
194.234586
0
ARC
8
DEFAULT_255_2_778
10
41.746476
20
60.2061676
40
0.7435138
50
193.9443311
51
222.8191342
0
ARC
8
DEFAULT_255_2_778
10
41.7082846
20
60.1908014
40
0.7052092
50
224.0124819
51
260.1081167
0
ARC
8
DEFAULT_255_2_778
10
41.800505
20
60.6024265
40
1.1267374
50
259.0840987
51
270.3611099
0
ARC
8
DEFAULT_255_2_778
10
41.8203762
20
60.5552602
40
1.0796243
50
269.3222846
51
285.0458649
0
ARC
8
DEFAULT_255_2_778
10
41.9270011
20
60.1697016
40
0.6796105
50
284.8029205
51
316.2230687
0
ARC
8
DEFAULT_255_2_778
10
41.8659647
20
60.2082814
40
0.7505103
50
317.3203432
51
348.2932536
0
ARC
8
DEFAULT_255_2_778
10
41.4011029
20
60.3194688
40
1.2283489
50
347.6144215
51
0.4917607
0
ARC
8
DEFAULT_255_2_778
10
45.0190055
20
60.759742
40
2.1100071
50
81.2322536
51
90.342125
0
ARC
8
DEFAULT_255_2_778
10
45.1469776
20
61.5600305
40
1.2995715
50
67.1431648
51
81.4301673
0
ARC
8
DEFAULT_255_2_778
10
45.3085439
20
61.9490471
40
0.8783469
50
49.5667374
51
66.9979728
0
ARC
8
DEFAULT_255_2_778
10
45.342639
20
62.0068068
40
0.8123513
50
12.4816818
51
48.7549844
0
ARC
8
DEFAULT_255_2_778
10
44.859335
20
61.8832912
40
1.311027
50
359.4720709
51
13.1871113
0
ARC
8
DEFAULT_255_2_778
10
45.3816415
20
61.8579795
40
0.7887759
50
325.0935089
51
0.9611921
0
ARC
8
DEFAULT_255_2_778
10
45.2739595
20
61.9437938
40
0.9262321
50
293.426674
51
324.5519007
0
ARC
8
DEFAULT_255_2_778
10
45.4211532
20
60.2983907
40
0.825662
50
34.9018299
51
74.4708638
0
ARC
8
DEFAULT_255_2_778
10
45.3269678
20
60.2378857
40
0.9375356
50
2.2435299
51
34.6409946
0
ARC
8
DEFAULT_255_2_778
10
45.0267614
20
60.2038349
40
1.2390449
50
359.9757909
51
3.2735059
0
ARC
8
DEFAULT_255_2_778
10
44.9682556
20
60.1900099
40
1.297619
50
344.4557539
51
0.5873339
0
ARC
8
DEFAULT_255_2_778
10
45.3235911
20
60.0918168
40
0.9289664
50
312.8367532
51
344.4173821
0
ARC
8
DEFAULT_255_2_778
10
45.2701589
20
60.1632343
40
1.0177088
50
285.2977484
51
312.3088839
0
ARC
8
DEFAULT_255_2_778
10
45.1180247
20
60.6811269
40
1.5574223
50
272.5467938
51
285.6695198
0
ARC
8
DEFAULT_255_2_778
10
45.0785221
20
61.2103817
40
2.0879705
50
269.9666371
51
272.984368
0
ARC
8
DEFAULT_255_2_778
10
45.1003158
20
60.4238953
40
0.8972811
50
269.156482
51
287.9004187
0
ARC
8
DEFAULT_255_2_778
10
45.1827531
20
60.1553859
40
0.6164449
50
288.2799454
51
313.1449054
0
ARC
8
DEFAULT_255_2_778
10
45.1846218
20
60.1415492
40
0.6051255
50
313.9117527
51
354.6835653
0
ARC
8
DEFAULT_255_2_778
10
44.868341
20
60.1963479
40
0.925468
50
353.119669
51
0.1339406
0
ARC
8
DEFAULT_255_2_778
10
44.8333524
20
60.2111058
40
0.9605365
50
359.2487242
51
14.6428302
0
ARC
8
DEFAULT_255_2_778
10
45.2545497
20
60.3314428
40
0.5226941
50
13.5517682
51
74.9430937
0
ARC
8
DEFAULT_255_2_778
10
45.1194509
20
59.9062067
40
0.9686333
50
73.7603717
51
89.026631
0
ARC
8
DEFAULT_255_2_778
10
45.0948152
20
59.4938424
40
1.381469
50
88.2955385
51
90.0128116
0
ARC
8
DEFAULT_255_2_778
10
45.0341598
20
62.149919
40
0.8783031
50
269.1549553
51
288.0433789
0
ARC
8
DEFAULT_255_2_778
10
45.1124443
20
61.894425
40
0.6111442
50
288.484133
51
311.0889178
0
ARC
8
DEFAULT_255_2_778
10
45.1509938
20
61.8432542
40
0.5472606
50
311.5680765
51
0.0542914
0
ARC
8
DEFAULT_255_2_778
10
44.8909232
20
61.8736384
40
0.8078829
50
357.8814218
51
0.0122722
0
ARC
8
DEFAULT_255_2_778
10
44.909762
20
61.8865947
40
0.7891478
50
359.071835
51
16.2981376
0
ARC
8
DEFAULT_255_2_778
10
45.2465938
20
61.9874072
40
0.4375659
50
16.0055594
51
50.0426266
0
ARC
8
DEFAULT_255_2_778
10
45.1729861
20
61.8703411
40
0.5748781
50
51.9126909
51
76.8572575
0
ARC
8
DEFAULT_255_2_778
10
45.0355776
20
61.3362613
40
1.1262801
50
76.2278877
51
88.8309058
0
ARC
8
DEFAULT_255_2_778
10
45.0071001
20
60.8174292
40
1.6456825
50
88.2081875
51
90.0171917
0
LINE
8
DEFAULT_255_2_778
10
42.6294063
20
62.8697114
11
43.1014063
21
62.8697114
0
LINE
8
DEFAULT_255_2_778
10
43.1014063
20
62.8697114
11
43.1014063
21
60.3221114
0
LINE
8
DEFAULT_255_2_778
10
41.9324063
20
59.0764114
11
41.8078063
21
59.0714114
0
LINE
8
DEFAULT_255_2_778
10
40.5238063
20
60.3170114
11
40.5238063
21
62.8700114
0
LINE
8
DEFAULT_255_2_778
10
40.5238063
20
62.8700114
11
40.9884063
21
62.8700114
0
LINE
8
DEFAULT_255_2_778
10
40.9884063
20
62.8700114
11
40.9884063
21
60.3326114
0
LINE
8
DEFAULT_255_2_778
10
42.6294063
20
60.3300114
11
42.6294063
21
62.8700114
0
LINE
8
DEFAULT_255_2_778
10
42.6294063
20
62.8700114
11
42.6294063
21
62.8697114
0
LINE
8
DEFAULT_255_2_778
10
45.0773063
20
59.1227114
11
43.8422063
21
59.1227114
0
LINE
8
DEFAULT_255_2_778
10
43.8422063
20
59.1227114
11
43.8422063
21
62.8697114
0
LINE
8
DEFAULT_255_2_778
10
43.8422063
20
62.8697114
11
45.0064063
21
62.8697114
0
LINE
8
DEFAULT_255_2_778
10
45.0773063
20
59.1224114
11
45.0773063
21
59.1227114
0
LINE
8
DEFAULT_255_2_778
10
45.0945063
20
60.8753114
11
44.3118063
21
60.8753114
0
LINE
8
DEFAULT_255_2_778
10
44.3118063
20
60.8753114
11
44.3118063
21
59.5267114
0
LINE
8
DEFAULT_255_2_778
10
44.3118063
20
59.5267114
11
45.0871063
21
59.5267114
0
LINE
8
DEFAULT_255_2_778
10
45.0945063
20
60.8753114
11
45.0945063
21
60.8753114
0
LINE
8
DEFAULT_255_2_778
10
44.3118063
20
62.4631114
11
44.3118063
21
61.2717114
0
LINE
8
DEFAULT_255_2_778
10
44.3118063
20
61.2717114
11
45.0212063
21
61.2717114
0
LINE
8
DEFAULT_255_2_778
10
45.0066063
20
62.4631114
11
44.3121063
21
62.4631114
0
LINE
8
DEFAULT_255_2_778
10
44.3121063
20
62.4631114
11
44.3118063
21
62.4631114
0
LINE
8
DEFAULT_255_2_778
10
47.4640823
20
62.8698145
11
47.4640823
21
59.1228145
0
LINE
8
DEFAULT_255_2_778
10
47.4640823
20
59.1228145
11
46.9944823
21
59.1228145
0
LINE
8
DEFAULT_255_2_778
10
46.9944823
20
59.1228145
11
46.9944823
21
62.8698145
0
LINE
8
DEFAULT_255_2_778
10
46.9944823
20
62.8698145
11
47.4640823
21
62.8698145
0
LINE
8
DEFAULT_255_2_778
10
47.4640823
20
62.8698145
11
47.4640823
21
62.8698145
0
ARC
8
DEFAULT_255_2_778
10
50.4212892
20
64.3056485
40
3.6660636
50
247.762957
51
253.360042
0
ARC
8
DEFAULT_255_2_778
10
49.8992548
20
63.0395251
40
2.2965519
50
239.8198819
51
247.864192
0
ARC
8
DEFAULT_255_2_778
10
49.426503
20
62.2357101
40
1.3640404
50
227.5279063
51
240.0120979
0
ARC
8
DEFAULT_255_2_778
10
49.2095145
20
61.9833841
40
1.0314575
50
225.9446471
51
226.9542897
0
ARC
8
DEFAULT_255_2_778
10
49.0956072
20
61.8809712
40
0.8787152
50
178.7912154
51
226.638989
0
ARC
8
DEFAULT_255_2_778
10
49.1397583
20
61.9185968
40
0.9228682
50
130.2915612
51
181.185188
0
ARC
8
DEFAULT_255_2_778
10
49.3118929
20
61.7501347
40
1.1628954
50
130.7118962
51
131.3931731
0
ARC
8
DEFAULT_255_2_778
10
49.3104726
20
61.7401708
40
1.1695463
50
100.5520011
51
130.3407682
0
ARC
8
DEFAULT_255_2_778
10
49.4182684
20
61.2439689
40
1.6771653
50
89.6816361
51
101.0680122
0
ARC
8
DEFAULT_255_2_778
10
49.4416395
20
61.4327985
40
1.4883761
50
72.3090125
51
90.5409457
0
ARC
8
DEFAULT_255_2_778
10
49.5029614
20
61.6558113
40
1.2573097
50
62.5839632
51
71.8830248
0
ARC
8
DEFAULT_255_2_778
10
49.5900583
20
61.7939511
40
1.0946672
50
31.150448
51
63.3014942
0
ARC
8
DEFAULT_255_2_778
10
49.5907167
20
61.7943442
40
1.0939004
50
359.5790946
51
31.1506666
0
ARC
8
DEFAULT_255_2_778
10
49.3701014
20
61.7997567
40
0.8425934
50
359.0854767
51
19.8201087
0
ARC
8
DEFAULT_255_2_778
10
49.5822669
20
61.8692716
40
0.6194606
50
20.4251702
51
46.7148472
0
ARC
8
DEFAULT_255_2_778
10
49.5381554
20
61.8104607
40
0.6925649
50
47.3942062
51
79.0454652
0
ARC
8
DEFAULT_255_2_778
10
49.4365772
20
61.3713737
40
1.1430699
50
78.2290309
51
90.4506088
0
ARC
8
DEFAULT_255_2_778
10
49.4147837
20
61.390557
40
1.1239243
50
89.3472655
51
103.6964449
0
ARC
8
DEFAULT_255_2_778
10
49.302979
20
61.8360101
40
0.6646727
50
103.4247444
51
128.8558848
0
ARC
8
DEFAULT_255_2_778
10
49.2303714
20
61.9401086
40
0.5381285
50
129.7892801
51
179.7737782
0
ARC
8
DEFAULT_255_2_778
10
49.4977017
20
61.907239
40
0.8062143
50
177.5122557
51
180.0163964
0
ARC
8
DEFAULT_255_2_778
10
49.1828392
20
61.9035396
40
0.4913639
50
179.5955296
51
231.3851135
0
ARC
8
DEFAULT_255_2_778
10
49.4696786
20
62.2340339
40
0.9287818
50
230.282746
51
242.6095272
0
ARC
8
DEFAULT_255_2_778
10
49.9278737
20
63.0952241
40
1.9042488
50
242.2895268
51
249.5151427
0
ARC
8
DEFAULT_255_2_778
10
50.4541498
20
64.4745928
40
3.3805838
50
249.3410265
51
253.686847
0
ARC
8
DEFAULT_255_2_778
10
48.311719
20
57.1529602
40
4.2480668
50
69.3428742
51
73.6918834
0
ARC
8
DEFAULT_255_2_778
10
48.9007914
20
58.703889
40
2.5890432
50
63.1288775
51
69.4329736
0
ARC
8
DEFAULT_255_2_778
10
49.3166232
20
59.5345726
40
1.6601086
50
57.8883903
51
62.9727357
0
ARC
8
DEFAULT_255_2_778
10
49.5622118
20
59.9078026
40
1.2134681
50
42.1580174
51
58.342578
0
ARC
8
DEFAULT_255_2_778
10
49.78355
20
60.1175045
40
0.9086698
50
29.9613371
51
41.7233078
0
ARC
8
DEFAULT_255_2_778
10
49.7504522
20
60.112663
40
0.9398434
50
3.146434
51
29.2093326
0
ARC
8
DEFAULT_255_2_778
10
49.4268476
20
60.0756079
40
1.2651403
50
359.9592575
51
4.017683
0
ARC
8
DEFAULT_255_2_778
10
49.7211365
20
60.0602874
40
0.9709581
50
336.6807135
51
0.8510003
0
ARC
8
DEFAULT_255_2_778
10
49.8021487
20
60.0425531
40
0.8896833
50
308.3682845
51
335.6642048
0
ARC
8
DEFAULT_255_2_778
10
49.6258746
20
60.2586568
40
1.1685396
50
283.7019731
51
308.5676949
0
ARC
8
DEFAULT_255_2_778
10
49.4814723
20
60.8096177
40
1.738053
50
271.5358983
51
284.0245662
0
ARC
8
DEFAULT_255_2_778
10
49.4524051
20
61.3057219
40
2.2348136
50
269.9867304
51
271.9399412
0
ARC
8
DEFAULT_255_2_778
10
49.439935
20
60.6744264
40
1.6035627
50
245.1948938
51
270.4270723
0
ARC
8
DEFAULT_255_2_778
10
49.2781194
20
60.3505833
40
1.2417593
50
225.363176
51
245.7035376
0
ARC
8
DEFAULT_255_2_778
10
49.1534126
20
60.2110517
40
1.0548927
50
213.8072697
51
224.8581485
0
ARC
8
DEFAULT_255_2_778
10
49.1298484
20
60.1935343
40
1.0255673
50
179.1745886
51
213.7265798
0
ARC
8
DEFAULT_255_2_778
10
49.303841
20
60.1939143
40
0.7275959
50
178.8664444
51
205.6027555
0
ARC
8
DEFAULT_255_2_778
10
49.2153099
20
60.1651231
40
0.6354351
50
206.711229
51
230.9268508
0
ARC
8
DEFAULT_255_2_778
10
49.3420731
20
60.3257897
40
0.8400725
50
231.1218108
51
259.2947945
0
ARC
8
DEFAULT_255_2_778
10
49.4429432
20
60.7838915
40
1.3090137
50
258.6811481
51
270.3914964
0
ARC
8
DEFAULT_255_2_778
10
49.4643401
20
60.7787091
40
1.3038603
50
269.4527881
51
281.5457324
0
ARC
8
DEFAULT_255_2_778
10
49.5860231
20
60.2131619
40
0.725427
50
281.0697361
51
303.8827844
0
ARC
8
DEFAULT_255_2_778
10
49.6676309
20
60.0744681
40
0.5648714
50
304.8537402
51
308.8268322
0
ARC
8
DEFAULT_255_2_778
10
49.6918687
20
60.0473831
40
0.5285779
50
308.6207873
51
2.388139
0
ARC
8
DEFAULT_255_2_778
10
49.6251061
20
60.0832209
40
0.5950418
50
358.6698849
51
25.5428908
0
ARC
8
DEFAULT_255_2_778
10
49.7362726
20
60.1252536
40
0.4767216
50
26.745928
51
50.9374635
0
ARC
8
DEFAULT_255_2_778
10
49.4730926
20
59.7876582
40
0.9047372
50
51.4690197
51
62.3522444
0
ARC
8
DEFAULT_255_2_778
10
48.9815255
20
58.8721945
40
1.9438038
50
62.0388594
51
68.323382
0
ARC
8
DEFAULT_255_2_778
10
48.3573881
20
57.3246591
40
3.6124486
50
68.1902922
51
72.1972959
0
ARC
8
DEFAULT_255_2_778
10
47.8727253
20
55.8623904
40
5.1528974
50
72.0373987
51
73.0906597
0
LINE
8
DEFAULT_255_2_778
10
50.6845875
20
61.7863083
11
50.2125875
21
61.7863083
0
LINE
8
DEFAULT_255_2_778
10
48.1043875
20
60.2083083
11
48.5763875
21
60.2083083
0
LINE
8
DEFAULT_255_2_778
10
49.3714875
20
60.7925083
11
49.3714875
21
60.7931083
0
LINE
8
DEFAULT_255_2_778
10
54.0303073
20
62.8698145
11
54.0303073
21
59.1228145
0
LINE
8
DEFAULT_255_2_778
10
54.0303073
20
59.1228145
11
53.5583073
21
59.1228145
0
LINE
8
DEFAULT_255_2_778
10
53.5583073
20
59.1228145
11
53.5583073
21
60.8547145
0
LINE
8
DEFAULT_255_2_778
10
53.5583073
20
60.8547145
11
51.7633073
21
60.8547145
0
LINE
8
DEFAULT_255_2_778
10
51.7633073
20
60.8547145
11
51.7633073
21
59.1228145
0
LINE
8
DEFAULT_255_2_778
10
51.7633073
20
59.1228145
11
51.2937073
21
59.1228145
0
LINE
8
DEFAULT_255_2_778
10
51.2937073
20
59.1228145
11
51.2937073
21
62.8698145
0
LINE
8
DEFAULT_255_2_778
10
51.2937073
20
62.8698145
11
51.7633073
21
62.8698145
0
LINE
8
DEFAULT_255_2_778
10
51.7633073
20
62.8698145
11
51.7633073
21
61.2588145
0
LINE
8
DEFAULT_255_2_778
10
51.7633073
20
61.2588145
11
53.5583073
21
61.2588145
0
LINE
8
DEFAULT_255_2_778
10
53.5583073
20
61.2588145
11
53.5583073
21
62.8698145
0
LINE
8
DEFAULT_255_2_778
10
53.5583073
20
62.8698145
11
54.0303073
21
62.8698145
0
LINE
8
DEFAULT_255_2_778
10
54.0303073
20
62.8698145
11
54.0303073
21
62.8698145
0
LINE
8
DEFAULT_255_2_778
10
55.3679823
20
62.8698145
11
55.3679823
21
59.1228145
0
LINE
8
DEFAULT_255_2_778
10
55.3679823
20
59.1228145
11
54.8983823
21
59.1228145
0
LINE
8
DEFAULT_255_2_778
10
54.8983823
20
59.1228145
11
54.8983823
21
62.8698145
0
LINE
8
DEFAULT_255_2_778
10
54.8983823
20
62.8698145
11
55.3679823
21
62.8698145
0
LINE
8
DEFAULT_255_2_778
10
55.3679823
20
62.8698145
11
55.3679823
21
62.8698145
0
ARC
8
DEFAULT_255_2_778
10
13.3433784
20
37.2580428
40
6.2982089
50
20.7197295
51
45.7057321
0
ARC
8
DEFAULT_255_2_778
10
13.3434934
20
37.2574825
40
6.2982995
50
359.9971131
51
20.7248667
0
ARC
8
DEFAULT_255_2_778
10
13.3430644
20
37.2569214
40
6.2987284
50
335.0181382
51
0.0022179
0
ARC
8
DEFAULT_255_2_778
10
13.3432284
20
37.2562823
40
6.2983098
50
314.2952782
51
335.0227779
0
LINE
8
DEFAULT_255_2_778
10
17.8416928
20
46.9572652
11
17.7416928
21
46.9572652
0
LINE
8
DEFAULT_255_2_778
10
17.7416928
20
44.7571652
11
17.8416928
21
44.7571652
0
LINE
8
DEFAULT_255_2_778
10
17.8416928
20
46.7571652
11
17.7416928
21
46.7571652
0
LINE
8
DEFAULT_255_2_778
10
17.7416928
20
27.5571652
11
17.8416928
21
27.5571652
0
LINE
8
DEFAULT_255_2_778
10
17.8416928
20
29.7571652
11
17.7416928
21
29.7571652
0
LINE
8
DEFAULT_255_2_778
10
17.7416928
20
27.7571652
11
17.8416928
21
27.7571652
0
LINE
8
DEFAULT_255_2_778
10
17.8416928
20
52.7571652
11
0.1415928
21
52.7571652
0
LINE
8
DEFAULT_255_2_778
10
0.1415928
20
52.7571652
11
0.1415928
21
52.8571652
0
LINE
8
DEFAULT_255_2_778
10
6.9416928
20
52.7571652
11
5.9414928
21
52.8571652
0
LINE
8
DEFAULT_255_2_778
10
5.9414928
20
52.8571652
11
5.9414928
21
52.7571652
0
LINE
8
DEFAULT_255_2_778
10
7.3413928
20
52.8571652
11
7.3413928
21
52.7571652
0
LINE
8
DEFAULT_255_2_778
10
12.8415928
20
52.8571652
11
12.8415928
21
52.7571652
0
LINE
8
DEFAULT_255_2_778
10
11.8414928
20
52.7571652
11
11.8414928
21
52.8571652
0
LINE
8
DEFAULT_255_2_778
10
12.8415928
20
21.7572652
11
12.8415928
21
21.6572652
0
LINE
8
DEFAULT_255_2_778
10
5.9414928
20
21.7572652
11
5.9414928
21
21.6572652
0
LINE
8
DEFAULT_255_2_778
10
5.9414928
20
21.6572652
11
6.9416928
21
21.7572652
0
LINE
8
DEFAULT_255_2_778
10
7.3416928
20
21.7572652
11
7.3416928
21
21.6572652
0
LINE
8
DEFAULT_255_2_778
10
11.8416928
20
21.6572652
11
11.8416928
21
21.7572652
0
LINE
8
DEFAULT_255_2_778
10
17.7416928
20
52.7571652
11
17.7416928
21
41.7660652
0
LINE
8
DEFAULT_255_2_778
10
17.7416928
20
32.7482652
11
17.7416928
21
21.7572652
0
LINE
8
DEFAULT_255_2_778
10
17.7416928
20
21.7572652
11
17.8416928
21
21.7572652
0
LINE
8
DEFAULT_255_2_778
10
0.3415928
20
52.7571652
11
0.3415928
21
52.8571652
0
LINE
8
DEFAULT_255_2_778
10
0.3415928
20
21.6572652
11
0.3415928
21
21.7572652
0
LINE
8
DEFAULT_255_2_778
10
0.5291928
20
52.7571652
11
0.5291928
21
21.7572652
0
LINE
8
DEFAULT_255_2_778
10
0.1415928
20
21.7572652
11
6.6415928
21
21.7572652
0
LINE
8
DEFAULT_255_2_778
10
0.1415928
20
52.7571652
11
0.1415928
21
21.6572652
0
LINE
8
DEFAULT_255_2_778
10
17.7416928
20
21.7572652
11
6.6415928
21
21.7572652
0
LINE
8
DEFAULT_255_2_778
10
6.6415928
20
21.7572652
11
6.6415928
21
52.7571652
0
LINE
8
DEFAULT_255_2_778
10
18.2088928
20
41.2570652
11
18.4417928
21
41.2570652
0
ARC
8
DEFAULT_255_2_778
10
8.3776133
20
15.3588876
40
0.5194442
50
69.7561446
51
91.4027862
0
ARC
8
DEFAULT_255_2_778
10
8.4462875
20
15.5615021
40
0.3056357
50
50.1587364
51
68.6920496
0
ARC
8
DEFAULT_255_2_778
10
8.450812
20
15.5806585
40
0.2881627
50
358.7538712
51
48.4090087
0
ARC
8
DEFAULT_255_2_778
10
8.2527187
20
15.5575847
40
0.4864782
50
359.9871987
51
1.9798623
0
ARC
8
DEFAULT_255_2_778
10
8.4517433
20
15.5513855
40
0.2875181
50
324.3905515
51
1.2138012
0
ARC
8
DEFAULT_255_2_778
10
8.4290784
20
15.5744338
40
0.319413
50
289.5183293
51
323.3964604
0
ARC
8
DEFAULT_255_2_778
10
8.382479
20
15.6014613
40
0.2438258
50
266.971476
51
309.112994
0
ARC
8
DEFAULT_255_2_778
10
8.4152702
20
15.5496544
40
0.1830855
50
311.3792121
51
2.3858502
0
ARC
8
DEFAULT_255_2_778
10
8.4059298
20
15.56973
40
0.1926701
50
356.2938915
51
46.2362981
0
ARC
8
DEFAULT_255_2_778
10
8.3898794
20
15.5241221
40
0.2375495
50
51.0549636
51
90.1580998
0
ARC
8
DEFAULT_255_2_778
10
8.3658181
20
15.3167016
40
0.4455843
50
86.9889719
51
89.6169693
0
ARC
8
DEFAULT_255_2_778
10
9.3456387
20
15.1421796
40
0.3412291
50
316.2176294
51
1.8131291
0
ARC
8
DEFAULT_255_2_778
10
9.3275161
20
15.1777702
40
0.3791673
50
272.5236893
51
314.2292295
0
ARC
8
DEFAULT_255_2_778
10
9.2948501
20
15.374845
40
0.5779859
50
274.1519146
51
274.8991933
0
ARC
8
DEFAULT_255_2_778
10
9.2856925
20
15.2326409
40
0.4360803
50
241.3554674
51
271.800899
0
ARC
8
DEFAULT_255_2_778
10
9.2434911
20
15.1369481
40
0.3319866
50
227.7319446
51
239.8302872
0
ARC
8
DEFAULT_255_2_778
10
9.2517391
20
15.1364651
40
0.337238
50
177.9050798
51
226.6397009
0
ARC
8
DEFAULT_255_2_778
10
9.4319777
20
15.1560121
40
0.5173015
50
180.5134919
51
180.7996192
0
ARC
8
DEFAULT_255_2_778
10
9.2989302
20
15.1413902
40
0.2455609
50
176.6181158
51
221.7117982
0
ARC
8
DEFAULT_255_2_778
10
9.2608605
20
15.1181288
40
0.2018213
50
223.9739761
51
224.7770177
0
ARC
8
DEFAULT_255_2_778
10
9.2811878
20
15.1524024
40
0.2405998
50
227.1618636
51
272.1611413
0
ARC
8
DEFAULT_255_2_778
10
9.2993472
20
15.3340054
40
0.4221294
50
268.7666156
51
270.0067499
0
ARC
8
DEFAULT_255_2_778
10
9.3128359
20
15.173551
40
0.2620198
50
267.0600033
51
305.0293182
0
ARC
8
DEFAULT_255_2_778
10
9.347153
20
15.1100647
40
0.1905182
50
307.5382734
51
315.1393402
0
ARC
8
DEFAULT_255_2_778
10
9.3035833
20
15.1391265
40
0.2421133
50
317.5381612
51
2.9238004
0
ARC
8
DEFAULT_255_2_778
10
9.1314477
20
15.1550469
40
0.4139492
50
359.5057579
51
0.0040291
0
LINE
8
DEFAULT_255_2_778
10
8.6352969
20
14.811676
11
8.4036969
21
15.242876
0
LINE
8
DEFAULT_255_2_778
10
8.4036969
20
15.242876
11
8.1531969
21
15.242876
0
LINE
8
DEFAULT_255_2_778
10
8.1531969
20
15.242876
11
8.1531969
21
14.811676
0
LINE
8
DEFAULT_255_2_778
10
8.1531969
20
14.811676
11
8.0118969
21
14.811676
0
LINE
8
DEFAULT_255_2_778
10
8.0118969
20
14.811676
11
8.0118969
21
15.878176
0
LINE
8
DEFAULT_255_2_778
10
8.0118969
20
15.878176
11
8.3648969
21
15.878176
0
LINE
8
DEFAULT_255_2_778
10
8.5357969
20
15.273376
11
8.7862969
21
14.820676
0
LINE
8
DEFAULT_255_2_778
10
8.7862969
20
14.820676
11
8.7862969
21
14.811876
0
LINE
8
DEFAULT_255_2_778
10
8.7862969
20
14.811876
11
8.6354969
21
14.811876
0
LINE
8
DEFAULT_255_2_778
10
8.6354969
20
14.811876
11
8.6352969
21
14.811676
0
LINE
8
DEFAULT_255_2_778
10
8.1534969
20
15.762276
11
8.1534969
21
15.357976
0
LINE
8
DEFAULT_255_2_778
10
8.1534969
20
15.357976
11
8.3695969
21
15.357976
0
LINE
8
DEFAULT_255_2_778
10
8.3687969
20
15.762276
11
8.1534969
21
15.762276
0
LINE
8
DEFAULT_255_2_778
10
8.1534969
20
15.762276
11
8.1534969
21
15.762276
0
LINE
8
DEFAULT_255_2_778
10
9.5453969
20
15.878176
11
9.6866969
21
15.878176
0
LINE
8
DEFAULT_255_2_778
10
9.6866969
20
15.878176
11
9.6866969
21
15.152976
0
LINE
8
DEFAULT_255_2_778
10
9.3366969
20
14.798376
11
9.2993969
21
14.796776
0
LINE
8
DEFAULT_255_2_778
10
8.9146969
20
15.151376
11
8.9146969
21
15.877876
0
LINE
8
DEFAULT_255_2_778
10
8.9146969
20
15.877876
11
9.0537969
21
15.877876
0
LINE
8
DEFAULT_255_2_778
10
9.0537969
20
15.877876
11
9.0537969
21
15.155876
0
LINE
8
DEFAULT_255_2_778
10
9.5453969
20
15.155076
11
9.5453969
21
15.877876
0
LINE
8
DEFAULT_255_2_778
10
9.5453969
20
15.877876
11
9.5453969
21
15.878176
0
LINE
8
DEFAULT_255_2_778
10
10.7285969
20
15.878176
11
10.7285969
21
14.811676
0
LINE
8
DEFAULT_255_2_778
10
10.7285969
20
14.811676
11
10.5873969
21
14.811676
0
LINE
8
DEFAULT_255_2_778
10
10.5873969
20
14.811676
11
10.0504969
21
15.633476
0
LINE
8
DEFAULT_255_2_778
10
10.0504969
20
15.633476
11
10.0504969
21
14.811676
0
LINE
8
DEFAULT_255_2_778
10
10.0504969
20
14.811676
11
9.9091969
21
14.811676
0
LINE
8
DEFAULT_255_2_778
10
9.9091969
20
14.811676
11
9.9091969
21
15.878176
0
LINE
8
DEFAULT_255_2_778
10
9.9091969
20
15.878176
11
10.0504969
21
15.878176
0
LINE
8
DEFAULT_255_2_778
10
10.0504969
20
15.878176
11
10.5888969
21
15.052676
0
LINE
8
DEFAULT_255_2_778
10
10.5888969
20
15.052676
11
10.5888969
21
15.878176
0
LINE
8
DEFAULT_255_2_778
10
10.5888969
20
15.878176
11
10.7288969
21
15.878176
0
LINE
8
DEFAULT_255_2_778
10
10.7288969
20
15.878176
11
10.7285969
21
15.878176
0
ARC
8
DEFAULT_255_2_778
10
7.9396022
20
4.3444971
40
0.9365015
50
243.371128
51
254.6850486
0
ARC
8
DEFAULT_255_2_778
10
7.7088653
20
3.883521
40
0.4210034
50
228.3269548
51
243.3232777
0
ARC
8
DEFAULT_255_2_778
10
7.5909818
20
3.7519742
40
0.2443668
50
179.0438394
51
228.4654171
0
ARC
8
DEFAULT_255_2_778
10
7.6047958
20
3.7598662
40
0.2581749
50
127.5503186
51
180.8464909
0
ARC
8
DEFAULT_255_2_778
10
7.6866848
20
3.6560578
40
0.3903877
50
89.9421683
51
127.7934014
0
ARC
8
DEFAULT_255_2_778
10
7.7093092
20
3.4395618
40
0.6072904
50
89.9868101
51
92.0978256
0
ARC
8
DEFAULT_255_2_778
10
7.7172828
20
3.6115856
40
0.435337
50
64.4199414
51
91.031074
0
ARC
8
DEFAULT_255_2_778
10
7.7663332
20
3.7118472
40
0.3237255
50
32.7663336
51
64.5885168
0
ARC
8
DEFAULT_255_2_778
10
7.7874309
20
3.7256325
40
0.298524
50
359.6390939
51
32.7330556
0
ARC
8
DEFAULT_255_2_778
10
7.7513131
20
3.7337022
40
0.1935918
50
357.0538476
51
47.1589785
0
ARC
8
DEFAULT_255_2_778
10
7.7289241
20
3.6881465
40
0.2426561
50
50.5988804
51
91.3422407
0
ARC
8
DEFAULT_255_2_778
10
7.7095449
20
3.4967089
40
0.4342431
50
88.1927152
51
90.0126568
0
ARC
8
DEFAULT_255_2_778
10
7.6966392
20
3.6600433
40
0.2712115
50
87.2928151
51
120.1082573
0
ARC
8
DEFAULT_255_2_778
10
7.6549121
20
3.748245
40
0.174169
50
122.7896073
51
128.1813503
0
ARC
8
DEFAULT_255_2_778
10
7.6412971
20
3.7652173
40
0.1524119
50
128.1021233
51
182.6569611
0
ARC
8
DEFAULT_255_2_778
10
7.6268811
20
3.758243
40
0.1378322
50
180.037788
51
233.2169155
0
ARC
8
DEFAULT_255_2_778
10
7.7679673
20
3.9459221
40
0.372627
50
233.1220184
51
250.5270118
0
ARC
8
DEFAULT_255_2_778
10
7.9937338
20
4.5130615
40
0.9828753
50
249.1400953
51
254.5832983
0
ARC
8
DEFAULT_255_2_778
10
7.457593
20
2.542323
40
1.0595016
50
65.7026676
51
74.9643449
0
ARC
8
DEFAULT_255_2_778
10
7.6718278
20
3.030539
40
0.5264089
50
59.3168604
51
65.0900044
0
ARC
8
DEFAULT_255_2_778
10
7.7867706
20
3.2086115
40
0.3147134
50
32.6177639
51
60.770278
0
ARC
8
DEFAULT_255_2_778
10
7.8195358
20
3.2434481
40
0.2685918
50
358.6141425
51
30.1252316
0
ARC
8
DEFAULT_255_2_778
10
7.8387874
20
3.2298269
40
0.2493634
50
306.4527229
51
1.6373679
0
ARC
8
DEFAULT_255_2_778
10
7.7529894
20
3.350328
40
0.3972743
50
272.882198
51
306.0798429
0
ARC
8
DEFAULT_255_2_778
10
7.7177969
20
3.612647
40
0.6613957
50
269.917887
51
274.7847299
0
ARC
8
DEFAULT_255_2_778
10
7.7129703
20
3.4540971
40
0.5028599
50
246.4122051
51
270.4419396
0
ARC
8
DEFAULT_255_2_778
10
7.6433498
20
3.311733
40
0.3445996
50
216.1090765
51
247.5488961
0
ARC
8
DEFAULT_255_2_778
10
7.5948912
20
3.27115
40
0.2815653
50
179.2669917
51
215.2484735
0
ARC
8
DEFAULT_255_2_778
10
7.6381972
20
3.2676287
40
0.1836863
50
177.7775166
51
232.371322
0
ARC
8
DEFAULT_255_2_778
10
7.6987689
20
3.360195
40
0.2941031
50
234.0359984
51
271.3639759
0
ARC
8
DEFAULT_255_2_778
10
7.7167973
20
3.5596464
40
0.4935943
50
268.7198186
51
270.0060011
0
ARC
8
DEFAULT_255_2_778
10
7.7292364
20
3.3797061
40
0.3138986
50
267.7383416
51
294.7592425
0
ARC
8
DEFAULT_255_2_778
10
7.7803298
20
3.2515798
40
0.1763017
50
297.1204447
51
307.4154774
0
ARC
8
DEFAULT_255_2_778
10
7.7991509
20
3.229949
40
0.147697
50
306.7148506
51
2.0964582
0
ARC
8
DEFAULT_255_2_778
10
7.8021376
20
3.2428074
40
0.1448035
50
357.0487604
51
51.7678946
0
ARC
8
DEFAULT_255_2_778
10
7.6693554
20
3.0468074
40
0.3813144
50
54.3220274
51
69.7123757
0
ARC
8
DEFAULT_255_2_778
10
7.3740204
20
2.316425
40
1.1690307
50
68.547501
51
74.1936518
0
ARC
8
DEFAULT_255_2_778
10
9.289075
20
3.4513513
40
0.6739034
50
338.6237767
51
1.12241
0
ARC
8
DEFAULT_255_2_778
10
9.4389187
20
3.4029995
40
0.516833
50
335.7774258
51
337.5604522
0
ARC
8
DEFAULT_255_2_778
10
9.543758
20
3.3462324
40
0.3980297
50
303.035797
51
337.037886
0
ARC
8
DEFAULT_255_2_778
10
9.5442539
20
3.3615038
40
0.4106549
50
268.7156026
51
301.816114
0
ARC
8
DEFAULT_255_2_778
10
9.527715
20
3.3582149
40
0.4073288
50
237.9809887
51
271.0316733
0
ARC
8
DEFAULT_255_2_778
10
9.5342447
20
3.3566797
40
0.4095385
50
204.1154137
51
237.0925221
0
ARC
8
DEFAULT_255_2_778
10
9.7384175
20
3.4482416
40
0.633302
50
179.4109782
51
204.129048
0
ARC
8
DEFAULT_255_2_778
10
9.7578448
20
3.5445687
40
0.6528216
50
156.6366533
51
181.1249382
0
ARC
8
DEFAULT_255_2_778
10
9.5313964
20
3.6443951
40
0.405357
50
123.1305669
51
156.8968636
0
ARC
8
DEFAULT_255_2_778
10
9.5267242
20
3.6405172
40
0.4060956
50
89.0088187
51
122.2794709
0
ARC
8
DEFAULT_255_2_778
10
9.5418591
20
3.6329958
40
0.4136358
50
58.2289891
51
91.1234662
0
ARC
8
DEFAULT_255_2_778
10
9.5433487
20
3.6501638
40
0.3983318
50
22.9137095
51
57.1108475
0
ARC
8
DEFAULT_255_2_778
10
9.3057409
20
3.5477015
40
0.6570863
50
359.4566707
51
23.0764193
0
ARC
8
DEFAULT_255_2_778
10
9.0511288
20
3.5317894
40
0.9117202
50
359.9976523
51
0.6084065
0
ARC
8
DEFAULT_255_2_778
10
9.1967796
20
3.5460055
40
0.6262933
50
358.8606364
51
16.6583575
0
ARC
8
DEFAULT_255_2_778
10
9.4765376
20
3.626041
40
0.3353514
50
17.2597882
51
36.3166626
0
ARC
8
DEFAULT_255_2_778
10
9.5447927
20
3.6746226
40
0.2515853
50
36.6079477
51
92.5842871
0
ARC
8
DEFAULT_255_2_778
10
9.5240212
20
3.677572
40
0.2485589
50
87.8262462
51
143.7200461
0
ARC
8
DEFAULT_255_2_778
10
9.6555862
20
3.5895743
40
0.4067479
50
144.6938943
51
174.3697368
0
ARC
8
DEFAULT_255_2_778
10
9.9776504
20
3.5360102
40
0.7328352
50
172.6722391
51
179.4494303
0
ARC
8
DEFAULT_255_2_778
10
9.8324172
20
3.4521029
40
0.5877043
50
178.7667289
51
198.7080254
0
ARC
8
DEFAULT_255_2_778
10
9.604354
20
3.3808441
40
0.3488808
50
199.6370101
51
215.9847917
0
ARC
8
DEFAULT_255_2_778
10
9.5256408
20
3.3203361
40
0.2496502
50
215.3623773
51
272.0908433
0
ARC
8
DEFAULT_255_2_778
10
9.5468249
20
3.3189662
40
0.2484078
50
267.2135738
51
323.1677383
0
ARC
8
DEFAULT_255_2_778
10
9.4254725
20
3.3955922
40
0.3916393
50
324.8382037
51
352.8875451
0
ARC
8
DEFAULT_255_2_778
10
9.0691631
20
3.4604512
40
0.7535096
50
351.3481337
51
359.5438292
0
ARC
8
DEFAULT_255_2_778
10
10.5806222
20
3.5778589
40
0.4545841
50
65.0431829
51
91.6605822
0
ARC
8
DEFAULT_255_2_778
10
10.6343097
20
3.7119285
40
0.3104808
50
48.0528315
51
63.5862458
0
ARC
8
DEFAULT_255_2_778
10
10.6382916
20
3.7184151
40
0.3029976
50
357.718319
51
47.7929381
0
ARC
8
DEFAULT_255_2_778
10
10.628378
20
3.6916504
40
0.3130164
50
321.455662
51
2.692047
0
ARC
8
DEFAULT_255_2_778
10
10.6683672
20
3.6707632
40
0.2688616
50
310.7724762
51
319.6265584
0
ARC
8
DEFAULT_255_2_778
10
10.6170946
20
3.7471803
40
0.3603869
50
275.0152141
51
309.0113636
0
ARC
8
DEFAULT_255_2_778
10
10.5681039
20
4.0435544
40
0.6603061
50
269.8043362
51
277.002163
0
ARC
8
DEFAULT_255_2_778
10
10.5799606
20
3.7748453
40
0.2769897
50
267.348952
51
299.8350493
0
ARC
8
DEFAULT_255_2_778
10
10.6233556
20
3.6831917
40
0.1760743
50
302.4244289
51
311.466631
0
ARC
8
DEFAULT_255_2_778
10
10.6062844
20
3.6921014
40
0.1941772
50
313.5007677
51
3.7354714
0
ARC
8
DEFAULT_255_2_778
10
10.5997015
20
3.7137941
40
0.2005514
50
357.4159051
51
45.6283787
0
ARC
8
DEFAULT_255_2_778
10
10.583019
20
3.6796766
40
0.2369063
50
48.5157718
51
91.9037121
0
LINE
8
DEFAULT_255_2_778
10
8.085949
20
3.7237521
11
7.944649
21
3.7237521
0
LINE
8
DEFAULT_255_2_778
10
7.313349
20
3.2747521
11
7.454649
21
3.2747521
0
LINE
8
DEFAULT_255_2_778
10
7.692449
20
3.4412521
11
7.692249
21
3.4412521
0
LINE
8
DEFAULT_255_2_778
10
9.004849
20
4.0322521
11
9.004849
21
3.9166521
0
LINE
8
DEFAULT_255_2_778
10
9.004849
20
3.9166521
11
8.661949
21
3.9166521
0
LINE
8
DEFAULT_255_2_778
10
8.661949
20
3.9166521
11
8.661949
21
2.9660521
0
LINE
8
DEFAULT_255_2_778
10
8.661949
20
2.9660521
11
8.521949
21
2.9660521
0
LINE
8
DEFAULT_255_2_778
10
8.521949
20
2.9660521
11
8.521949
21
3.9166521
0
LINE
8
DEFAULT_255_2_778
10
8.521949
20
3.9166521
11
8.179849
21
3.9166521
0
LINE
8
DEFAULT_255_2_778
10
8.179849
20
3.9166521
11
8.179849
21
4.0322521
0
LINE
8
DEFAULT_255_2_778
10
8.179849
20
4.0322521
11
9.004549
21
4.0322521
0
LINE
8
DEFAULT_255_2_778
10
9.004549
20
4.0322521
11
9.004849
21
4.0322521
0
LINE
8
DEFAULT_255_2_778
10
9.962849
20
3.5319521
11
9.962849
21
3.4645521
0
LINE
8
DEFAULT_255_2_778
10
9.105149
20
3.4547521
11
9.105149
21
3.5317521
0
LINE
8
DEFAULT_255_2_778
10
9.962849
20
3.5317521
11
9.962849
21
3.5319521
0
LINE
8
DEFAULT_255_2_778
10
9.822949
20
3.4544521
11
9.822949
21
3.5335521
0
LINE
8
DEFAULT_255_2_778
10
9.244849
20
3.5430521
11
9.244849
21
3.4647521
0
LINE
8
DEFAULT_255_2_778
10
9.822649
20
3.4544521
11
9.822949
21
3.4544521
0
LINE
8
DEFAULT_255_2_778
10
10.565649
20
3.3832521
11
10.314549
21
3.3832521
0
LINE
8
DEFAULT_255_2_778
10
10.314549
20
3.3832521
11
10.314549
21
2.9657521
0
LINE
8
DEFAULT_255_2_778
10
10.314549
20
2.9657521
11
10.174049
21
2.9657521
0
LINE
8
DEFAULT_255_2_778
10
10.174049
20
2.9657521
11
10.174049
21
4.0322521
0
LINE
8
DEFAULT_255_2_778
10
10.174049
20
4.0322521
11
10.567449
21
4.0322521
0
LINE
8
DEFAULT_255_2_778
10
10.565849
20
3.3832521
11
10.565649
21
3.3832521
0
LINE
8
DEFAULT_255_2_778
10
10.314549
20
3.9164521
11
10.314549
21
3.4981521
0
LINE
8
DEFAULT_255_2_778
10
10.314549
20
3.4981521
11
10.567149
21
3.4981521
0
LINE
8
DEFAULT_255_2_778
10
10.575149
20
3.9164521
11
10.314549
21
3.9164521
0
LINE
8
DEFAULT_255_2_778
10
10.314549
20
3.9164521
11
10.314549
21
3.9164521
0
ARC
8
DEFAULT_255_2_778
10
19.978035
20
10.2722591
40
6.911576
50
180.0007872
51
180.1225134
0
ARC
8
DEFAULT_255_2_778
10
19.9247545
20
10.2724059
40
6.8582954
50
156.4489799
51
180.0020201
0
ARC
8
DEFAULT_255_2_778
10
19.9258132
20
10.2725116
40
6.8592238
50
134.9968682
51
156.4533231
0
ARC
8
DEFAULT_255_2_778
10
19.9262626
20
10.272945
40
6.859235
50
111.797574
51
135.0020824
0
ARC
8
DEFAULT_255_2_778
10
19.9267948
20
10.2731896
40
6.8592056
50
89.9977412
51
111.8024604
0
ARC
8
DEFAULT_255_2_778
10
19.9269678
20
10.2139232
40
6.918472
50
89.8806874
51
89.9991925
0
ARC
8
DEFAULT_255_2_778
10
19.9450156
20
10.2264303
40
6.905951
50
78.4567947
51
90.0302069
0
ARC
8
DEFAULT_255_2_778
10
19.9584644
20
10.3049029
40
6.8263749
50
62.6525149
51
78.4355921
0
ARC
8
DEFAULT_255_2_778
10
19.9248561
20
10.2420336
40
6.8976571
50
19.7060436
51
62.6444503
0
ARC
8
DEFAULT_255_2_778
10
19.9807834
20
10.2719524
40
6.834923
50
6.1731586
51
19.6280145
0
ARC
8
DEFAULT_255_2_778
10
19.8647037
20
10.2585471
40
6.9517713
50
359.9895589
51
6.1801236
0
ARC
8
DEFAULT_255_2_778
10
19.9105247
20
10.2536394
40
6.905951
50
348.4567947
51
0.0302069
0
ARC
8
DEFAULT_255_2_778
10
19.9889973
20
10.2401906
40
6.8263749
50
332.6525149
51
348.4355921
0
ARC
8
DEFAULT_255_2_778
10
19.9261281
20
10.2737989
40
6.8976571
50
289.7060436
51
332.6444503
0
ARC
8
DEFAULT_255_2_778
10
19.9560469
20
10.2178716
40
6.834923
50
276.1731586
51
289.6280145
0
ARC
8
DEFAULT_255_2_778
10
19.9426416
20
10.3339514
40
6.9517713
50
269.9895589
51
276.1801236
0
ARC
8
DEFAULT_255_2_778
10
19.9273376
20
10.3199438
40
6.9377777
50
270.0008288
51
270.1159265
0
ARC
8
DEFAULT_255_2_778
10
19.9271399
20
10.2426058
40
6.8604396
50
246.4530519
51
270.0024889
0
ARC
8
DEFAULT_255_2_778
10
19.9257722
20
10.2408142
40
6.8582509
50
224.9954891
51
246.4575468
0
ARC
8
DEFAULT_255_2_778
10
19.9252868
20
10.2418641
40
6.85865
50
201.7992734
51
225.0045583
0
ARC
8
DEFAULT_255_2_778
10
19.924667
20
10.242223
40
6.8582079
50
179.997715
51
201.8039807
0
ARC
8
DEFAULT_255_2_778
10
19.978036
20
10.2424016
40
6.911577
50
179.8774866
51
179.9992128
0
LINE
8
DEFAULT_255_2_778
10
11.0415748
20
6.4572803
11
11.0415748
21
12.4571803
0
LINE
8
DEFAULT_255_2_778
10
11.0415748
20
12.4571803
11
12.2414748
21
13.6570803
0
LINE
8
DEFAULT_255_2_778
10
12.2414748
20
13.6570803
11
6.8415748
21
13.6570803
0
LINE
8
DEFAULT_255_2_778
10
6.8415748
20
13.6570803
11
6.8415748
21
5.2570803
0
LINE
8
DEFAULT_255_2_778
10
6.8415748
20
5.2570803
11
12.2414748
21
5.2570803
0
LINE
8
DEFAULT_255_2_778
10
6.8415748
20
5.2570803
11
8.0414748
21
6.4569803
0
LINE
8
DEFAULT_255_2_778
10
8.0414748
20
6.4569803
11
11.0415748
21
6.4569803
0
LINE
8
DEFAULT_255_2_778
10
11.0415748
20
6.4569803
11
12.2414748
21
5.2570803
0
LINE
8
DEFAULT_255_2_778
10
12.2414748
20
5.2570803
11
12.2414748
21
13.6570803
0
LINE
8
DEFAULT_255_2_778
10
10.0144748
20
7.0654803
11
10.0144748
21
8.8688803
0
LINE
8
DEFAULT_255_2_778
10
10.0144748
20
8.8688803
11
9.0685748
21
8.8688803
0
LINE
8
DEFAULT_255_2_778
10
9.0685748
20
8.8688803
11
9.0685748
21
7.0654803
0
LINE
8
DEFAULT_255_2_778
10
9.0685748
20
7.0654803
11
10.0144748
21
7.0654803
0
LINE
8
DEFAULT_255_2_778
10
8.0414748
20
6.4569803
11
8.0414748
21
12.4568803
0
LINE
8
DEFAULT_255_2_778
10
6.8415748
20
13.6567803
11
8.0414748
21
12.4568803
0
LINE
8
DEFAULT_255_2_778
10
8.0414748
20
12.4568803
11
11.0415748
21
12.4568803
0
LINE
8
DEFAULT_255_2_778
10
13.0664748
20
10.2571803
11
13.0664748
21
10.2574803
0
ARC
8
DEFAULT_255_2_778
10
19.9858722
20
10.2729303
40
7.44443
50
180.0000075
51
180.1217236
0
ARC
8
DEFAULT_255_2_778
10
19.9237813
20
10.2732403
40
7.3823392
50
158.1968877
51
180.0024133
0
ARC
8
DEFAULT_255_2_778
10
19.9245126
20
10.2735751
40
7.3828937
50
135.7316318
51
158.201408
0
ARC
8
DEFAULT_255_2_778
10
19.9325515
20
10.2659938
40
7.393942
50
134.9998438
51
135.7330463
0
ARC
8
DEFAULT_255_2_778
10
19.925026
20
10.2743862
40
7.3826866
50
113.3713054
51
135.0046013
0
ARC
8
DEFAULT_255_2_778
10
19.9256528
20
10.2744662
40
7.382862
50
90.7376675
51
113.3760163
0
ARC
8
DEFAULT_255_2_778
10
19.9259359
20
10.2633155
40
7.3940155
50
90.0001164
51
90.7387489
0
ARC
8
DEFAULT_255_2_778
10
19.9259201
20
10.2086034
40
7.4487275
50
89.8812431
51
89.9999938
0
ARC
8
DEFAULT_255_2_778
10
19.9449017
20
10.2184427
40
7.438873
50
79.1734477
51
90.0272869
0
ARC
8
DEFAULT_255_2_778
10
19.9602538
20
10.3103592
40
7.3457089
50
64.4451472
51
79.1563936
0
ARC
8
DEFAULT_255_2_778
10
19.922582
20
10.2394008
40
7.4259772
50
21.2665316
51
64.4190926
0
ARC
8
DEFAULT_255_2_778
10
19.991002
20
10.2750427
40
7.3492935
50
8.0144976
51
21.201057
0
ARC
8
DEFAULT_255_2_778
10
19.877526
20
10.2594616
40
7.4638335
50
359.9835201
51
8.0114865
0
ARC
8
DEFAULT_255_2_778
10
19.9024869
20
10.253772
40
7.438873
50
349.1734477
51
0.0272869
0
ARC
8
DEFAULT_255_2_778
10
19.9944035
20
10.2384199
40
7.3457089
50
334.4451472
51
349.1563936
0
ARC
8
DEFAULT_255_2_778
10
19.9234451
20
10.2760918
40
7.4259772
50
291.2665316
51
334.4190926
0
ARC
8
DEFAULT_255_2_778
10
19.959087
20
10.2076718
40
7.3492935
50
278.0144976
51
291.201057
0
ARC
8
DEFAULT_255_2_778
10
19.9435058
20
10.3211478
40
7.4638335
50
269.9835201
51
278.0114865
0
ARC
8
DEFAULT_255_2_778
10
19.9259201
20
10.3060261
40
7.4487274
50
270.0000062
51
270.1187569
0
ARC
8
DEFAULT_255_2_778
10
19.9256388
20
10.2400973
40
7.3827987
50
248.1965002
51
270.0021887
0
ARC
8
DEFAULT_255_2_778
10
19.9252376
20
10.2407806
40
7.3832841
50
225.7319909
51
248.2013603
0
ARC
8
DEFAULT_255_2_778
10
19.9301047
20
10.2460165
40
7.3904307
50
224.9997591
51
225.7333053
0
ARC
8
DEFAULT_255_2_778
10
19.9243622
20
10.2407713
40
7.3826613
50
203.5446865
51
225.0024874
0
ARC
8
DEFAULT_255_2_778
10
19.9241729
20
10.2413745
40
7.3827287
50
180.7434738
51
203.5495651
0
ARC
8
DEFAULT_255_2_778
10
19.9344199
20
10.2415999
40
7.3929777
50
179.9999916
51
180.7441905
0
ARC
8
DEFAULT_255_2_778
10
19.9851186
20
10.2416001
40
7.4436765
50
179.8782702
51
179.9999925
0
LINE
8
DEFAULT_255_2_778
10
12.541459
20
10.2574148
11
12.541459
21
10.2571148
0
ARC
8
DEFAULT_255_2_778
10
19.943946
20
10.2597507
40
6.5034328
50
214.7029167
51
226.8422349
0
ARC
8
DEFAULT_255_2_778
10
19.9341545
20
10.2522318
40
6.4912509
50
226.859885
51
245.4807882
0
ARC
8
DEFAULT_255_2_778
10
19.9430748
20
10.2668876
40
6.5082872
50
245.4628845
51
269.9836183
0
ARC
8
DEFAULT_255_2_778
10
19.9412441
20
10.2376965
40
6.4790958
50
269.9997332
51
275.0327561
0
ARC
8
DEFAULT_255_2_778
10
19.9410055
20
10.2400611
40
6.4814722
50
275.0330234
51
276.2000871
0
ARC
8
DEFAULT_255_2_778
10
19.9400176
20
10.2475697
40
6.4890436
50
276.2015987
51
281.7549488
0
ARC
8
DEFAULT_255_2_778
10
19.9326321
20
10.2825229
40
6.5247684
50
281.7559126
51
286.6506796
0
ARC
8
DEFAULT_255_2_778
10
19.9222932
20
10.318267
40
6.5619764
50
286.6477405
51
287.3486205
0
ARC
8
DEFAULT_255_2_778
10
19.9431862
20
10.2589552
40
6.4991332
50
287.3287258
51
301.4589924
0
ARC
8
DEFAULT_255_2_778
10
19.9352863
20
10.2638497
40
6.5074325
50
301.4958346
51
345.0470287
0
ARC
8
DEFAULT_255_2_778
10
19.9468818
20
10.2569685
40
6.4944551
50
345.0792849
51
359.052068
0
ARC
8
DEFAULT_255_2_778
10
19.8838891
20
10.2598653
40
6.5574873
50
359.0358668
51
359.9759025
0
ARC
8
DEFAULT_255_2_778
10
19.9423201
20
10.2565644
40
6.4990559
50
0.0047864
51
14.1351811
0
ARC
8
DEFAULT_255_2_778
10
19.9352234
20
10.2504518
40
6.5074317
50
14.1721115
51
57.7233091
0
ARC
8
DEFAULT_255_2_778
10
19.9451911
20
10.2594008
40
6.4945437
50
57.7554984
51
71.7281302
0
ARC
8
DEFAULT_255_2_778
10
19.9233768
20
10.1992196
40
6.5585301
50
71.7120033
51
72.6518922
0
ARC
8
DEFAULT_255_2_778
10
19.930812
20
10.2246397
40
6.5320495
50
72.6476584
51
77.5464975
0
ARC
8
DEFAULT_255_2_778
10
19.9394899
20
10.2634133
40
6.4923168
50
77.5474881
51
83.0202188
0
ARC
8
DEFAULT_255_2_778
10
19.9411458
20
10.2755355
40
6.4800832
50
83.0217268
51
83.7998263
0
ARC
8
DEFAULT_255_2_778
10
19.9412628
20
10.2767946
40
6.4788188
50
83.7996521
51
88.4558631
0
ARC
8
DEFAULT_255_2_778
10
19.9412272
20
10.2755409
40
6.4800729
50
88.4558471
51
90.0001168
0
ARC
8
DEFAULT_255_2_778
10
19.9432567
20
10.2470314
40
6.5085828
50
90.0179825
51
130.0700596
0
ARC
8
DEFAULT_255_2_778
10
19.9336742
20
10.2638492
40
6.4895454
50
130.1008987
51
142.8990074
0
ARC
8
DEFAULT_255_2_778
10
19.9779655
20
10.228843
40
6.5459875
50
142.8884818
51
145.2822441
0
ARC
8
DEFAULT_255_2_778
10
19.9443323
20
10.2537613
40
6.8041958
50
147.025947
51
156.9654594
0
ARC
8
DEFAULT_255_2_778
10
19.9305742
20
10.2605897
40
6.7888628
50
156.9730598
51
170.7114656
0
ARC
8
DEFAULT_255_2_778
10
19.9502006
20
10.2570718
40
6.8087997
50
170.708908
51
180.000963
0
ARC
8
DEFAULT_255_2_778
10
19.942335
20
10.2562041
40
6.8009341
50
179.9936545
51
198.6226713
0
ARC
8
DEFAULT_255_2_778
10
19.9306033
20
10.2534699
40
6.7889436
50
198.6324214
51
209.3590862
0
ARC
8
DEFAULT_255_2_778
10
19.962649
20
10.2710551
40
6.8254953
50
209.3558561
51
212.9671413
0
LINE
8
DEFAULT_255_2_778
10
14.5973759
20
13.9570073
11
14.2361759
21
13.9570073
0
LINE
8
DEFAULT_255_2_778
10
14.2361759
20
6.5569073
11
14.5981759
21
6.5553073
0
LINE
8
DEFAULT_255_2_778
10
18.9415084
20
13.1760551
11
20.9415084
21
13.1760551
0
LINE
8
DEFAULT_255_2_778
10
20.9415084
20
13.1760551
11
20.9415084
21
15.1760551
0
LINE
8
DEFAULT_255_2_778
10
20.9415084
20
15.1760551
11
18.9415084
21
15.1760551
0
LINE
8
DEFAULT_255_2_778
10
18.9415084
20
15.1760551
11
18.9415084
21
13.1760551
0
LINE
8
DEFAULT_255_2_778
10
18.9415084
20
8.8178551
11
20.9415084
21
8.8178551
0
LINE
8
DEFAULT_255_2_778
10
20.9415084
20
8.8178551
11
20.9415084
21
10.8178551
0
LINE
8
DEFAULT_255_2_778
10
20.9415084
20
10.8178551
11
18.9415084
21
10.8178551
0
LINE
8
DEFAULT_255_2_778
10
18.9415084
20
10.8178551
11
18.9415084
21
8.8178551
0
LINE
8
DEFAULT_255_2_778
10
18.9415084
20
5.7497551
11
20.9415084
21
5.7497551
0
LINE
8
DEFAULT_255_2_778
10
20.9415084
20
5.7497551
11
20.9415084
21
7.7497551
0
LINE
8
DEFAULT_255_2_778
10
20.9415084
20
7.7497551
11
18.9415084
21
7.7497551
0
LINE
8
DEFAULT_255_2_778
10
18.9415084
20
7.7497551
11
18.9415084
21
5.7497551
0
LINE
8
DEFAULT_255_2_778
10
15.8030084
20
8.3164551
11
17.8030084
21
8.3164551
0
LINE
8
DEFAULT_255_2_778
10
17.8030084
20
8.3164551
11
17.8030084
21
10.3164551
0
LINE
8
DEFAULT_255_2_778
10
17.8030084
20
10.3164551
11
15.8030084
21
10.3164551
0
LINE
8
DEFAULT_255_2_778
10
15.8030084
20
10.3164551
11
15.8030084
21
8.3164551
0
LINE
8
DEFAULT_255_2_778
10
15.8030084
20
11.0350551
11
17.8030084
21
11.0350551
0
LINE
8
DEFAULT_255_2_778
10
17.8030084
20
11.0350551
11
17.8030084
21
13.0350551
0
LINE
8
DEFAULT_255_2_778
10
17.8030084
20
13.0350551
11
15.8030084
21
13.0350551
0
LINE
8
DEFAULT_255_2_778
10
15.8030084
20
13.0350551
11
15.8030084
21
11.0350551
0
LINE
8
DEFAULT_255_2_778
10
21.9416084
20
11.2570551
11
23.9416084
21
11.2570551
0
LINE
8
DEFAULT_255_2_778
10
23.9416084
20
11.2570551
11
23.9416084
21
9.2570551
0
LINE
8
DEFAULT_255_2_778
10
23.9416084
20
9.2570551
11
21.9416084
21
9.2570551
0
LINE
8
DEFAULT_255_2_778
10
21.9416084
20
9.2570551
11
21.9416084
21
11.2570551
0
LINE
8
DEFAULT_255_2_778
10
21.9416084
20
12.1164551
11
21.9416084
21
14.1163551
0
LINE
8
DEFAULT_255_2_778
10
21.9416084
20
14.1163551
11
23.9416084
21
14.1163551
0
LINE
8
DEFAULT_255_2_778
10
23.9416084
20
14.1163551
11
23.9416084
21
12.1164551
0
LINE
8
DEFAULT_255_2_778
10
23.9416084
20
12.1164551
11
21.9416084
21
12.1164551
0
LINE
8
DEFAULT_255_2_778
10
23.9416084
20
6.3977551
11
23.9416084
21
8.3979551
0
LINE
8
DEFAULT_255_2_778
10
23.9416084
20
8.3979551
11
21.9416084
21
8.3979551
0
LINE
8
DEFAULT_255_2_778
10
21.9416084
20
8.3979551
11
21.9416084
21
6.3979551
0
LINE
8
DEFAULT_255_2_778
10
21.9416084
20
6.3979551
11
23.9416084
21
6.3977551
0
LINE
8
DEFAULT_255_2_778
10
97.3277448
20
58.0641219
11
97.3277448
21
56.9267219
0
LINE
8
DEFAULT_255_2_778
10
97.3277448
20
56.9267219
11
97.1777448
21
56.9267219
0
LINE
8
DEFAULT_255_2_778
10
97.1777448
20
56.9267219
11
97.1777448
21
58.0641219
0
LINE
8
DEFAULT_255_2_778
10
97.1777448
20
58.0641219
11
97.3277448
21
58.0641219
0
LINE
8
DEFAULT_255_2_778
10
97.3277448
20
58.0641219
11
97.3277448
21
58.0641219
0
LINE
8
DEFAULT_255_2_778
10
98.4760448
20
58.0641219
11
98.4760448
21
56.9267219
0
LINE
8
DEFAULT_255_2_778
10
98.4760448
20
56.9267219
11
98.3252448
21
56.9267219
0
LINE
8
DEFAULT_255_2_778
10
98.3252448
20
56.9267219
11
97.7526448
21
57.8032219
0
LINE
8
DEFAULT_255_2_778
10
97.7526448
20
57.8032219
11
97.7526448
21
56.9267219
0
LINE
8
DEFAULT_255_2_778
10
97.7526448
20
56.9267219
11
97.6018448
21
56.9267219
0
LINE
8
DEFAULT_255_2_778
10
97.6018448
20
56.9267219
11
97.6018448
21
58.0641219
0
LINE
8
DEFAULT_255_2_778
10
97.6018448
20
58.0641219
11
97.7526448
21
58.0641219
0
LINE
8
DEFAULT_255_2_778
10
97.7526448
20
58.0641219
11
98.3268448
21
57.1836219
0
LINE
8
DEFAULT_255_2_778
10
98.3268448
20
57.1836219
11
98.3268448
21
58.0641219
0
LINE
8
DEFAULT_255_2_778
10
98.3268448
20
58.0641219
11
98.4760448
21
58.0641219
0
LINE
8
DEFAULT_255_2_778
10
98.4760448
20
58.0641219
11
98.4760448
21
58.0641219
0
LINE
8
DEFAULT_255_2_778
10
125.9168604
20
60.2020219
11
125.9168604
21
60.1208219
0
LINE
8
DEFAULT_255_2_778
10
125.9168604
20
60.1208219
11
125.4456604
21
59.0646219
0
LINE
8
DEFAULT_255_2_778
10
125.4456604
20
59.0646219
11
125.2939604
21
59.0646219
0
LINE
8
DEFAULT_255_2_778
10
125.2939604
20
59.0646219
11
125.7636604
21
60.0832219
0
LINE
8
DEFAULT_255_2_778
10
125.7636604
20
60.0832219
11
125.1479604
21
60.0832219
0
LINE
8
DEFAULT_255_2_778
10
125.1479604
20
60.0832219
11
125.1479604
21
60.2020219
0
LINE
8
DEFAULT_255_2_778
10
125.1479604
20
60.2020219
11
125.9168604
21
60.2020219
0
LINE
8
DEFAULT_255_2_778
10
125.9168604
20
60.2020219
11
125.9168604
21
60.2020219
0
ARC
8
DEFAULT_255_2_778
10
119.1467752
20
59.4183707
40
0.367509
50
89.0305122
51
120.0049063
0
ARC
8
DEFAULT_255_2_778
10
119.1674517
20
59.4724512
40
0.3137092
50
42.1879038
51
92.64159
0
ARC
8
DEFAULT_255_2_778
10
119.1083772
20
59.4372035
40
0.3813923
50
1.8159444
51
40.1510289
0
ARC
8
DEFAULT_255_2_778
10
118.8693274
20
59.4059019
40
0.6217662
50
359.9470322
51
4.0014178
0
ARC
8
DEFAULT_255_2_778
10
119.0576839
20
59.3919145
40
0.433617
50
332.431674
51
1.7725398
0
ARC
8
DEFAULT_255_2_778
10
119.162961
20
59.3465915
40
0.3194318
50
316.8987707
51
330.8986394
0
ARC
8
DEFAULT_255_2_778
10
119.1561546
20
59.3643888
40
0.3366657
50
269.7279463
51
315.4786078
0
ARC
8
DEFAULT_255_2_778
10
119.1311686
20
59.5746379
40
0.5474109
50
269.9816654
51
272.4486339
0
ARC
8
DEFAULT_255_2_778
10
119.1157478
20
59.3857745
40
0.3588714
50
229.9840991
51
272.4347833
0
ARC
8
DEFAULT_255_2_778
10
119.1095003
20
59.3573451
40
0.3333544
50
182.6165266
51
227.6639266
0
ARC
8
DEFAULT_255_2_778
10
119.1422016
20
59.3600819
40
0.2296112
50
184.4849263
51
226.0669866
0
ARC
8
DEFAULT_255_2_778
10
119.1209708
20
59.3619178
40
0.2168365
50
230.4478069
51
272.7286325
0
ARC
8
DEFAULT_255_2_778
10
119.1407106
20
59.3401403
40
0.1950407
50
267.2325065
51
319.7142911
0
ARC
8
DEFAULT_255_2_778
10
119.0721209
20
59.3812764
40
0.2742684
50
322.4248308
51
0.1015646
0
ARC
8
DEFAULT_255_2_778
10
118.8650944
20
59.4038086
40
0.4817992
50
357.3773607
51
0.0259752
0
ARC
8
DEFAULT_255_2_778
10
119.0836261
20
59.4168185
40
0.2635779
50
357.2183479
51
40.2513038
0
ARC
8
DEFAULT_255_2_778
10
119.1281641
20
59.4447175
40
0.2116914
50
42.2775552
51
92.3745308
0
ARC
8
DEFAULT_255_2_778
10
119.1064731
20
59.4138132
40
0.2427579
50
86.9491068
51
122.8381089
0
ARC
8
DEFAULT_255_2_778
10
119.0688048
20
59.4872793
40
0.1608136
50
125.757045
51
127.4615075
0
LINE
8
DEFAULT_255_2_778
10
118.9322934
20
59.5834271
11
118.8166934
21
59.6130271
0
LINE
8
DEFAULT_255_2_778
10
118.8166934
20
59.6130271
11
118.8746934
21
60.1803271
0
LINE
8
DEFAULT_255_2_778
10
118.8746934
20
60.1803271
11
119.4574934
21
60.1803271
0
LINE
8
DEFAULT_255_2_778
10
119.4574934
20
60.1803271
11
119.4574934
21
60.0467271
0
LINE
8
DEFAULT_255_2_778
10
119.4574934
20
60.0467271
11
118.9973934
21
60.0467271
0
LINE
8
DEFAULT_255_2_778
10
118.9973934
20
60.0467271
11
118.9629934
21
59.7366271
0
LINE
8
DEFAULT_255_2_778
10
118.7764934
20
59.3421271
11
118.9132934
21
59.3421271
0
LINE
8
DEFAULT_255_2_778
10
118.9709934
20
59.6149271
11
118.9325934
21
59.5837271
0
LINE
8
DEFAULT_255_2_778
10
118.9325934
20
59.5837271
11
118.9322934
21
59.5834271
0
LINE
8
DEFAULT_255_2_778
10
115.641199
20
60.1364219
11
115.641199
21
59.3810219
0
LINE
8
DEFAULT_255_2_778
10
115.641199
20
59.3810219
11
115.798899
21
59.3810219
0
LINE
8
DEFAULT_255_2_778
10
115.798899
20
59.3810219
11
115.798899
21
59.2630219
0
LINE
8
DEFAULT_255_2_778
10
115.798899
20
59.2630219
11
115.641199
21
59.2630219
0
LINE
8
DEFAULT_255_2_778
10
115.641199
20
59.2630219
11
115.641199
21
58.9990219
0
LINE
8
DEFAULT_255_2_778
10
115.641199
20
58.9990219
11
115.495999
21
58.9990219
0
LINE
8
DEFAULT_255_2_778
10
115.495999
20
58.9990219
11
115.495999
21
59.2630219
0
LINE
8
DEFAULT_255_2_778
10
115.495999
20
59.2630219
11
114.977899
21
59.2630219
0
LINE
8
DEFAULT_255_2_778
10
114.977899
20
59.2630219
11
114.977899
21
59.3482219
0
LINE
8
DEFAULT_255_2_778
10
114.977899
20
59.3482219
11
115.487199
21
60.1364219
0
LINE
8
DEFAULT_255_2_778
10
115.487199
20
60.1364219
11
115.641199
21
60.1364219
0
LINE
8
DEFAULT_255_2_778
10
115.641199
20
60.1364219
11
115.641199
21
60.1364219
0
LINE
8
DEFAULT_255_2_778
10
115.478799
20
59.9075219
11
115.141899
21
59.3810219
0
LINE
8
DEFAULT_255_2_778
10
115.141899
20
59.3810219
11
115.495999
21
59.3810219
0
LINE
8
DEFAULT_255_2_778
10
115.495999
20
59.3810219
11
115.495999
21
59.9388219
0
LINE
8
DEFAULT_255_2_778
10
115.495999
20
59.9388219
11
115.478799
21
59.9075219
0
LINE
8
DEFAULT_255_2_778
10
115.478799
20
59.9075219
11
115.478799
21
59.9075219
0
ARC
8
DEFAULT_255_2_778
10
122.302945
20
59.6362217
40
0.4002284
50
88.9951929
51
124.1200081
0
ARC
8
DEFAULT_255_2_778
10
122.2706204
20
59.6998012
40
0.3295816
50
125.667951
51
134.1234459
0
ARC
8
DEFAULT_255_2_778
10
122.3227045
20
59.6598139
40
0.3946629
50
135.5098198
51
173.1807264
0
ARC
8
DEFAULT_255_2_778
10
122.5588096
20
59.6080041
40
0.6356808
50
171.0703594
51
174.9836033
0
ARC
8
DEFAULT_255_2_778
10
122.1562202
20
59.4584634
40
0.3086727
50
87.280888
51
138.3530014
0
ARC
8
DEFAULT_255_2_778
10
122.1823685
20
59.4724245
40
0.2945888
50
40.0523262
51
92.2382114
0
ARC
8
DEFAULT_255_2_778
10
122.0981396
20
59.4114799
40
0.3983509
50
358.9874834
51
38.9663613
0
ARC
8
DEFAULT_255_2_778
10
121.8917632
20
59.3916437
40
0.6048004
50
359.9947758
51
1.2124229
0
ARC
8
DEFAULT_255_2_778
10
122.0620973
20
59.377818
40
0.4346844
50
330.4946426
51
1.8154021
0
ARC
8
DEFAULT_255_2_778
10
122.1492474
20
59.3387068
40
0.3396906
50
317.7678422
51
328.9961641
0
ARC
8
DEFAULT_255_2_778
10
122.15868
20
59.3340601
40
0.3295958
50
267.4582929
51
317.2638032
0
ARC
8
DEFAULT_255_2_778
10
122.1356897
20
59.3293874
40
0.3247069
50
217.841048
51
271.477762
0
ARC
8
DEFAULT_255_2_778
10
122.2559645
20
59.4231224
40
0.4771938
50
181.6448628
51
217.8697043
0
ARC
8
DEFAULT_255_2_778
10
122.5013844
20
59.4528492
40
0.723721
50
179.9652211
51
183.4398956
0
ARC
8
DEFAULT_255_2_778
10
122.8519474
20
59.5214709
40
1.0743576
50
167.2173433
51
180.6710367
0
ARC
8
DEFAULT_255_2_778
10
122.3642908
20
59.6372324
40
0.573196
50
142.1696026
51
167.7168281
0
ARC
8
DEFAULT_255_2_778
10
122.2630852
20
59.6973606
40
0.4566154
50
95.9735501
51
140.339679
0
ARC
8
DEFAULT_255_2_778
10
122.3195235
20
59.4096929
40
0.7490529
50
90.7083194
51
97.977598
0
ARC
8
DEFAULT_255_2_778
10
122.1460946
20
59.4158037
40
0.2308858
50
89.8339952
51
126.1288642
0
ARC
8
DEFAULT_255_2_778
10
122.1419895
20
59.4101183
40
0.2331528
50
124.4900713
51
159.8096942
0
ARC
8
DEFAULT_255_2_778
10
122.3268663
20
59.4243936
40
0.4039119
50
178.156321
51
206.3597131
0
ARC
8
DEFAULT_255_2_778
10
122.2129059
20
59.3773206
40
0.2810262
50
208.0767452
51
216.3153845
0
ARC
8
DEFAULT_255_2_778
10
122.1450872
20
59.31417
40
0.1892842
50
213.0685544
51
269.6901508
0
ARC
8
DEFAULT_255_2_778
10
122.1516955
20
59.3082444
40
0.1835147
50
267.6165249
51
322.641831
0
ARC
8
DEFAULT_255_2_778
10
122.0548302
20
59.3712275
40
0.2988537
50
324.3128744
51
2.6531357
0
LINE
8
DEFAULT_255_2_778
10
122.3533635
20
59.3850612
11
122.3533636
21
59.3852885
0
ARC
8
DEFAULT_255_2_778
10
122.054669
20
59.399268
40
0.2990215
50
357.3203954
51
35.6523885
0
ARC
8
DEFAULT_255_2_778
10
122.1194602
20
59.4356684
40
0.2253066
50
37.734775
51
38.0993138
0
ARC
8
DEFAULT_255_2_778
10
122.1517991
20
59.4657056
40
0.1813614
50
36.9355088
51
91.6858531
0
LINE
8
DEFAULT_255_2_778
10
122.3107636
20
60.1591885
11
122.3364636
21
60.1591885
0
LINE
8
DEFAULT_255_2_778
10
122.3364636
20
60.1591885
11
122.3364636
21
60.0363885
0
LINE
8
DEFAULT_255_2_778
10
122.3364636
20
60.0363885
11
122.3099636
21
60.0363885
0
LINE
8
DEFAULT_255_2_778
10
121.7776636
20
59.4532885
11
121.7776636
21
59.5088885
0
LINE
8
DEFAULT_255_2_778
10
122.3102636
20
60.1586885
11
122.3107636
21
60.1591885
0
LINE
8
DEFAULT_255_2_778
10
121.9231636
20
59.4905885
11
121.9231636
21
59.4373885
0
LINE
8
DEFAULT_255_2_778
10
122.1464636
20
59.6469885
11
122.1467636
21
59.6466885
0
ARC
8
DEFAULT_255_2_778
10
111.9106229
20
59.9412386
40
0.2379684
50
267.6837125
51
309.4425417
0
ARC
8
DEFAULT_255_2_778
10
111.9402681
20
59.8905423
40
0.1802247
50
312.4047827
51
2.6148612
0
ARC
8
DEFAULT_255_2_778
10
111.9023229
20
59.9116498
40
0.2183628
50
356.6171168
51
34.5482712
0
ARC
8
DEFAULT_255_2_778
10
111.9454236
20
59.9178892
40
0.1803605
50
40.6921951
51
91.2272563
0
ARC
8
DEFAULT_255_2_778
10
111.9213747
20
59.7322524
40
0.3665123
50
86.8427952
51
90.0421275
0
ARC
8
DEFAULT_255_2_778
10
111.9107357
20
59.8918232
40
0.207201
50
87.1314037
51
132.1811
0
ARC
8
DEFAULT_255_2_778
10
111.9031205
20
59.911727
40
0.1874974
50
134.5414
51
182.5256546
0
ARC
8
DEFAULT_255_2_778
10
111.8613676
20
59.9098258
40
0.2901321
50
131.1882945
51
181.2563306
0
ARC
8
DEFAULT_255_2_778
10
111.9080467
20
59.8577347
40
0.360074
50
87.8897962
51
131.3194901
0
ARC
8
DEFAULT_255_2_778
10
111.9346662
20
59.8224666
40
0.3953238
50
61.7282868
51
91.9368265
0
ARC
8
DEFAULT_255_2_778
10
111.9794607
20
59.9236552
40
0.285115
50
47.0558653
51
60.0244637
0
ARC
8
DEFAULT_255_2_778
10
111.9608181
20
59.9149829
40
0.3042625
50
358.1150128
51
45.5984869
0
ARC
8
DEFAULT_255_2_778
10
111.7719664
20
59.8956069
40
0.4930387
50
359.9950806
51
1.0886956
0
ARC
8
DEFAULT_255_2_778
10
112.0159972
20
59.8990137
40
0.2490319
50
323.7801995
51
359.2064244
0
ARC
8
DEFAULT_255_2_778
10
111.9785677
20
59.917833
40
0.2904312
50
291.6897145
51
325.1482478
0
ARC
8
DEFAULT_255_2_778
10
112.0088649
20
59.3785791
40
0.2801852
50
37.5824056
51
74.0402478
0
ARC
8
DEFAULT_255_2_778
10
112.0082943
20
59.3899823
40
0.2738434
50
358.2175642
51
35.6184615
0
ARC
8
DEFAULT_255_2_778
10
111.9724084
20
59.3668885
40
0.3099397
50
312.5513077
51
2.6955407
0
ARC
8
DEFAULT_255_2_778
10
111.9392039
20
59.4207409
40
0.372258
50
268.1049399
51
310.7106628
0
ARC
8
DEFAULT_255_2_778
10
111.9219349
20
59.6126238
40
0.5639591
50
269.9969797
51
270.5037912
0
ARC
8
DEFAULT_255_2_778
10
111.9071804
20
59.4427849
40
0.3943953
50
235.0953409
51
272.1396436
0
ARC
8
DEFAULT_255_2_778
10
111.8794145
20
59.3879395
40
0.3336394
50
229.1767643
51
233.616205
0
ARC
8
DEFAULT_255_2_778
10
111.8484501
20
59.3538885
40
0.2876321
50
177.9326634
51
229.41014
0
ARC
8
DEFAULT_255_2_778
10
111.8917596
20
59.3560109
40
0.185638
50
177.4517345
51
226.809965
0
ARC
8
DEFAULT_255_2_778
10
111.9104147
20
59.3890278
40
0.2226599
50
229.1255351
51
272.9580981
0
ARC
8
DEFAULT_255_2_778
10
111.9354074
20
59.3914272
40
0.2251679
50
266.5622094
51
307.9794424
0
ARC
8
DEFAULT_255_2_778
10
111.9665725
20
59.3382688
40
0.1642904
50
310.8219358
51
314.6371328
0
ARC
8
DEFAULT_255_2_778
10
111.9268117
20
59.3645534
40
0.2111589
50
317.303912
51
3.8045797
0
ARC
8
DEFAULT_255_2_778
10
111.9462165
20
59.390578
40
0.1916656
50
356.406403
51
47.0926663
0
ARC
8
DEFAULT_255_2_778
10
111.9221814
20
59.336206
40
0.2486132
50
51.5710886
51
89.2414068
0
ARC
8
DEFAULT_255_2_778
10
111.8948017
20
59.1189607
40
0.4668452
50
86.2330164
51
89.2386212
0
LINE
8
DEFAULT_255_2_778
10
111.7925052
20
59.5854646
11
111.7925052
21
59.7034646
0
LINE
8
DEFAULT_255_2_778
10
111.7925052
20
59.7034646
11
111.9010052
21
59.7034646
0
LINE
8
DEFAULT_255_2_778
10
111.7158052
20
59.9034646
11
111.5713052
21
59.9034646
0
LINE
8
DEFAULT_255_2_778
10
111.5610052
20
59.3642646
11
111.7063052
21
59.3642646
0
LINE
8
DEFAULT_255_2_778
10
111.9010052
20
59.5857646
11
111.7925052
21
59.5857646
0
LINE
8
DEFAULT_255_2_778
10
111.7925052
20
59.5857646
11
111.7925052
21
59.5854646
0
ARC
8
DEFAULT_255_2_778
10
107.588663
20
60.4365593
40
1.3089815
50
318.1066296
51
324.2635474
0
ARC
8
DEFAULT_255_2_778
10
108.243627
20
59.9633792
40
0.5009772
50
324.4407366
51
331.4424834
0
ARC
8
DEFAULT_255_2_778
10
108.4463315
20
59.8535352
40
0.2704247
50
331.3532966
51
359.7788906
0
ARC
8
DEFAULT_255_2_778
10
108.5132911
20
59.8603192
40
0.2036136
50
357.7968401
51
42.7727786
0
ARC
8
DEFAULT_255_2_778
10
108.5274249
20
59.8673873
40
0.1884904
50
44.1133549
51
92.5452931
0
ARC
8
DEFAULT_255_2_778
10
108.5057051
20
59.8331881
40
0.2229036
50
86.5666508
51
133.7180238
0
ARC
8
DEFAULT_255_2_778
10
108.5256278
20
59.8375283
40
0.2341828
50
137.9787701
51
183.3872909
0
ARC
8
DEFAULT_255_2_778
10
108.4828676
20
59.8372672
40
0.3357879
50
134.2747268
51
182.3170464
0
ARC
8
DEFAULT_255_2_778
10
108.4966025
20
59.8070147
40
0.3672106
50
89.359196
51
132.5136406
0
ARC
8
DEFAULT_255_2_778
10
108.5189541
20
59.5996489
40
0.5748429
50
89.9900279
51
91.8188013
0
ARC
8
DEFAULT_255_2_778
10
108.5324413
20
59.7792043
40
0.395514
50
61.1951992
51
91.9396843
0
ARC
8
DEFAULT_255_2_778
10
108.5752353
20
59.8748174
40
0.2912383
50
48.0417413
51
59.508966
0
ARC
8
DEFAULT_255_2_778
10
108.5784159
20
59.8819856
40
0.2837919
50
357.5777809
51
47.5516517
0
ARC
8
DEFAULT_255_2_778
10
108.4787517
20
59.8827705
40
0.3834155
50
331.2594151
51
358.0900352
0
ARC
8
DEFAULT_255_2_778
10
108.0094583
20
60.1223194
40
0.9102146
50
319.7427535
51
332.2426664
0
ARC
8
DEFAULT_255_2_778
10
107.5202187
20
60.5121697
40
1.5356207
50
317.2552041
51
320.43833
0
LINE
8
DEFAULT_255_2_778
10
108.9146542
20
59.1388917
11
108.9146542
21
59.0208917
0
LINE
8
DEFAULT_255_2_778
10
108.9146542
20
59.0208917
11
108.1693542
21
59.0208917
0
LINE
8
DEFAULT_255_2_778
10
108.1693542
20
59.0208917
11
108.1693542
21
59.1248917
0
LINE
8
DEFAULT_255_2_778
10
108.1693542
20
59.1248917
11
108.5630542
21
59.5624917
0
LINE
8
DEFAULT_255_2_778
10
108.2918542
20
59.8236917
11
108.1473542
21
59.8236917
0
LINE
8
DEFAULT_255_2_778
10
108.6479542
20
59.4698917
11
108.3431542
21
59.1394917
0
LINE
8
DEFAULT_255_2_778
10
108.3431542
20
59.1394917
11
108.9141542
21
59.1394917
0
LINE
8
DEFAULT_255_2_778
10
108.9141542
20
59.1394917
11
108.9146542
21
59.1388917
0
LINE
8
DEFAULT_255_2_778
10
105.6253865
20
60.1856
11
105.6253865
21
59.0426
0
LINE
8
DEFAULT_255_2_778
10
105.6253865
20
59.0426
11
105.4800865
21
59.0426
0
LINE
8
DEFAULT_255_2_778
10
105.4800865
20
59.0426
11
105.4800865
21
60.0059
0
LINE
8
DEFAULT_255_2_778
10
105.4800865
20
60.0059
11
105.1887865
21
59.8988
0
LINE
8
DEFAULT_255_2_778
10
105.1887865
20
59.8988
11
105.1887865
21
60.03
0
LINE
8
DEFAULT_255_2_778
10
105.1887865
20
60.03
11
105.6028865
21
60.1856
0
LINE
8
DEFAULT_255_2_778
10
105.6028865
20
60.1856
11
105.6255865
21
60.1856
0
LINE
8
DEFAULT_255_2_778
10
105.6255865
20
60.1856
11
105.6253865
21
60.1856
0
ARC
8
DEFAULT_255_2_778
10
101.1194144
20
59.4715395
40
1.0248887
50
348.9599816
51
0.6928247
0
ARC
8
DEFAULT_255_2_778
10
101.6804351
20
59.3562063
40
0.4522016
50
326.5019417
51
349.6906274
0
ARC
8
DEFAULT_255_2_778
10
101.816239
20
59.2821636
40
0.2983818
50
269.6746931
51
323.965112
0
ARC
8
DEFAULT_255_2_778
10
101.7866141
20
59.5004093
40
0.5173772
50
269.968335
51
273.0946457
0
ARC
8
DEFAULT_255_2_778
10
101.7725612
20
59.3341429
40
0.3513804
50
237.9683085
51
272.2453912
0
ARC
8
DEFAULT_255_2_778
10
101.7397914
20
59.2638844
40
0.2746015
50
215.677109
51
235.9891777
0
ARC
8
DEFAULT_255_2_778
10
101.895191
20
59.3625053
40
0.4584731
50
189.9758066
51
214.3622695
0
ARC
8
DEFAULT_255_2_778
10
102.3996447
20
59.468045
40
0.9737237
50
180.2184654
51
190.9500636
0
ARC
8
DEFAULT_255_2_778
10
102.4226118
20
59.669553
40
0.9967598
50
168.7512073
51
180.708238
0
ARC
8
DEFAULT_255_2_778
10
101.8797101
20
59.783062
40
0.4421787
50
146.0926208
51
169.4541479
0
ARC
8
DEFAULT_255_2_778
10
101.7525703
20
59.8523495
40
0.2983101
50
90.3434709
51
143.5140674
0
ARC
8
DEFAULT_255_2_778
10
101.784311
20
59.6297547
40
0.5219777
50
89.9542153
51
93.6829006
0
ARC
8
DEFAULT_255_2_778
10
101.7981123
20
59.7849714
40
0.367005
50
60.5898352
51
92.0899681
0
ARC
8
DEFAULT_255_2_778
10
101.8393781
20
59.8761224
40
0.2674822
50
36.2353857
51
58.7017609
0
ARC
8
DEFAULT_255_2_778
10
101.6984836
20
59.787083
40
0.4339102
50
10.2839172
51
34.72137
0
ARC
8
DEFAULT_255_2_778
10
101.159952
20
59.6730575
40
0.9842778
50
359.8937528
51
11.2183522
0
ARC
8
DEFAULT_255_2_778
10
101.173408
20
59.6938894
40
0.8265081
50
359.1641344
51
10.7645033
0
ARC
8
DEFAULT_255_2_778
10
101.6742033
20
59.7912677
40
0.3163447
50
10.3787531
51
29.9774528
0
ARC
8
DEFAULT_255_2_778
10
101.797099
20
59.8560505
40
0.1775993
50
31.6842263
51
93.9295413
0
ARC
8
DEFAULT_255_2_778
10
101.7728472
20
59.8585974
40
0.1750523
50
86.0426764
51
148.6647913
0
ARC
8
DEFAULT_255_2_778
10
101.9430553
20
59.7717909
40
0.3658593
50
150.9159356
51
173.3121892
0
ARC
8
DEFAULT_255_2_778
10
102.4491632
20
59.6906694
40
0.8782371
50
171.90102
51
179.8719443
0
ARC
8
DEFAULT_255_2_778
10
102.3908865
20
59.4496701
40
0.8200428
50
179.1781584
51
191.0324885
0
ARC
8
DEFAULT_255_2_778
10
101.9130995
20
59.3548544
40
0.3329455
50
190.7517404
51
209.8509498
0
ARC
8
DEFAULT_255_2_778
10
101.7774813
20
59.2783419
40
0.1772406
50
210.2202047
51
272.9258057
0
ARC
8
DEFAULT_255_2_778
10
101.7968686
20
59.2755385
40
0.1745129
50
266.603032
51
328.4138866
0
ARC
8
DEFAULT_255_2_778
10
101.636687
20
59.360922
40
0.3558615
50
330.2119154
51
352.7567583
0
ARC
8
DEFAULT_255_2_778
10
101.1089414
20
59.4500438
40
0.8909007
50
351.3500202
51
359.6776993
0
LINE
8
DEFAULT_255_2_778
10
102.1442281
20
59.6715323
11
102.1442281
21
59.4839323
0
LINE
8
DEFAULT_255_2_778
10
101.4259281
20
59.4643323
11
101.4259281
21
59.6572323
0
LINE
8
DEFAULT_255_2_778
10
102.1442281
20
59.6712323
11
102.1442281
21
59.6715323
0
LINE
8
DEFAULT_255_2_778
10
101.9998281
20
59.4450323
11
101.9998281
21
59.6818323
0
LINE
8
DEFAULT_255_2_778
10
101.5709281
20
59.6926323
11
101.5709281
21
59.4614323
0
LINE
8
DEFAULT_255_2_778
10
101.9998281
20
59.4450323
11
101.9998281
21
59.4450323
0
ARC
8
DEFAULT_255_2_778
10
125.7415353
20
61.2573059
40
0.8251061
50
94.0542569
51
179.9954907
0
ARC
8
DEFAULT_255_2_778
10
125.7413637
20
61.2455378
40
0.8368332
50
89.9955172
51
93.9855699
0
ARC
8
DEFAULT_255_2_778
10
125.7413563
20
61.257363
40
0.8250078
50
4.0478935
51
89.9949385
0
ARC
8
DEFAULT_255_2_778
10
125.72933
20
61.2574391
40
0.8369993
50
359.9953243
51
3.9845835
0
ARC
8
DEFAULT_255_2_778
10
125.7414015
20
61.2573621
40
0.8249277
50
274.0496371
51
0.0006079
0
ARC
8
DEFAULT_255_2_778
10
125.7414979
20
61.269445
40
0.8369743
50
269.9952991
51
273.9846407
0
ARC
8
DEFAULT_255_2_778
10
125.7414125
20
61.2574969
40
0.8250261
50
184.0560009
51
270.0011596
0
ARC
8
DEFAULT_255_2_778
10
125.7532372
20
61.257305
40
0.8368082
50
179.9954919
51
183.9856271
0
LINE
8
DEFAULT_255_2_778
10
124.9164292
20
61.2573708
11
124.9164292
21
61.2573708
0
LINE
8
DEFAULT_255_2_778
10
125.5392292
20
60.4572708
11
125.9430292
21
60.4572708
0
ARC
8
DEFAULT_255_2_778
10
122.3412655
20
61.2573717
40
0.8250363
50
94.0505575
51
180.0000632
0
ARC
8
DEFAULT_255_2_778
10
122.3411633
20
61.2452063
40
0.8371647
50
89.9954912
51
93.9847716
0
ARC
8
DEFAULT_255_2_778
10
122.3411563
20
61.257363
40
0.8250078
50
4.0478935
51
89.9949385
0
ARC
8
DEFAULT_255_2_778
10
122.32913
20
61.2574391
40
0.8369993
50
359.9953243
51
3.9845835
0
ARC
8
DEFAULT_255_2_778
10
122.3412015
20
61.2573621
40
0.8249277
50
274.0496371
51
0.0006079
0
ARC
8
DEFAULT_255_2_778
10
122.3412979
20
61.269445
40
0.8369743
50
269.9952991
51
273.9846407
0
ARC
8
DEFAULT_255_2_778
10
122.3404734
20
61.2561795
40
0.8237091
50
217.0530232
51
270.0525725
0
ARC
8
DEFAULT_255_2_778
10
122.337473
20
61.2560611
40
0.821245
50
179.9086225
51
217.172556
0
LINE
8
DEFAULT_255_2_778
10
121.5162292
20
61.2573708
11
121.5162292
21
61.2573708
0
LINE
8
DEFAULT_255_2_778
10
122.1390292
20
60.4572708
11
122.5428292
21
60.4572708
0
ARC
8
DEFAULT_255_2_778
10
118.9413553
20
61.2573875
40
0.8250261
50
94.0560009
51
180.0011596
0
ARC
8
DEFAULT_255_2_778
10
118.9411633
20
61.2455628
40
0.8368082
50
89.9954919
51
93.9856271
0
ARC
8
DEFAULT_255_2_778
10
118.9419409
20
61.2586604
40
0.8237107
50
36.8753414
51
90.0495079
0
ARC
8
DEFAULT_255_2_778
10
118.9448474
20
61.2586685
40
0.8213827
50
359.9094824
51
36.9965536
0
ARC
8
DEFAULT_255_2_778
10
118.9412913
20
61.2573779
40
0.8249379
50
274.0441941
51
359.999511
0
ARC
8
DEFAULT_255_2_778
10
118.9412979
20
61.2698016
40
0.8373309
50
269.9952984
51
273.9837854
0
ARC
8
DEFAULT_255_2_778
10
118.9412204
20
61.2573985
40
0.8249277
50
184.0496371
51
270.0006079
0
ARC
8
DEFAULT_255_2_778
10
118.9533034
20
61.2573021
40
0.8369743
50
179.9952991
51
183.9846407
0
LINE
8
DEFAULT_255_2_778
10
118.7391292
20
60.4572708
11
119.1429292
21
60.4572708
0
LINE
8
DEFAULT_255_2_778
10
118.1163292
20
61.2573708
11
118.1163292
21
61.2573708
0
ARC
8
DEFAULT_255_2_778
10
115.5414655
20
61.2573717
40
0.8250363
50
94.0505575
51
180.0000632
0
ARC
8
DEFAULT_255_2_778
10
115.5413633
20
61.2452063
40
0.8371647
50
89.9954912
51
93.9847716
0
ARC
8
DEFAULT_255_2_778
10
115.5413563
20
61.257363
40
0.8250078
50
4.0478935
51
89.9949385
0
ARC
8
DEFAULT_255_2_778
10
115.52933
20
61.2574391
40
0.8369993
50
359.9953243
51
3.9845835
0
ARC
8
DEFAULT_255_2_778
10
115.5414015
20
61.2573621
40
0.8249277
50
274.0496371
51
0.0006079
0
ARC
8
DEFAULT_255_2_778
10
115.5414979
20
61.269445
40
0.8369743
50
269.9952991
51
273.9846407
0
ARC
8
DEFAULT_255_2_778
10
115.5406734
20
61.2561795
40
0.8237091
50
217.0530232
51
270.0525725
0
ARC
8
DEFAULT_255_2_778
10
115.537673
20
61.2560611
40
0.821245
50
179.9086225
51
217.172556
0
LINE
8
DEFAULT_255_2_778
10
114.7164292
20
61.2573708
11
114.7164292
21
61.2573708
0
LINE
8
DEFAULT_255_2_778
10
115.3395292
20
60.4572708
11
115.7432292
21
60.4572708
0
ARC
8
DEFAULT_255_2_778
10
112.1414353
20
61.2573059
40
0.8251061
50
94.0542569
51
179.9954907
0
ARC
8
DEFAULT_255_2_778
10
112.1412637
20
61.2455378
40
0.8368332
50
89.9955172
51
93.9855699
0
ARC
8
DEFAULT_255_2_778
10
112.1412563
20
61.257363
40
0.8250078
50
4.0478935
51
89.9949385
0
ARC
8
DEFAULT_255_2_778
10
112.12923
20
61.2574391
40
0.8369993
50
359.9953243
51
3.9845835
0
ARC
8
DEFAULT_255_2_778
10
112.1413015
20
61.2573621
40
0.8249277
50
274.0496371
51
0.0006079
0
ARC
8
DEFAULT_255_2_778
10
112.1413979
20
61.269445
40
0.8369743
50
269.9952991
51
273.9846407
0
ARC
8
DEFAULT_255_2_778
10
112.1413125
20
61.2574969
40
0.8250261
50
184.0560009
51
270.0011596
0
ARC
8
DEFAULT_255_2_778
10
112.1531372
20
61.257305
40
0.8368082
50
179.9954919
51
183.9856271
0
LINE
8
DEFAULT_255_2_778
10
111.3163292
20
61.2573708
11
111.3163292
21
61.2573708
0
LINE
8
DEFAULT_255_2_778
10
111.9391292
20
60.4572708
11
112.3429292
21
60.4572708
0
ARC
8
DEFAULT_255_2_778
10
108.7414655
20
61.2573717
40
0.8250363
50
94.0505575
51
180.0000632
0
ARC
8
DEFAULT_255_2_778
10
108.7413633
20
61.2452063
40
0.8371647
50
89.9954912
51
93.9847716
0
ARC
8
DEFAULT_255_2_778
10
108.7413563
20
61.257363
40
0.8250078
50
4.0478935
51
89.9949385
0
ARC
8
DEFAULT_255_2_778
10
108.72933
20
61.2574391
40
0.8369993
50
359.9953243
51
3.9845835
0
ARC
8
DEFAULT_255_2_778
10
108.7414015
20
61.2573621
40
0.8249277
50
274.0496371
51
0.0006079
0
ARC
8
DEFAULT_255_2_778
10
108.7414979
20
61.269445
40
0.8369743
50
269.9952991
51
273.9846407
0
ARC
8
DEFAULT_255_2_778
10
108.7406734
20
61.2561795
40
0.8237091
50
217.0530232
51
270.0525725
0
ARC
8
DEFAULT_255_2_778
10
108.737673
20
61.2560611
40
0.821245
50
179.9086225
51
217.172556
0
LINE
8
DEFAULT_255_2_778
10
107.9164292
20
61.2573708
11
107.9164292
21
61.2573708
0
LINE
8
DEFAULT_255_2_778
10
108.5392292
20
60.4572708
11
108.9430292
21
60.4572708
0
ARC
8
DEFAULT_255_2_778
10
105.3415553
20
61.2573875
40
0.8250261
50
94.0560009
51
180.0011596
0
ARC
8
DEFAULT_255_2_778
10
105.3413633
20
61.2455628
40
0.8368082
50
89.9954919
51
93.9856271
0
ARC
8
DEFAULT_255_2_778
10
105.3421409
20
61.2586604
40
0.8237107
50
36.8753414
51
90.0495079
0
ARC
8
DEFAULT_255_2_778
10
105.3450474
20
61.2586685
40
0.8213827
50
359.9094824
51
36.9965536
0
ARC
8
DEFAULT_255_2_778
10
105.3414913
20
61.2573779
40
0.8249379
50
274.0441941
51
359.999511
0
ARC
8
DEFAULT_255_2_778
10
105.3414979
20
61.2698016
40
0.8373309
50
269.9952984
51
273.9837854
0
ARC
8
DEFAULT_255_2_778
10
105.3414204
20
61.2573985
40
0.8249277
50
184.0496371
51
270.0006079
0
ARC
8
DEFAULT_255_2_778
10
105.3535034
20
61.2573021
40
0.8369743
50
179.9952991
51
183.9846407
0
LINE
8
DEFAULT_255_2_778
10
105.1393292
20
60.4572708
11
105.5431292
21
60.4572708
0
LINE
8
DEFAULT_255_2_778
10
104.5165292
20
61.2573708
11
104.5165292
21
61.2573708
0
ARC
8
DEFAULT_255_2_778
10
101.9414353
20
61.2573059
40
0.8251061
50
94.0542569
51
179.9954907
0
ARC
8
DEFAULT_255_2_778
10
101.9412637
20
61.2455378
40
0.8368332
50
89.9955172
51
93.9855699
0
ARC
8
DEFAULT_255_2_778
10
101.9412563
20
61.257363
40
0.8250078
50
4.0478935
51
89.9949385
0
ARC
8
DEFAULT_255_2_778
10
101.92923
20
61.2574391
40
0.8369993
50
359.9953243
51
3.9845835
0
ARC
8
DEFAULT_255_2_778
10
101.9413015
20
61.2573621
40
0.8249277
50
274.0496371
51
0.0006079
0
ARC
8
DEFAULT_255_2_778
10
101.9413979
20
61.269445
40
0.8369743
50
269.9952991
51
273.9846407
0
ARC
8
DEFAULT_255_2_778
10
101.9413125
20
61.2574969
40
0.8250261
50
184.0560009
51
270.0011596
0
ARC
8
DEFAULT_255_2_778
10
101.9531372
20
61.257305
40
0.8368082
50
179.9954919
51
183.9856271
0
LINE
8
DEFAULT_255_2_778
10
101.1412292
20
61.4589708
11
101.1412292
21
61.0557708
0
LINE
8
DEFAULT_255_2_778
10
101.1163292
20
61.2573708
11
101.1163292
21
61.2573708
0
LINE
8
DEFAULT_255_2_778
10
101.7391292
20
60.4572708
11
102.1429292
21
60.4572708
0
LINE
8
DEFAULT_255_2_778
10
121.7877865
20
56.1639
11
121.7877865
21
55.0209
0
LINE
8
DEFAULT_255_2_778
10
121.7877865
20
55.0209
11
121.6424865
21
55.0209
0
LINE
8
DEFAULT_255_2_778
10
121.6424865
20
55.0209
11
121.6424865
21
55.9842
0
LINE
8
DEFAULT_255_2_778
10
121.6424865
20
55.9842
11
121.3511865
21
55.8771
0
LINE
8
DEFAULT_255_2_778
10
121.3511865
20
55.8771
11
121.3511865
21
56.0083
0
LINE
8
DEFAULT_255_2_778
10
121.3511865
20
56.0083
11
121.7652865
21
56.1639
0
LINE
8
DEFAULT_255_2_778
10
121.7652865
20
56.1639
11
121.7879865
21
56.1639
0
LINE
8
DEFAULT_255_2_778
10
121.7879865
20
56.1639
11
121.7877865
21
56.1639
0
ARC
8
DEFAULT_255_2_778
10
122.744545
20
55.6362217
40
0.4002284
50
88.9951929
51
124.1200081
0
ARC
8
DEFAULT_255_2_778
10
122.7122204
20
55.6998012
40
0.3295816
50
125.667951
51
134.1234459
0
ARC
8
DEFAULT_255_2_778
10
122.7643045
20
55.6598139
40
0.3946629
50
135.5098198
51
173.1807264
0
ARC
8
DEFAULT_255_2_778
10
123.0004096
20
55.6080041
40
0.6356808
50
171.0703594
51
174.9836033
0
ARC
8
DEFAULT_255_2_778
10
122.5978202
20
55.4584634
40
0.3086727
50
87.280888
51
138.3530014
0
ARC
8
DEFAULT_255_2_778
10
122.6239685
20
55.4724245
40
0.2945888
50
40.0523262
51
92.2382114
0
ARC
8
DEFAULT_255_2_778
10
122.5397396
20
55.4114799
40
0.3983509
50
358.9874834
51
38.9663613
0
ARC
8
DEFAULT_255_2_778
10
122.3333632
20
55.3916437
40
0.6048004
50
359.9947758
51
1.2124229
0
ARC
8
DEFAULT_255_2_778
10
122.5036973
20
55.377818
40
0.4346844
50
330.4946426
51
1.8154021
0
ARC
8
DEFAULT_255_2_778
10
122.5908474
20
55.3387068
40
0.3396906
50
317.7678422
51
328.9961641
0
ARC
8
DEFAULT_255_2_778
10
122.60028
20
55.3340601
40
0.3295958
50
267.4582929
51
317.2638032
0
ARC
8
DEFAULT_255_2_778
10
122.5772897
20
55.3293874
40
0.3247069
50
217.841048
51
271.477762
0
ARC
8
DEFAULT_255_2_778
10
122.6975645
20
55.4231224
40
0.4771938
50
181.6448628
51
217.8697043
0
ARC
8
DEFAULT_255_2_778
10
122.9429844
20
55.4528492
40
0.723721
50
179.9652211
51
183.4398956
0
ARC
8
DEFAULT_255_2_778
10
123.2935474
20
55.5214709
40
1.0743576
50
167.2173433
51
180.6710367
0
ARC
8
DEFAULT_255_2_778
10
122.8058908
20
55.6372324
40
0.573196
50
142.1696026
51
167.7168281
0
ARC
8
DEFAULT_255_2_778
10
122.7046852
20
55.6973606
40
0.4566154
50
95.9735501
51
140.339679
0
ARC
8
DEFAULT_255_2_778
10
122.7611235
20
55.4096929
40
0.7490529
50
90.7083194
51
97.977598
0
ARC
8
DEFAULT_255_2_778
10
122.5876946
20
55.4158037
40
0.2308858
50
89.8339952
51
126.1288642
0
ARC
8
DEFAULT_255_2_778
10
122.5835895
20
55.4101183
40
0.2331528
50
124.4900713
51
159.8096942
0
ARC
8
DEFAULT_255_2_778
10
122.7684663
20
55.4243936
40
0.4039119
50
178.156321
51
206.3597131
0
ARC
8
DEFAULT_255_2_778
10
122.6545059
20
55.3773206
40
0.2810262
50
208.0767452
51
216.3153845
0
ARC
8
DEFAULT_255_2_778
10
122.5866872
20
55.31417
40
0.1892842
50
213.0685544
51
269.6901508
0
ARC
8
DEFAULT_255_2_778
10
122.5932955
20
55.3082444
40
0.1835147
50
267.6165249
51
322.641831
0
ARC
8
DEFAULT_255_2_778
10
122.4964302
20
55.3712275
40
0.2988537
50
324.3128744
51
2.6531357
0
LINE
8
DEFAULT_255_2_778
10
122.7949635
20
55.3850612
11
122.7949636
21
55.3852885
0
ARC
8
DEFAULT_255_2_778
10
122.496269
20
55.399268
40
0.2990215
50
357.3203954
51
35.6523885
0
ARC
8
DEFAULT_255_2_778
10
122.5610602
20
55.4356684
40
0.2253066
50
37.734775
51
38.0993138
0
ARC
8
DEFAULT_255_2_778
10
122.5933991
20
55.4657056
40
0.1813614
50
36.9355088
51
91.6858531
0
LINE
8
DEFAULT_255_2_778
10
122.7523636
20
56.1591885
11
122.7780636
21
56.1591885
0
LINE
8
DEFAULT_255_2_778
10
122.7780636
20
56.1591885
11
122.7780636
21
56.0363885
0
LINE
8
DEFAULT_255_2_778
10
122.7780636
20
56.0363885
11
122.7515636
21
56.0363885
0
LINE
8
DEFAULT_255_2_778
10
122.2192636
20
55.4532885
11
122.2192636
21
55.5088885
0
LINE
8
DEFAULT_255_2_778
10
122.7518636
20
56.1586885
11
122.7523636
21
56.1591885
0
LINE
8
DEFAULT_255_2_778
10
122.3647636
20
55.4905885
11
122.3647636
21
55.4373885
0
LINE
8
DEFAULT_255_2_778
10
122.5880636
20
55.6469885
11
122.5883636
21
55.6466885
0
LINE
8
DEFAULT_255_2_778
10
118.7685865
20
56.1856
11
118.7685865
21
55.0426
0
LINE
8
DEFAULT_255_2_778
10
118.7685865
20
55.0426
11
118.6232865
21
55.0426
0
LINE
8
DEFAULT_255_2_778
10
118.6232865
20
55.0426
11
118.6232865
21
56.0059
0
LINE
8
DEFAULT_255_2_778
10
118.6232865
20
56.0059
11
118.3319865
21
55.8988
0
LINE
8
DEFAULT_255_2_778
10
118.3319865
20
55.8988
11
118.3319865
21
56.03
0
LINE
8
DEFAULT_255_2_778
10
118.3319865
20
56.03
11
118.7460865
21
56.1856
0
LINE
8
DEFAULT_255_2_778
10
118.7460865
20
56.1856
11
118.7687865
21
56.1856
0
LINE
8
DEFAULT_255_2_778
10
118.7687865
20
56.1856
11
118.7685865
21
56.1856
0
ARC
8
DEFAULT_255_2_778
10
119.588362
20
55.4180707
40
0.367509
50
89.0305122
51
120.0049063
0
ARC
8
DEFAULT_255_2_778
10
119.6090385
20
55.4721512
40
0.3137092
50
42.1879038
51
92.64159
0
ARC
8
DEFAULT_255_2_778
10
119.549964
20
55.4369035
40
0.3813923
50
1.8159444
51
40.1510289
0
ARC
8
DEFAULT_255_2_778
10
119.3109142
20
55.4056019
40
0.6217662
50
359.9470322
51
4.0014178
0
ARC
8
DEFAULT_255_2_778
10
119.4992707
20
55.3916145
40
0.433617
50
332.431674
51
1.7725398
0
ARC
8
DEFAULT_255_2_778
10
119.6045478
20
55.3462915
40
0.3194318
50
316.8987707
51
330.8986394
0
ARC
8
DEFAULT_255_2_778
10
119.5977414
20
55.3640888
40
0.3366657
50
269.7279463
51
315.4786078
0
ARC
8
DEFAULT_255_2_778
10
119.5727554
20
55.5743379
40
0.5474109
50
269.9816654
51
272.4486339
0
ARC
8
DEFAULT_255_2_778
10
119.5573346
20
55.3854745
40
0.3588714
50
229.9840991
51
272.4347833
0
ARC
8
DEFAULT_255_2_778
10
119.5510871
20
55.3570451
40
0.3333544
50
182.6165266
51
227.6639266
0
ARC
8
DEFAULT_255_2_778
10
119.5837884
20
55.3597819
40
0.2296112
50
184.4849263
51
226.0669866
0
ARC
8
DEFAULT_255_2_778
10
119.5625576
20
55.3616178
40
0.2168365
50
230.4478069
51
272.7286325
0
ARC
8
DEFAULT_255_2_778
10
119.5822974
20
55.3398403
40
0.1950407
50
267.2325065
51
319.7142911
0
ARC
8
DEFAULT_255_2_778
10
119.5137077
20
55.3809764
40
0.2742684
50
322.4248308
51
0.1015646
0
ARC
8
DEFAULT_255_2_778
10
119.3066812
20
55.4035086
40
0.4817992
50
357.3773607
51
0.0259752
0
ARC
8
DEFAULT_255_2_778
10
119.5252129
20
55.4165185
40
0.2635779
50
357.2183479
51
40.2513038
0
ARC
8
DEFAULT_255_2_778
10
119.5697509
20
55.4444175
40
0.2116914
50
42.2775552
51
92.3745308
0
ARC
8
DEFAULT_255_2_778
10
119.5480599
20
55.4135132
40
0.2427579
50
86.9491068
51
122.8381089
0
ARC
8
DEFAULT_255_2_778
10
119.5103916
20
55.4869793
40
0.1608136
50
125.757045
51
127.4615075
0
LINE
8
DEFAULT_255_2_778
10
119.3738802
20
55.5831271
11
119.2582802
21
55.6127271
0
LINE
8
DEFAULT_255_2_778
10
119.2582802
20
55.6127271
11
119.3162802
21
56.1800271
0
LINE
8
DEFAULT_255_2_778
10
119.3162802
20
56.1800271
11
119.8990802
21
56.1800271
0
LINE
8
DEFAULT_255_2_778
10
119.8990802
20
56.1800271
11
119.8990802
21
56.0464271
0
LINE
8
DEFAULT_255_2_778
10
119.8990802
20
56.0464271
11
119.4389802
21
56.0464271
0
LINE
8
DEFAULT_255_2_778
10
119.4389802
20
56.0464271
11
119.4045802
21
55.7363271
0
LINE
8
DEFAULT_255_2_778
10
119.2180802
20
55.3418271
11
119.3548802
21
55.3418271
0
LINE
8
DEFAULT_255_2_778
10
119.4125802
20
55.6146271
11
119.3741802
21
55.5834271
0
LINE
8
DEFAULT_255_2_778
10
119.3741802
20
55.5834271
11
119.3738802
21
55.5831271
0
LINE
8
DEFAULT_255_2_778
10
115.0492865
20
56.142
11
115.0492865
21
54.999
0
LINE
8
DEFAULT_255_2_778
10
115.0492865
20
54.999
11
114.9039865
21
54.999
0
LINE
8
DEFAULT_255_2_778
10
114.9039865
20
54.999
11
114.9039865
21
55.9623
0
LINE
8
DEFAULT_255_2_778
10
114.9039865
20
55.9623
11
114.6126865
21
55.8552
0
LINE
8
DEFAULT_255_2_778
10
114.6126865
20
55.8552
11
114.6126865
21
55.9864
0
LINE
8
DEFAULT_255_2_778
10
114.6126865
20
55.9864
11
115.0267865
21
56.142
0
LINE
8
DEFAULT_255_2_778
10
115.0267865
20
56.142
11
115.0494865
21
56.142
0
LINE
8
DEFAULT_255_2_778
10
115.0494865
20
56.142
11
115.0492865
21
56.142
0
LINE
8
DEFAULT_255_2_778
10
116.082699
20
56.1364219
11
116.082699
21
55.3810219
0
LINE
8
DEFAULT_255_2_778
10
116.082699
20
55.3810219
11
116.240399
21
55.3810219
0
LINE
8
DEFAULT_255_2_778
10
116.240399
20
55.3810219
11
116.240399
21
55.2630219
0
LINE
8
DEFAULT_255_2_778
10
116.240399
20
55.2630219
11
116.082699
21
55.2630219
0
LINE
8
DEFAULT_255_2_778
10
116.082699
20
55.2630219
11
116.082699
21
54.9990219
0
LINE
8
DEFAULT_255_2_778
10
116.082699
20
54.9990219
11
115.937399
21
54.9990219
0
LINE
8
DEFAULT_255_2_778
10
115.937399
20
54.9990219
11
115.937399
21
55.2630219
0
LINE
8
DEFAULT_255_2_778
10
115.937399
20
55.2630219
11
115.419399
21
55.2630219
0
LINE
8
DEFAULT_255_2_778
10
115.419399
20
55.2630219
11
115.419399
21
55.3482219
0
LINE
8
DEFAULT_255_2_778
10
115.419399
20
55.3482219
11
115.928699
21
56.1364219
0
LINE
8
DEFAULT_255_2_778
10
115.928699
20
56.1364219
11
116.082699
21
56.1364219
0
LINE
8
DEFAULT_255_2_778
10
116.082699
20
56.1364219
11
116.082699
21
56.1364219
0
LINE
8
DEFAULT_255_2_778
10
115.920199
20
55.9075219
11
115.583399
21
55.3810219
0
LINE
8
DEFAULT_255_2_778
10
115.583399
20
55.3810219
11
115.937399
21
55.3810219
0
LINE
8
DEFAULT_255_2_778
10
115.937399
20
55.3810219
11
115.937399
21
55.9388219
0
LINE
8
DEFAULT_255_2_778
10
115.937399
20
55.9388219
11
115.920199
21
55.9075219
0
LINE
8
DEFAULT_255_2_778
10
115.920199
20
55.9075219
11
115.920199
21
55.9075219
0
LINE
8
DEFAULT_255_2_778
10
111.6007865
20
56.2076
11
111.6007865
21
55.0646
0
LINE
8
DEFAULT_255_2_778
10
111.6007865
20
55.0646
11
111.4554865
21
55.0646
0
LINE
8
DEFAULT_255_2_778
10
111.4554865
20
55.0646
11
111.4554865
21
56.0279
0
LINE
8
DEFAULT_255_2_778
10
111.4554865
20
56.0279
11
111.1641865
21
55.9208
0
LINE
8
DEFAULT_255_2_778
10
111.1641865
20
55.9208
11
111.1641865
21
56.052
0
LINE
8
DEFAULT_255_2_778
10
111.1641865
20
56.052
11
111.5782865
21
56.2076
0
LINE
8
DEFAULT_255_2_778
10
111.5782865
20
56.2076
11
111.6009865
21
56.2076
0
LINE
8
DEFAULT_255_2_778
10
111.6009865
20
56.2076
11
111.6007865
21
56.2076
0
ARC
8
DEFAULT_255_2_778
10
112.3521828
20
55.9417382
40
0.2383662
50
267.6972384
51
309.4075215
0
ARC
8
DEFAULT_255_2_778
10
112.3817196
20
55.8906177
40
0.1803742
50
312.4683604
51
2.6205322
0
ARC
8
DEFAULT_255_2_778
10
112.3439229
20
55.9117498
40
0.2183628
50
356.6171168
51
34.5482712
0
ARC
8
DEFAULT_255_2_778
10
112.3870236
20
55.9179892
40
0.1803605
50
40.6921951
51
91.2272563
0
ARC
8
DEFAULT_255_2_778
10
112.3629747
20
55.7323524
40
0.3665123
50
86.8427952
51
90.0421275
0
ARC
8
DEFAULT_255_2_778
10
112.3523357
20
55.8919232
40
0.207201
50
87.1314037
51
132.1811
0
ARC
8
DEFAULT_255_2_778
10
112.3447205
20
55.911827
40
0.1874974
50
134.5414
51
182.5256546
0
ARC
8
DEFAULT_255_2_778
10
112.3029676
20
55.9099258
40
0.2901321
50
131.1882945
51
181.2563306
0
ARC
8
DEFAULT_255_2_778
10
112.349701
20
55.8576969
40
0.3602134
50
87.8833476
51
131.3115136
0
ARC
8
DEFAULT_255_2_778
10
112.3764311
20
55.8232491
40
0.3946439
50
61.5512999
51
91.9495962
0
ARC
8
DEFAULT_255_2_778
10
112.4209393
20
55.9233042
40
0.2855962
50
47.0849935
51
59.839794
0
ARC
8
DEFAULT_255_2_778
10
112.4025181
20
55.9150829
40
0.3042625
50
358.1150128
51
45.5984869
0
ARC
8
DEFAULT_255_2_778
10
112.2136664
20
55.8957069
40
0.4930387
50
359.9950806
51
1.0886956
0
ARC
8
DEFAULT_255_2_778
10
112.4580414
20
55.899138
40
0.248688
50
323.7152022
51
359.1997274
0
ARC
8
DEFAULT_255_2_778
10
112.4201677
20
55.917933
40
0.2904312
50
291.6897145
51
325.1482478
0
ARC
8
DEFAULT_255_2_778
10
112.4504649
20
55.3786791
40
0.2801852
50
37.5824056
51
74.0402478
0
ARC
8
DEFAULT_255_2_778
10
112.4498943
20
55.3900823
40
0.2738434
50
358.2175642
51
35.6184615
0
ARC
8
DEFAULT_255_2_778
10
112.4140084
20
55.3669885
40
0.3099397
50
312.5513077
51
2.6955407
0
ARC
8
DEFAULT_255_2_778
10
112.3808039
20
55.4208409
40
0.372258
50
268.1049399
51
310.7106628
0
ARC
8
DEFAULT_255_2_778
10
112.3635349
20
55.6127238
40
0.5639591
50
269.9969797
51
270.5037912
0
ARC
8
DEFAULT_255_2_778
10
112.3487804
20
55.4428849
40
0.3943953
50
235.0953409
51
272.1396436
0
ARC
8
DEFAULT_255_2_778
10
112.3210145
20
55.3880395
40
0.3336394
50
229.1767643
51
233.616205
0
ARC
8
DEFAULT_255_2_778
10
112.2900501
20
55.3539885
40
0.2876321
50
177.9326634
51
229.41014
0
ARC
8
DEFAULT_255_2_778
10
112.3333596
20
55.3561109
40
0.185638
50
177.4517345
51
226.809965
0
ARC
8
DEFAULT_255_2_778
10
112.3520147
20
55.3891278
40
0.2226599
50
229.1255351
51
272.9580981
0
ARC
8
DEFAULT_255_2_778
10
112.3769104
20
55.3921712
40
0.2258049
50
266.5965684
51
307.5930408
0
ARC
8
DEFAULT_255_2_778
10
112.4085043
20
55.337818
40
0.1636654
50
310.4383336
51
314.6899404
0
ARC
8
DEFAULT_255_2_778
10
112.3684117
20
55.3646534
40
0.2111589
50
317.303912
51
3.8045797
0
ARC
8
DEFAULT_255_2_778
10
112.3878165
20
55.390678
40
0.1916656
50
356.406403
51
47.0926663
0
ARC
8
DEFAULT_255_2_778
10
112.3637814
20
55.336306
40
0.2486132
50
51.5710886
51
89.2414068
0
ARC
8
DEFAULT_255_2_778
10
112.3364017
20
55.1190607
40
0.4668452
50
86.2330164
51
89.2386212
0
LINE
8
DEFAULT_255_2_778
10
112.2341052
20
55.5855646
11
112.2341052
21
55.7035646
0
LINE
8
DEFAULT_255_2_778
10
112.2341052
20
55.7035646
11
112.3426052
21
55.7035646
0
LINE
8
DEFAULT_255_2_778
10
112.1574052
20
55.9035646
11
112.0129052
21
55.9035646
0
LINE
8
DEFAULT_255_2_778
10
112.0026052
20
55.3643646
11
112.1479052
21
55.3643646
0
LINE
8
DEFAULT_255_2_778
10
112.3426052
20
55.5858646
11
112.2341052
21
55.5858646
0
LINE
8
DEFAULT_255_2_778
10
112.2341052
20
55.5858646
11
112.2341052
21
55.5855646
0
LINE
8
DEFAULT_255_2_778
10
105.1684865
20
56.1856
11
105.1684865
21
55.0426
0
LINE
8
DEFAULT_255_2_778
10
105.1684865
20
55.0426
11
105.0231865
21
55.0426
0
LINE
8
DEFAULT_255_2_778
10
105.0231865
20
55.0426
11
105.0231865
21
56.0059
0
LINE
8
DEFAULT_255_2_778
10
105.0231865
20
56.0059
11
104.7318865
21
55.8988
0
LINE
8
DEFAULT_255_2_778
10
104.7318865
20
55.8988
11
104.7318865
21
56.03
0
LINE
8
DEFAULT_255_2_778
10
104.7318865
20
56.03
11
105.1459865
21
56.1856
0
LINE
8
DEFAULT_255_2_778
10
105.1459865
20
56.1856
11
105.1686865
21
56.1856
0
LINE
8
DEFAULT_255_2_778
10
105.1686865
20
56.1856
11
105.1684865
21
56.1856
0
LINE
8
DEFAULT_255_2_778
10
106.0669865
20
56.1856
11
106.0669865
21
55.0426
0
LINE
8
DEFAULT_255_2_778
10
106.0669865
20
55.0426
11
105.9216865
21
55.0426
0
LINE
8
DEFAULT_255_2_778
10
105.9216865
20
55.0426
11
105.9216865
21
56.0059
0
LINE
8
DEFAULT_255_2_778
10
105.9216865
20
56.0059
11
105.6303865
21
55.8988
0
LINE
8
DEFAULT_255_2_778
10
105.6303865
20
55.8988
11
105.6303865
21
56.03
0
LINE
8
DEFAULT_255_2_778
10
105.6303865
20
56.03
11
106.0444865
21
56.1856
0
LINE
8
DEFAULT_255_2_778
10
106.0444865
20
56.1856
11
106.0671865
21
56.1856
0
LINE
8
DEFAULT_255_2_778
10
106.0671865
20
56.1856
11
106.0669865
21
56.1856
0
LINE
8
DEFAULT_255_2_778
10
101.4491865
20
56.142
11
101.4491865
21
54.999
0
LINE
8
DEFAULT_255_2_778
10
101.4491865
20
54.999
11
101.3038865
21
54.999
0
LINE
8
DEFAULT_255_2_778
10
101.3038865
20
54.999
11
101.3038865
21
55.9623
0
LINE
8
DEFAULT_255_2_778
10
101.3038865
20
55.9623
11
101.0125865
21
55.8552
0
LINE
8
DEFAULT_255_2_778
10
101.0125865
20
55.8552
11
101.0125865
21
55.9864
0
LINE
8
DEFAULT_255_2_778
10
101.0125865
20
55.9864
11
101.4266865
21
56.142
0
LINE
8
DEFAULT_255_2_778
10
101.4266865
20
56.142
11
101.4493865
21
56.142
0
LINE
8
DEFAULT_255_2_778
10
101.4493865
20
56.142
11
101.4491865
21
56.142
0
ARC
8
DEFAULT_255_2_778
10
101.5610144
20
55.4715395
40
1.0248887
50
348.9599816
51
0.6928247
0
ARC
8
DEFAULT_255_2_778
10
102.1220351
20
55.3562063
40
0.4522016
50
326.5019417
51
349.6906274
0
ARC
8
DEFAULT_255_2_778
10
102.257839
20
55.2821636
40
0.2983818
50
269.6746931
51
323.965112
0
ARC
8
DEFAULT_255_2_778
10
102.2282141
20
55.5004093
40
0.5173772
50
269.968335
51
273.0946457
0
ARC
8
DEFAULT_255_2_778
10
102.2141612
20
55.3341429
40
0.3513804
50
237.9683085
51
272.2453912
0
ARC
8
DEFAULT_255_2_778
10
102.1813914
20
55.2638844
40
0.2746015
50
215.677109
51
235.9891777
0
ARC
8
DEFAULT_255_2_778
10
102.336791
20
55.3625053
40
0.4584731
50
189.9758066
51
214.3622695
0
ARC
8
DEFAULT_255_2_778
10
102.8412447
20
55.468045
40
0.9737237
50
180.2184654
51
190.9500636
0
ARC
8
DEFAULT_255_2_778
10
102.8642118
20
55.669553
40
0.9967598
50
168.7512073
51
180.708238
0
ARC
8
DEFAULT_255_2_778
10
102.3213101
20
55.783062
40
0.4421787
50
146.0926208
51
169.4541479
0
ARC
8
DEFAULT_255_2_778
10
102.1941703
20
55.8523495
40
0.2983101
50
90.3434709
51
143.5140674
0
ARC
8
DEFAULT_255_2_778
10
102.225911
20
55.6297547
40
0.5219777
50
89.9542153
51
93.6829006
0
ARC
8
DEFAULT_255_2_778
10
102.2397123
20
55.7849714
40
0.367005
50
60.5898352
51
92.0899681
0
ARC
8
DEFAULT_255_2_778
10
102.2809781
20
55.8761224
40
0.2674822
50
36.2353857
51
58.7017609
0
ARC
8
DEFAULT_255_2_778
10
102.1400836
20
55.787083
40
0.4339102
50
10.2839172
51
34.72137
0
ARC
8
DEFAULT_255_2_778
10
101.601552
20
55.6730575
40
0.9842778
50
359.8937528
51
11.2183522
0
ARC
8
DEFAULT_255_2_778
10
101.615008
20
55.6938894
40
0.8265081
50
359.1641344
51
10.7645033
0
ARC
8
DEFAULT_255_2_778
10
102.1158033
20
55.7912677
40
0.3163447
50
10.3787531
51
29.9774528
0
ARC
8
DEFAULT_255_2_778
10
102.238699
20
55.8560505
40
0.1775993
50
31.6842263
51
93.9295413
0
ARC
8
DEFAULT_255_2_778
10
102.2144472
20
55.8585974
40
0.1750523
50
86.0426764
51
148.6647913
0
ARC
8
DEFAULT_255_2_778
10
102.3846553
20
55.7717909
40
0.3658593
50
150.9159356
51
173.3121892
0
ARC
8
DEFAULT_255_2_778
10
102.8907632
20
55.6906694
40
0.8782371
50
171.90102
51
179.8719443
0
ARC
8
DEFAULT_255_2_778
10
102.8324865
20
55.4496701
40
0.8200428
50
179.1781584
51
191.0324885
0
ARC
8
DEFAULT_255_2_778
10
102.3546995
20
55.3548544
40
0.3329455
50
190.7517404
51
209.8509498
0
ARC
8
DEFAULT_255_2_778
10
102.2190813
20
55.2783419
40
0.1772406
50
210.2202047
51
272.9258057
0
ARC
8
DEFAULT_255_2_778
10
102.2384686
20
55.2755385
40
0.1745129
50
266.603032
51
328.4138866
0
ARC
8
DEFAULT_255_2_778
10
102.078287
20
55.360922
40
0.3558615
50
330.2119154
51
352.7567583
0
ARC
8
DEFAULT_255_2_778
10
101.5505414
20
55.4500438
40
0.8909007
50
351.3500202
51
359.6776993
0
LINE
8
DEFAULT_255_2_778
10
102.5858281
20
55.6715323
11
102.5858281
21
55.4839323
0
LINE
8
DEFAULT_255_2_778
10
101.8675281
20
55.4643323
11
101.8675281
21
55.6572323
0
LINE
8
DEFAULT_255_2_778
10
102.5858281
20
55.6712323
11
102.5858281
21
55.6715323
0
LINE
8
DEFAULT_255_2_778
10
102.4414281
20
55.4450323
11
102.4414281
21
55.6818323
0
LINE
8
DEFAULT_255_2_778
10
102.0125281
20
55.6926323
11
102.0125281
21
55.4614323
0
LINE
8
DEFAULT_255_2_778
10
102.4414281
20
55.4450323
11
102.4414281
21
55.4450323
0
LINE
8
DEFAULT_255_2_778
10
108.1875865
20
56.1639
11
108.1875865
21
55.0209
0
LINE
8
DEFAULT_255_2_778
10
108.1875865
20
55.0209
11
108.0422865
21
55.0209
0
LINE
8
DEFAULT_255_2_778
10
108.0422865
20
55.0209
11
108.0422865
21
55.9842
0
LINE
8
DEFAULT_255_2_778
10
108.0422865
20
55.9842
11
107.7509865
21
55.8771
0
LINE
8
DEFAULT_255_2_778
10
107.7509865
20
55.8771
11
107.7509865
21
56.0083
0
LINE
8
DEFAULT_255_2_778
10
107.7509865
20
56.0083
11
108.1650865
21
56.1639
0
LINE
8
DEFAULT_255_2_778
10
108.1650865
20
56.1639
11
108.1877865
21
56.1639
0
LINE
8
DEFAULT_255_2_778
10
108.1877865
20
56.1639
11
108.1875865
21
56.1639
0
ARC
8
DEFAULT_255_2_778
10
108.030263
20
56.4365593
40
1.3089815
50
318.1066296
51
324.2635474
0
ARC
8
DEFAULT_255_2_778
10
108.685227
20
55.9633792
40
0.5009772
50
324.4407366
51
331.4424834
0
ARC
8
DEFAULT_255_2_778
10
108.8879315
20
55.8535352
40
0.2704247
50
331.3532966
51
359.7788906
0
ARC
8
DEFAULT_255_2_778
10
108.9548911
20
55.8603192
40
0.2036136
50
357.7968401
51
42.7727786
0
ARC
8
DEFAULT_255_2_778
10
108.9690249
20
55.8673873
40
0.1884904
50
44.1133549
51
92.5452931
0
ARC
8
DEFAULT_255_2_778
10
108.9473051
20
55.8331881
40
0.2229036
50
86.5666508
51
133.7180238
0
ARC
8
DEFAULT_255_2_778
10
108.9672278
20
55.8375283
40
0.2341828
50
137.9787701
51
183.3872909
0
ARC
8
DEFAULT_255_2_778
10
108.9244676
20
55.8372672
40
0.3357879
50
134.2747268
51
182.3170464
0
ARC
8
DEFAULT_255_2_778
10
108.9382025
20
55.8070147
40
0.3672106
50
89.359196
51
132.5136406
0
ARC
8
DEFAULT_255_2_778
10
108.9605541
20
55.5996489
40
0.5748429
50
89.9900279
51
91.8188013
0
ARC
8
DEFAULT_255_2_778
10
108.9740413
20
55.7792043
40
0.395514
50
61.1951992
51
91.9396843
0
ARC
8
DEFAULT_255_2_778
10
109.0168353
20
55.8748174
40
0.2912383
50
48.0417413
51
59.508966
0
ARC
8
DEFAULT_255_2_778
10
109.0200159
20
55.8819856
40
0.2837919
50
357.5777809
51
47.5516517
0
ARC
8
DEFAULT_255_2_778
10
108.9203517
20
55.8827705
40
0.3834155
50
331.2594151
51
358.0900352
0
ARC
8
DEFAULT_255_2_778
10
108.4510583
20
56.1223194
40
0.9102146
50
319.7427535
51
332.2426664
0
ARC
8
DEFAULT_255_2_778
10
107.9618187
20
56.5121697
40
1.5356207
50
317.2552041
51
320.43833
0
LINE
8
DEFAULT_255_2_778
10
109.3562542
20
55.1388917
11
109.3562542
21
55.0208917
0
LINE
8
DEFAULT_255_2_778
10
109.3562542
20
55.0208917
11
108.6109542
21
55.0208917
0
LINE
8
DEFAULT_255_2_778
10
108.6109542
20
55.0208917
11
108.6109542
21
55.1248917
0
LINE
8
DEFAULT_255_2_778
10
108.6109542
20
55.1248917
11
109.0046542
21
55.5624917
0
LINE
8
DEFAULT_255_2_778
10
108.7334542
20
55.8236917
11
108.5889542
21
55.8236917
0
LINE
8
DEFAULT_255_2_778
10
109.0895542
20
55.4698917
11
108.7847542
21
55.1394917
0
LINE
8
DEFAULT_255_2_778
10
108.7847542
20
55.1394917
11
109.3557542
21
55.1394917
0
LINE
8
DEFAULT_255_2_778
10
109.3557542
20
55.1394917
11
109.3562542
21
55.1388917
0
LINE
8
DEFAULT_255_2_778
10
125.2005865
20
56.2076
11
125.2005865
21
55.0646
0
LINE
8
DEFAULT_255_2_778
10
125.2005865
20
55.0646
11
125.0552865
21
55.0646
0
LINE
8
DEFAULT_255_2_778
10
125.0552865
20
55.0646
11
125.0552865
21
56.0279
0
LINE
8
DEFAULT_255_2_778
10
125.0552865
20
56.0279
11
124.7639865
21
55.9208
0
LINE
8
DEFAULT_255_2_778
10
124.7639865
20
55.9208
11
124.7639865
21
56.052
0
LINE
8
DEFAULT_255_2_778
10
124.7639865
20
56.052
11
125.1780865
21
56.2076
0
LINE
8
DEFAULT_255_2_778
10
125.1780865
20
56.2076
11
125.2007865
21
56.2076
0
LINE
8
DEFAULT_255_2_778
10
125.2007865
20
56.2076
11
125.2005865
21
56.2076
0
LINE
8
DEFAULT_255_2_778
10
126.3583604
20
56.2020219
11
126.3583604
21
56.1208219
0
LINE
8
DEFAULT_255_2_778
10
126.3583604
20
56.1208219
11
125.8871604
21
55.0646219
0
LINE
8
DEFAULT_255_2_778
10
125.8871604
20
55.0646219
11
125.7354604
21
55.0646219
0
LINE
8
DEFAULT_255_2_778
10
125.7354604
20
55.0646219
11
126.2051604
21
56.0832219
0
LINE
8
DEFAULT_255_2_778
10
126.2051604
20
56.0832219
11
125.5894604
21
56.0832219
0
LINE
8
DEFAULT_255_2_778
10
125.5894604
20
56.0832219
11
125.5894604
21
56.2020219
0
LINE
8
DEFAULT_255_2_778
10
125.5894604
20
56.2020219
11
126.3583604
21
56.2020219
0
LINE
8
DEFAULT_255_2_778
10
126.3583604
20
56.2020219
11
126.3583604
21
56.2020219
0
ARC
8
DEFAULT_255_2_778
10
101.941296
20
57.2586868
40
0.8258179
50
217.3769438
51
269.9969728
0
ARC
8
DEFAULT_255_2_778
10
101.9412799
20
57.2585435
40
0.8256745
50
269.9980899
51
322.6279623
0
ARC
8
DEFAULT_255_2_778
10
101.9401074
20
57.2523074
40
0.8228405
50
323.022605
51
349.4261371
0
ARC
8
DEFAULT_255_2_778
10
101.9366198
20
57.2528079
40
0.8263606
50
349.436401
51
358.6889274
0
ARC
8
DEFAULT_255_2_778
10
101.9334451
20
57.2529257
40
0.8295371
50
358.6858112
51
359.9992634
0
ARC
8
DEFAULT_255_2_778
10
101.9385278
20
57.2537312
40
0.8244548
50
359.9432816
51
42.9470989
0
ARC
8
DEFAULT_255_2_778
10
101.931682
20
57.2469263
40
0.8341022
50
42.9688619
51
47.5689876
0
ARC
8
DEFAULT_255_2_778
10
101.9387416
20
57.2559724
40
0.8226627
50
47.506808
51
77.6856884
0
ARC
8
DEFAULT_255_2_778
10
101.9374845
20
57.2503467
40
0.8284271
50
77.6837284
51
90.0033857
0
LINE
8
DEFAULT_255_2_778
10
101.9374355
20
58.0787738
11
101.9366492
21
58.0787734
0
ARC
8
DEFAULT_255_2_778
10
101.9366962
20
57.2553266
40
0.8234468
50
90.0032715
51
127.3211585
0
ARC
8
DEFAULT_255_2_778
10
101.9432266
20
57.2468989
40
0.8341081
50
127.3269078
51
132.0505842
0
ARC
8
DEFAULT_255_2_778
10
101.9392273
20
57.2589567
40
0.8224917
50
132.406307
51
165.1151957
0
ARC
8
DEFAULT_255_2_778
10
101.9457225
20
57.2570344
40
0.8292628
50
165.1021146
51
180.0006594
0
ARC
8
DEFAULT_255_2_778
10
101.9450875
20
57.2570174
40
0.8286278
50
179.9994865
51
181.262017
0
ARC
8
DEFAULT_255_2_778
10
101.9391059
20
57.2563904
40
0.8226338
50
181.2275318
51
212.6665131
0
ARC
8
DEFAULT_255_2_778
10
101.9491684
20
57.2626813
40
0.8345003
50
212.6572196
51
217.2667633
0
LINE
8
DEFAULT_255_2_778
10
101.2850523
20
56.757369
11
101.2850523
21
56.757369
0
ARC
8
DEFAULT_255_2_778
10
105.341496
20
57.2586868
40
0.8258179
50
217.3769438
51
269.9969728
0
ARC
8
DEFAULT_255_2_778
10
105.3414799
20
57.2585435
40
0.8256745
50
269.9980899
51
322.6279623
0
ARC
8
DEFAULT_255_2_778
10
105.3403074
20
57.2523074
40
0.8228405
50
323.022605
51
349.4261371
0
ARC
8
DEFAULT_255_2_778
10
105.3368198
20
57.2528079
40
0.8263606
50
349.436401
51
358.6889274
0
ARC
8
DEFAULT_255_2_778
10
105.3336451
20
57.2529257
40
0.8295371
50
358.6858112
51
359.9992634
0
ARC
8
DEFAULT_255_2_778
10
105.3387278
20
57.2537312
40
0.8244548
50
359.9432816
51
42.9470989
0
ARC
8
DEFAULT_255_2_778
10
105.331882
20
57.2469263
40
0.8341022
50
42.9688619
51
47.5689876
0
ARC
8
DEFAULT_255_2_778
10
105.3389416
20
57.2559724
40
0.8226627
50
47.506808
51
77.6856884
0
ARC
8
DEFAULT_255_2_778
10
105.3376845
20
57.2503467
40
0.8284271
50
77.6837284
51
90.0033857
0
LINE
8
DEFAULT_255_2_778
10
105.3376355
20
58.0787738
11
105.3368492
21
58.0787734
0
ARC
8
DEFAULT_255_2_778
10
105.3368962
20
57.2553266
40
0.8234468
50
90.0032715
51
127.3211585
0
ARC
8
DEFAULT_255_2_778
10
105.3434266
20
57.2468989
40
0.8341081
50
127.3269078
51
132.0505842
0
ARC
8
DEFAULT_255_2_778
10
105.3394273
20
57.2589567
40
0.8224917
50
132.406307
51
165.1151957
0
ARC
8
DEFAULT_255_2_778
10
105.3459225
20
57.2570344
40
0.8292628
50
165.1021146
51
180.0006594
0
ARC
8
DEFAULT_255_2_778
10
105.3452875
20
57.2570174
40
0.8286278
50
179.9994865
51
181.262017
0
ARC
8
DEFAULT_255_2_778
10
105.3393059
20
57.2563904
40
0.8226338
50
181.2275318
51
212.6665131
0
ARC
8
DEFAULT_255_2_778
10
105.3493684
20
57.2626813
40
0.8345003
50
212.6572196
51
217.2667633
0
LINE
8
DEFAULT_255_2_778
10
104.6852523
20
56.757369
11
104.6852523
21
56.757369
0
ARC
8
DEFAULT_255_2_778
10
108.7413228
20
57.258543
40
0.825674
50
217.3720175
51
270.0019173
0
ARC
8
DEFAULT_255_2_778
10
108.741378
20
57.2585435
40
0.8256745
50
269.9980899
51
322.6279623
0
ARC
8
DEFAULT_255_2_778
10
108.7402055
20
57.2523074
40
0.8228405
50
323.022605
51
349.4261371
0
ARC
8
DEFAULT_255_2_778
10
108.7367179
20
57.2528079
40
0.8263606
50
349.436401
51
358.6889274
0
ARC
8
DEFAULT_255_2_778
10
108.7335433
20
57.2529257
40
0.8295371
50
358.6858112
51
359.9992634
0
ARC
8
DEFAULT_255_2_778
10
108.7386259
20
57.2537312
40
0.8244548
50
359.9432816
51
42.9470989
0
ARC
8
DEFAULT_255_2_778
10
108.7317801
20
57.2469263
40
0.8341022
50
42.9688619
51
47.5689876
0
ARC
8
DEFAULT_255_2_778
10
108.7388397
20
57.2559724
40
0.8226627
50
47.506808
51
77.6856884
0
ARC
8
DEFAULT_255_2_778
10
108.7375826
20
57.2503467
40
0.8284271
50
77.6837284
51
90.0033857
0
LINE
8
DEFAULT_255_2_778
10
108.7375337
20
58.0787738
11
108.7367473
21
58.0787734
0
ARC
8
DEFAULT_255_2_778
10
108.7367944
20
57.2553266
40
0.8234468
50
90.0032715
51
127.3211585
0
ARC
8
DEFAULT_255_2_778
10
108.7433247
20
57.2468989
40
0.8341081
50
127.3269078
51
132.0505842
0
ARC
8
DEFAULT_255_2_778
10
108.7393254
20
57.2589567
40
0.8224917
50
132.406307
51
165.1151957
0
ARC
8
DEFAULT_255_2_778
10
108.7458206
20
57.2570344
40
0.8292628
50
165.1021146
51
180.0006594
0
ARC
8
DEFAULT_255_2_778
10
108.7451857
20
57.2570174
40
0.8286278
50
179.9994865
51
181.262017
0
ARC
8
DEFAULT_255_2_778
10
108.7392041
20
57.2563904
40
0.8226338
50
181.2275318
51
212.6665131
0
ARC
8
DEFAULT_255_2_778
10
108.7492665
20
57.2626813
40
0.8345003
50
212.6572196
51
217.2667633
0
LINE
8
DEFAULT_255_2_778
10
108.0851505
20
56.757369
11
108.0851505
21
56.757369
0
ARC
8
DEFAULT_255_2_778
10
112.141296
20
57.2586868
40
0.8258179
50
217.3769438
51
269.9969728
0
ARC
8
DEFAULT_255_2_778
10
112.1412799
20
57.2585435
40
0.8256745
50
269.9980899
51
322.6279623
0
ARC
8
DEFAULT_255_2_778
10
112.1401074
20
57.2523074
40
0.8228405
50
323.022605
51
349.4261371
0
ARC
8
DEFAULT_255_2_778
10
112.1366198
20
57.2528079
40
0.8263606
50
349.436401
51
358.6889274
0
ARC
8
DEFAULT_255_2_778
10
112.1334451
20
57.2529257
40
0.8295371
50
358.6858112
51
359.9992634
0
ARC
8
DEFAULT_255_2_778
10
112.1385278
20
57.2537312
40
0.8244548
50
359.9432816
51
42.9470989
0
ARC
8
DEFAULT_255_2_778
10
112.131682
20
57.2469263
40
0.8341022
50
42.9688619
51
47.5689876
0
ARC
8
DEFAULT_255_2_778
10
112.1387416
20
57.2559724
40
0.8226627
50
47.506808
51
77.6856884
0
ARC
8
DEFAULT_255_2_778
10
112.1374845
20
57.2503467
40
0.8284271
50
77.6837284
51
90.0033857
0
LINE
8
DEFAULT_255_2_778
10
112.1374355
20
58.0787738
11
112.1366492
21
58.0787734
0
ARC
8
DEFAULT_255_2_778
10
112.1366962
20
57.2553266
40
0.8234468
50
90.0032715
51
127.3211585
0
ARC
8
DEFAULT_255_2_778
10
112.1432266
20
57.2468989
40
0.8341081
50
127.3269078
51
132.0505842
0
ARC
8
DEFAULT_255_2_778
10
112.1392273
20
57.2589567
40
0.8224917
50
132.406307
51
165.1151957
0
ARC
8
DEFAULT_255_2_778
10
112.1457225
20
57.2570344
40
0.8292628
50
165.1021146
51
180.0006594
0
ARC
8
DEFAULT_255_2_778
10
112.1450875
20
57.2570174
40
0.8286278
50
179.9994865
51
181.262017
0
ARC
8
DEFAULT_255_2_778
10
112.1391059
20
57.2563904
40
0.8226338
50
181.2275318
51
212.6665131
0
ARC
8
DEFAULT_255_2_778
10
112.1491684
20
57.2626813
40
0.8345003
50
212.6572196
51
217.2667633
0
LINE
8
DEFAULT_255_2_778
10
111.4850523
20
56.757369
11
111.4850523
21
56.757369
0
ARC
8
DEFAULT_255_2_778
10
115.5414228
20
57.258543
40
0.825674
50
217.3720175
51
270.0019173
0
ARC
8
DEFAULT_255_2_778
10
115.541478
20
57.2585435
40
0.8256745
50
269.9980899
51
322.6279623
0
ARC
8
DEFAULT_255_2_778
10
115.5403055
20
57.2523074
40
0.8228405
50
323.022605
51
349.4261371
0
ARC
8
DEFAULT_255_2_778
10
115.5368179
20
57.2528079
40
0.8263606
50
349.436401
51
358.6889274
0
ARC
8
DEFAULT_255_2_778
10
115.5336433
20
57.2529257
40
0.8295371
50
358.6858112
51
359.9992634
0
ARC
8
DEFAULT_255_2_778
10
115.5387259
20
57.2537312
40
0.8244548
50
359.9432816
51
42.9470989
0
ARC
8
DEFAULT_255_2_778
10
115.5318801
20
57.2469263
40
0.8341022
50
42.9688619
51
47.5689876
0
ARC
8
DEFAULT_255_2_778
10
115.5389397
20
57.2559724
40
0.8226627
50
47.506808
51
77.6856884
0
ARC
8
DEFAULT_255_2_778
10
115.5376826
20
57.2503467
40
0.8284271
50
77.6837284
51
90.0033857
0
LINE
8
DEFAULT_255_2_778
10
115.5376337
20
58.0787738
11
115.5368473
21
58.0787734
0
ARC
8
DEFAULT_255_2_778
10
115.5368944
20
57.2553266
40
0.8234468
50
90.0032715
51
127.3211585
0
ARC
8
DEFAULT_255_2_778
10
115.5434247
20
57.2468989
40
0.8341081
50
127.3269078
51
132.0505842
0
ARC
8
DEFAULT_255_2_778
10
115.5394254
20
57.2589567
40
0.8224917
50
132.406307
51
165.1151957
0
ARC
8
DEFAULT_255_2_778
10
115.5459206
20
57.2570344
40
0.8292628
50
165.1021146
51
180.0006594
0
ARC
8
DEFAULT_255_2_778
10
115.5452857
20
57.2570174
40
0.8286278
50
179.9994865
51
181.262017
0
ARC
8
DEFAULT_255_2_778
10
115.5393041
20
57.2563904
40
0.8226338
50
181.2275318
51
212.6665131
0
ARC
8
DEFAULT_255_2_778
10
115.5493665
20
57.2626813
40
0.8345003
50
212.6572196
51
217.2667633
0
LINE
8
DEFAULT_255_2_778
10
114.8852505
20
56.757369
11
114.8852505
21
56.757369
0
ARC
8
DEFAULT_255_2_778
10
118.941396
20
57.2586868
40
0.8258179
50
217.3769438
51
269.9969728
0
ARC
8
DEFAULT_255_2_778
10
118.9413799
20
57.2585435
40
0.8256745
50
269.9980899
51
322.6279623
0
ARC
8
DEFAULT_255_2_778
10
118.9402074
20
57.2523074
40
0.8228405
50
323.022605
51
349.4261371
0
ARC
8
DEFAULT_255_2_778
10
118.9367198
20
57.2528079
40
0.8263606
50
349.436401
51
358.6889274
0
ARC
8
DEFAULT_255_2_778
10
118.9335451
20
57.2529257
40
0.8295371
50
358.6858112
51
359.9992634
0
ARC
8
DEFAULT_255_2_778
10
118.9386278
20
57.2537312
40
0.8244548
50
359.9432816
51
42.9470989
0
ARC
8
DEFAULT_255_2_778
10
118.931782
20
57.2469263
40
0.8341022
50
42.9688619
51
47.5689876
0
ARC
8
DEFAULT_255_2_778
10
118.9388416
20
57.2559724
40
0.8226627
50
47.506808
51
77.6856884
0
ARC
8
DEFAULT_255_2_778
10
118.9375845
20
57.2503467
40
0.8284271
50
77.6837284
51
90.0033857
0
LINE
8
DEFAULT_255_2_778
10
118.9375355
20
58.0787738
11
118.9367492
21
58.0787734
0
ARC
8
DEFAULT_255_2_778
10
118.9367962
20
57.2553266
40
0.8234468
50
90.0032715
51
127.3211585
0
ARC
8
DEFAULT_255_2_778
10
118.9433266
20
57.2468989
40
0.8341081
50
127.3269078
51
132.0505842
0
ARC
8
DEFAULT_255_2_778
10
118.9393273
20
57.2589567
40
0.8224917
50
132.406307
51
165.1151957
0
ARC
8
DEFAULT_255_2_778
10
118.9458225
20
57.2570344
40
0.8292628
50
165.1021146
51
180.0006594
0
ARC
8
DEFAULT_255_2_778
10
118.9451875
20
57.2570174
40
0.8286278
50
179.9994865
51
181.262017
0
ARC
8
DEFAULT_255_2_778
10
118.9392059
20
57.2563904
40
0.8226338
50
181.2275318
51
212.6665131
0
ARC
8
DEFAULT_255_2_778
10
118.9492684
20
57.2626813
40
0.8345003
50
212.6572196
51
217.2667633
0
LINE
8
DEFAULT_255_2_778
10
118.2851523
20
56.757369
11
118.2851523
21
56.757369
0
ARC
8
DEFAULT_255_2_778
10
122.3414247
20
57.258543
40
0.825674
50
217.3720175
51
270.0019173
0
ARC
8
DEFAULT_255_2_778
10
122.3414799
20
57.2585435
40
0.8256745
50
269.9980899
51
322.6279623
0
ARC
8
DEFAULT_255_2_778
10
122.3403074
20
57.2523074
40
0.8228405
50
323.022605
51
349.4261371
0
ARC
8
DEFAULT_255_2_778
10
122.3368198
20
57.2528079
40
0.8263606
50
349.436401
51
358.6889274
0
ARC
8
DEFAULT_255_2_778
10
122.3336451
20
57.2529257
40
0.8295371
50
358.6858112
51
359.9992634
0
ARC
8
DEFAULT_255_2_778
10
122.3387278
20
57.2537312
40
0.8244548
50
359.9432816
51
42.9470989
0
ARC
8
DEFAULT_255_2_778
10
122.331882
20
57.2469263
40
0.8341022
50
42.9688619
51
47.5689876
0
ARC
8
DEFAULT_255_2_778
10
122.3389384
20
57.2559451
40
0.822685
50
47.5079285
51
77.6875244
0
ARC
8
DEFAULT_255_2_778
10
122.337646
20
57.2502144
40
0.8285594
50
77.6847175
51
90.0033315
0
LINE
8
DEFAULT_255_2_778
10
122.3375979
20
58.0787738
11
122.3369947
21
58.0787735
0
ARC
8
DEFAULT_255_2_778
10
122.3368274
20
57.2554894
40
0.8232842
50
89.9883552
51
127.3235556
0
ARC
8
DEFAULT_255_2_778
10
122.343105
20
57.2474543
40
0.8334803
50
127.3318279
51
132.0597418
0
ARC
8
DEFAULT_255_2_778
10
122.3394273
20
57.2589567
40
0.8224917
50
132.406307
51
165.1151957
0
ARC
8
DEFAULT_255_2_778
10
122.3459225
20
57.2570344
40
0.8292628
50
165.1021146
51
180.0006594
0
ARC
8
DEFAULT_255_2_778
10
122.3452875
20
57.2570174
40
0.8286278
50
179.9994865
51
181.262017
0
ARC
8
DEFAULT_255_2_778
10
122.3393059
20
57.2563904
40
0.8226338
50
181.2275318
51
212.6665131
0
ARC
8
DEFAULT_255_2_778
10
122.3493684
20
57.2626813
40
0.8345003
50
212.6572196
51
217.2667633
0
LINE
8
DEFAULT_255_2_778
10
121.6852523
20
56.757369
11
121.6852523
21
56.757369
0
ARC
8
DEFAULT_255_2_778
10
125.741396
20
57.2586868
40
0.8258179
50
217.3769438
51
269.9969728
0
ARC
8
DEFAULT_255_2_778
10
125.7413799
20
57.2585435
40
0.8256745
50
269.9980899
51
322.6279623
0
ARC
8
DEFAULT_255_2_778
10
125.7402074
20
57.2523074
40
0.8228405
50
323.022605
51
349.4261371
0
ARC
8
DEFAULT_255_2_778
10
125.7367198
20
57.2528079
40
0.8263606
50
349.436401
51
358.6889274
0
ARC
8
DEFAULT_255_2_778
10
125.7335451
20
57.2529257
40
0.8295371
50
358.6858112
51
359.9992634
0
ARC
8
DEFAULT_255_2_778
10
125.7386278
20
57.2537312
40
0.8244548
50
359.9432816
51
42.9470989
0
ARC
8
DEFAULT_255_2_778
10
125.731782
20
57.2469263
40
0.8341022
50
42.9688619
51
47.5689876
0
ARC
8
DEFAULT_255_2_778
10
125.7388416
20
57.2559724
40
0.8226627
50
47.506808
51
77.6856884
0
ARC
8
DEFAULT_255_2_778
10
125.7375845
20
57.2503467
40
0.8284271
50
77.6837284
51
90.0033857
0
LINE
8
DEFAULT_255_2_778
10
125.7375355
20
58.0787738
11
125.7367492
21
58.0787734
0
ARC
8
DEFAULT_255_2_778
10
125.7367962
20
57.2553266
40
0.8234468
50
90.0032715
51
127.3211585
0
ARC
8
DEFAULT_255_2_778
10
125.7433266
20
57.2468989
40
0.8341081
50
127.3269078
51
132.0505842
0
ARC
8
DEFAULT_255_2_778
10
125.7393273
20
57.2589567
40
0.8224917
50
132.406307
51
165.1151957
0
ARC
8
DEFAULT_255_2_778
10
125.7458225
20
57.2570344
40
0.8292628
50
165.1021146
51
180.0006594
0
ARC
8
DEFAULT_255_2_778
10
125.7451875
20
57.2570174
40
0.8286278
50
179.9994865
51
181.262017
0
ARC
8
DEFAULT_255_2_778
10
125.7392059
20
57.2563904
40
0.8226338
50
181.2275318
51
212.6665131
0
ARC
8
DEFAULT_255_2_778
10
125.7492684
20
57.2626813
40
0.8345003
50
212.6572196
51
217.2667633
0
LINE
8
DEFAULT_255_2_778
10
125.0851523
20
56.757369
11
125.0851523
21
56.757369
0
ARC
8
DEFAULT_255_2_778
10
111.8683133
20
52.5322465
40
0.6425222
50
69.7090081
51
91.1672022
0
ARC
8
DEFAULT_255_2_778
10
111.9386285
20
52.7396624
40
0.4236355
50
48.2127644
51
68.9005176
0
ARC
8
DEFAULT_255_2_778
10
111.9497809
20
52.7564846
40
0.4036713
50
357.6930164
51
47.8019568
0
ARC
8
DEFAULT_255_2_778
10
111.9048106
20
52.726389
40
0.4485282
50
331.0891857
51
1.7690409
0
ARC
8
DEFAULT_255_2_778
10
111.9945432
20
52.6874963
40
0.3513001
50
310.7429483
51
329.5664434
0
ARC
8
DEFAULT_255_2_778
10
111.9307395
20
52.777476
40
0.4612323
50
278.162635
51
309.4526344
0
ARC
8
DEFAULT_255_2_778
10
111.8582271
20
53.1434088
40
0.833989
50
269.6494784
51
279.5245101
0
ARC
8
DEFAULT_255_2_778
10
111.8677618
20
52.8637614
40
0.4013219
50
268.2098577
51
293.6504428
0
ARC
8
DEFAULT_255_2_778
10
111.9244496
20
52.7171796
40
0.2444074
50
295.2624698
51
311.2894376
0
ARC
8
DEFAULT_255_2_778
10
111.9108321
20
52.7192861
40
0.2551291
50
313.2755423
51
2.3498393
0
ARC
8
DEFAULT_255_2_778
10
111.7285994
20
52.7380157
40
0.4372255
50
358.9163221
51
0.0025801
0
ARC
8
DEFAULT_255_2_778
10
111.8987733
20
52.7501529
40
0.2673265
50
357.4019702
51
45.6260447
0
ARC
8
DEFAULT_255_2_778
10
111.8794563
20
52.7101463
40
0.3097562
50
48.2480928
51
90.0878869
0
ARC
8
DEFAULT_255_2_778
10
111.8555285
20
52.5126769
40
0.5077671
50
87.3526916
51
88.8155066
0
LINE
8
DEFAULT_255_2_778
10
111.853425
20
52.3094354
11
111.518425
21
52.3094354
0
LINE
8
DEFAULT_255_2_778
10
111.518425
20
52.3094354
11
111.518425
21
51.7527354
0
LINE
8
DEFAULT_255_2_778
10
111.518425
20
51.7527354
11
111.330825
21
51.7527354
0
LINE
8
DEFAULT_255_2_778
10
111.330825
20
51.7527354
11
111.330825
21
53.1746354
0
LINE
8
DEFAULT_255_2_778
10
111.330825
20
53.1746354
11
111.855225
21
53.1746354
0
LINE
8
DEFAULT_255_2_778
10
111.853125
20
52.3094354
11
111.853425
21
52.3094354
0
LINE
8
DEFAULT_255_2_778
10
111.518425
20
53.0203354
11
111.518425
21
52.4626354
0
LINE
8
DEFAULT_255_2_778
10
111.518425
20
52.4626354
11
111.855225
21
52.4626354
0
LINE
8
DEFAULT_255_2_778
10
111.866025
20
53.0203354
11
111.518425
21
53.0203354
0
LINE
8
DEFAULT_255_2_778
10
111.518425
20
53.0203354
11
111.518425
21
53.0203354
0
ARC
8
DEFAULT_255_2_778
10
112.7466133
20
52.4047424
40
0.9396784
50
342.5881704
51
0.78686
0
ARC
8
DEFAULT_255_2_778
10
112.9698563
20
52.3441166
40
0.7085799
50
335.7284779
51
341.8640555
0
ARC
8
DEFAULT_255_2_778
10
113.1251974
20
52.2612963
40
0.5330527
50
303.1390909
51
336.9802403
0
ARC
8
DEFAULT_255_2_778
10
113.1279521
20
52.281092
40
0.5482798
50
268.7303139
51
301.7670292
0
ARC
8
DEFAULT_255_2_778
10
113.1059409
20
52.276221
40
0.5433637
50
237.9752619
51
271.0399907
0
ARC
8
DEFAULT_255_2_778
10
113.1135286
20
52.2728371
40
0.5445805
50
204.0448519
51
237.1096132
0
ARC
8
DEFAULT_255_2_778
10
113.3681743
20
52.3905031
40
0.8250812
50
181.5850092
51
204.3017853
0
ARC
8
DEFAULT_255_2_778
10
113.6581994
20
52.4164039
40
1.115855
50
180.5882925
51
182.5025549
0
ARC
8
DEFAULT_255_2_778
10
113.4435445
20
52.521093
40
0.9012417
50
160.3124237
51
180.8548574
0
ARC
8
DEFAULT_255_2_778
10
113.2663268
20
52.5742036
40
0.7165566
50
155.6324301
51
159.5370249
0
ARC
8
DEFAULT_255_2_778
10
113.1126513
20
52.6568298
40
0.5426097
50
123.2422864
51
156.8849473
0
ARC
8
DEFAULT_255_2_778
10
113.1041812
20
52.6535262
40
0.5408027
50
89.0017319
51
122.2998532
0
ARC
8
DEFAULT_255_2_778
10
113.1246327
20
52.6427343
40
0.5516228
50
58.2379319
51
91.1456946
0
ARC
8
DEFAULT_255_2_778
10
113.1263839
20
52.6661925
40
0.5308669
50
22.8743778
51
57.06582
0
ARC
8
DEFAULT_255_2_778
10
112.8360308
20
52.5359139
40
0.8490577
50
1.6571595
51
23.3582071
0
ARC
8
DEFAULT_255_2_778
10
112.5116514
20
52.5080645
40
1.1742518
50
359.9796207
51
2.5577783
0
ARC
8
DEFAULT_255_2_778
10
112.6131169
20
52.52223
40
0.8866741
50
359.1933283
51
13.771085
0
ARC
8
DEFAULT_255_2_778
10
113.0193649
20
52.6227091
40
0.4681864
50
13.6626345
51
36.0067583
0
ARC
8
DEFAULT_255_2_778
10
113.1288965
20
52.6983597
40
0.3351227
50
36.5528728
51
92.5642688
0
ARC
8
DEFAULT_255_2_778
10
113.1013045
20
52.7022909
40
0.3310957
50
87.8192918
51
143.7766357
0
ARC
8
DEFAULT_255_2_778
10
113.2552592
20
52.5951126
40
0.518649
50
144.275344
51
171.4705441
0
ARC
8
DEFAULT_255_2_778
10
113.6544199
20
52.5165265
40
0.9252357
50
170.3239611
51
179.6333748
0
ARC
8
DEFAULT_255_2_778
10
113.5585181
20
52.4053061
40
0.8294113
50
179.1267394
51
195.4566774
0
ARC
8
DEFAULT_255_2_778
10
113.2258197
20
52.3157797
40
0.4848921
50
195.7377839
51
215.711402
0
ARC
8
DEFAULT_255_2_778
10
113.1035309
20
52.2248523
40
0.332532
50
215.2892981
51
272.1150108
0
ARC
8
DEFAULT_255_2_778
10
113.1318959
20
52.2234837
40
0.3313279
50
267.21602
51
323.1430444
0
ARC
8
DEFAULT_255_2_778
10
112.9892987
20
52.3157936
40
0.5009303
50
324.4782091
51
350.3499189
0
ARC
8
DEFAULT_255_2_778
10
112.5415117
20
52.4092782
40
0.9582045
50
349.327434
51
359.6991518
0
LINE
8
DEFAULT_255_2_778
10
113.6862031
20
52.5076469
11
113.6862031
21
52.4176469
0
LINE
8
DEFAULT_255_2_778
10
112.5424031
20
52.4049469
11
112.5424031
21
52.5076469
0
LINE
8
DEFAULT_255_2_778
10
113.6859031
20
52.5076469
11
113.6862031
21
52.5076469
0
LINE
8
DEFAULT_255_2_778
10
113.4997031
20
52.4042469
11
113.4997031
21
52.5097469
0
LINE
8
DEFAULT_255_2_778
10
112.7292031
20
52.5224469
11
112.7292031
21
52.4179469
0
LINE
8
DEFAULT_255_2_778
10
113.4997031
20
52.4042469
11
113.4997031
21
52.4042469
0
LINE
8
DEFAULT_255_2_778
10
114.049749
20
53.1746677
11
114.274349
21
52.2009677
0
LINE
8
DEFAULT_255_2_778
10
114.274349
20
52.2009677
11
114.301549
21
52.0133677
0
LINE
8
DEFAULT_255_2_778
10
114.301549
20
52.0133677
11
114.341549
21
52.1824677
0
LINE
8
DEFAULT_255_2_778
10
114.341549
20
52.1824677
11
114.622749
21
53.1746677
0
LINE
8
DEFAULT_255_2_778
10
114.622749
20
53.1746677
11
114.781049
21
53.1746677
0
LINE
8
DEFAULT_255_2_778
10
114.781049
20
53.1746677
11
115.055349
21
52.1824677
0
LINE
8
DEFAULT_255_2_778
10
115.055349
20
52.1824677
11
115.094549
21
52.0104677
0
LINE
8
DEFAULT_255_2_778
10
115.094549
20
52.0104677
11
115.124749
21
52.2017677
0
LINE
8
DEFAULT_255_2_778
10
115.124749
20
52.2017677
11
115.345349
21
53.1743677
0
LINE
8
DEFAULT_255_2_778
10
115.345349
20
53.1743677
11
115.533749
21
53.1743677
0
LINE
8
DEFAULT_255_2_778
10
115.533749
20
53.1743677
11
115.189049
21
51.7525677
0
LINE
8
DEFAULT_255_2_778
10
115.189049
20
51.7525677
11
115.018049
21
51.7525677
0
LINE
8
DEFAULT_255_2_778
10
115.018049
20
51.7525677
11
114.725249
21
52.7886677
0
LINE
8
DEFAULT_255_2_778
10
114.725249
20
52.7886677
11
114.702649
21
52.8971677
0
LINE
8
DEFAULT_255_2_778
10
114.702649
20
52.8971677
11
114.680249
21
52.7886677
0
LINE
8
DEFAULT_255_2_778
10
114.680249
20
52.7886677
11
114.376449
21
51.7525677
0
LINE
8
DEFAULT_255_2_778
10
114.376449
20
51.7525677
11
114.205549
21
51.7525677
0
LINE
8
DEFAULT_255_2_778
10
114.205549
20
51.7525677
11
113.861849
21
53.1743677
0
LINE
8
DEFAULT_255_2_778
10
113.861849
20
53.1743677
11
114.049449
21
53.1743677
0
LINE
8
DEFAULT_255_2_778
10
114.049449
20
53.1743677
11
114.049749
21
53.1746677
0
LINE
8
DEFAULT_255_2_778
10
116.5457695
20
52.5631354
11
116.5457695
21
52.4100354
0
LINE
8
DEFAULT_255_2_778
10
116.5457695
20
52.4100354
11
115.9295695
21
52.4100354
0
LINE
8
DEFAULT_255_2_778
10
115.9295695
20
52.4100354
11
115.9295695
21
51.9059354
0
LINE
8
DEFAULT_255_2_778
10
115.9295695
20
51.9059354
11
116.6452695
21
51.9059354
0
LINE
8
DEFAULT_255_2_778
10
116.6452695
20
51.9059354
11
116.6452695
21
51.7527354
0
LINE
8
DEFAULT_255_2_778
10
116.6452695
20
51.7527354
11
115.7419695
21
51.7527354
0
LINE
8
DEFAULT_255_2_778
10
115.7419695
20
51.7527354
11
115.7419695
21
53.1746354
0
LINE
8
DEFAULT_255_2_778
10
115.7419695
20
53.1746354
11
116.6354695
21
53.1746354
0
LINE
8
DEFAULT_255_2_778
10
116.6354695
20
53.1746354
11
116.6354695
21
53.0203354
0
LINE
8
DEFAULT_255_2_778
10
116.6354695
20
53.0203354
11
115.9292695
21
53.0203354
0
LINE
8
DEFAULT_255_2_778
10
115.9292695
20
53.0203354
11
115.9292695
21
52.5634354
0
LINE
8
DEFAULT_255_2_778
10
115.9292695
20
52.5634354
11
116.5454695
21
52.5634354
0
LINE
8
DEFAULT_255_2_778
10
116.5454695
20
52.5634354
11
116.5457695
21
52.5631354
0
ARC
8
DEFAULT_255_2_778
10
117.3615475
20
52.4383306
40
0.7364146
50
73.3893949
51
90.9895029
0
ARC
8
DEFAULT_255_2_778
10
117.4490056
20
52.7396065
40
0.4227161
50
50.4043617
51
73.075476
0
ARC
8
DEFAULT_255_2_778
10
117.4724419
20
52.7841277
40
0.3736148
50
2.0894269
51
48.8219722
0
ARC
8
DEFAULT_255_2_778
10
117.2292346
20
52.7477714
40
0.618596
50
359.9318316
51
4.6341351
0
ARC
8
DEFAULT_255_2_778
10
117.4645682
20
52.7388856
40
0.3833487
50
324.3643093
51
1.2181745
0
ARC
8
DEFAULT_255_2_778
10
117.4342058
20
52.7701711
40
0.4263234
50
289.4735926
51
323.3244514
0
ARC
8
DEFAULT_255_2_778
10
117.3680105
20
52.825083
40
0.3439198
50
267.7203204
51
302.1159713
0
ARC
8
DEFAULT_255_2_778
10
117.4047471
20
52.750273
40
0.2611709
50
304.0154036
51
311.1570587
0
ARC
8
DEFAULT_255_2_778
10
117.4150438
20
52.7368608
40
0.2442984
50
311.4090681
51
2.386967
0
ARC
8
DEFAULT_255_2_778
10
117.3936776
20
52.7615689
40
0.2658501
50
356.8661982
51
40.5218924
0
ARC
8
DEFAULT_255_2_778
10
117.4325429
20
52.784006
40
0.2218798
50
42.6389435
51
48.1316194
0
ARC
8
DEFAULT_255_2_778
10
117.3899842
20
52.7197668
40
0.2983316
50
50.2796758
51
86.7636805
0
ARC
8
DEFAULT_255_2_778
10
117.3521697
20
52.4687685
40
0.5515687
50
84.3130502
51
89.8482796
0
LINE
8
DEFAULT_255_2_778
10
117.7089302
20
51.7527354
11
117.4004302
21
52.3279354
0
LINE
8
DEFAULT_255_2_778
10
117.4004302
20
52.3279354
11
117.0665302
21
52.3279354
0
LINE
8
DEFAULT_255_2_778
10
117.0665302
20
52.3279354
11
117.0665302
21
51.7527354
0
LINE
8
DEFAULT_255_2_778
10
117.0665302
20
51.7527354
11
116.8781302
21
51.7527354
0
LINE
8
DEFAULT_255_2_778
10
116.8781302
20
51.7527354
11
116.8781302
21
53.1746354
0
LINE
8
DEFAULT_255_2_778
10
116.8781302
20
53.1746354
11
117.3488302
21
53.1746354
0
LINE
8
DEFAULT_255_2_778
10
117.5763302
20
52.3682354
11
117.9102302
21
51.7646354
0
LINE
8
DEFAULT_255_2_778
10
117.9102302
20
51.7646354
11
117.9102302
21
51.7530354
0
LINE
8
DEFAULT_255_2_778
10
117.9102302
20
51.7530354
11
117.7092302
21
51.7530354
0
LINE
8
DEFAULT_255_2_778
10
117.7092302
20
51.7530354
11
117.7089302
21
51.7527354
0
LINE
8
DEFAULT_255_2_778
10
117.0662302
20
53.0203354
11
117.0662302
21
52.4814354
0
LINE
8
DEFAULT_255_2_778
10
117.0662302
20
52.4814354
11
117.3543302
21
52.4814354
0
LINE
8
DEFAULT_255_2_778
10
117.3536302
20
53.0203354
11
117.0665302
21
53.0203354
0
LINE
8
DEFAULT_255_2_778
10
117.0665302
20
53.0203354
11
117.0662302
21
53.0203354
0
ARC
8
DEFAULT_255_2_778
10
114.7715608
20
47.4382306
40
0.7364146
50
73.3893949
51
90.9895029
0
ARC
8
DEFAULT_255_2_778
10
114.8590189
20
47.7395065
40
0.4227161
50
50.4043617
51
73.075476
0
ARC
8
DEFAULT_255_2_778
10
114.8824552
20
47.7840277
40
0.3736148
50
2.0894269
51
48.8219722
0
ARC
8
DEFAULT_255_2_778
10
114.6392478
20
47.7476714
40
0.618596
50
359.9318316
51
4.6341351
0
ARC
8
DEFAULT_255_2_778
10
114.8745814
20
47.7387856
40
0.3833487
50
324.3643093
51
1.2181745
0
ARC
8
DEFAULT_255_2_778
10
114.844219
20
47.7700711
40
0.4263234
50
289.4735926
51
323.3244514
0
ARC
8
DEFAULT_255_2_778
10
114.7780237
20
47.824983
40
0.3439198
50
267.7203204
51
302.1159713
0
ARC
8
DEFAULT_255_2_778
10
114.8147604
20
47.750173
40
0.2611709
50
304.0154036
51
311.1570587
0
ARC
8
DEFAULT_255_2_778
10
114.825057
20
47.7367608
40
0.2442984
50
311.4090681
51
2.386967
0
ARC
8
DEFAULT_255_2_778
10
114.8036909
20
47.7614689
40
0.2658501
50
356.8661982
51
40.5218924
0
ARC
8
DEFAULT_255_2_778
10
114.8425561
20
47.783906
40
0.2218798
50
42.6389435
51
48.1316194
0
ARC
8
DEFAULT_255_2_778
10
114.7999974
20
47.7196668
40
0.2983316
50
50.2796758
51
86.7636805
0
ARC
8
DEFAULT_255_2_778
10
114.7621829
20
47.4686685
40
0.5515687
50
84.3130502
51
89.8482796
0
LINE
8
DEFAULT_255_2_778
10
115.1189435
20
46.7526354
11
114.8104435
21
47.3278354
0
LINE
8
DEFAULT_255_2_778
10
114.8104435
20
47.3278354
11
114.4765435
21
47.3278354
0
LINE
8
DEFAULT_255_2_778
10
114.4765435
20
47.3278354
11
114.4765435
21
46.7526354
0
LINE
8
DEFAULT_255_2_778
10
114.4765435
20
46.7526354
11
114.2881435
21
46.7526354
0
LINE
8
DEFAULT_255_2_778
10
114.2881435
20
46.7526354
11
114.2881435
21
48.1745354
0
LINE
8
DEFAULT_255_2_778
10
114.2881435
20
48.1745354
11
114.7588435
21
48.1745354
0
LINE
8
DEFAULT_255_2_778
10
114.9863435
20
47.3681354
11
115.3202435
21
46.7645354
0
LINE
8
DEFAULT_255_2_778
10
115.3202435
20
46.7645354
11
115.3202435
21
46.7529354
0
LINE
8
DEFAULT_255_2_778
10
115.3202435
20
46.7529354
11
115.1192435
21
46.7529354
0
LINE
8
DEFAULT_255_2_778
10
115.1192435
20
46.7529354
11
115.1189435
21
46.7526354
0
LINE
8
DEFAULT_255_2_778
10
114.4762435
20
48.0202354
11
114.4762435
21
47.4813354
0
LINE
8
DEFAULT_255_2_778
10
114.4762435
20
47.4813354
11
114.7643435
21
47.4813354
0
LINE
8
DEFAULT_255_2_778
10
114.7636435
20
48.0202354
11
114.4765435
21
48.0202354
0
LINE
8
DEFAULT_255_2_778
10
114.4765435
20
48.0202354
11
114.4762435
21
48.0202354
0
ARC
8
DEFAULT_255_2_778
10
116.0671495
20
47.1933863
40
0.4542633
50
316.1394905
51
1.808822
0
ARC
8
DEFAULT_255_2_778
10
116.0500374
20
47.2275099
40
0.4904118
50
275.885572
51
314.6500682
0
ARC
8
DEFAULT_255_2_778
10
116.0015367
20
47.4692779
40
0.7362523
50
274.1163559
51
277.7110605
0
ARC
8
DEFAULT_255_2_778
10
115.9913215
20
47.3489178
40
0.6159378
50
247.2059155
51
271.2433394
0
ARC
8
DEFAULT_255_2_778
10
115.9331585
20
47.1903042
40
0.4472464
50
227.7918087
51
246.202845
0
ARC
8
DEFAULT_255_2_778
10
115.9318925
20
47.1797877
40
0.438649
50
181.0539547
51
226.9914081
0
ARC
8
DEFAULT_255_2_778
10
116.1666479
20
47.2111553
40
0.674484
50
180.4697944
51
183.3519129
0
ARC
8
DEFAULT_255_2_778
10
116.0349508
20
47.1979043
40
0.35752
50
177.8326686
51
210.5144063
0
ARC
8
DEFAULT_255_2_778
10
115.9498213
20
47.1577355
40
0.2639257
50
212.3859471
51
224.812066
0
ARC
8
DEFAULT_255_2_778
10
115.9739927
20
47.1948199
40
0.3073499
50
226.5409701
51
268.6060964
0
ARC
8
DEFAULT_255_2_778
10
116.0041509
20
47.4168662
40
0.5306416
50
265.9329951
51
270.0578316
0
ARC
8
DEFAULT_255_2_778
10
116.0177134
20
47.2658697
40
0.3798682
50
268.0347597
51
296.9715583
0
ARC
8
DEFAULT_255_2_778
10
116.0670491
20
47.1515891
40
0.2557625
50
298.733122
51
315.1541747
0
ARC
8
DEFAULT_255_2_778
10
116.0231233
20
47.1822851
40
0.3086906
50
316.8644193
51
359.1121907
0
ARC
8
DEFAULT_255_2_778
10
115.8083984
20
47.2100288
40
0.5243882
50
356.443779
51
0.0432889
0
LINE
8
DEFAULT_255_2_778
10
116.3327865
20
48.174525
11
116.5211865
21
48.174525
0
LINE
8
DEFAULT_255_2_778
10
116.5211865
20
48.174525
11
116.5211865
21
47.207725
0
LINE
8
DEFAULT_255_2_778
10
116.0543865
20
46.734925
11
116.0046865
21
46.733125
0
LINE
8
DEFAULT_255_2_778
10
115.4921865
20
47.205625
11
115.4921865
21
48.174225
0
LINE
8
DEFAULT_255_2_778
10
115.4921865
20
48.174225
11
115.6776865
21
48.174225
0
LINE
8
DEFAULT_255_2_778
10
115.6776865
20
48.174225
11
115.6776865
21
47.211425
0
LINE
8
DEFAULT_255_2_778
10
116.3327865
20
47.210425
11
116.3327865
21
48.174225
0
LINE
8
DEFAULT_255_2_778
10
116.3327865
20
48.174225
11
116.3327865
21
48.174525
0
LINE
8
DEFAULT_255_2_778
10
117.9099865
20
48.174525
11
117.9099865
21
46.752625
0
LINE
8
DEFAULT_255_2_778
10
117.9099865
20
46.752625
11
117.7215865
21
46.752625
0
LINE
8
DEFAULT_255_2_778
10
117.7215865
20
46.752625
11
117.0058865
21
47.848325
0
LINE
8
DEFAULT_255_2_778
10
117.0058865
20
47.848325
11
117.0058865
21
46.752625
0
LINE
8
DEFAULT_255_2_778
10
117.0058865
20
46.752625
11
116.8174865
21
46.752625
0
LINE
8
DEFAULT_255_2_778
10
116.8174865
20
46.752625
11
116.8174865
21
48.174525
0
LINE
8
DEFAULT_255_2_778
10
116.8174865
20
48.174525
11
117.0058865
21
48.174525
0
LINE
8
DEFAULT_255_2_778
10
117.0058865
20
48.174525
11
117.7236865
21
47.073825
0
LINE
8
DEFAULT_255_2_778
10
117.7236865
20
47.073825
11
117.7236865
21
48.174525
0
LINE
8
DEFAULT_255_2_778
10
117.7236865
20
48.174525
11
117.9101865
21
48.174525
0
LINE
8
DEFAULT_255_2_778
10
117.9101865
20
48.174525
11
117.9099865
21
48.174525
0
ARC
8
DEFAULT_255_2_778
10
113.7718968
20
42.4109716
40
0.7638649
50
75.3585316
51
90.9324946
0
ARC
8
DEFAULT_255_2_778
10
113.8677027
20
42.7760707
40
0.3864052
50
51.6098775
51
75.4191541
0
ARC
8
DEFAULT_255_2_778
10
113.8934312
20
42.8285655
40
0.3295168
50
1.2428278
51
49.4473718
0
ARC
8
DEFAULT_255_2_778
10
113.6683482
20
42.7963511
40
0.5559176
50
359.9468449
51
4.0602029
0
ARC
8
DEFAULT_255_2_778
10
113.9353498
20
42.7914519
40
0.2889488
50
323.5140273
51
0.8692479
0
ARC
8
DEFAULT_255_2_778
10
113.8760343
20
42.8396632
40
0.365323
50
292.080984
51
322.9664202
0
ARC
8
DEFAULT_255_2_778
10
113.9310252
20
42.1821356
40
0.3294553
50
36.6152478
51
75.5267327
0
ARC
8
DEFAULT_255_2_778
10
113.9107314
20
42.1721122
40
0.351746
50
358.5539006
51
35.954116
0
ARC
8
DEFAULT_255_2_778
10
113.8667611
20
42.147836
40
0.3959038
50
322.4176258
51
2.2291858
0
ARC
8
DEFAULT_255_2_778
10
113.8995443
20
42.1336632
40
0.3613862
50
311.3645131
51
321.0281883
0
ARC
8
DEFAULT_255_2_778
10
113.8526351
20
42.2029435
40
0.4445082
50
277.0343659
51
310.0009965
0
ARC
8
DEFAULT_255_2_778
10
113.7914034
20
42.5304293
40
0.7773024
50
269.7318318
51
278.5578058
0
ARC
8
DEFAULT_255_2_778
10
113.8054905
20
42.2183686
40
0.3123349
50
267.4814053
51
303.5826007
0
ARC
8
DEFAULT_255_2_778
10
113.8406246
20
42.1499295
40
0.2360412
50
305.6672939
51
311.9341672
0
ARC
8
DEFAULT_255_2_778
10
113.8355522
20
42.1489389
40
0.2387352
50
312.9987309
51
2.9764613
0
ARC
8
DEFAULT_255_2_778
10
113.7957748
20
42.1744744
40
0.2785006
50
357.29592
51
31.9071172
0
ARC
8
DEFAULT_255_2_778
10
113.8487566
20
42.1854563
40
0.2284845
50
36.5967835
51
84.8699935
0
ARC
8
DEFAULT_255_2_778
10
113.7972647
20
41.9292196
40
0.4891227
50
81.5443967
51
90.3044907
0
ARC
8
DEFAULT_255_2_778
10
113.7790796
20
42.8718637
40
0.3038425
50
267.3941402
51
304.8371067
0
ARC
8
DEFAULT_255_2_778
10
113.8117426
20
42.8100378
40
0.2345928
50
306.9156522
51
309.8501051
0
ARC
8
DEFAULT_255_2_778
10
113.8299606
20
42.7882447
40
0.206188
50
309.8440811
51
2.4157043
0
ARC
8
DEFAULT_255_2_778
10
113.8126201
20
42.8101634
40
0.2237366
50
356.6105276
51
36.4475306
0
ARC
8
DEFAULT_255_2_778
10
113.8711408
20
42.8431829
40
0.1572603
50
39.4384051
51
52.136081
0
ARC
8
DEFAULT_255_2_778
10
113.8108948
20
42.7453022
40
0.271801
50
54.7753118
51
85.4199198
0
ARC
8
DEFAULT_255_2_778
10
113.7622543
20
42.430072
40
0.590369
50
83.1567546
51
90.2512586
0
LINE
8
DEFAULT_255_2_778
10
113.7877653
20
41.7528354
11
113.2945653
21
41.7528354
0
LINE
8
DEFAULT_255_2_778
10
113.2945653
20
41.7528354
11
113.2945653
21
43.1747354
0
LINE
8
DEFAULT_255_2_778
10
113.2945653
20
43.1747354
11
113.7594653
21
43.1747354
0
LINE
8
DEFAULT_255_2_778
10
113.7877653
20
41.7531354
11
113.7877653
21
41.7528354
0
LINE
8
DEFAULT_255_2_778
10
113.7946653
20
42.4180354
11
113.4821653
21
42.4180354
0
LINE
8
DEFAULT_255_2_778
10
113.4821653
20
42.4180354
11
113.4821653
21
41.9063354
0
LINE
8
DEFAULT_255_2_778
10
113.4821653
20
41.9063354
11
113.7917653
21
41.9063354
0
LINE
8
DEFAULT_255_2_778
10
113.7946653
20
42.4183354
11
113.7946653
21
42.4180354
0
LINE
8
DEFAULT_255_2_778
10
113.4821653
20
43.0204354
11
113.4821653
21
42.5683354
0
LINE
8
DEFAULT_255_2_778
10
113.4821653
20
42.5683354
11
113.7652653
21
42.5683354
0
LINE
8
DEFAULT_255_2_778
10
113.7596653
20
43.0204354
11
113.4824653
21
43.0204354
0
LINE
8
DEFAULT_255_2_778
10
113.4824653
20
43.0204354
11
113.4821653
21
43.0204354
0
LINE
8
DEFAULT_255_2_778
10
115.4606653
20
41.7528354
11
115.3249653
21
42.1240354
0
LINE
8
DEFAULT_255_2_778
10
115.3249653
20
42.1240354
11
114.7293653
21
42.1240354
0
LINE
8
DEFAULT_255_2_778
10
114.7293653
20
42.1240354
11
114.5955653
21
41.7528354
0
LINE
8
DEFAULT_255_2_778
10
114.5955653
20
41.7528354
11
114.4020653
21
41.7528354
0
LINE
8
DEFAULT_255_2_778
10
114.4020653
20
41.7528354
11
114.9450653
21
43.1747354
0
LINE
8
DEFAULT_255_2_778
10
114.9450653
20
43.1747354
11
115.1090653
21
43.1747354
0
LINE
8
DEFAULT_255_2_778
10
115.1090653
20
43.1747354
11
115.6530653
21
41.7528354
0
LINE
8
DEFAULT_255_2_778
10
115.6530653
20
41.7528354
11
115.4606653
21
41.7528354
0
LINE
8
DEFAULT_255_2_778
10
115.4606653
20
41.7528354
11
115.4606653
21
41.7528354
0
LINE
8
DEFAULT_255_2_778
10
115.0270653
20
42.9432354
11
114.7857653
21
42.2780354
0
LINE
8
DEFAULT_255_2_778
10
114.7857653
20
42.2780354
11
115.2691653
21
42.2780354
0
LINE
8
DEFAULT_255_2_778
10
115.2691653
20
42.2780354
11
115.0270653
21
42.9432354
0
LINE
8
DEFAULT_255_2_778
10
115.0270653
20
42.9432354
11
115.0270653
21
42.9432354
0
LINE
8
DEFAULT_255_2_778
10
116.7007958
20
43.1747354
11
116.7007958
21
43.0204354
0
LINE
8
DEFAULT_255_2_778
10
116.7007958
20
43.0204354
11
116.2438958
21
43.0204354
0
LINE
8
DEFAULT_255_2_778
10
116.2438958
20
43.0204354
11
116.2438958
21
41.7528354
0
LINE
8
DEFAULT_255_2_778
10
116.2438958
20
41.7528354
11
116.0572958
21
41.7528354
0
LINE
8
DEFAULT_255_2_778
10
116.0572958
20
41.7528354
11
116.0572958
21
43.0204354
0
LINE
8
DEFAULT_255_2_778
10
116.0572958
20
43.0204354
11
115.6011958
21
43.0204354
0
LINE
8
DEFAULT_255_2_778
10
115.6011958
20
43.0204354
11
115.6011958
21
43.1747354
0
LINE
8
DEFAULT_255_2_778
10
115.6011958
20
43.1747354
11
116.7007958
21
43.1747354
0
LINE
8
DEFAULT_255_2_778
10
116.7007958
20
43.1747354
11
116.7007958
21
43.1747354
0
LINE
8
DEFAULT_255_2_778
10
117.9096958
20
43.1747354
11
117.9096958
21
43.0204354
0
LINE
8
DEFAULT_255_2_778
10
117.9096958
20
43.0204354
11
117.4527958
21
43.0204354
0
LINE
8
DEFAULT_255_2_778
10
117.4527958
20
43.0204354
11
117.4527958
21
41.7528354
0
LINE
8
DEFAULT_255_2_778
10
117.4527958
20
41.7528354
11
117.2661958
21
41.7528354
0
LINE
8
DEFAULT_255_2_778
10
117.2661958
20
41.7528354
11
117.2661958
21
43.0204354
0
LINE
8
DEFAULT_255_2_778
10
117.2661958
20
43.0204354
11
116.8100958
21
43.0204354
0
LINE
8
DEFAULT_255_2_778
10
116.8100958
20
43.0204354
11
116.8100958
21
43.1747354
0
LINE
8
DEFAULT_255_2_778
10
116.8100958
20
43.1747354
11
117.9096958
21
43.1747354
0
LINE
8
DEFAULT_255_2_778
10
117.9096958
20
43.1747354
11
117.9096958
21
43.1747354
0
LINE
8
DEFAULT_255_2_778
10
112.7079563
20
37.5631354
11
112.7079563
21
37.4100354
0
LINE
8
DEFAULT_255_2_778
10
112.7079563
20
37.4100354
11
112.0917563
21
37.4100354
0
LINE
8
DEFAULT_255_2_778
10
112.0917563
20
37.4100354
11
112.0917563
21
36.9059354
0
LINE
8
DEFAULT_255_2_778
10
112.0917563
20
36.9059354
11
112.8074563
21
36.9059354
0
LINE
8
DEFAULT_255_2_778
10
112.8074563
20
36.9059354
11
112.8074563
21
36.7527354
0
LINE
8
DEFAULT_255_2_778
10
112.8074563
20
36.7527354
11
111.9041563
21
36.7527354
0
LINE
8
DEFAULT_255_2_778
10
111.9041563
20
36.7527354
11
111.9041563
21
38.1746354
0
LINE
8
DEFAULT_255_2_778
10
111.9041563
20
38.1746354
11
112.7976563
21
38.1746354
0
LINE
8
DEFAULT_255_2_778
10
112.7976563
20
38.1746354
11
112.7976563
21
38.0203354
0
LINE
8
DEFAULT_255_2_778
10
112.7976563
20
38.0203354
11
112.0914563
21
38.0203354
0
LINE
8
DEFAULT_255_2_778
10
112.0914563
20
38.0203354
11
112.0914563
21
37.5634354
0
LINE
8
DEFAULT_255_2_778
10
112.0914563
20
37.5634354
11
112.7076563
21
37.5634354
0
LINE
8
DEFAULT_255_2_778
10
112.7076563
20
37.5634354
11
112.7079563
21
37.5631354
0
ARC
8
DEFAULT_255_2_778
10
113.5237608
20
37.4383306
40
0.7364146
50
73.3893949
51
90.9895029
0
ARC
8
DEFAULT_255_2_778
10
113.6112189
20
37.7396065
40
0.4227161
50
50.4043617
51
73.075476
0
ARC
8
DEFAULT_255_2_778
10
113.6346552
20
37.7841277
40
0.3736148
50
2.0894269
51
48.8219722
0
ARC
8
DEFAULT_255_2_778
10
113.3914478
20
37.7477714
40
0.618596
50
359.9318316
51
4.6341351
0
ARC
8
DEFAULT_255_2_778
10
113.6267814
20
37.7388856
40
0.3833487
50
324.3643093
51
1.2181745
0
ARC
8
DEFAULT_255_2_778
10
113.596419
20
37.7701711
40
0.4263234
50
289.4735926
51
323.3244514
0
ARC
8
DEFAULT_255_2_778
10
113.5302237
20
37.825083
40
0.3439198
50
267.7203204
51
302.1159713
0
ARC
8
DEFAULT_255_2_778
10
113.5669604
20
37.750273
40
0.2611709
50
304.0154036
51
311.1570587
0
ARC
8
DEFAULT_255_2_778
10
113.577257
20
37.7368608
40
0.2442984
50
311.4090681
51
2.386967
0
ARC
8
DEFAULT_255_2_778
10
113.5558909
20
37.7615689
40
0.2658501
50
356.8661982
51
40.5218924
0
ARC
8
DEFAULT_255_2_778
10
113.5947561
20
37.784006
40
0.2218798
50
42.6389435
51
48.1316194
0
ARC
8
DEFAULT_255_2_778
10
113.5521974
20
37.7197668
40
0.2983316
50
50.2796758
51
86.7636805
0
ARC
8
DEFAULT_255_2_778
10
113.5143829
20
37.4687685
40
0.5515687
50
84.3130502
51
89.8482796
0
LINE
8
DEFAULT_255_2_778
10
113.8711435
20
36.7527354
11
113.5626435
21
37.3279354
0
LINE
8
DEFAULT_255_2_778
10
113.5626435
20
37.3279354
11
113.2287435
21
37.3279354
0
LINE
8
DEFAULT_255_2_778
10
113.2287435
20
37.3279354
11
113.2287435
21
36.7527354
0
LINE
8
DEFAULT_255_2_778
10
113.2287435
20
36.7527354
11
113.0403435
21
36.7527354
0
LINE
8
DEFAULT_255_2_778
10
113.0403435
20
36.7527354
11
113.0403435
21
38.1746354
0
LINE
8
DEFAULT_255_2_778
10
113.0403435
20
38.1746354
11
113.5110435
21
38.1746354
0
LINE
8
DEFAULT_255_2_778
10
113.7385435
20
37.3682354
11
114.0724435
21
36.7646354
0
LINE
8
DEFAULT_255_2_778
10
114.0724435
20
36.7646354
11
114.0724435
21
36.7530354
0
LINE
8
DEFAULT_255_2_778
10
114.0724435
20
36.7530354
11
113.8714435
21
36.7530354
0
LINE
8
DEFAULT_255_2_778
10
113.8714435
20
36.7530354
11
113.8711435
21
36.7527354
0
LINE
8
DEFAULT_255_2_778
10
113.2284435
20
38.0203354
11
113.2284435
21
37.4814354
0
LINE
8
DEFAULT_255_2_778
10
113.2284435
20
37.4814354
11
113.5165435
21
37.4814354
0
LINE
8
DEFAULT_255_2_778
10
113.5158435
20
38.0203354
11
113.2287435
21
38.0203354
0
LINE
8
DEFAULT_255_2_778
10
113.2287435
20
38.0203354
11
113.2284435
21
38.0203354
0
ARC
8
DEFAULT_255_2_778
10
114.7551608
20
37.4383306
40
0.7364146
50
73.3893949
51
90.9895029
0
ARC
8
DEFAULT_255_2_778
10
114.8426189
20
37.7396065
40
0.4227161
50
50.4043617
51
73.075476
0
ARC
8
DEFAULT_255_2_778
10
114.8660552
20
37.7841277
40
0.3736148
50
2.0894269
51
48.8219722
0
ARC
8
DEFAULT_255_2_778
10
114.6228478
20
37.7477714
40
0.618596
50
359.9318316
51
4.6341351
0
ARC
8
DEFAULT_255_2_778
10
114.8581814
20
37.7388856
40
0.3833487
50
324.3643093
51
1.2181745
0
ARC
8
DEFAULT_255_2_778
10
114.827819
20
37.7701711
40
0.4263234
50
289.4735926
51
323.3244514
0
ARC
8
DEFAULT_255_2_778
10
114.7616237
20
37.825083
40
0.3439198
50
267.7203204
51
302.1159713
0
ARC
8
DEFAULT_255_2_778
10
114.7983604
20
37.750273
40
0.2611709
50
304.0154036
51
311.1570587
0
ARC
8
DEFAULT_255_2_778
10
114.808657
20
37.7368608
40
0.2442984
50
311.4090681
51
2.386967
0
ARC
8
DEFAULT_255_2_778
10
114.7872909
20
37.7615689
40
0.2658501
50
356.8661982
51
40.5218924
0
ARC
8
DEFAULT_255_2_778
10
114.8261561
20
37.784006
40
0.2218798
50
42.6389435
51
48.1316194
0
ARC
8
DEFAULT_255_2_778
10
114.7835974
20
37.7197668
40
0.2983316
50
50.2796758
51
86.7636805
0
ARC
8
DEFAULT_255_2_778
10
114.7457829
20
37.4687685
40
0.5515687
50
84.3130502
51
89.8482796
0
LINE
8
DEFAULT_255_2_778
10
115.1025435
20
36.7527354
11
114.7940435
21
37.3279354
0
LINE
8
DEFAULT_255_2_778
10
114.7940435
20
37.3279354
11
114.4601435
21
37.3279354
0
LINE
8
DEFAULT_255_2_778
10
114.4601435
20
37.3279354
11
114.4601435
21
36.7527354
0
LINE
8
DEFAULT_255_2_778
10
114.4601435
20
36.7527354
11
114.2717435
21
36.7527354
0
LINE
8
DEFAULT_255_2_778
10
114.2717435
20
36.7527354
11
114.2717435
21
38.1746354
0
LINE
8
DEFAULT_255_2_778
10
114.2717435
20
38.1746354
11
114.7424435
21
38.1746354
0
LINE
8
DEFAULT_255_2_778
10
114.9699435
20
37.3682354
11
115.3038435
21
36.7646354
0
LINE
8
DEFAULT_255_2_778
10
115.3038435
20
36.7646354
11
115.3038435
21
36.7530354
0
LINE
8
DEFAULT_255_2_778
10
115.3038435
20
36.7530354
11
115.1028435
21
36.7530354
0
LINE
8
DEFAULT_255_2_778
10
115.1028435
20
36.7530354
11
115.1025435
21
36.7527354
0
LINE
8
DEFAULT_255_2_778
10
114.4598435
20
38.0203354
11
114.4598435
21
37.4814354
0
LINE
8
DEFAULT_255_2_778
10
114.4598435
20
37.4814354
11
114.7479435
21
37.4814354
0
LINE
8
DEFAULT_255_2_778
10
114.7472435
20
38.0203354
11
114.4601435
21
38.0203354
0
LINE
8
DEFAULT_255_2_778
10
114.4601435
20
38.0203354
11
114.4598435
21
38.0203354
0
ARC
8
DEFAULT_255_2_778
10
115.6580133
20
37.4047424
40
0.9396784
50
342.5881704
51
0.78686
0
ARC
8
DEFAULT_255_2_778
10
115.8812563
20
37.3441166
40
0.7085799
50
335.7284779
51
341.8640555
0
ARC
8
DEFAULT_255_2_778
10
116.0365974
20
37.2612963
40
0.5330527
50
303.1390909
51
336.9802403
0
ARC
8
DEFAULT_255_2_778
10
116.0393521
20
37.281092
40
0.5482798
50
268.7303139
51
301.7670292
0
ARC
8
DEFAULT_255_2_778
10
116.0173409
20
37.276221
40
0.5433637
50
237.9752619
51
271.0399907
0
ARC
8
DEFAULT_255_2_778
10
116.0249286
20
37.2728371
40
0.5445805
50
204.0448519
51
237.1096132
0
ARC
8
DEFAULT_255_2_778
10
116.2795743
20
37.3905031
40
0.8250812
50
181.5850092
51
204.3017853
0
ARC
8
DEFAULT_255_2_778
10
116.5695994
20
37.4164039
40
1.115855
50
180.5882925
51
182.5025549
0
ARC
8
DEFAULT_255_2_778
10
116.3549445
20
37.521093
40
0.9012417
50
160.3124237
51
180.8548574
0
ARC
8
DEFAULT_255_2_778
10
116.1777268
20
37.5742036
40
0.7165566
50
155.6324301
51
159.5370249
0
ARC
8
DEFAULT_255_2_778
10
116.0240513
20
37.6568298
40
0.5426097
50
123.2422864
51
156.8849473
0
ARC
8
DEFAULT_255_2_778
10
116.0155812
20
37.6535262
40
0.5408027
50
89.0017319
51
122.2998532
0
ARC
8
DEFAULT_255_2_778
10
116.0360327
20
37.6427343
40
0.5516228
50
58.2379319
51
91.1456946
0
ARC
8
DEFAULT_255_2_778
10
116.0377839
20
37.6661925
40
0.5308669
50
22.8743778
51
57.06582
0
ARC
8
DEFAULT_255_2_778
10
115.7474308
20
37.5359139
40
0.8490577
50
1.6571595
51
23.3582071
0
ARC
8
DEFAULT_255_2_778
10
115.4230514
20
37.5080645
40
1.1742518
50
359.9796207
51
2.5577783
0
ARC
8
DEFAULT_255_2_778
10
115.5245169
20
37.52223
40
0.8866741
50
359.1933283
51
13.771085
0
ARC
8
DEFAULT_255_2_778
10
115.9307649
20
37.6227091
40
0.4681864
50
13.6626345
51
36.0067583
0
ARC
8
DEFAULT_255_2_778
10
116.0402965
20
37.6983597
40
0.3351227
50
36.5528728
51
92.5642688
0
ARC
8
DEFAULT_255_2_778
10
116.0127045
20
37.7022909
40
0.3310957
50
87.8192918
51
143.7766357
0
ARC
8
DEFAULT_255_2_778
10
116.1666592
20
37.5951126
40
0.518649
50
144.275344
51
171.4705441
0
ARC
8
DEFAULT_255_2_778
10
116.5658199
20
37.5165265
40
0.9252357
50
170.3239611
51
179.6333748
0
ARC
8
DEFAULT_255_2_778
10
116.4699181
20
37.4053061
40
0.8294113
50
179.1267394
51
195.4566774
0
ARC
8
DEFAULT_255_2_778
10
116.1372197
20
37.3157797
40
0.4848921
50
195.7377839
51
215.711402
0
ARC
8
DEFAULT_255_2_778
10
116.0149309
20
37.2248523
40
0.332532
50
215.2892981
51
272.1150108
0
ARC
8
DEFAULT_255_2_778
10
116.0432959
20
37.2234837
40
0.3313279
50
267.21602
51
323.1430444
0
ARC
8
DEFAULT_255_2_778
10
115.9006987
20
37.3157936
40
0.5009303
50
324.4782091
51
350.3499189
0
ARC
8
DEFAULT_255_2_778
10
115.4529117
20
37.4092782
40
0.9582045
50
349.327434
51
359.6991518
0
LINE
8
DEFAULT_255_2_778
10
116.5976031
20
37.5076469
11
116.5976031
21
37.4176469
0
LINE
8
DEFAULT_255_2_778
10
115.4538031
20
37.4049469
11
115.4538031
21
37.5076469
0
LINE
8
DEFAULT_255_2_778
10
116.5973031
20
37.5076469
11
116.5976031
21
37.5076469
0
LINE
8
DEFAULT_255_2_778
10
116.4111031
20
37.4042469
11
116.4111031
21
37.5097469
0
LINE
8
DEFAULT_255_2_778
10
115.6406031
20
37.5224469
11
115.6406031
21
37.4179469
0
LINE
8
DEFAULT_255_2_778
10
116.4111031
20
37.4042469
11
116.4111031
21
37.4042469
0
ARC
8
DEFAULT_255_2_778
10
117.3615475
20
37.4383306
40
0.7364146
50
73.3893949
51
90.9895029
0
ARC
8
DEFAULT_255_2_778
10
117.4490056
20
37.7396065
40
0.4227161
50
50.4043617
51
73.075476
0
ARC
8
DEFAULT_255_2_778
10
117.4724419
20
37.7841277
40
0.3736148
50
2.0894269
51
48.8219722
0
ARC
8
DEFAULT_255_2_778
10
117.2292346
20
37.7477714
40
0.618596
50
359.9318316
51
4.6341351
0
ARC
8
DEFAULT_255_2_778
10
117.4645682
20
37.7388856
40
0.3833487
50
324.3643093
51
1.2181745
0
ARC
8
DEFAULT_255_2_778
10
117.4342058
20
37.7701711
40
0.4263234
50
289.4735926
51
323.3244514
0
ARC
8
DEFAULT_255_2_778
10
117.3680105
20
37.825083
40
0.3439198
50
267.7203204
51
302.1159713
0
ARC
8
DEFAULT_255_2_778
10
117.4047471
20
37.750273
40
0.2611709
50
304.0154036
51
311.1570587
0
ARC
8
DEFAULT_255_2_778
10
117.4150438
20
37.7368608
40
0.2442984
50
311.4090681
51
2.386967
0
ARC
8
DEFAULT_255_2_778
10
117.3936776
20
37.7615689
40
0.2658501
50
356.8661982
51
40.5218924
0
ARC
8
DEFAULT_255_2_778
10
117.4325429
20
37.784006
40
0.2218798
50
42.6389435
51
48.1316194
0
ARC
8
DEFAULT_255_2_778
10
117.3899842
20
37.7197668
40
0.2983316
50
50.2796758
51
86.7636805
0
ARC
8
DEFAULT_255_2_778
10
117.3521697
20
37.4687685
40
0.5515687
50
84.3130502
51
89.8482796
0
LINE
8
DEFAULT_255_2_778
10
117.7089302
20
36.7527354
11
117.4004302
21
37.3279354
0
LINE
8
DEFAULT_255_2_778
10
117.4004302
20
37.3279354
11
117.0665302
21
37.3279354
0
LINE
8
DEFAULT_255_2_778
10
117.0665302
20
37.3279354
11
117.0665302
21
36.7527354
0
LINE
8
DEFAULT_255_2_778
10
117.0665302
20
36.7527354
11
116.8781302
21
36.7527354
0
LINE
8
DEFAULT_255_2_778
10
116.8781302
20
36.7527354
11
116.8781302
21
38.1746354
0
LINE
8
DEFAULT_255_2_778
10
116.8781302
20
38.1746354
11
117.3488302
21
38.1746354
0
LINE
8
DEFAULT_255_2_778
10
117.5763302
20
37.3682354
11
117.9102302
21
36.7646354
0
LINE
8
DEFAULT_255_2_778
10
117.9102302
20
36.7646354
11
117.9102302
21
36.7530354
0
LINE
8
DEFAULT_255_2_778
10
117.9102302
20
36.7530354
11
117.7092302
21
36.7530354
0
LINE
8
DEFAULT_255_2_778
10
117.7092302
20
36.7530354
11
117.7089302
21
36.7527354
0
LINE
8
DEFAULT_255_2_778
10
117.0662302
20
38.0203354
11
117.0662302
21
37.4814354
0
LINE
8
DEFAULT_255_2_778
10
117.0662302
20
37.4814354
11
117.3543302
21
37.4814354
0
LINE
8
DEFAULT_255_2_778
10
117.3536302
20
38.0203354
11
117.0665302
21
38.0203354
0
LINE
8
DEFAULT_255_2_778
10
117.0665302
20
38.0203354
11
117.0662302
21
38.0203354
0
ARC
8
DEFAULT_255_2_778
10
122.735426
20
52.2429345
40
0.8115813
50
217.1026135
51
267.0853384
0
ARC
8
DEFAULT_255_2_778
10
122.74734
20
52.2599183
40
0.8313532
50
209.9712348
51
217.5408309
0
ARC
8
DEFAULT_255_2_778
10
122.7412492
20
52.2568932
40
0.824566
50
179.9880208
51
210.0005719
0
LINE
8
DEFAULT_255_2_778
10
121.9166833
20
52.2570656
11
121.9166833
21
52.2574262
0
ARC
8
DEFAULT_255_2_778
10
122.7416573
20
52.2572036
40
0.824974
50
150.0070215
51
179.9845426
0
ARC
8
DEFAULT_255_2_778
10
122.7474441
20
52.2550061
40
0.831085
50
103.4374497
51
150.0752416
0
ARC
8
DEFAULT_255_2_778
10
122.7185075
20
52.3514907
40
0.7305398
50
91.2287004
51
102.9885907
0
ARC
8
DEFAULT_255_2_778
10
122.7168692
20
52.3822408
40
0.6997622
50
90.0008956
51
91.1485827
0
ARC
8
DEFAULT_255_2_778
10
125.7413396
20
52.3839647
40
0.6983384
50
88.6466464
51
89.9984722
0
ARC
8
DEFAULT_255_2_778
10
125.7232975
20
52.27231
40
0.8105345
50
37.9600456
51
87.5579709
0
ARC
8
DEFAULT_255_2_778
10
125.7107724
20
52.2541
40
0.8316375
50
29.9908016
51
38.418418
0
ARC
8
DEFAULT_255_2_778
10
125.7166602
20
52.2574307
40
0.8248731
50
359.9911365
51
29.9948552
0
ARC
8
DEFAULT_255_2_778
10
125.7166602
20
52.2571755
40
0.8248731
50
330.0051448
51
0.0088635
0
ARC
8
DEFAULT_255_2_778
10
125.7109625
20
52.2592772
40
0.830859
50
282.6312582
51
330.0760487
0
ARC
8
DEFAULT_255_2_778
10
125.7387699
20
52.1640089
40
0.7318428
50
271.9802135
51
282.1379056
0
LINE
8
DEFAULT_255_2_778
10
125.7415583
20
51.4321031
11
122.7168583
21
51.4321031
0
LINE
8
DEFAULT_255_2_778
10
122.7168583
20
53.0820031
11
125.7413583
21
53.0823031
0
ARC
8
DEFAULT_255_2_778
10
122.735426
20
47.2428345
40
0.8115813
50
217.1026135
51
267.0853384
0
ARC
8
DEFAULT_255_2_778
10
122.74734
20
47.2598183
40
0.8313532
50
209.9712348
51
217.5408309
0
ARC
8
DEFAULT_255_2_778
10
122.7412492
20
47.2567932
40
0.824566
50
179.9880208
51
210.0005719
0
LINE
8
DEFAULT_255_2_778
10
121.9166833
20
47.2569656
11
121.9166833
21
47.2573262
0
ARC
8
DEFAULT_255_2_778
10
122.7416573
20
47.2571036
40
0.824974
50
150.0070215
51
179.9845426
0
ARC
8
DEFAULT_255_2_778
10
122.7474441
20
47.2549061
40
0.831085
50
103.4374497
51
150.0752416
0
ARC
8
DEFAULT_255_2_778
10
122.7185075
20
47.3513907
40
0.7305398
50
91.2287004
51
102.9885907
0
ARC
8
DEFAULT_255_2_778
10
122.7168692
20
47.3821408
40
0.6997622
50
90.0008956
51
91.1485827
0
ARC
8
DEFAULT_255_2_778
10
125.7413396
20
47.3838647
40
0.6983384
50
88.6466464
51
89.9984722
0
ARC
8
DEFAULT_255_2_778
10
125.7232975
20
47.27221
40
0.8105345
50
37.9600456
51
87.5579709
0
ARC
8
DEFAULT_255_2_778
10
125.7107724
20
47.254
40
0.8316375
50
29.9908016
51
38.418418
0
ARC
8
DEFAULT_255_2_778
10
125.7166602
20
47.2573307
40
0.8248731
50
359.9911365
51
29.9948552
0
ARC
8
DEFAULT_255_2_778
10
125.7166602
20
47.2570755
40
0.8248731
50
330.0051448
51
0.0088635
0
ARC
8
DEFAULT_255_2_778
10
125.7109625
20
47.2591772
40
0.830859
50
282.6312582
51
330.0760487
0
ARC
8
DEFAULT_255_2_778
10
125.7387699
20
47.1639089
40
0.7318428
50
271.9802135
51
282.1379056
0
LINE
8
DEFAULT_255_2_778
10
125.7415583
20
46.4320031
11
122.7168583
21
46.4320031
0
LINE
8
DEFAULT_255_2_778
10
122.7168583
20
48.0819031
11
125.7413583
21
48.0822031
0
ARC
8
DEFAULT_255_2_778
10
122.735426
20
42.2430345
40
0.8115813
50
217.1026135
51
267.0853384
0
ARC
8
DEFAULT_255_2_778
10
122.74734
20
42.2600183
40
0.8313532
50
209.9712348
51
217.5408309
0
ARC
8
DEFAULT_255_2_778
10
122.7412492
20
42.2569932
40
0.824566
50
179.9880208
51
210.0005719
0
LINE
8
DEFAULT_255_2_778
10
121.9166833
20
42.2571656
11
121.9166833
21
42.2575262
0
ARC
8
DEFAULT_255_2_778
10
122.7416573
20
42.2573036
40
0.824974
50
150.0070215
51
179.9845426
0
ARC
8
DEFAULT_255_2_778
10
122.7474441
20
42.2551061
40
0.831085
50
103.4374497
51
150.0752416
0
ARC
8
DEFAULT_255_2_778
10
122.7185075
20
42.3515907
40
0.7305398
50
91.2287004
51
102.9885907
0
ARC
8
DEFAULT_255_2_778
10
122.7168692
20
42.3823408
40
0.6997622
50
90.0008956
51
91.1485827
0
ARC
8
DEFAULT_255_2_778
10
125.7413396
20
42.3840647
40
0.6983384
50
88.6466464
51
89.9984722
0
ARC
8
DEFAULT_255_2_778
10
125.7232975
20
42.27241
40
0.8105345
50
37.9600456
51
87.5579709
0
ARC
8
DEFAULT_255_2_778
10
125.7107724
20
42.2542
40
0.8316375
50
29.9908016
51
38.418418
0
ARC
8
DEFAULT_255_2_778
10
125.7166602
20
42.2575307
40
0.8248731
50
359.9911365
51
29.9948552
0
ARC
8
DEFAULT_255_2_778
10
125.7166602
20
42.2572755
40
0.8248731
50
330.0051448
51
0.0088635
0
ARC
8
DEFAULT_255_2_778
10
125.7109625
20
42.2593772
40
0.830859
50
282.6312582
51
330.0760487
0
ARC
8
DEFAULT_255_2_778
10
125.7387699
20
42.1641089
40
0.7318428
50
271.9802135
51
282.1379056
0
LINE
8
DEFAULT_255_2_778
10
125.7415583
20
41.4322031
11
122.7168583
21
41.4322031
0
LINE
8
DEFAULT_255_2_778
10
122.7168583
20
43.0821031
11
125.7413583
21
43.0824031
0
ARC
8
DEFAULT_255_2_778
10
122.735426
20
37.2429345
40
0.8115813
50
217.1026135
51
267.0853384
0
ARC
8
DEFAULT_255_2_778
10
122.74734
20
37.2599183
40
0.8313532
50
209.9712348
51
217.5408309
0
ARC
8
DEFAULT_255_2_778
10
122.7412492
20
37.2568932
40
0.824566
50
179.9880208
51
210.0005719
0
LINE
8
DEFAULT_255_2_778
10
121.9166833
20
37.2570656
11
121.9166833
21
37.2574262
0
ARC
8
DEFAULT_255_2_778
10
122.7416573
20
37.2572036
40
0.824974
50
150.0070215
51
179.9845426
0
ARC
8
DEFAULT_255_2_778
10
122.7474441
20
37.2550061
40
0.831085
50
103.4374497
51
150.0752416
0
ARC
8
DEFAULT_255_2_778
10
122.7185075
20
37.3514907
40
0.7305398
50
91.2287004
51
102.9885907
0
ARC
8
DEFAULT_255_2_778
10
122.7168692
20
37.3822408
40
0.6997622
50
90.0008956
51
91.1485827
0
ARC
8
DEFAULT_255_2_778
10
125.7413396
20
37.3839647
40
0.6983384
50
88.6466464
51
89.9984722
0
ARC
8
DEFAULT_255_2_778
10
125.7232975
20
37.27231
40
0.8105345
50
37.9600456
51
87.5579709
0
ARC
8
DEFAULT_255_2_778
10
125.7107724
20
37.2541
40
0.8316375
50
29.9908016
51
38.418418
0
ARC
8
DEFAULT_255_2_778
10
125.7166602
20
37.2574307
40
0.8248731
50
359.9911365
51
29.9948552
0
ARC
8
DEFAULT_255_2_778
10
125.7166602
20
37.2571755
40
0.8248731
50
330.0051448
51
0.0088635
0
ARC
8
DEFAULT_255_2_778
10
125.7109625
20
37.2592772
40
0.830859
50
282.6312582
51
330.0760487
0
ARC
8
DEFAULT_255_2_778
10
125.7387699
20
37.1640089
40
0.7318428
50
271.9802135
51
282.1379056
0
LINE
8
DEFAULT_255_2_778
10
125.7415583
20
36.4321031
11
122.7168583
21
36.4321031
0
LINE
8
DEFAULT_255_2_778
10
122.7168583
20
38.0820031
11
125.7413583
21
38.0823031
0
ARC
8
DEFAULT_255_2_778
10
96.3820813
20
32.5991987
40
0.722975
50
339.3697911
51
1.0567461
0
ARC
8
DEFAULT_255_2_778
10
96.5451898
20
32.5481295
40
0.5524174
50
335.692085
51
338.3663156
0
ARC
8
DEFAULT_255_2_778
10
96.6554671
20
32.4882145
40
0.4273523
50
303.1781879
51
336.9268085
0
ARC
8
DEFAULT_255_2_778
10
96.6584007
20
32.5028448
40
0.438117
50
268.7487088
51
301.8099033
0
ARC
8
DEFAULT_255_2_778
10
96.6410366
20
32.4991184
40
0.4343561
50
237.9331633
51
271.0285314
0
ARC
8
DEFAULT_255_2_778
10
96.6474888
20
32.4974495
40
0.4364136
50
204.0735741
51
237.0989544
0
ARC
8
DEFAULT_255_2_778
10
96.8652182
20
32.5955475
40
0.675221
50
179.407295
51
204.1373648
0
ARC
8
DEFAULT_255_2_778
10
96.8837502
20
32.6982776
40
0.693853
50
156.5646866
51
181.1351106
0
ARC
8
DEFAULT_255_2_778
10
96.6484164
20
32.8018817
40
0.4367296
50
123.3170293
51
156.7565362
0
ARC
8
DEFAULT_255_2_778
10
96.6396539
20
32.8001878
40
0.4334108
50
88.9979671
51
122.2259745
0
ARC
8
DEFAULT_255_2_778
10
96.6560882
20
32.7934251
40
0.4401962
50
58.1722474
51
91.1526238
0
ARC
8
DEFAULT_255_2_778
10
96.6558284
20
32.8092605
40
0.426965
50
23.0063102
51
57.0218899
0
ARC
8
DEFAULT_255_2_778
10
96.4089899
20
32.7019285
40
0.6961231
50
359.8200718
51
23.1974694
0
ARC
8
DEFAULT_255_2_778
10
96.1407084
20
32.6842767
40
0.9645251
50
359.9973614
51
0.9187506
0
ARC
8
DEFAULT_255_2_778
10
96.2758959
20
32.6984855
40
0.6799497
50
358.9590025
51
15.8354219
0
ARC
8
DEFAULT_255_2_778
10
96.5820437
20
32.7826587
40
0.3624607
50
16.2402945
51
36.2004388
0
ARC
8
DEFAULT_255_2_778
10
96.6591724
20
32.8371641
40
0.2680342
50
36.5359965
51
92.5529698
0
ARC
8
DEFAULT_255_2_778
10
96.6372947
20
32.8399363
40
0.2651823
50
87.8521336
51
143.7523707
0
ARC
8
DEFAULT_255_2_778
10
96.7699893
20
32.7494577
40
0.4257296
50
144.4913781
51
173.4728737
0
ARC
8
DEFAULT_255_2_778
10
97.1028159
20
32.6910803
40
0.7633015
50
171.9590218
51
179.5982603
0
ARC
8
DEFAULT_255_2_778
10
96.974523
20
32.6002497
40
0.6351143
50
178.8648139
51
197.9049789
0
ARC
8
DEFAULT_255_2_778
10
96.7268965
20
32.5255444
40
0.3765474
50
198.6723329
51
215.9404262
0
ARC
8
DEFAULT_255_2_778
10
96.6394611
20
32.458925
40
0.2666682
50
215.3780865
51
272.0786249
0
ARC
8
DEFAULT_255_2_778
10
96.6619218
20
32.4569834
40
0.2648601
50
267.2324817
51
323.1746752
0
ARC
8
DEFAULT_255_2_778
10
96.5351853
20
32.5376121
40
0.4147926
50
324.75267
51
352.6447218
0
ARC
8
DEFAULT_255_2_778
10
96.1579528
20
32.6072018
40
0.7980992
50
351.1568258
51
359.6073371
0
ARC
8
DEFAULT_255_2_778
10
97.7675204
20
32.4331595
40
0.3632006
50
316.1474299
51
1.8417222
0
ARC
8
DEFAULT_255_2_778
10
97.7495106
20
32.4677267
40
0.4003299
50
273.3782181
51
314.3652762
0
ARC
8
DEFAULT_255_2_778
10
97.7133844
20
32.6747105
40
0.6095501
50
274.1158019
51
275.6221718
0
ARC
8
DEFAULT_255_2_778
10
97.7035913
20
32.5360775
40
0.4711427
50
242.7923193
51
271.6592444
0
ARC
8
DEFAULT_255_2_778
10
97.6580512
20
32.4283272
40
0.354601
50
227.7290623
51
241.3761176
0
ARC
8
DEFAULT_255_2_778
10
97.6649989
20
32.426304
40
0.3578362
50
178.6074111
51
226.6879232
0
ARC
8
DEFAULT_255_2_778
10
97.8657057
20
32.4482619
40
0.5585947
50
180.5159053
51
181.3603782
0
ARC
8
DEFAULT_255_2_778
10
97.7242273
20
32.4340076
40
0.2690597
50
177.0121098
51
217.692998
0
ARC
8
DEFAULT_255_2_778
10
97.6729967
20
32.4049782
40
0.210937
50
219.9624847
51
224.8814117
0
ARC
8
DEFAULT_255_2_778
10
97.6963906
20
32.4418721
40
0.2537299
50
227.0574643
51
271.209481
0
ARC
8
DEFAULT_255_2_778
10
97.7171235
20
32.6318496
40
0.4439173
50
268.0148836
51
270.0141801
0
ARC
8
DEFAULT_255_2_778
10
97.7305853
20
32.4726208
40
0.2850014
50
267.3147947
51
303.0339486
0
ARC
8
DEFAULT_255_2_778
10
97.7679693
20
32.3997601
40
0.203712
50
305.3910402
51
315.0867627
0
ARC
8
DEFAULT_255_2_778
10
97.7239942
20
32.4290413
40
0.2557357
50
317.3976543
51
2.1490288
0
ARC
8
DEFAULT_255_2_778
10
97.5384607
20
32.4471987
40
0.4411726
50
358.8872373
51
0.0043564
0
LINE
8
DEFAULT_255_2_778
10
97.1049334
20
32.6845323
11
97.1049334
21
32.6125323
0
LINE
8
DEFAULT_255_2_778
10
96.1900334
20
32.6025323
11
96.1900334
21
32.6845323
0
LINE
8
DEFAULT_255_2_778
10
97.1052334
20
32.6842323
11
97.1049334
21
32.6845323
0
LINE
8
DEFAULT_255_2_778
10
96.9557334
20
32.6017323
11
96.9557334
21
32.6861323
0
LINE
8
DEFAULT_255_2_778
10
96.3395334
20
32.6964323
11
96.3395334
21
32.6128323
0
LINE
8
DEFAULT_255_2_778
10
96.9560334
20
32.6017323
11
96.9557334
21
32.6017323
0
LINE
8
DEFAULT_255_2_778
10
97.9796334
20
33.2182323
11
98.1305334
21
33.2182323
0
LINE
8
DEFAULT_255_2_778
10
98.1305334
20
33.2182323
11
98.1305334
21
32.4448323
0
LINE
8
DEFAULT_255_2_778
10
97.7571334
20
32.0667323
11
97.7172334
21
32.0651323
0
LINE
8
DEFAULT_255_2_778
10
97.3071334
20
32.4432323
11
97.3071334
21
33.2182323
0
LINE
8
DEFAULT_255_2_778
10
97.3071334
20
33.2182323
11
97.4555334
21
33.2182323
0
LINE
8
DEFAULT_255_2_778
10
97.4555334
20
33.2182323
11
97.4555334
21
32.4480323
0
LINE
8
DEFAULT_255_2_778
10
97.9796334
20
32.4472323
11
97.9796334
21
33.2182323
0
LINE
8
DEFAULT_255_2_778
10
97.9796334
20
33.2182323
11
97.9796334
21
33.2182323
0
LINE
8
DEFAULT_255_2_778
10
99.1533334
20
33.2182323
11
99.1533334
21
33.0946323
0
LINE
8
DEFAULT_255_2_778
10
99.1533334
20
33.0946323
11
98.7877334
21
33.0946323
0
LINE
8
DEFAULT_255_2_778
10
98.7877334
20
33.0946323
11
98.7877334
21
32.0804323
0
LINE
8
DEFAULT_255_2_778
10
98.7877334
20
32.0804323
11
98.6385334
21
32.0804323
0
LINE
8
DEFAULT_255_2_778
10
98.6385334
20
32.0804323
11
98.6385334
21
33.0946323
0
LINE
8
DEFAULT_255_2_778
10
98.6385334
20
33.0946323
11
98.2736334
21
33.0946323
0
LINE
8
DEFAULT_255_2_778
10
98.2736334
20
33.0946323
11
98.2736334
21
33.2182323
0
LINE
8
DEFAULT_255_2_778
10
98.2736334
20
33.2182323
11
99.1533334
21
33.2182323
0
LINE
8
DEFAULT_255_2_778
10
99.1533334
20
33.2182323
11
99.1533334
21
33.2182323
0
ARC
8
DEFAULT_255_2_778
10
105.3415553
20
28.2572875
40
0.8250261
50
94.0560009
51
180.0011596
0
ARC
8
DEFAULT_255_2_778
10
105.3413633
20
28.2454628
40
0.8368082
50
89.9954919
51
93.9856271
0
ARC
8
DEFAULT_255_2_778
10
105.3421409
20
28.2585604
40
0.8237107
50
36.8753414
51
90.0495079
0
ARC
8
DEFAULT_255_2_778
10
105.3450474
20
28.2585685
40
0.8213827
50
359.9094824
51
36.9965536
0
ARC
8
DEFAULT_255_2_778
10
105.3414913
20
28.2572779
40
0.8249379
50
274.0441941
51
359.999511
0
ARC
8
DEFAULT_255_2_778
10
105.3414979
20
28.2697016
40
0.8373309
50
269.9952984
51
273.9837854
0
ARC
8
DEFAULT_255_2_778
10
105.3414204
20
28.2572985
40
0.8249277
50
184.0496371
51
270.0006079
0
ARC
8
DEFAULT_255_2_778
10
105.3535034
20
28.2572021
40
0.8369743
50
179.9952991
51
183.9846407
0
LINE
8
DEFAULT_255_2_778
10
104.5165292
20
28.2572708
11
104.5165292
21
28.2572708
0
ARC
8
DEFAULT_255_2_778
10
108.7414655
20
28.2572717
40
0.8250363
50
94.0505575
51
180.0000632
0
ARC
8
DEFAULT_255_2_778
10
108.7413633
20
28.2451063
40
0.8371647
50
89.9954912
51
93.9847716
0
ARC
8
DEFAULT_255_2_778
10
108.7413563
20
28.257263
40
0.8250078
50
4.0478935
51
89.9949385
0
ARC
8
DEFAULT_255_2_778
10
108.72933
20
28.2573391
40
0.8369993
50
359.9953243
51
3.9845835
0
ARC
8
DEFAULT_255_2_778
10
108.7414015
20
28.2572621
40
0.8249277
50
274.0496371
51
0.0006079
0
ARC
8
DEFAULT_255_2_778
10
108.7414979
20
28.269345
40
0.8369743
50
269.9952991
51
273.9846407
0
ARC
8
DEFAULT_255_2_778
10
108.7406734
20
28.2560795
40
0.8237091
50
217.0530232
51
270.0525725
0
ARC
8
DEFAULT_255_2_778
10
108.737673
20
28.2559611
40
0.821245
50
179.9086225
51
217.172556
0
LINE
8
DEFAULT_255_2_778
10
107.9164292
20
28.2572708
11
107.9164292
21
28.2572708
0
ARC
8
DEFAULT_255_2_778
10
115.5418233
20
32.2581667
40
0.8249058
50
142.7458109
51
180.0153818
0
ARC
8
DEFAULT_255_2_778
10
115.5422932
20
32.2579339
40
0.8253757
50
179.9992078
51
181.5683595
0
ARC
8
DEFAULT_255_2_778
10
115.5411853
20
32.257824
40
0.8242652
50
181.5628342
51
206.376829
0
ARC
8
DEFAULT_255_2_778
10
115.5423998
20
32.2577416
40
0.8253169
50
206.3342431
51
269.9328886
0
ARC
8
DEFAULT_255_2_778
10
115.540327
20
32.257966
40
0.8255414
50
270.0767643
51
333.6560865
0
ARC
8
DEFAULT_255_2_778
10
115.5413347
20
32.257725
40
0.8245313
50
333.6400212
51
358.4445555
0
ARC
8
DEFAULT_255_2_778
10
115.5398771
20
32.257847
40
0.8259918
50
358.4388366
51
0.0002788
0
ARC
8
DEFAULT_255_2_778
10
115.540813
20
32.2580897
40
0.8250559
50
359.9834278
51
37.2529879
0
ARC
8
DEFAULT_255_2_778
10
115.5415469
20
32.2569821
40
0.8251433
50
37.3450534
51
90.0079014
0
ARC
8
DEFAULT_255_2_778
10
115.5413853
20
32.2566464
40
0.8254789
50
89.9966851
51
142.6434136
0
ARC
8
DEFAULT_255_2_778
10
115.5415353
20
28.2572059
40
0.8251061
50
94.0542569
51
179.9954907
0
ARC
8
DEFAULT_255_2_778
10
115.5413637
20
28.2454378
40
0.8368332
50
89.9955172
51
93.9855699
0
ARC
8
DEFAULT_255_2_778
10
115.5413563
20
28.257263
40
0.8250078
50
4.0478935
51
89.9949385
0
ARC
8
DEFAULT_255_2_778
10
115.52933
20
28.2573391
40
0.8369993
50
359.9953243
51
3.9845835
0
ARC
8
DEFAULT_255_2_778
10
115.5414015
20
28.2572621
40
0.8249277
50
274.0496371
51
0.0006079
0
ARC
8
DEFAULT_255_2_778
10
115.5414979
20
28.269345
40
0.8369743
50
269.9952991
51
273.9846407
0
ARC
8
DEFAULT_255_2_778
10
115.5414125
20
28.2573969
40
0.8250261
50
184.0560009
51
270.0011596
0
ARC
8
DEFAULT_255_2_778
10
115.5532372
20
28.257205
40
0.8368082
50
179.9954919
51
183.9856271
0
LINE
8
DEFAULT_255_2_778
10
114.7164292
20
28.2572708
11
114.7164292
21
28.2572708
0
ARC
8
DEFAULT_255_2_778
10
112.1415655
20
28.2572717
40
0.8250363
50
94.0505575
51
180.0000632
0
ARC
8
DEFAULT_255_2_778
10
112.1414633
20
28.2451063
40
0.8371647
50
89.9954912
51
93.9847716
0
ARC
8
DEFAULT_255_2_778
10
112.1414563
20
28.257263
40
0.8250078
50
4.0478935
51
89.9949385
0
ARC
8
DEFAULT_255_2_778
10
112.12943
20
28.2573391
40
0.8369993
50
359.9953243
51
3.9845835
0
ARC
8
DEFAULT_255_2_778
10
112.1415015
20
28.2572621
40
0.8249277
50
274.0496371
51
0.0006079
0
ARC
8
DEFAULT_255_2_778
10
112.1415979
20
28.269345
40
0.8369743
50
269.9952991
51
273.9846407
0
ARC
8
DEFAULT_255_2_778
10
112.1407734
20
28.2560795
40
0.8237091
50
217.0530232
51
270.0525725
0
ARC
8
DEFAULT_255_2_778
10
112.137773
20
28.2559611
40
0.821245
50
179.9086225
51
217.172556
0
LINE
8
DEFAULT_255_2_778
10
111.3165292
20
28.2572708
11
111.3165292
21
28.2572708
0
ARC
8
DEFAULT_255_2_778
10
101.9413655
20
28.2572717
40
0.8250363
50
94.0505575
51
180.0000632
0
ARC
8
DEFAULT_255_2_778
10
101.9412633
20
28.2451063
40
0.8371647
50
89.9954912
51
93.9847716
0
ARC
8
DEFAULT_255_2_778
10
101.9412563
20
28.257263
40
0.8250078
50
4.0478935
51
89.9949385
0
ARC
8
DEFAULT_255_2_778
10
101.92923
20
28.2573391
40
0.8369993
50
359.9953243
51
3.9845835
0
ARC
8
DEFAULT_255_2_778
10
101.9413015
20
28.2572621
40
0.8249277
50
274.0496371
51
0.0006079
0
ARC
8
DEFAULT_255_2_778
10
101.9413979
20
28.269345
40
0.8369743
50
269.9952991
51
273.9846407
0
ARC
8
DEFAULT_255_2_778
10
101.9405734
20
28.2560795
40
0.8237091
50
217.0530232
51
270.0525725
0
ARC
8
DEFAULT_255_2_778
10
101.937573
20
28.2559611
40
0.821245
50
179.9086225
51
217.172556
0
LINE
8
DEFAULT_255_2_778
10
101.1163292
20
28.2572708
11
101.1163292
21
28.2572708
0
ARC
8
DEFAULT_255_2_778
10
118.9413553
20
28.2572875
40
0.8250261
50
94.0560009
51
180.0011596
0
ARC
8
DEFAULT_255_2_778
10
118.9411633
20
28.2454628
40
0.8368082
50
89.9954919
51
93.9856271
0
ARC
8
DEFAULT_255_2_778
10
118.9419409
20
28.2585604
40
0.8237107
50
36.8753414
51
90.0495079
0
ARC
8
DEFAULT_255_2_778
10
118.9448474
20
28.2585685
40
0.8213827
50
359.9094824
51
36.9965536
0
ARC
8
DEFAULT_255_2_778
10
118.9412913
20
28.2572779
40
0.8249379
50
274.0441941
51
359.999511
0
ARC
8
DEFAULT_255_2_778
10
118.9412979
20
28.2697016
40
0.8373309
50
269.9952984
51
273.9837854
0
ARC
8
DEFAULT_255_2_778
10
118.9412204
20
28.2572985
40
0.8249277
50
184.0496371
51
270.0006079
0
ARC
8
DEFAULT_255_2_778
10
118.9533034
20
28.2572021
40
0.8369743
50
179.9952991
51
183.9846407
0
LINE
8
DEFAULT_255_2_778
10
118.1163292
20
28.2572708
11
118.1163292
21
28.2572708
0
ARC
8
DEFAULT_255_2_778
10
118.9417176
20
32.2581667
40
0.8249058
50
142.7458109
51
180.0153818
0
ARC
8
DEFAULT_255_2_778
10
118.9421875
20
32.2579339
40
0.8253757
50
179.9992078
51
181.5683595
0
ARC
8
DEFAULT_255_2_778
10
118.9410797
20
32.257824
40
0.8242652
50
181.5628342
51
206.376829
0
ARC
8
DEFAULT_255_2_778
10
118.9422941
20
32.2577416
40
0.8253169
50
206.3342431
51
269.9328886
0
ARC
8
DEFAULT_255_2_778
10
118.9402214
20
32.257966
40
0.8255414
50
270.0767643
51
333.6560865
0
ARC
8
DEFAULT_255_2_778
10
118.9412291
20
32.257725
40
0.8245313
50
333.6400212
51
358.4445555
0
ARC
8
DEFAULT_255_2_778
10
118.9397714
20
32.257847
40
0.8259918
50
358.4388366
51
0.0002788
0
ARC
8
DEFAULT_255_2_778
10
118.9407073
20
32.2580897
40
0.8250559
50
359.9834278
51
37.2529879
0
ARC
8
DEFAULT_255_2_778
10
118.9414412
20
32.2569821
40
0.8251433
50
37.3450534
51
90.0079014
0
ARC
8
DEFAULT_255_2_778
10
118.9412797
20
32.2566464
40
0.8254789
50
89.9966851
51
142.6434136
0
ARC
8
DEFAULT_255_2_778
10
122.3419176
20
32.2581667
40
0.8249058
50
142.7458109
51
180.0153818
0
ARC
8
DEFAULT_255_2_778
10
122.3423875
20
32.2579339
40
0.8253757
50
179.9992078
51
181.5683595
0
ARC
8
DEFAULT_255_2_778
10
122.3412797
20
32.257824
40
0.8242652
50
181.5628342
51
206.376829
0
ARC
8
DEFAULT_255_2_778
10
122.3424941
20
32.2577416
40
0.8253169
50
206.3342431
51
269.9328886
0
ARC
8
DEFAULT_255_2_778
10
122.3404214
20
32.257966
40
0.8255414
50
270.0767643
51
333.6560865
0
ARC
8
DEFAULT_255_2_778
10
122.3414291
20
32.257725
40
0.8245313
50
333.6400212
51
358.4445555
0
ARC
8
DEFAULT_255_2_778
10
122.3399714
20
32.257847
40
0.8259918
50
358.4388366
51
0.0002788
0
ARC
8
DEFAULT_255_2_778
10
122.3409073
20
32.2580897
40
0.8250559
50
359.9834278
51
37.2529879
0
ARC
8
DEFAULT_255_2_778
10
122.3416412
20
32.2569821
40
0.8251433
50
37.3450534
51
90.0079014
0
ARC
8
DEFAULT_255_2_778
10
122.3414797
20
32.2566464
40
0.8254789
50
89.9966851
51
142.6434136
0
ARC
8
DEFAULT_255_2_778
10
122.3416353
20
28.2572059
40
0.8251061
50
94.0542569
51
179.9954907
0
ARC
8
DEFAULT_255_2_778
10
122.3414637
20
28.2454378
40
0.8368332
50
89.9955172
51
93.9855699
0
ARC
8
DEFAULT_255_2_778
10
122.3414563
20
28.257263
40
0.8250078
50
4.0478935
51
89.9949385
0
ARC
8
DEFAULT_255_2_778
10
122.32943
20
28.2573391
40
0.8369993
50
359.9953243
51
3.9845835
0
ARC
8
DEFAULT_255_2_778
10
122.3415015
20
28.2572621
40
0.8249277
50
274.0496371
51
0.0006079
0
ARC
8
DEFAULT_255_2_778
10
122.3415979
20
28.269345
40
0.8369743
50
269.9952991
51
273.9846407
0
ARC
8
DEFAULT_255_2_778
10
122.3415125
20
28.2573969
40
0.8250261
50
184.0560009
51
270.0011596
0
ARC
8
DEFAULT_255_2_778
10
122.3533372
20
28.257205
40
0.8368082
50
179.9954919
51
183.9856271
0
LINE
8
DEFAULT_255_2_778
10
121.5165292
20
28.2572708
11
121.5165292
21
28.2572708
0
ARC
8
DEFAULT_255_2_778
10
125.7417631
20
32.2582564
40
0.8248058
50
142.7483544
51
180.0189395
0
ARC
8
DEFAULT_255_2_778
10
125.744076
20
32.2579943
40
0.8271185
50
180.0007282
51
181.5692415
0
ARC
8
DEFAULT_255_2_778
10
125.7418189
20
32.2578777
40
0.8248592
50
181.5654397
51
206.3605341
0
ARC
8
DEFAULT_255_2_778
10
125.7423971
20
32.2577416
40
0.8253169
50
206.3342431
51
269.9328886
0
ARC
8
DEFAULT_255_2_778
10
125.7403243
20
32.257966
40
0.8255414
50
270.0767643
51
333.6560865
0
ARC
8
DEFAULT_255_2_778
10
125.7413321
20
32.257725
40
0.8245313
50
333.6400212
51
358.4445555
0
ARC
8
DEFAULT_255_2_778
10
125.7398744
20
32.257847
40
0.8259918
50
358.4388366
51
0.0002788
0
ARC
8
DEFAULT_255_2_778
10
125.7408103
20
32.2580897
40
0.8250559
50
359.9834278
51
37.2529879
0
ARC
8
DEFAULT_255_2_778
10
125.741473
20
32.256838
40
0.8252873
50
37.350005
51
90.0029553
0
ARC
8
DEFAULT_255_2_778
10
125.7413826
20
32.2566464
40
0.8254789
50
89.9966851
51
142.6434136
0
ARC
8
DEFAULT_255_2_778
10
125.7414655
20
28.2572717
40
0.8250363
50
94.0505575
51
180.0000632
0
ARC
8
DEFAULT_255_2_778
10
125.7413633
20
28.2451063
40
0.8371647
50
89.9954912
51
93.9847716
0
ARC
8
DEFAULT_255_2_778
10
125.7413563
20
28.257263
40
0.8250078
50
4.0478935
51
89.9949385
0
ARC
8
DEFAULT_255_2_778
10
125.72933
20
28.2573391
40
0.8369993
50
359.9953243
51
3.9845835
0
ARC
8
DEFAULT_255_2_778
10
125.7414015
20
28.2572621
40
0.8249277
50
274.0496371
51
0.0006079
0
ARC
8
DEFAULT_255_2_778
10
125.7414979
20
28.269345
40
0.8369743
50
269.9952991
51
273.9846407
0
ARC
8
DEFAULT_255_2_778
10
125.7406734
20
28.2560795
40
0.8237091
50
217.0530232
51
270.0525725
0
ARC
8
DEFAULT_255_2_778
10
125.737673
20
28.2559611
40
0.821245
50
179.9086225
51
217.172556
0
LINE
8
DEFAULT_255_2_778
10
124.9164292
20
28.2572708
11
124.9164292
21
28.2572708
0
LINE
8
DEFAULT_255_2_778
10
121.7877865
20
31.1637
11
121.7877865
21
30.0207
0
LINE
8
DEFAULT_255_2_778
10
121.7877865
20
30.0207
11
121.6424865
21
30.0207
0
LINE
8
DEFAULT_255_2_778
10
121.6424865
20
30.0207
11
121.6424865
21
30.984
0
LINE
8
DEFAULT_255_2_778
10
121.6424865
20
30.984
11
121.3511865
21
30.8769
0
LINE
8
DEFAULT_255_2_778
10
121.3511865
20
30.8769
11
121.3511865
21
31.0081
0
LINE
8
DEFAULT_255_2_778
10
121.3511865
20
31.0081
11
121.7652865
21
31.1637
0
LINE
8
DEFAULT_255_2_778
10
121.7652865
20
31.1637
11
121.7879865
21
31.1637
0
LINE
8
DEFAULT_255_2_778
10
121.7879865
20
31.1637
11
121.7877865
21
31.1637
0
ARC
8
DEFAULT_255_2_778
10
122.744545
20
30.6360217
40
0.4002284
50
88.9951929
51
124.1200081
0
ARC
8
DEFAULT_255_2_778
10
122.7122204
20
30.6996012
40
0.3295816
50
125.667951
51
134.1234459
0
ARC
8
DEFAULT_255_2_778
10
122.7643045
20
30.6596139
40
0.3946629
50
135.5098198
51
173.1807264
0
ARC
8
DEFAULT_255_2_778
10
123.0004096
20
30.6078041
40
0.6356808
50
171.0703594
51
174.9836033
0
ARC
8
DEFAULT_255_2_778
10
122.5978202
20
30.4582634
40
0.3086727
50
87.280888
51
138.3530014
0
ARC
8
DEFAULT_255_2_778
10
122.6239685
20
30.4722245
40
0.2945888
50
40.0523262
51
92.2382114
0
ARC
8
DEFAULT_255_2_778
10
122.5397396
20
30.4112799
40
0.3983509
50
358.9874834
51
38.9663613
0
ARC
8
DEFAULT_255_2_778
10
122.3333632
20
30.3914437
40
0.6048004
50
359.9947758
51
1.2124229
0
ARC
8
DEFAULT_255_2_778
10
122.5036973
20
30.377618
40
0.4346844
50
330.4946426
51
1.8154021
0
ARC
8
DEFAULT_255_2_778
10
122.5908474
20
30.3385068
40
0.3396906
50
317.7678422
51
328.9961641
0
ARC
8
DEFAULT_255_2_778
10
122.60028
20
30.3338601
40
0.3295958
50
267.4582929
51
317.2638032
0
ARC
8
DEFAULT_255_2_778
10
122.5772897
20
30.3291874
40
0.3247069
50
217.841048
51
271.477762
0
ARC
8
DEFAULT_255_2_778
10
122.6975645
20
30.4229224
40
0.4771938
50
181.6448628
51
217.8697043
0
ARC
8
DEFAULT_255_2_778
10
122.9429844
20
30.4526492
40
0.723721
50
179.9652211
51
183.4398956
0
ARC
8
DEFAULT_255_2_778
10
123.2935474
20
30.5212709
40
1.0743576
50
167.2173433
51
180.6710367
0
ARC
8
DEFAULT_255_2_778
10
122.8058908
20
30.6370324
40
0.573196
50
142.1696026
51
167.7168281
0
ARC
8
DEFAULT_255_2_778
10
122.7046852
20
30.6971606
40
0.4566154
50
95.9735501
51
140.339679
0
ARC
8
DEFAULT_255_2_778
10
122.7611235
20
30.4094929
40
0.7490529
50
90.7083194
51
97.977598
0
ARC
8
DEFAULT_255_2_778
10
122.5876946
20
30.4156037
40
0.2308858
50
89.8339952
51
126.1288642
0
ARC
8
DEFAULT_255_2_778
10
122.5835895
20
30.4099183
40
0.2331528
50
124.4900713
51
159.8096942
0
ARC
8
DEFAULT_255_2_778
10
122.7684663
20
30.4241936
40
0.4039119
50
178.156321
51
206.3597131
0
ARC
8
DEFAULT_255_2_778
10
122.6545059
20
30.3771206
40
0.2810262
50
208.0767452
51
216.3153845
0
ARC
8
DEFAULT_255_2_778
10
122.5866872
20
30.31397
40
0.1892842
50
213.0685544
51
269.6901508
0
ARC
8
DEFAULT_255_2_778
10
122.5932955
20
30.3080444
40
0.1835147
50
267.6165249
51
322.641831
0
ARC
8
DEFAULT_255_2_778
10
122.4964302
20
30.3710275
40
0.2988537
50
324.3128744
51
2.6531357
0
LINE
8
DEFAULT_255_2_778
10
122.7949635
20
30.3848612
11
122.7949636
21
30.3850885
0
ARC
8
DEFAULT_255_2_778
10
122.496269
20
30.399068
40
0.2990215
50
357.3203954
51
35.6523885
0
ARC
8
DEFAULT_255_2_778
10
122.5610602
20
30.4354684
40
0.2253066
50
37.734775
51
38.0993138
0
ARC
8
DEFAULT_255_2_778
10
122.5933991
20
30.4655056
40
0.1813614
50
36.9355088
51
91.6858531
0
LINE
8
DEFAULT_255_2_778
10
122.7523636
20
31.1589885
11
122.7780636
21
31.1589885
0
LINE
8
DEFAULT_255_2_778
10
122.7780636
20
31.1589885
11
122.7780636
21
31.0361885
0
LINE
8
DEFAULT_255_2_778
10
122.7780636
20
31.0361885
11
122.7515636
21
31.0361885
0
LINE
8
DEFAULT_255_2_778
10
122.2192636
20
30.4530885
11
122.2192636
21
30.5086885
0
LINE
8
DEFAULT_255_2_778
10
122.7518636
20
31.1584885
11
122.7523636
21
31.1589885
0
LINE
8
DEFAULT_255_2_778
10
122.3647636
20
30.4903885
11
122.3647636
21
30.4371885
0
LINE
8
DEFAULT_255_2_778
10
122.5880636
20
30.6467885
11
122.5883636
21
30.6464885
0
LINE
8
DEFAULT_255_2_778
10
118.7685865
20
31.1857
11
118.7685865
21
30.0427
0
LINE
8
DEFAULT_255_2_778
10
118.7685865
20
30.0427
11
118.6232865
21
30.0427
0
LINE
8
DEFAULT_255_2_778
10
118.6232865
20
30.0427
11
118.6232865
21
31.006
0
LINE
8
DEFAULT_255_2_778
10
118.6232865
20
31.006
11
118.3319865
21
30.8989
0
LINE
8
DEFAULT_255_2_778
10
118.3319865
20
30.8989
11
118.3319865
21
31.0301
0
LINE
8
DEFAULT_255_2_778
10
118.3319865
20
31.0301
11
118.7460865
21
31.1857
0
LINE
8
DEFAULT_255_2_778
10
118.7460865
20
31.1857
11
118.7687865
21
31.1857
0
LINE
8
DEFAULT_255_2_778
10
118.7687865
20
31.1857
11
118.7685865
21
31.1857
0
ARC
8
DEFAULT_255_2_778
10
119.588362
20
30.4181707
40
0.367509
50
89.0305122
51
120.0049063
0
ARC
8
DEFAULT_255_2_778
10
119.6090385
20
30.4722512
40
0.3137092
50
42.1879038
51
92.64159
0
ARC
8
DEFAULT_255_2_778
10
119.549964
20
30.4370035
40
0.3813923
50
1.8159444
51
40.1510289
0
ARC
8
DEFAULT_255_2_778
10
119.3109142
20
30.4057019
40
0.6217662
50
359.9470322
51
4.0014178
0
ARC
8
DEFAULT_255_2_778
10
119.4992707
20
30.3917145
40
0.433617
50
332.431674
51
1.7725398
0
ARC
8
DEFAULT_255_2_778
10
119.6045478
20
30.3463915
40
0.3194318
50
316.8987707
51
330.8986394
0
ARC
8
DEFAULT_255_2_778
10
119.5977414
20
30.3641888
40
0.3366657
50
269.7279463
51
315.4786078
0
ARC
8
DEFAULT_255_2_778
10
119.5727554
20
30.5744379
40
0.5474109
50
269.9816654
51
272.4486339
0
ARC
8
DEFAULT_255_2_778
10
119.5573346
20
30.3855745
40
0.3588714
50
229.9840991
51
272.4347833
0
ARC
8
DEFAULT_255_2_778
10
119.5510871
20
30.3571451
40
0.3333544
50
182.6165266
51
227.6639266
0
ARC
8
DEFAULT_255_2_778
10
119.5837884
20
30.3598819
40
0.2296112
50
184.4849263
51
226.0669866
0
ARC
8
DEFAULT_255_2_778
10
119.5625576
20
30.3617178
40
0.2168365
50
230.4478069
51
272.7286325
0
ARC
8
DEFAULT_255_2_778
10
119.5822974
20
30.3399403
40
0.1950407
50
267.2325065
51
319.7142911
0
ARC
8
DEFAULT_255_2_778
10
119.5137077
20
30.3810764
40
0.2742684
50
322.4248308
51
0.1015646
0
ARC
8
DEFAULT_255_2_778
10
119.3066812
20
30.4036086
40
0.4817992
50
357.3773607
51
0.0259752
0
ARC
8
DEFAULT_255_2_778
10
119.5252129
20
30.4166185
40
0.2635779
50
357.2183479
51
40.2513038
0
ARC
8
DEFAULT_255_2_778
10
119.5697509
20
30.4445175
40
0.2116914
50
42.2775552
51
92.3745308
0
ARC
8
DEFAULT_255_2_778
10
119.5480599
20
30.4136132
40
0.2427579
50
86.9491068
51
122.8381089
0
ARC
8
DEFAULT_255_2_778
10
119.5103916
20
30.4870793
40
0.1608136
50
125.757045
51
127.4615075
0
LINE
8
DEFAULT_255_2_778
10
119.3738802
20
30.5832271
11
119.2582802
21
30.6128271
0
LINE
8
DEFAULT_255_2_778
10
119.2582802
20
30.6128271
11
119.3162802
21
31.1801271
0
LINE
8
DEFAULT_255_2_778
10
119.3162802
20
31.1801271
11
119.8990802
21
31.1801271
0
LINE
8
DEFAULT_255_2_778
10
119.8990802
20
31.1801271
11
119.8990802
21
31.0465271
0
LINE
8
DEFAULT_255_2_778
10
119.8990802
20
31.0465271
11
119.4389802
21
31.0465271
0
LINE
8
DEFAULT_255_2_778
10
119.4389802
20
31.0465271
11
119.4045802
21
30.7364271
0
LINE
8
DEFAULT_255_2_778
10
119.2180802
20
30.3419271
11
119.3548802
21
30.3419271
0
LINE
8
DEFAULT_255_2_778
10
119.4125802
20
30.6147271
11
119.3741802
21
30.5835271
0
LINE
8
DEFAULT_255_2_778
10
119.3741802
20
30.5835271
11
119.3738802
21
30.5832271
0
LINE
8
DEFAULT_255_2_778
10
115.0492865
20
31.142
11
115.0492865
21
29.999
0
LINE
8
DEFAULT_255_2_778
10
115.0492865
20
29.999
11
114.9039865
21
29.999
0
LINE
8
DEFAULT_255_2_778
10
114.9039865
20
29.999
11
114.9039865
21
30.9623
0
LINE
8
DEFAULT_255_2_778
10
114.9039865
20
30.9623
11
114.6126865
21
30.8552
0
LINE
8
DEFAULT_255_2_778
10
114.6126865
20
30.8552
11
114.6126865
21
30.9864
0
LINE
8
DEFAULT_255_2_778
10
114.6126865
20
30.9864
11
115.0267865
21
31.142
0
LINE
8
DEFAULT_255_2_778
10
115.0267865
20
31.142
11
115.0494865
21
31.142
0
LINE
8
DEFAULT_255_2_778
10
115.0494865
20
31.142
11
115.0492865
21
31.142
0
LINE
8
DEFAULT_255_2_778
10
116.082699
20
31.1364219
11
116.082699
21
30.3810219
0
LINE
8
DEFAULT_255_2_778
10
116.082699
20
30.3810219
11
116.240399
21
30.3810219
0
LINE
8
DEFAULT_255_2_778
10
116.240399
20
30.3810219
11
116.240399
21
30.2630219
0
LINE
8
DEFAULT_255_2_778
10
116.240399
20
30.2630219
11
116.082699
21
30.2630219
0
LINE
8
DEFAULT_255_2_778
10
116.082699
20
30.2630219
11
116.082699
21
29.9990219
0
LINE
8
DEFAULT_255_2_778
10
116.082699
20
29.9990219
11
115.937399
21
29.9990219
0
LINE
8
DEFAULT_255_2_778
10
115.937399
20
29.9990219
11
115.937399
21
30.2630219
0
LINE
8
DEFAULT_255_2_778
10
115.937399
20
30.2630219
11
115.419399
21
30.2630219
0
LINE
8
DEFAULT_255_2_778
10
115.419399
20
30.2630219
11
115.419399
21
30.3482219
0
LINE
8
DEFAULT_255_2_778
10
115.419399
20
30.3482219
11
115.928699
21
31.1364219
0
LINE
8
DEFAULT_255_2_778
10
115.928699
20
31.1364219
11
116.082699
21
31.1364219
0
LINE
8
DEFAULT_255_2_778
10
116.082699
20
31.1364219
11
116.082699
21
31.1364219
0
LINE
8
DEFAULT_255_2_778
10
115.920199
20
30.9075219
11
115.583399
21
30.3810219
0
LINE
8
DEFAULT_255_2_778
10
115.583399
20
30.3810219
11
115.937399
21
30.3810219
0
LINE
8
DEFAULT_255_2_778
10
115.937399
20
30.3810219
11
115.937399
21
30.9388219
0
LINE
8
DEFAULT_255_2_778
10
115.937399
20
30.9388219
11
115.920199
21
30.9075219
0
LINE
8
DEFAULT_255_2_778
10
115.920199
20
30.9075219
11
115.920199
21
30.9075219
0
LINE
8
DEFAULT_255_2_778
10
111.6007865
20
31.2076
11
111.6007865
21
30.0646
0
LINE
8
DEFAULT_255_2_778
10
111.6007865
20
30.0646
11
111.4554865
21
30.0646
0
LINE
8
DEFAULT_255_2_778
10
111.4554865
20
30.0646
11
111.4554865
21
31.0279
0
LINE
8
DEFAULT_255_2_778
10
111.4554865
20
31.0279
11
111.1641865
21
30.9208
0
LINE
8
DEFAULT_255_2_778
10
111.1641865
20
30.9208
11
111.1641865
21
31.052
0
LINE
8
DEFAULT_255_2_778
10
111.1641865
20
31.052
11
111.5782865
21
31.2076
0
LINE
8
DEFAULT_255_2_778
10
111.5782865
20
31.2076
11
111.6009865
21
31.2076
0
LINE
8
DEFAULT_255_2_778
10
111.6009865
20
31.2076
11
111.6007865
21
31.2076
0
ARC
8
DEFAULT_255_2_778
10
112.3521828
20
30.9417382
40
0.2383662
50
267.6972384
51
309.4075215
0
ARC
8
DEFAULT_255_2_778
10
112.3817196
20
30.8906177
40
0.1803742
50
312.4683604
51
2.6205322
0
ARC
8
DEFAULT_255_2_778
10
112.3439229
20
30.9117498
40
0.2183628
50
356.6171168
51
34.5482712
0
ARC
8
DEFAULT_255_2_778
10
112.3870236
20
30.9179892
40
0.1803605
50
40.6921951
51
91.2272563
0
ARC
8
DEFAULT_255_2_778
10
112.3629747
20
30.7323524
40
0.3665123
50
86.8427952
51
90.0421275
0
ARC
8
DEFAULT_255_2_778
10
112.3523357
20
30.8919232
40
0.207201
50
87.1314037
51
132.1811
0
ARC
8
DEFAULT_255_2_778
10
112.3447205
20
30.911827
40
0.1874974
50
134.5414
51
182.5256546
0
ARC
8
DEFAULT_255_2_778
10
112.3029676
20
30.9099258
40
0.2901321
50
131.1882945
51
181.2563306
0
ARC
8
DEFAULT_255_2_778
10
112.349701
20
30.8576969
40
0.3602134
50
87.8833476
51
131.3115136
0
ARC
8
DEFAULT_255_2_778
10
112.3764311
20
30.8232491
40
0.3946439
50
61.5512999
51
91.9495962
0
ARC
8
DEFAULT_255_2_778
10
112.4209393
20
30.9233042
40
0.2855962
50
47.0849935
51
59.839794
0
ARC
8
DEFAULT_255_2_778
10
112.4025181
20
30.9150829
40
0.3042625
50
358.1150128
51
45.5984869
0
ARC
8
DEFAULT_255_2_778
10
112.2136664
20
30.8957069
40
0.4930387
50
359.9950806
51
1.0886956
0
ARC
8
DEFAULT_255_2_778
10
112.4580414
20
30.899138
40
0.248688
50
323.7152022
51
359.1997274
0
ARC
8
DEFAULT_255_2_778
10
112.4201677
20
30.917933
40
0.2904312
50
291.6897145
51
325.1482478
0
ARC
8
DEFAULT_255_2_778
10
112.4504649
20
30.3786791
40
0.2801852
50
37.5824056
51
74.0402478
0
ARC
8
DEFAULT_255_2_778
10
112.4498943
20
30.3900823
40
0.2738434
50
358.2175642
51
35.6184615
0
ARC
8
DEFAULT_255_2_778
10
112.4140084
20
30.3669885
40
0.3099397
50
312.5513077
51
2.6955407
0
ARC
8
DEFAULT_255_2_778
10
112.3808039
20
30.4208409
40
0.372258
50
268.1049399
51
310.7106628
0
ARC
8
DEFAULT_255_2_778
10
112.3635349
20
30.6127238
40
0.5639591
50
269.9969797
51
270.5037912
0
ARC
8
DEFAULT_255_2_778
10
112.3487804
20
30.4428849
40
0.3943953
50
235.0953409
51
272.1396436
0
ARC
8
DEFAULT_255_2_778
10
112.3210145
20
30.3880395
40
0.3336394
50
229.1767643
51
233.616205
0
ARC
8
DEFAULT_255_2_778
10
112.2900501
20
30.3539885
40
0.2876321
50
177.9326634
51
229.41014
0
ARC
8
DEFAULT_255_2_778
10
112.3333596
20
30.3561109
40
0.185638
50
177.4517345
51
226.809965
0
ARC
8
DEFAULT_255_2_778
10
112.3520147
20
30.3891278
40
0.2226599
50
229.1255351
51
272.9580981
0
ARC
8
DEFAULT_255_2_778
10
112.3769104
20
30.3921712
40
0.2258049
50
266.5965684
51
307.5930408
0
ARC
8
DEFAULT_255_2_778
10
112.4085043
20
30.337818
40
0.1636654
50
310.4383336
51
314.6899404
0
ARC
8
DEFAULT_255_2_778
10
112.3684117
20
30.3646534
40
0.2111589
50
317.303912
51
3.8045797
0
ARC
8
DEFAULT_255_2_778
10
112.3878165
20
30.390678
40
0.1916656
50
356.406403
51
47.0926663
0
ARC
8
DEFAULT_255_2_778
10
112.3637814
20
30.336306
40
0.2486132
50
51.5710886
51
89.2414068
0
ARC
8
DEFAULT_255_2_778
10
112.3364017
20
30.1190607
40
0.4668452
50
86.2330164
51
89.2386212
0
LINE
8
DEFAULT_255_2_778
10
112.2341052
20
30.5855646
11
112.2341052
21
30.7035646
0
LINE
8
DEFAULT_255_2_778
10
112.2341052
20
30.7035646
11
112.3426052
21
30.7035646
0
LINE
8
DEFAULT_255_2_778
10
112.1574052
20
30.9035646
11
112.0129052
21
30.9035646
0
LINE
8
DEFAULT_255_2_778
10
112.0026052
20
30.3643646
11
112.1479052
21
30.3643646
0
LINE
8
DEFAULT_255_2_778
10
112.3426052
20
30.5858646
11
112.2341052
21
30.5858646
0
LINE
8
DEFAULT_255_2_778
10
112.2341052
20
30.5858646
11
112.2341052
21
30.5855646
0
LINE
8
DEFAULT_255_2_778
10
105.1684865
20
31.1857
11
105.1684865
21
30.0427
0
LINE
8
DEFAULT_255_2_778
10
105.1684865
20
30.0427
11
105.0231865
21
30.0427
0
LINE
8
DEFAULT_255_2_778
10
105.0231865
20
30.0427
11
105.0231865
21
31.006
0
LINE
8
DEFAULT_255_2_778
10
105.0231865
20
31.006
11
104.7318865
21
30.8989
0
LINE
8
DEFAULT_255_2_778
10
104.7318865
20
30.8989
11
104.7318865
21
31.0301
0
LINE
8
DEFAULT_255_2_778
10
104.7318865
20
31.0301
11
105.1459865
21
31.1857
0
LINE
8
DEFAULT_255_2_778
10
105.1459865
20
31.1857
11
105.1686865
21
31.1857
0
LINE
8
DEFAULT_255_2_778
10
105.1686865
20
31.1857
11
105.1684865
21
31.1857
0
LINE
8
DEFAULT_255_2_778
10
106.0669865
20
31.1857
11
106.0669865
21
30.0427
0
LINE
8
DEFAULT_255_2_778
10
106.0669865
20
30.0427
11
105.9216865
21
30.0427
0
LINE
8
DEFAULT_255_2_778
10
105.9216865
20
30.0427
11
105.9216865
21
31.006
0
LINE
8
DEFAULT_255_2_778
10
105.9216865
20
31.006
11
105.6303865
21
30.8989
0
LINE
8
DEFAULT_255_2_778
10
105.6303865
20
30.8989
11
105.6303865
21
31.0301
0
LINE
8
DEFAULT_255_2_778
10
105.6303865
20
31.0301
11
106.0444865
21
31.1857
0
LINE
8
DEFAULT_255_2_778
10
106.0444865
20
31.1857
11
106.0671865
21
31.1857
0
LINE
8
DEFAULT_255_2_778
10
106.0671865
20
31.1857
11
106.0669865
21
31.1857
0
LINE
8
DEFAULT_255_2_778
10
101.4491865
20
31.142
11
101.4491865
21
29.999
0
LINE
8
DEFAULT_255_2_778
10
101.4491865
20
29.999
11
101.3038865
21
29.999
0
LINE
8
DEFAULT_255_2_778
10
101.3038865
20
29.999
11
101.3038865
21
30.9623
0
LINE
8
DEFAULT_255_2_778
10
101.3038865
20
30.9623
11
101.0125865
21
30.8552
0
LINE
8
DEFAULT_255_2_778
10
101.0125865
20
30.8552
11
101.0125865
21
30.9864
0
LINE
8
DEFAULT_255_2_778
10
101.0125865
20
30.9864
11
101.4266865
21
31.142
0
LINE
8
DEFAULT_255_2_778
10
101.4266865
20
31.142
11
101.4493865
21
31.142
0
LINE
8
DEFAULT_255_2_778
10
101.4493865
20
31.142
11
101.4491865
21
31.142
0
ARC
8
DEFAULT_255_2_778
10
101.5610144
20
30.4716395
40
1.0248887
50
348.9599816
51
0.6928247
0
ARC
8
DEFAULT_255_2_778
10
102.1220351
20
30.3563063
40
0.4522016
50
326.5019417
51
349.6906274
0
ARC
8
DEFAULT_255_2_778
10
102.257839
20
30.2822636
40
0.2983818
50
269.6746931
51
323.965112
0
ARC
8
DEFAULT_255_2_778
10
102.2282141
20
30.5005093
40
0.5173772
50
269.968335
51
273.0946457
0
ARC
8
DEFAULT_255_2_778
10
102.2141612
20
30.3342429
40
0.3513804
50
237.9683085
51
272.2453912
0
ARC
8
DEFAULT_255_2_778
10
102.1813914
20
30.2639844
40
0.2746015
50
215.677109
51
235.9891777
0
ARC
8
DEFAULT_255_2_778
10
102.336791
20
30.3626053
40
0.4584731
50
189.9758066
51
214.3622695
0
ARC
8
DEFAULT_255_2_778
10
102.8412447
20
30.468145
40
0.9737237
50
180.2184654
51
190.9500636
0
ARC
8
DEFAULT_255_2_778
10
102.8642118
20
30.669653
40
0.9967598
50
168.7512073
51
180.708238
0
ARC
8
DEFAULT_255_2_778
10
102.3213101
20
30.783162
40
0.4421787
50
146.0926208
51
169.4541479
0
ARC
8
DEFAULT_255_2_778
10
102.1941703
20
30.8524495
40
0.2983101
50
90.3434709
51
143.5140674
0
ARC
8
DEFAULT_255_2_778
10
102.225911
20
30.6298547
40
0.5219777
50
89.9542153
51
93.6829006
0
ARC
8
DEFAULT_255_2_778
10
102.2397123
20
30.7850714
40
0.367005
50
60.5898352
51
92.0899681
0
ARC
8
DEFAULT_255_2_778
10
102.2809781
20
30.8762224
40
0.2674822
50
36.2353857
51
58.7017609
0
ARC
8
DEFAULT_255_2_778
10
102.1400836
20
30.787183
40
0.4339102
50
10.2839172
51
34.72137
0
ARC
8
DEFAULT_255_2_778
10
101.601552
20
30.6731575
40
0.9842778
50
359.8937528
51
11.2183522
0
ARC
8
DEFAULT_255_2_778
10
101.615008
20
30.6939894
40
0.8265081
50
359.1641344
51
10.7645033
0
ARC
8
DEFAULT_255_2_778
10
102.1158033
20
30.7913677
40
0.3163447
50
10.3787531
51
29.9774528
0
ARC
8
DEFAULT_255_2_778
10
102.238699
20
30.8561505
40
0.1775993
50
31.6842263
51
93.9295413
0
ARC
8
DEFAULT_255_2_778
10
102.2144472
20
30.8586974
40
0.1750523
50
86.0426764
51
148.6647913
0
ARC
8
DEFAULT_255_2_778
10
102.3846553
20
30.7718909
40
0.3658593
50
150.9159356
51
173.3121892
0
ARC
8
DEFAULT_255_2_778
10
102.8907632
20
30.6907694
40
0.8782371
50
171.90102
51
179.8719443
0
ARC
8
DEFAULT_255_2_778
10
102.8324865
20
30.4497701
40
0.8200428
50
179.1781584
51
191.0324885
0
ARC
8
DEFAULT_255_2_778
10
102.3546995
20
30.3549544
40
0.3329455
50
190.7517404
51
209.8509498
0
ARC
8
DEFAULT_255_2_778
10
102.2190813
20
30.2784419
40
0.1772406
50
210.2202047
51
272.9258057
0
ARC
8
DEFAULT_255_2_778
10
102.2384686
20
30.2756385
40
0.1745129
50
266.603032
51
328.4138866
0
ARC
8
DEFAULT_255_2_778
10
102.078287
20
30.361022
40
0.3558615
50
330.2119154
51
352.7567583
0
ARC
8
DEFAULT_255_2_778
10
101.5505414
20
30.4501438
40
0.8909007
50
351.3500202
51
359.6776993
0
LINE
8
DEFAULT_255_2_778
10
102.5858281
20
30.6716323
11
102.5858281
21
30.4840323
0
LINE
8
DEFAULT_255_2_778
10
101.8675281
20
30.4644323
11
101.8675281
21
30.6573323
0
LINE
8
DEFAULT_255_2_778
10
102.5858281
20
30.6713323
11
102.5858281
21
30.6716323
0
LINE
8
DEFAULT_255_2_778
10
102.4414281
20
30.4451323
11
102.4414281
21
30.6819323
0
LINE
8
DEFAULT_255_2_778
10
102.0125281
20
30.6927323
11
102.0125281
21
30.4615323
0
LINE
8
DEFAULT_255_2_778
10
102.4414281
20
30.4451323
11
102.4414281
21
30.4451323
0
LINE
8
DEFAULT_255_2_778
10
108.1875865
20
31.164
11
108.1875865
21
30.021
0
LINE
8
DEFAULT_255_2_778
10
108.1875865
20
30.021
11
108.0422865
21
30.021
0
LINE
8
DEFAULT_255_2_778
10
108.0422865
20
30.021
11
108.0422865
21
30.9843
0
LINE
8
DEFAULT_255_2_778
10
108.0422865
20
30.9843
11
107.7509865
21
30.8772
0
LINE
8
DEFAULT_255_2_778
10
107.7509865
20
30.8772
11
107.7509865
21
31.0084
0
LINE
8
DEFAULT_255_2_778
10
107.7509865
20
31.0084
11
108.1650865
21
31.164
0
LINE
8
DEFAULT_255_2_778
10
108.1650865
20
31.164
11
108.1877865
21
31.164
0
LINE
8
DEFAULT_255_2_778
10
108.1877865
20
31.164
11
108.1875865
21
31.164
0
ARC
8
DEFAULT_255_2_778
10
108.030263
20
31.4366593
40
1.3089815
50
318.1066296
51
324.2635474
0
ARC
8
DEFAULT_255_2_778
10
108.685227
20
30.9634792
40
0.5009772
50
324.4407366
51
331.4424834
0
ARC
8
DEFAULT_255_2_778
10
108.8879315
20
30.8536352
40
0.2704247
50
331.3532966
51
359.7788906
0
ARC
8
DEFAULT_255_2_778
10
108.9548911
20
30.8604192
40
0.2036136
50
357.7968401
51
42.7727786
0
ARC
8
DEFAULT_255_2_778
10
108.9690249
20
30.8674873
40
0.1884904
50
44.1133549
51
92.5452931
0
ARC
8
DEFAULT_255_2_778
10
108.9473051
20
30.8332881
40
0.2229036
50
86.5666508
51
133.7180238
0
ARC
8
DEFAULT_255_2_778
10
108.9672278
20
30.8376283
40
0.2341828
50
137.9787701
51
183.3872909
0
ARC
8
DEFAULT_255_2_778
10
108.9244676
20
30.8373672
40
0.3357879
50
134.2747268
51
182.3170464
0
ARC
8
DEFAULT_255_2_778
10
108.9382025
20
30.8071147
40
0.3672106
50
89.359196
51
132.5136406
0
ARC
8
DEFAULT_255_2_778
10
108.9605541
20
30.5997489
40
0.5748429
50
89.9900279
51
91.8188013
0
ARC
8
DEFAULT_255_2_778
10
108.9740413
20
30.7793043
40
0.395514
50
61.1951992
51
91.9396843
0
ARC
8
DEFAULT_255_2_778
10
109.0168353
20
30.8749174
40
0.2912383
50
48.0417413
51
59.508966
0
ARC
8
DEFAULT_255_2_778
10
109.0200159
20
30.8820856
40
0.2837919
50
357.5777809
51
47.5516517
0
ARC
8
DEFAULT_255_2_778
10
108.9203517
20
30.8828705
40
0.3834155
50
331.2594151
51
358.0900352
0
ARC
8
DEFAULT_255_2_778
10
108.4510583
20
31.1224194
40
0.9102146
50
319.7427535
51
332.2426664
0
ARC
8
DEFAULT_255_2_778
10
107.9618187
20
31.5122697
40
1.5356207
50
317.2552041
51
320.43833
0
LINE
8
DEFAULT_255_2_778
10
109.3562542
20
30.1389917
11
109.3562542
21
30.0209917
0
LINE
8
DEFAULT_255_2_778
10
109.3562542
20
30.0209917
11
108.6109542
21
30.0209917
0
LINE
8
DEFAULT_255_2_778
10
108.6109542
20
30.0209917
11
108.6109542
21
30.1249917
0
LINE
8
DEFAULT_255_2_778
10
108.6109542
20
30.1249917
11
109.0046542
21
30.5625917
0
LINE
8
DEFAULT_255_2_778
10
108.7334542
20
30.8237917
11
108.5889542
21
30.8237917
0
LINE
8
DEFAULT_255_2_778
10
109.0895542
20
30.4699917
11
108.7847542
21
30.1395917
0
LINE
8
DEFAULT_255_2_778
10
108.7847542
20
30.1395917
11
109.3557542
21
30.1395917
0
LINE
8
DEFAULT_255_2_778
10
109.3557542
20
30.1395917
11
109.3562542
21
30.1389917
0
LINE
8
DEFAULT_255_2_778
10
125.2005865
20
31.2076
11
125.2005865
21
30.0646
0
LINE
8
DEFAULT_255_2_778
10
125.2005865
20
30.0646
11
125.0552865
21
30.0646
0
LINE
8
DEFAULT_255_2_778
10
125.0552865
20
30.0646
11
125.0552865
21
31.0279
0
LINE
8
DEFAULT_255_2_778
10
125.0552865
20
31.0279
11
124.7639865
21
30.9208
0
LINE
8
DEFAULT_255_2_778
10
124.7639865
20
30.9208
11
124.7639865
21
31.052
0
LINE
8
DEFAULT_255_2_778
10
124.7639865
20
31.052
11
125.1780865
21
31.2076
0
LINE
8
DEFAULT_255_2_778
10
125.1780865
20
31.2076
11
125.2007865
21
31.2076
0
LINE
8
DEFAULT_255_2_778
10
125.2007865
20
31.2076
11
125.2005865
21
31.2076
0
LINE
8
DEFAULT_255_2_778
10
126.3583604
20
31.2021219
11
126.3583604
21
31.1209219
0
LINE
8
DEFAULT_255_2_778
10
126.3583604
20
31.1209219
11
125.8871604
21
30.0647219
0
LINE
8
DEFAULT_255_2_778
10
125.8871604
20
30.0647219
11
125.7354604
21
30.0647219
0
LINE
8
DEFAULT_255_2_778
10
125.7354604
20
30.0647219
11
126.2051604
21
31.0833219
0
LINE
8
DEFAULT_255_2_778
10
126.2051604
20
31.0833219
11
125.5894604
21
31.0833219
0
LINE
8
DEFAULT_255_2_778
10
125.5894604
20
31.0833219
11
125.5894604
21
31.2021219
0
LINE
8
DEFAULT_255_2_778
10
125.5894604
20
31.2021219
11
126.3583604
21
31.2021219
0
LINE
8
DEFAULT_255_2_778
10
126.3583604
20
31.2021219
11
126.3583604
21
31.2021219
0
ARC
8
DEFAULT_255_2_778
10
122.302945
20
34.6362217
40
0.4002284
50
88.9951929
51
124.1200081
0
ARC
8
DEFAULT_255_2_778
10
122.2706204
20
34.6998012
40
0.3295816
50
125.667951
51
134.1234459
0
ARC
8
DEFAULT_255_2_778
10
122.3227045
20
34.6598139
40
0.3946629
50
135.5098198
51
173.1807264
0
ARC
8
DEFAULT_255_2_778
10
122.5588096
20
34.6080041
40
0.6356808
50
171.0703594
51
174.9836033
0
ARC
8
DEFAULT_255_2_778
10
122.1562202
20
34.4584634
40
0.3086727
50
87.280888
51
138.3530014
0
ARC
8
DEFAULT_255_2_778
10
122.1823685
20
34.4724245
40
0.2945888
50
40.0523262
51
92.2382114
0
ARC
8
DEFAULT_255_2_778
10
122.0981396
20
34.4114799
40
0.3983509
50
358.9874834
51
38.9663613
0
ARC
8
DEFAULT_255_2_778
10
121.8917632
20
34.3916437
40
0.6048004
50
359.9947758
51
1.2124229
0
ARC
8
DEFAULT_255_2_778
10
122.0620973
20
34.377818
40
0.4346844
50
330.4946426
51
1.8154021
0
ARC
8
DEFAULT_255_2_778
10
122.1492474
20
34.3387068
40
0.3396906
50
317.7678422
51
328.9961641
0
ARC
8
DEFAULT_255_2_778
10
122.15868
20
34.3340601
40
0.3295958
50
267.4582929
51
317.2638032
0
ARC
8
DEFAULT_255_2_778
10
122.1356897
20
34.3293874
40
0.3247069
50
217.841048
51
271.477762
0
ARC
8
DEFAULT_255_2_778
10
122.2559645
20
34.4231224
40
0.4771938
50
181.6448628
51
217.8697043
0
ARC
8
DEFAULT_255_2_778
10
122.5013844
20
34.4528492
40
0.723721
50
179.9652211
51
183.4398956
0
ARC
8
DEFAULT_255_2_778
10
122.8519474
20
34.5214709
40
1.0743576
50
167.2173433
51
180.6710367
0
ARC
8
DEFAULT_255_2_778
10
122.3642908
20
34.6372324
40
0.573196
50
142.1696026
51
167.7168281
0
ARC
8
DEFAULT_255_2_778
10
122.2630852
20
34.6973606
40
0.4566154
50
95.9735501
51
140.339679
0
ARC
8
DEFAULT_255_2_778
10
122.3195235
20
34.4096929
40
0.7490529
50
90.7083194
51
97.977598
0
ARC
8
DEFAULT_255_2_778
10
122.1460946
20
34.4158037
40
0.2308858
50
89.8339952
51
126.1288642
0
ARC
8
DEFAULT_255_2_778
10
122.1419895
20
34.4101183
40
0.2331528
50
124.4900713
51
159.8096942
0
ARC
8
DEFAULT_255_2_778
10
122.3268663
20
34.4243936
40
0.4039119
50
178.156321
51
206.3597131
0
ARC
8
DEFAULT_255_2_778
10
122.2129059
20
34.3773206
40
0.2810262
50
208.0767452
51
216.3153845
0
ARC
8
DEFAULT_255_2_778
10
122.1450872
20
34.31417
40
0.1892842
50
213.0685544
51
269.6901508
0
ARC
8
DEFAULT_255_2_778
10
122.1516955
20
34.3082444
40
0.1835147
50
267.6165249
51
322.641831
0
ARC
8
DEFAULT_255_2_778
10
122.0548302
20
34.3712275
40
0.2988537
50
324.3128744
51
2.6531357
0
LINE
8
DEFAULT_255_2_778
10
122.3533635
20
34.3850612
11
122.3533636
21
34.3852885
0
ARC
8
DEFAULT_255_2_778
10
122.054669
20
34.399268
40
0.2990215
50
357.3203954
51
35.6523885
0
ARC
8
DEFAULT_255_2_778
10
122.1194602
20
34.4356684
40
0.2253066
50
37.734775
51
38.0993138
0
ARC
8
DEFAULT_255_2_778
10
122.1517991
20
34.4657056
40
0.1813614
50
36.9355088
51
91.6858531
0
LINE
8
DEFAULT_255_2_778
10
122.3107636
20
35.1591885
11
122.3364636
21
35.1591885
0
LINE
8
DEFAULT_255_2_778
10
122.3364636
20
35.1591885
11
122.3364636
21
35.0363885
0
LINE
8
DEFAULT_255_2_778
10
122.3364636
20
35.0363885
11
122.3099636
21
35.0363885
0
LINE
8
DEFAULT_255_2_778
10
121.7776636
20
34.4532885
11
121.7776636
21
34.5088885
0
LINE
8
DEFAULT_255_2_778
10
122.3102636
20
35.1586885
11
122.3107636
21
35.1591885
0
LINE
8
DEFAULT_255_2_778
10
121.9231636
20
34.4905885
11
121.9231636
21
34.4373885
0
LINE
8
DEFAULT_255_2_778
10
122.1464636
20
34.6469885
11
122.1467636
21
34.6466885
0
ARC
8
DEFAULT_255_2_778
10
119.1467752
20
34.4181707
40
0.367509
50
89.0305122
51
120.0049063
0
ARC
8
DEFAULT_255_2_778
10
119.1674517
20
34.4722512
40
0.3137092
50
42.1879038
51
92.64159
0
ARC
8
DEFAULT_255_2_778
10
119.1083772
20
34.4370035
40
0.3813923
50
1.8159444
51
40.1510289
0
ARC
8
DEFAULT_255_2_778
10
118.8693274
20
34.4057019
40
0.6217662
50
359.9470322
51
4.0014178
0
ARC
8
DEFAULT_255_2_778
10
119.0576839
20
34.3917145
40
0.433617
50
332.431674
51
1.7725398
0
ARC
8
DEFAULT_255_2_778
10
119.162961
20
34.3463915
40
0.3194318
50
316.8987707
51
330.8986394
0
ARC
8
DEFAULT_255_2_778
10
119.1561546
20
34.3641888
40
0.3366657
50
269.7279463
51
315.4786078
0
ARC
8
DEFAULT_255_2_778
10
119.1311686
20
34.5744379
40
0.5474109
50
269.9816654
51
272.4486339
0
ARC
8
DEFAULT_255_2_778
10
119.1157478
20
34.3855745
40
0.3588714
50
229.9840991
51
272.4347833
0
ARC
8
DEFAULT_255_2_778
10
119.1095003
20
34.3571451
40
0.3333544
50
182.6165266
51
227.6639266
0
ARC
8
DEFAULT_255_2_778
10
119.1422016
20
34.3598819
40
0.2296112
50
184.4849263
51
226.0669866
0
ARC
8
DEFAULT_255_2_778
10
119.1209708
20
34.3617178
40
0.2168365
50
230.4478069
51
272.7286325
0
ARC
8
DEFAULT_255_2_778
10
119.1407106
20
34.3399403
40
0.1950407
50
267.2325065
51
319.7142911
0
ARC
8
DEFAULT_255_2_778
10
119.0721209
20
34.3810764
40
0.2742684
50
322.4248308
51
0.1015646
0
ARC
8
DEFAULT_255_2_778
10
118.8650944
20
34.4036086
40
0.4817992
50
357.3773607
51
0.0259752
0
ARC
8
DEFAULT_255_2_778
10
119.0836261
20
34.4166185
40
0.2635779
50
357.2183479
51
40.2513038
0
ARC
8
DEFAULT_255_2_778
10
119.1281641
20
34.4445175
40
0.2116914
50
42.2775552
51
92.3745308
0
ARC
8
DEFAULT_255_2_778
10
119.1064731
20
34.4136132
40
0.2427579
50
86.9491068
51
122.8381089
0
ARC
8
DEFAULT_255_2_778
10
119.0688048
20
34.4870793
40
0.1608136
50
125.757045
51
127.4615075
0
LINE
8
DEFAULT_255_2_778
10
118.9322934
20
34.5832271
11
118.8166934
21
34.6128271
0
LINE
8
DEFAULT_255_2_778
10
118.8166934
20
34.6128271
11
118.8746934
21
35.1801271
0
LINE
8
DEFAULT_255_2_778
10
118.8746934
20
35.1801271
11
119.4574934
21
35.1801271
0
LINE
8
DEFAULT_255_2_778
10
119.4574934
20
35.1801271
11
119.4574934
21
35.0465271
0
LINE
8
DEFAULT_255_2_778
10
119.4574934
20
35.0465271
11
118.9973934
21
35.0465271
0
LINE
8
DEFAULT_255_2_778
10
118.9973934
20
35.0465271
11
118.9629934
21
34.7364271
0
LINE
8
DEFAULT_255_2_778
10
118.7764934
20
34.3419271
11
118.9132934
21
34.3419271
0
LINE
8
DEFAULT_255_2_778
10
118.9709934
20
34.6147271
11
118.9325934
21
34.5835271
0
LINE
8
DEFAULT_255_2_778
10
118.9325934
20
34.5835271
11
118.9322934
21
34.5832271
0
LINE
8
DEFAULT_255_2_778
10
115.641199
20
35.1364219
11
115.641199
21
34.3810219
0
LINE
8
DEFAULT_255_2_778
10
115.641199
20
34.3810219
11
115.798899
21
34.3810219
0
LINE
8
DEFAULT_255_2_778
10
115.798899
20
34.3810219
11
115.798899
21
34.2630219
0
LINE
8
DEFAULT_255_2_778
10
115.798899
20
34.2630219
11
115.641199
21
34.2630219
0
LINE
8
DEFAULT_255_2_778
10
115.641199
20
34.2630219
11
115.641199
21
33.9990219
0
LINE
8
DEFAULT_255_2_778
10
115.641199
20
33.9990219
11
115.495899
21
33.9990219
0
LINE
8
DEFAULT_255_2_778
10
115.495899
20
33.9990219
11
115.495899
21
34.2630219
0
LINE
8
DEFAULT_255_2_778
10
115.495899
20
34.2630219
11
114.977899
21
34.2630219
0
LINE
8
DEFAULT_255_2_778
10
114.977899
20
34.2630219
11
114.977899
21
34.3482219
0
LINE
8
DEFAULT_255_2_778
10
114.977899
20
34.3482219
11
115.487199
21
35.1364219
0
LINE
8
DEFAULT_255_2_778
10
115.487199
20
35.1364219
11
115.641199
21
35.1364219
0
LINE
8
DEFAULT_255_2_778
10
115.641199
20
35.1364219
11
115.641199
21
35.1364219
0
LINE
8
DEFAULT_255_2_778
10
115.478699
20
34.9075219
11
115.141899
21
34.3810219
0
LINE
8
DEFAULT_255_2_778
10
115.141899
20
34.3810219
11
115.495899
21
34.3810219
0
LINE
8
DEFAULT_255_2_778
10
115.495899
20
34.3810219
11
115.495899
21
34.9388219
0
LINE
8
DEFAULT_255_2_778
10
115.495899
20
34.9388219
11
115.478699
21
34.9075219
0
LINE
8
DEFAULT_255_2_778
10
115.478699
20
34.9075219
11
115.478699
21
34.9075219
0
ARC
8
DEFAULT_255_2_778
10
111.9106229
20
34.9413386
40
0.2379684
50
267.6837125
51
309.4425417
0
ARC
8
DEFAULT_255_2_778
10
111.9402681
20
34.8906423
40
0.1802247
50
312.4047827
51
2.6148612
0
ARC
8
DEFAULT_255_2_778
10
111.9023229
20
34.9117498
40
0.2183628
50
356.6171168
51
34.5482712
0
ARC
8
DEFAULT_255_2_778
10
111.9454236
20
34.9179892
40
0.1803605
50
40.6921951
51
91.2272563
0
ARC
8
DEFAULT_255_2_778
10
111.9213747
20
34.7323524
40
0.3665123
50
86.8427952
51
90.0421275
0
ARC
8
DEFAULT_255_2_778
10
111.9107357
20
34.8919232
40
0.207201
50
87.1314037
51
132.1811
0
ARC
8
DEFAULT_255_2_778
10
111.9031205
20
34.911827
40
0.1874974
50
134.5414
51
182.5256546
0
ARC
8
DEFAULT_255_2_778
10
111.8613676
20
34.9099258
40
0.2901321
50
131.1882945
51
181.2563306
0
ARC
8
DEFAULT_255_2_778
10
111.9080467
20
34.8578347
40
0.360074
50
87.8897962
51
131.3194901
0
ARC
8
DEFAULT_255_2_778
10
111.9346662
20
34.8225666
40
0.3953238
50
61.7282868
51
91.9368265
0
ARC
8
DEFAULT_255_2_778
10
111.9794607
20
34.9237552
40
0.285115
50
47.0558653
51
60.0244637
0
ARC
8
DEFAULT_255_2_778
10
111.9608181
20
34.9150829
40
0.3042625
50
358.1150128
51
45.5984869
0
ARC
8
DEFAULT_255_2_778
10
111.7719664
20
34.8957069
40
0.4930387
50
359.9950806
51
1.0886956
0
ARC
8
DEFAULT_255_2_778
10
112.0159972
20
34.8991137
40
0.2490319
50
323.7801995
51
359.2064244
0
ARC
8
DEFAULT_255_2_778
10
111.9785677
20
34.917933
40
0.2904312
50
291.6897145
51
325.1482478
0
ARC
8
DEFAULT_255_2_778
10
112.0088649
20
34.3786791
40
0.2801852
50
37.5824056
51
74.0402478
0
ARC
8
DEFAULT_255_2_778
10
112.0082943
20
34.3900823
40
0.2738434
50
358.2175642
51
35.6184615
0
ARC
8
DEFAULT_255_2_778
10
111.9724084
20
34.3669885
40
0.3099397
50
312.5513077
51
2.6955407
0
ARC
8
DEFAULT_255_2_778
10
111.9392039
20
34.4208409
40
0.372258
50
268.1049399
51
310.7106628
0
ARC
8
DEFAULT_255_2_778
10
111.9219349
20
34.6127238
40
0.5639591
50
269.9969797
51
270.5037912
0
ARC
8
DEFAULT_255_2_778
10
111.9071804
20
34.4428849
40
0.3943953
50
235.0953409
51
272.1396436
0
ARC
8
DEFAULT_255_2_778
10
111.8794145
20
34.3880395
40
0.3336394
50
229.1767643
51
233.616205
0
ARC
8
DEFAULT_255_2_778
10
111.8484501
20
34.3539885
40
0.2876321
50
177.9326634
51
229.41014
0
ARC
8
DEFAULT_255_2_778
10
111.8917596
20
34.3561109
40
0.185638
50
177.4517345
51
226.809965
0
ARC
8
DEFAULT_255_2_778
10
111.9104147
20
34.3891278
40
0.2226599
50
229.1255351
51
272.9580981
0
ARC
8
DEFAULT_255_2_778
10
111.9354074
20
34.3915272
40
0.2251679
50
266.5622094
51
307.9794424
0
ARC
8
DEFAULT_255_2_778
10
111.9665725
20
34.3383688
40
0.1642904
50
310.8219358
51
314.6371328
0
ARC
8
DEFAULT_255_2_778
10
111.9268117
20
34.3646534
40
0.2111589
50
317.303912
51
3.8045797
0
ARC
8
DEFAULT_255_2_778
10
111.9462165
20
34.390678
40
0.1916656
50
356.406403
51
47.0926663
0
ARC
8
DEFAULT_255_2_778
10
111.9221814
20
34.336306
40
0.2486132
50
51.5710886
51
89.2414068
0
ARC
8
DEFAULT_255_2_778
10
111.8948017
20
34.1190607
40
0.4668452
50
86.2330164
51
89.2386212
0
LINE
8
DEFAULT_255_2_778
10
111.7925052
20
34.5855646
11
111.7925052
21
34.7035646
0
LINE
8
DEFAULT_255_2_778
10
111.7925052
20
34.7035646
11
111.9010052
21
34.7035646
0
LINE
8
DEFAULT_255_2_778
10
111.7158052
20
34.9035646
11
111.5713052
21
34.9035646
0
LINE
8
DEFAULT_255_2_778
10
111.5610052
20
34.3643646
11
111.7063052
21
34.3643646
0
LINE
8
DEFAULT_255_2_778
10
111.9010052
20
34.5858646
11
111.7925052
21
34.5858646
0
LINE
8
DEFAULT_255_2_778
10
111.7925052
20
34.5858646
11
111.7925052
21
34.5855646
0
ARC
8
DEFAULT_255_2_778
10
107.588963
20
35.4365593
40
1.3089815
50
318.1066296
51
324.2635474
0
ARC
8
DEFAULT_255_2_778
10
108.243927
20
34.9633792
40
0.5009772
50
324.4407366
51
331.4424834
0
ARC
8
DEFAULT_255_2_778
10
108.4466315
20
34.8535352
40
0.2704247
50
331.3532966
51
359.7788906
0
ARC
8
DEFAULT_255_2_778
10
108.5135911
20
34.8603192
40
0.2036136
50
357.7968401
51
42.7727786
0
ARC
8
DEFAULT_255_2_778
10
108.5277249
20
34.8673873
40
0.1884904
50
44.1133549
51
92.5452931
0
ARC
8
DEFAULT_255_2_778
10
108.5060051
20
34.8331881
40
0.2229036
50
86.5666508
51
133.7180238
0
ARC
8
DEFAULT_255_2_778
10
108.5259278
20
34.8375283
40
0.2341828
50
137.9787701
51
183.3872909
0
ARC
8
DEFAULT_255_2_778
10
108.4831676
20
34.8372672
40
0.3357879
50
134.2747268
51
182.3170464
0
ARC
8
DEFAULT_255_2_778
10
108.4969025
20
34.8070147
40
0.3672106
50
89.359196
51
132.5136406
0
ARC
8
DEFAULT_255_2_778
10
108.5192541
20
34.5996489
40
0.5748429
50
89.9900279
51
91.8188013
0
ARC
8
DEFAULT_255_2_778
10
108.5327413
20
34.7792043
40
0.395514
50
61.1951992
51
91.9396843
0
ARC
8
DEFAULT_255_2_778
10
108.5755353
20
34.8748174
40
0.2912383
50
48.0417413
51
59.508966
0
ARC
8
DEFAULT_255_2_778
10
108.5787159
20
34.8819856
40
0.2837919
50
357.5777809
51
47.5516517
0
ARC
8
DEFAULT_255_2_778
10
108.4790517
20
34.8827705
40
0.3834155
50
331.2594151
51
358.0900352
0
ARC
8
DEFAULT_255_2_778
10
108.0097583
20
35.1223194
40
0.9102146
50
319.7427535
51
332.2426664
0
ARC
8
DEFAULT_255_2_778
10
107.5205187
20
35.5121697
40
1.5356207
50
317.2552041
51
320.43833
0
LINE
8
DEFAULT_255_2_778
10
108.9149542
20
34.1388917
11
108.9149542
21
34.0208917
0
LINE
8
DEFAULT_255_2_778
10
108.9149542
20
34.0208917
11
108.1696542
21
34.0208917
0
LINE
8
DEFAULT_255_2_778
10
108.1696542
20
34.0208917
11
108.1696542
21
34.1248917
0
LINE
8
DEFAULT_255_2_778
10
108.1696542
20
34.1248917
11
108.5633542
21
34.5624917
0
LINE
8
DEFAULT_255_2_778
10
108.2921542
20
34.8236917
11
108.1476542
21
34.8236917
0
LINE
8
DEFAULT_255_2_778
10
108.6482542
20
34.4698917
11
108.3434542
21
34.1394917
0
LINE
8
DEFAULT_255_2_778
10
108.3434542
20
34.1394917
11
108.9144542
21
34.1394917
0
LINE
8
DEFAULT_255_2_778
10
108.9144542
20
34.1394917
11
108.9149542
21
34.1388917
0
LINE
8
DEFAULT_255_2_778
10
105.6253865
20
35.1856
11
105.6253865
21
34.0426
0
LINE
8
DEFAULT_255_2_778
10
105.6253865
20
34.0426
11
105.4800865
21
34.0426
0
LINE
8
DEFAULT_255_2_778
10
105.4800865
20
34.0426
11
105.4800865
21
35.0059
0
LINE
8
DEFAULT_255_2_778
10
105.4800865
20
35.0059
11
105.1887865
21
34.8988
0
LINE
8
DEFAULT_255_2_778
10
105.1887865
20
34.8988
11
105.1887865
21
35.03
0
LINE
8
DEFAULT_255_2_778
10
105.1887865
20
35.03
11
105.6028865
21
35.1856
0
LINE
8
DEFAULT_255_2_778
10
105.6028865
20
35.1856
11
105.6255865
21
35.1856
0
LINE
8
DEFAULT_255_2_778
10
105.6255865
20
35.1856
11
105.6253865
21
35.1856
0
ARC
8
DEFAULT_255_2_778
10
101.1196144
20
34.4716395
40
1.0248887
50
348.9599816
51
0.6928247
0
ARC
8
DEFAULT_255_2_778
10
101.6806351
20
34.3563063
40
0.4522016
50
326.5019417
51
349.6906274
0
ARC
8
DEFAULT_255_2_778
10
101.816439
20
34.2822636
40
0.2983818
50
269.6746931
51
323.965112
0
ARC
8
DEFAULT_255_2_778
10
101.7868141
20
34.5005093
40
0.5173772
50
269.968335
51
273.0946457
0
ARC
8
DEFAULT_255_2_778
10
101.7727612
20
34.3342429
40
0.3513804
50
237.9683085
51
272.2453912
0
ARC
8
DEFAULT_255_2_778
10
101.7399914
20
34.2639844
40
0.2746015
50
215.677109
51
235.9891777
0
ARC
8
DEFAULT_255_2_778
10
101.895391
20
34.3626053
40
0.4584731
50
189.9758066
51
214.3622695
0
ARC
8
DEFAULT_255_2_778
10
102.3998447
20
34.468145
40
0.9737237
50
180.2184654
51
190.9500636
0
ARC
8
DEFAULT_255_2_778
10
102.4228118
20
34.669653
40
0.9967598
50
168.7512073
51
180.708238
0
ARC
8
DEFAULT_255_2_778
10
101.8799101
20
34.783162
40
0.4421787
50
146.0926208
51
169.4541479
0
ARC
8
DEFAULT_255_2_778
10
101.7527703
20
34.8524495
40
0.2983101
50
90.3434709
51
143.5140674
0
ARC
8
DEFAULT_255_2_778
10
101.784511
20
34.6298547
40
0.5219777
50
89.9542153
51
93.6829006
0
ARC
8
DEFAULT_255_2_778
10
101.7983123
20
34.7850714
40
0.367005
50
60.5898352
51
92.0899681
0
ARC
8
DEFAULT_255_2_778
10
101.8395781
20
34.8762224
40
0.2674822
50
36.2353857
51
58.7017609
0
ARC
8
DEFAULT_255_2_778
10
101.6986836
20
34.787183
40
0.4339102
50
10.2839172
51
34.72137
0
ARC
8
DEFAULT_255_2_778
10
101.160152
20
34.6731575
40
0.9842778
50
359.8937528
51
11.2183522
0
ARC
8
DEFAULT_255_2_778
10
101.173608
20
34.6939894
40
0.8265081
50
359.1641344
51
10.7645033
0
ARC
8
DEFAULT_255_2_778
10
101.6744033
20
34.7913677
40
0.3163447
50
10.3787531
51
29.9774528
0
ARC
8
DEFAULT_255_2_778
10
101.797299
20
34.8561505
40
0.1775993
50
31.6842263
51
93.9295413
0
ARC
8
DEFAULT_255_2_778
10
101.7730472
20
34.8586974
40
0.1750523
50
86.0426764
51
148.6647913
0
ARC
8
DEFAULT_255_2_778
10
101.9432553
20
34.7718909
40
0.3658593
50
150.9159356
51
173.3121892
0
ARC
8
DEFAULT_255_2_778
10
102.4493632
20
34.6907694
40
0.8782371
50
171.90102
51
179.8719443
0
ARC
8
DEFAULT_255_2_778
10
102.3910865
20
34.4497701
40
0.8200428
50
179.1781584
51
191.0324885
0
ARC
8
DEFAULT_255_2_778
10
101.9132995
20
34.3549544
40
0.3329455
50
190.7517404
51
209.8509498
0
ARC
8
DEFAULT_255_2_778
10
101.7776813
20
34.2784419
40
0.1772406
50
210.2202047
51
272.9258057
0
ARC
8
DEFAULT_255_2_778
10
101.7970686
20
34.2756385
40
0.1745129
50
266.603032
51
328.4138866
0
ARC
8
DEFAULT_255_2_778
10
101.636887
20
34.361022
40
0.3558615
50
330.2119154
51
352.7567583
0
ARC
8
DEFAULT_255_2_778
10
101.1091414
20
34.4501438
40
0.8909007
50
351.3500202
51
359.6776993
0
LINE
8
DEFAULT_255_2_778
10
102.1444281
20
34.6716323
11
102.1444281
21
34.4840323
0
LINE
8
DEFAULT_255_2_778
10
101.4261281
20
34.4644323
11
101.4261281
21
34.6573323
0
LINE
8
DEFAULT_255_2_778
10
102.1444281
20
34.6713323
11
102.1444281
21
34.6716323
0
LINE
8
DEFAULT_255_2_778
10
102.0000281
20
34.4451323
11
102.0000281
21
34.6819323
0
LINE
8
DEFAULT_255_2_778
10
101.5711281
20
34.6927323
11
101.5711281
21
34.4615323
0
LINE
8
DEFAULT_255_2_778
10
102.0000281
20
34.4451323
11
102.0000281
21
34.4451323
0
LINE
8
DEFAULT_255_2_778
10
125.9170604
20
35.2020219
11
125.9170604
21
35.1208219
0
LINE
8
DEFAULT_255_2_778
10
125.9170604
20
35.1208219
11
125.4458604
21
34.0646219
0
LINE
8
DEFAULT_255_2_778
10
125.4458604
20
34.0646219
11
125.2941604
21
34.0646219
0
LINE
8
DEFAULT_255_2_778
10
125.2941604
20
34.0646219
11
125.7638604
21
35.0832219
0
LINE
8
DEFAULT_255_2_778
10
125.7638604
20
35.0832219
11
125.1481604
21
35.0832219
0
LINE
8
DEFAULT_255_2_778
10
125.1481604
20
35.0832219
11
125.1481604
21
35.2020219
0
LINE
8
DEFAULT_255_2_778
10
125.1481604
20
35.2020219
11
125.9170604
21
35.2020219
0
LINE
8
DEFAULT_255_2_778
10
125.9170604
20
35.2020219
11
125.9170604
21
35.2020219
0
ARC
8
DEFAULT_255_2_778
10
108.7406079
20
32.2570452
40
0.8253953
50
31.8202651
51
89.9414508
0
ARC
8
DEFAULT_255_2_778
10
108.7407463
20
32.2570416
40
0.8252795
50
359.9901139
51
31.8255458
0
ARC
8
DEFAULT_255_2_778
10
108.7406765
20
32.2568996
40
0.8253494
50
359.1786678
51
359.9999697
0
ARC
8
DEFAULT_255_2_778
10
108.7405931
20
32.2568237
40
0.8254318
50
333.7109517
51
359.184021
0
ARC
8
DEFAULT_255_2_778
10
108.7413944
20
32.2586766
40
0.8255364
50
270.0039525
51
333.5710218
0
ARC
8
DEFAULT_255_2_778
10
108.7415008
20
32.2588256
40
0.8256855
50
206.435384
51
269.9965682
0
ARC
8
DEFAULT_255_2_778
10
108.7414755
20
32.2567432
40
0.8247379
50
180.8110737
51
206.3066262
0
ARC
8
DEFAULT_255_2_778
10
108.741748
20
32.2568413
40
0.825012
50
180.00003
51
180.81762
0
ARC
8
DEFAULT_255_2_778
10
108.7421552
20
32.2569361
40
0.825419
50
148.171848
51
180.0066098
0
ARC
8
DEFAULT_255_2_778
10
108.7422181
20
32.2570032
40
0.8254371
50
90.053221
51
148.1781064
0
LINE
8
DEFAULT_255_2_778
10
108.7414514
20
33.0824401
11
108.7414514
21
33.0824401
0
ARC
8
DEFAULT_255_2_778
10
112.1404092
20
32.2570452
40
0.8253953
50
31.8202651
51
89.9414508
0
ARC
8
DEFAULT_255_2_778
10
112.1405475
20
32.2570416
40
0.8252795
50
359.9901139
51
31.8255458
0
ARC
8
DEFAULT_255_2_778
10
112.1404777
20
32.2568996
40
0.8253494
50
359.1786678
51
359.9999697
0
ARC
8
DEFAULT_255_2_778
10
112.1403943
20
32.2568237
40
0.8254318
50
333.7109517
51
359.184021
0
ARC
8
DEFAULT_255_2_778
10
112.1411957
20
32.2586766
40
0.8255364
50
270.0039525
51
333.5710218
0
ARC
8
DEFAULT_255_2_778
10
112.1413021
20
32.2588256
40
0.8256855
50
206.435384
51
269.9965682
0
ARC
8
DEFAULT_255_2_778
10
112.1412767
20
32.2567432
40
0.8247379
50
180.8110737
51
206.3066262
0
ARC
8
DEFAULT_255_2_778
10
112.1415493
20
32.2568413
40
0.825012
50
180.00003
51
180.81762
0
ARC
8
DEFAULT_255_2_778
10
112.1419564
20
32.2569361
40
0.825419
50
148.171848
51
180.0066098
0
ARC
8
DEFAULT_255_2_778
10
112.1420193
20
32.2570032
40
0.8254371
50
90.053221
51
148.1781064
0
LINE
8
DEFAULT_255_2_778
10
112.1412526
20
33.0824401
11
112.1412526
21
33.0824401
0
ARC
8
DEFAULT_255_2_778
10
105.3419149
20
32.2581667
40
0.8249058
50
142.7458109
51
180.0153818
0
ARC
8
DEFAULT_255_2_778
10
105.3423848
20
32.2579339
40
0.8253757
50
179.9992078
51
181.5683595
0
ARC
8
DEFAULT_255_2_778
10
105.341277
20
32.257824
40
0.8242652
50
181.5628342
51
206.376829
0
ARC
8
DEFAULT_255_2_778
10
105.3424915
20
32.2577416
40
0.8253169
50
206.3342431
51
269.9328886
0
ARC
8
DEFAULT_255_2_778
10
105.3404187
20
32.257966
40
0.8255414
50
270.0767643
51
333.6560865
0
ARC
8
DEFAULT_255_2_778
10
105.3414264
20
32.257725
40
0.8245313
50
333.6400212
51
358.4445555
0
ARC
8
DEFAULT_255_2_778
10
105.3399688
20
32.257847
40
0.8259918
50
358.4388366
51
0.0002788
0
ARC
8
DEFAULT_255_2_778
10
105.3409047
20
32.2580897
40
0.8250559
50
359.9834278
51
37.2529879
0
ARC
8
DEFAULT_255_2_778
10
105.3416385
20
32.2569821
40
0.8251433
50
37.3450534
51
90.0079014
0
ARC
8
DEFAULT_255_2_778
10
105.341477
20
32.2566464
40
0.8254789
50
89.9966851
51
142.6434136
0
LINE
8
DEFAULT_255_2_778
10
104.6853247
20
32.7575253
11
104.6853247
21
32.7575253
0
ARC
8
DEFAULT_255_2_778
10
101.9416631
20
32.2582564
40
0.8248058
50
142.7483544
51
180.0189395
0
ARC
8
DEFAULT_255_2_778
10
101.943976
20
32.2579943
40
0.8271185
50
180.0007282
51
181.5692415
0
ARC
8
DEFAULT_255_2_778
10
101.9417189
20
32.2578777
40
0.8248592
50
181.5654397
51
206.3605341
0
ARC
8
DEFAULT_255_2_778
10
101.9422971
20
32.2577416
40
0.8253169
50
206.3342431
51
269.9328886
0
ARC
8
DEFAULT_255_2_778
10
101.9402243
20
32.257966
40
0.8255414
50
270.0767643
51
333.6560865
0
ARC
8
DEFAULT_255_2_778
10
101.9412321
20
32.257725
40
0.8245313
50
333.6400212
51
358.4445555
0
ARC
8
DEFAULT_255_2_778
10
101.9397744
20
32.257847
40
0.8259918
50
358.4388366
51
0.0002788
0
ARC
8
DEFAULT_255_2_778
10
101.9407103
20
32.2580897
40
0.8250559
50
359.9834278
51
37.2529879
0
ARC
8
DEFAULT_255_2_778
10
101.941373
20
32.256838
40
0.8252873
50
37.350005
51
90.0029553
0
ARC
8
DEFAULT_255_2_778
10
101.9412826
20
32.2566464
40
0.8254789
50
89.9966851
51
142.6434136
0
LINE
8
DEFAULT_255_2_778
10
101.2851304
20
32.7575253
11
101.2851304
21
32.7575253
0
ARC
8
DEFAULT_255_2_778
10
148.2418014
20
67.0561509
40
0.2012813
50
90.0775151
51
134.8170687
0
ARC
8
DEFAULT_255_2_778
10
148.2405173
20
67.0579663
40
0.199089
50
134.9231612
51
180.1537287
0
ARC
8
DEFAULT_255_2_778
10
31.6414347
20
67.0573377
40
0.2000944
50
0.0270209
51
90.0015996
0
ARC
8
DEFAULT_255_2_778
10
30.3412765
20
89.25733
40
0.4997474
50
134.9793514
51
180.0112208
0
ARC
8
DEFAULT_255_2_778
10
30.3415312
20
89.2575847
40
0.4997474
50
89.9887792
51
135.0206486
0
ARC
8
DEFAULT_255_2_778
10
149.5416321
20
89.2572352
40
0.5000969
50
359.9996485
51
90.0003515
0
ARC
8
DEFAULT_255_2_778
10
31.6414135
20
22.4574477
40
0.2001156
50
270.0044599
51
359.9955401
0
ARC
8
DEFAULT_255_2_778
10
148.2427106
20
22.4577044
40
0.2012817
50
180.0775231
51
224.8170051
0
ARC
8
DEFAULT_255_2_778
10
148.2409909
20
22.4566518
40
0.1993204
50
224.9507788
51
270.1546926
0
ARC
8
DEFAULT_255_2_778
10
149.5411533
20
0.2573078
40
0.5000758
50
269.9972237
51
359.991324
0
ARC
8
DEFAULT_255_2_778
10
145.1456492
20
4.7608735
40
2.2545229
50
158.2401607
51
180.0899995
0
ARC
8
DEFAULT_255_2_778
10
145.1360952
20
4.7619547
40
2.2452504
50
100.46182
51
158.1754031
0
ARC
8
DEFAULT_255_2_778
10
145.1399376
20
4.7275657
40
2.2797667
50
89.9700565
51
100.3998477
0
ARC
8
DEFAULT_255_2_778
10
145.1446641
20
4.7529481
40
2.2543868
50
68.2386051
51
90.0898428
0
ARC
8
DEFAULT_255_2_778
10
145.1456461
20
4.7622702
40
2.2453665
50
10.4545112
51
68.173688
0
ARC
8
DEFAULT_255_2_778
10
145.1116172
20
4.7585208
40
2.2795122
50
359.9701221
51
10.3919857
0
ARC
8
DEFAULT_255_2_778
10
145.1364924
20
4.7537899
40
2.2546395
50
338.2398393
51
0.0900165
0
ARC
8
DEFAULT_255_2_778
10
145.1460637
20
4.7526927
40
2.245345
50
280.4547019
51
338.1752974
0
ARC
8
DEFAULT_255_2_778
10
145.1423178
20
4.7867441
40
2.2795122
50
269.9701222
51
280.3919859
0
ARC
8
DEFAULT_255_2_778
10
145.137579
20
4.7617349
40
2.2545056
50
248.2390887
51
270.090221
0
ARC
8
DEFAULT_255_2_778
10
145.1365599
20
4.7522202
40
2.2452927
50
190.4596873
51
248.173229
0
ARC
8
DEFAULT_255_2_778
10
145.171125
20
4.7561394
40
2.2799962
50
179.9700271
51
190.3988469
0
ARC
8
DEFAULT_255_2_778
10
149.6407758
20
9.2570833
40
0.5001533
50
323.1359388
51
359.994128
0
ARC
8
DEFAULT_255_2_778
10
30.3411046
20
0.2567075
40
0.5000755
50
179.9971846
51
269.9913517
0
ARC
8
DEFAULT_255_2_778
10
22.1458577
20
84.7607807
40
2.2545315
50
158.2393107
51
180.0901832
0
ARC
8
DEFAULT_255_2_778
10
22.1363025
20
84.7618376
40
2.2452669
50
100.452684
51
158.1739611
0
ARC
8
DEFAULT_255_2_778
10
22.1401415
20
84.7275039
40
2.2797285
50
89.9701533
51
100.3910176
0
ARC
8
DEFAULT_255_2_778
10
22.1448841
20
84.7525673
40
2.2546676
50
68.2408662
51
90.0903398
0
ARC
8
DEFAULT_255_2_778
10
22.1460408
20
84.7623554
40
2.2451496
50
10.4535565
51
68.1756829
0
ARC
8
DEFAULT_255_2_778
10
22.1113771
20
84.7584253
40
2.2799523
50
359.9700133
51
10.3926283
0
ARC
8
DEFAULT_255_2_778
10
22.1368089
20
84.7536907
40
2.2545229
50
338.2401607
51
0.0899995
0
ARC
8
DEFAULT_255_2_778
10
22.1463629
20
84.7526095
40
2.2452504
50
280.46182
51
338.1754031
0
ARC
8
DEFAULT_255_2_778
10
22.1425205
20
84.7869985
40
2.2797667
50
269.9700565
51
280.3998477
0
ARC
8
DEFAULT_255_2_778
10
22.1377941
20
84.7616161
40
2.2543868
50
248.2386051
51
270.0898428
0
ARC
8
DEFAULT_255_2_778
10
22.1368121
20
84.752294
40
2.2453665
50
190.4545112
51
248.173688
0
ARC
8
DEFAULT_255_2_778
10
22.170841
20
84.7560434
40
2.2795122
50
179.9701221
51
190.3919857
0
LINE
8
DEFAULT_255_2_778
10
149.5414291
20
67.7781321
11
150.0414291
21
67.2582321
0
LINE
8
DEFAULT_255_2_778
10
30.0510291
20
87.8367321
11
29.8439291
21
87.8216321
0
LINE
8
DEFAULT_255_2_778
10
29.8439291
20
87.8216321
11
29.8415291
21
87.8195321
0
LINE
8
DEFAULT_255_2_778
10
148.1415291
20
66.7573321
11
149.6414291
21
66.7573321
0
LINE
8
DEFAULT_255_2_778
10
149.6414291
20
66.7573321
11
149.6414291
21
67.2574321
0
LINE
8
DEFAULT_255_2_778
10
30.3416291
20
89.7573321
11
30.3416291
21
87.8407321
0
LINE
8
DEFAULT_255_2_778
10
30.3416291
20
87.8407321
11
150.0393291
21
87.8219321
0
LINE
8
DEFAULT_255_2_778
10
150.0393291
20
87.8219321
11
150.0417291
21
87.8198321
0
LINE
8
DEFAULT_255_2_778
10
150.0417291
20
89.2572321
11
150.0417291
21
67.2577321
0
LINE
8
DEFAULT_255_2_778
10
150.0417291
20
67.2577321
11
29.8418291
21
67.2571321
0
LINE
8
DEFAULT_255_2_778
10
29.8418291
20
67.2571321
11
30.3418291
21
67.7778321
0
LINE
8
DEFAULT_255_2_778
10
150.1414291
20
87.7573321
11
150.0414291
21
87.7573321
0
LINE
8
DEFAULT_255_2_778
10
150.0414291
20
22.2571321
11
149.5414291
21
21.7361321
0
LINE
8
DEFAULT_255_2_778
10
30.3413291
20
21.7361321
11
29.8412291
21
22.2571321
0
LINE
8
DEFAULT_255_2_778
10
29.8412291
20
22.2571321
11
150.0412291
21
22.2573321
0
LINE
8
DEFAULT_255_2_778
10
150.0412291
20
22.2573321
11
150.0412291
21
0.2572321
0
LINE
8
DEFAULT_255_2_778
10
142.8911291
20
4.7573321
11
142.8911291
21
4.7573321
0
LINE
8
DEFAULT_255_2_778
10
29.8410291
20
1.6947321
11
30.0505291
21
1.6778321
0
LINE
8
DEFAULT_255_2_778
10
30.0505291
20
1.6778321
11
30.3410291
21
1.6738321
0
LINE
8
DEFAULT_255_2_778
10
150.0409291
20
9.2570321
11
150.1409291
21
9.2570321
0
LINE
8
DEFAULT_255_2_778
10
150.1409291
20
22.7569321
11
149.6409291
21
22.7569321
0
LINE
8
DEFAULT_255_2_778
10
149.6409291
20
22.7569321
11
149.6409291
21
22.2568321
0
LINE
8
DEFAULT_255_2_778
10
30.3410291
20
-0.2433679
11
30.3410291
21
21.7358321
0
LINE
8
DEFAULT_255_2_778
10
30.3410291
20
21.7358321
11
149.5411291
21
21.7358321
0
LINE
8
DEFAULT_255_2_778
10
149.5411291
20
21.7358321
11
149.5411291
21
1.6733321
0
LINE
8
DEFAULT_255_2_778
10
149.5411291
20
1.6733321
11
150.0412291
21
1.6942321
0
LINE
8
DEFAULT_255_2_778
10
7.7414291
20
88.7574321
11
7.6414291
21
88.7574321
0
LINE
8
DEFAULT_255_2_778
10
7.6414291
20
88.2574321
11
7.7414291
21
88.2574321
0
LINE
8
DEFAULT_255_2_778
10
24.6414291
20
88.7574321
11
24.5414291
21
88.7574321
0
LINE
8
DEFAULT_255_2_778
10
24.5414291
20
88.2574321
11
24.6414291
21
88.2574321
0
LINE
8
DEFAULT_255_2_778
10
7.7414291
20
80.2574321
11
7.6414291
21
80.2574321
0
LINE
8
DEFAULT_255_2_778
10
7.6414291
20
83.2575321
11
7.7414291
21
83.2575321
0
LINE
8
DEFAULT_255_2_778
10
7.6414291
20
81.7576321
11
7.7414291
21
81.7576321
0
LINE
8
DEFAULT_255_2_778
10
7.6414291
20
79.2576321
11
7.7414291
21
79.2576321
0
LINE
8
DEFAULT_255_2_778
10
7.6414291
20
67.7575321
11
7.7414291
21
67.7575321
0
LINE
8
DEFAULT_255_2_778
10
7.7414291
20
64.7574321
11
7.6414291
21
64.7574321
0
LINE
8
DEFAULT_255_2_778
10
7.6414291
20
66.2573321
11
7.7414291
21
66.2573321
0
LINE
8
DEFAULT_255_2_778
10
7.7414291
20
68.7573321
11
7.6414291
21
68.7573321
0
LINE
8
DEFAULT_255_2_778
10
7.7414291
20
89.7573321
11
24.5414291
21
89.7573321
0
LINE
8
DEFAULT_255_2_778
10
7.7414291
20
87.6573321
11
24.5414291
21
87.6573321
0
LINE
8
DEFAULT_255_2_778
10
24.5414291
20
89.2572321
11
7.7414291
21
89.2572321
0
LINE
8
DEFAULT_255_2_778
10
24.6414291
20
66.5573321
11
24.5414291
21
66.5573321
0
LINE
8
DEFAULT_255_2_778
10
24.5414291
20
66.4573321
11
24.6414291
21
66.4573321
0
LINE
8
DEFAULT_255_2_778
10
24.6414291
20
64.8574321
11
24.5414291
21
64.8574321
0
LINE
8
DEFAULT_255_2_778
10
24.5414291
20
64.7574321
11
24.6414291
21
64.7574321
0
LINE
8
DEFAULT_255_2_778
10
24.6414291
20
83.2573321
11
24.5414291
21
83.2573321
0
LINE
8
DEFAULT_255_2_778
10
24.5414291
20
81.4573321
11
24.6414291
21
81.4573321
0
LINE
8
DEFAULT_255_2_778
10
24.6414291
20
81.5573321
11
24.5414291
21
81.5573321
0
LINE
8
DEFAULT_255_2_778
10
24.5414291
20
83.1573321
11
24.6414291
21
83.1573321
0
LINE
8
DEFAULT_255_2_778
10
19.8913291
20
84.7572321
11
19.8913291
21
84.7572321
0
LINE
8
DEFAULT_255_2_778
10
7.6416291
20
89.2572321
11
6.6415291
21
89.2572321
0
LINE
8
DEFAULT_255_2_778
10
6.6415291
20
89.2572321
11
6.6436291
21
89.3329321
0
LINE
8
DEFAULT_255_2_778
10
6.6436291
20
89.3329321
11
6.6465291
21
89.3729321
0
LINE
8
DEFAULT_255_2_778
10
6.6465291
20
89.3729321
11
6.6656291
21
89.5470321
0
LINE
8
DEFAULT_255_2_778
10
6.6656291
20
89.5470321
11
6.6735291
21
89.6538321
0
LINE
8
DEFAULT_255_2_778
10
6.6735291
20
89.6538321
11
6.6825291
21
89.7158321
0
LINE
8
DEFAULT_255_2_778
10
6.6825291
20
89.7158321
11
6.6955291
21
89.7539321
0
LINE
8
DEFAULT_255_2_778
10
6.6955291
20
89.7539321
11
6.6976291
21
89.7560321
0
LINE
8
DEFAULT_255_2_778
10
7.6414291
20
89.7573321
11
7.6414291
21
57.5572321
0
LINE
8
DEFAULT_255_2_778
10
7.6414291
20
57.5572321
11
24.6414291
21
57.5572321
0
LINE
8
DEFAULT_255_2_778
10
24.6414291
20
57.5572321
11
24.6414291
21
89.7573321
0
LINE
8
DEFAULT_255_2_778
10
24.6414291
20
58.5574321
11
7.6414291
21
58.5574321
0
ARC
8
DEFAULT_255_2_778
10
91.6410632
20
65.0161607
40
0.396887
50
3.6649828
51
9.8170017
0
ARC
8
DEFAULT_255_2_778
10
26.2011494
20
24.5047807
40
0.456259
50
184.0658477
51
189.4166933
0
LINE
8
DEFAULT_255_2_778
10
91.5415387
20
65.4868307
11
91.6386387
21
65.4773307
0
LINE
8
DEFAULT_255_2_778
10
91.6386387
20
65.4773307
11
91.7379387
21
65.4466307
0
LINE
8
DEFAULT_255_2_778
10
91.7379387
20
65.4466307
11
91.8320387
21
65.3937307
0
LINE
8
DEFAULT_255_2_778
10
91.8320387
20
65.3937307
11
91.8950387
21
65.3402307
0
LINE
8
DEFAULT_255_2_778
10
91.8950387
20
65.3402307
11
91.9485387
21
65.2773307
0
LINE
8
DEFAULT_255_2_778
10
91.9485387
20
65.2773307
11
91.9776387
21
65.2312307
0
LINE
8
DEFAULT_255_2_778
10
91.9776387
20
65.2312307
11
92.0014387
21
65.1831307
0
LINE
8
DEFAULT_255_2_778
10
92.0014387
20
65.1831307
11
92.0262387
21
65.1116307
0
LINE
8
DEFAULT_255_2_778
10
92.0262387
20
65.1116307
11
92.0321387
21
65.0838307
0
LINE
8
DEFAULT_255_2_778
10
92.0371387
20
65.0415307
11
92.0416387
21
64.9865307
0
LINE
8
DEFAULT_255_2_778
10
92.0416387
20
64.9865307
11
92.0371387
21
65.0016307
0
LINE
8
DEFAULT_255_2_778
10
92.0371387
20
65.0016307
11
92.0262387
21
65.0209307
0
LINE
8
DEFAULT_255_2_778
10
92.0262387
20
65.0209307
11
91.9903387
21
65.0473307
0
LINE
8
DEFAULT_255_2_778
10
91.9903387
20
65.0473307
11
91.8540387
21
65.0942307
0
LINE
8
DEFAULT_255_2_778
10
91.8540387
20
65.0942307
11
91.5415387
21
65.1246307
0
LINE
8
DEFAULT_255_2_778
10
91.5415387
20
65.1246307
11
26.2416387
21
65.1246307
0
LINE
8
DEFAULT_255_2_778
10
26.2416387
20
65.1246307
11
25.9291387
21
65.0942307
0
LINE
8
DEFAULT_255_2_778
10
25.9291387
20
65.0942307
11
25.7928387
21
65.0473307
0
LINE
8
DEFAULT_255_2_778
10
25.7928387
20
65.0473307
11
25.7568387
21
65.0209307
0
LINE
8
DEFAULT_255_2_778
10
25.7568387
20
65.0209307
11
25.7460387
21
65.0016307
0
LINE
8
DEFAULT_255_2_778
10
25.7460387
20
65.0016307
11
25.7415387
21
64.9865307
0
LINE
8
DEFAULT_255_2_778
10
25.7415387
20
64.9865307
11
25.7439387
21
65.0344307
0
LINE
8
DEFAULT_255_2_778
10
25.7439387
20
65.0344307
11
25.7468387
21
65.0590307
0
LINE
8
DEFAULT_255_2_778
10
25.7468387
20
65.0590307
11
25.7510387
21
65.0836307
0
LINE
8
DEFAULT_255_2_778
10
25.7510387
20
65.0836307
11
25.7566387
21
65.1085307
0
LINE
8
DEFAULT_255_2_778
10
25.7566387
20
65.1085307
11
25.7719387
21
65.1582307
0
LINE
8
DEFAULT_255_2_778
10
25.7719387
20
65.1582307
11
25.7928387
21
65.2071307
0
LINE
8
DEFAULT_255_2_778
10
25.7928387
20
65.2071307
11
25.8193387
21
65.2545307
0
LINE
8
DEFAULT_255_2_778
10
25.8193387
20
65.2545307
11
25.8690387
21
65.3201307
0
LINE
8
DEFAULT_255_2_778
10
25.8690387
20
65.3201307
11
25.9291387
21
65.3770307
0
LINE
8
DEFAULT_255_2_778
10
25.9291387
20
65.3770307
11
26.0206387
21
65.4352307
0
LINE
8
DEFAULT_255_2_778
10
26.0206387
20
65.4352307
11
26.1164387
21
65.4712307
0
LINE
8
DEFAULT_255_2_778
10
26.1164387
20
65.4712307
11
26.2413387
21
65.4865307
0
LINE
8
DEFAULT_255_2_778
10
26.2413387
20
65.4865307
11
91.5415387
21
65.4868307
0
LINE
8
DEFAULT_255_2_778
10
91.5415387
20
65.6569307
11
91.8876387
21
65.5159307
0
LINE
8
DEFAULT_255_2_778
10
91.8876387
20
65.5159307
11
91.9966387
21
65.3630307
0
LINE
8
DEFAULT_255_2_778
10
91.9966387
20
65.3630307
11
92.0207387
21
65.3000307
0
LINE
8
DEFAULT_255_2_778
10
92.0207387
20
65.3000307
11
92.0387387
21
65.2140307
0
LINE
8
DEFAULT_255_2_778
10
92.0387387
20
65.2140307
11
92.0416387
21
65.1701307
0
LINE
8
DEFAULT_255_2_778
10
92.0416387
20
65.1701307
11
92.0416387
21
65.1571307
0
LINE
8
DEFAULT_255_2_778
10
92.0416387
20
65.1571307
11
92.0416387
21
24.3573307
0
LINE
8
DEFAULT_255_2_778
10
92.0416387
20
24.3573307
11
92.0395387
21
24.3129307
0
LINE
8
DEFAULT_255_2_778
10
92.0395387
20
24.3129307
11
92.0326387
21
24.2629307
0
LINE
8
DEFAULT_255_2_778
10
92.0326387
20
24.2629307
11
92.0085387
21
24.1798307
0
LINE
8
DEFAULT_255_2_778
10
92.0085387
20
24.1798307
11
91.9675387
21
24.0978307
0
LINE
8
DEFAULT_255_2_778
10
91.9675387
20
24.0978307
11
91.8114387
21
23.9377307
0
LINE
8
DEFAULT_255_2_778
10
91.8114387
20
23.9377307
11
91.5415387
21
23.8567307
0
LINE
8
DEFAULT_255_2_778
10
26.2416387
20
23.8567307
11
25.9045387
21
23.9898307
0
LINE
8
DEFAULT_255_2_778
10
25.9045387
20
23.9898307
11
25.7944387
21
24.1348307
0
LINE
8
DEFAULT_255_2_778
10
25.7944387
20
24.1348307
11
25.7624387
21
24.2147307
0
LINE
8
DEFAULT_255_2_778
10
25.7624387
20
24.2147307
11
25.7444387
21
24.2997307
0
LINE
8
DEFAULT_255_2_778
10
25.7444387
20
24.2997307
11
25.7415387
21
24.3507307
0
LINE
8
DEFAULT_255_2_778
10
25.7415387
20
24.3507307
11
25.7415387
21
24.3568307
0
LINE
8
DEFAULT_255_2_778
10
25.7415387
20
24.3568307
11
25.7415387
21
65.1571307
0
LINE
8
DEFAULT_255_2_778
10
25.7415387
20
65.1571307
11
25.7436387
21
65.2019307
0
LINE
8
DEFAULT_255_2_778
10
25.7436387
20
65.2019307
11
25.7516387
21
65.2579307
0
LINE
8
DEFAULT_255_2_778
10
25.7516387
20
65.2579307
11
25.7746387
21
65.3349307
0
LINE
8
DEFAULT_255_2_778
10
25.7746387
20
65.3349307
11
25.8156387
21
65.4170307
0
LINE
8
DEFAULT_255_2_778
10
25.8156387
20
65.4170307
11
25.9976387
21
65.5918307
0
LINE
8
DEFAULT_255_2_778
10
25.9976387
20
65.5918307
11
26.2416387
21
65.6569307
0
LINE
8
DEFAULT_255_2_778
10
92.1416387
20
61.2572307
11
92.0416387
21
61.2572307
0
LINE
8
DEFAULT_255_2_778
10
92.0416387
20
60.8571307
11
92.1416387
21
60.8571307
0
LINE
8
DEFAULT_255_2_778
10
92.1416387
20
56.8572307
11
92.0416387
21
56.8572307
0
LINE
8
DEFAULT_255_2_778
10
92.0416387
20
57.3572307
11
92.1416387
21
57.3572307
0
LINE
8
DEFAULT_255_2_778
10
92.1416387
20
60.3573307
11
92.0416387
21
60.3573307
0
LINE
8
DEFAULT_255_2_778
10
92.0416387
20
29.1574307
11
92.1416387
21
29.1574307
0
LINE
8
DEFAULT_255_2_778
10
92.1416387
20
32.1575307
11
92.0416387
21
32.1575307
0
LINE
8
DEFAULT_255_2_778
10
26.2416387
20
56.7569307
11
25.7426387
21
56.7529307
0
LINE
8
DEFAULT_255_2_778
10
26.2416387
20
32.7571307
11
25.7426387
21
32.7621307
0
LINE
8
DEFAULT_255_2_778
10
91.5415387
20
56.7571307
11
92.0416387
21
56.7521307
0
LINE
8
DEFAULT_255_2_778
10
91.5415387
20
32.7571307
11
92.0416387
21
32.7631307
0
LINE
8
DEFAULT_255_2_778
10
29.9124387
20
65.6572307
11
91.5415387
21
65.6572307
0
LINE
8
DEFAULT_255_2_778
10
91.5415387
20
65.6572307
11
91.5415387
21
24.3893307
0
LINE
8
DEFAULT_255_2_778
10
91.5415387
20
24.3893307
11
26.2416387
21
24.3893307
0
LINE
8
DEFAULT_255_2_778
10
26.2416387
20
24.3893307
11
25.9291387
21
24.4198307
0
LINE
8
DEFAULT_255_2_778
10
25.9291387
20
24.4198307
11
25.7928387
21
24.4666307
0
LINE
8
DEFAULT_255_2_778
10
25.7928387
20
24.4666307
11
25.7568387
21
24.4931307
0
LINE
8
DEFAULT_255_2_778
10
25.7568387
20
24.4931307
11
25.7460387
21
24.5124307
0
LINE
8
DEFAULT_255_2_778
10
25.7460387
20
24.5124307
11
25.7415387
21
24.5275307
0
LINE
8
DEFAULT_255_2_778
10
25.7415387
20
24.5275307
11
25.7460387
21
24.4724307
0
LINE
8
DEFAULT_255_2_778
10
25.7510387
20
24.4301307
11
25.7568387
21
24.4023307
0
LINE
8
DEFAULT_255_2_778
10
25.7568387
20
24.4023307
11
25.7817387
21
24.3309307
0
LINE
8
DEFAULT_255_2_778
10
25.7817387
20
24.3309307
11
25.8055387
21
24.2827307
0
LINE
8
DEFAULT_255_2_778
10
25.8055387
20
24.2827307
11
25.8196387
21
24.2594307
0
LINE
8
DEFAULT_255_2_778
10
25.8196387
20
24.2594307
11
25.8349387
21
24.2367307
0
LINE
8
DEFAULT_255_2_778
10
25.8349387
20
24.2367307
11
25.8883387
21
24.1737307
0
LINE
8
DEFAULT_255_2_778
10
25.8883387
20
24.1737307
11
25.9513387
21
24.1203307
0
LINE
8
DEFAULT_255_2_778
10
25.9513387
20
24.1203307
11
26.0212387
21
24.0785307
0
LINE
8
DEFAULT_255_2_778
10
26.0212387
20
24.0785307
11
26.1199387
21
24.0422307
0
LINE
8
DEFAULT_255_2_778
10
26.1199387
20
24.0422307
11
26.2418387
21
24.0271307
0
LINE
8
DEFAULT_255_2_778
10
26.2418387
20
24.0271307
11
91.5418387
21
24.0271307
0
LINE
8
DEFAULT_255_2_778
10
91.5418387
20
24.0271307
11
91.6667387
21
24.0425307
0
LINE
8
DEFAULT_255_2_778
10
91.6667387
20
24.0425307
11
91.7381387
21
24.0673307
0
LINE
8
DEFAULT_255_2_778
10
91.7381387
20
24.0673307
11
91.8323387
21
24.1203307
0
LINE
8
DEFAULT_255_2_778
10
91.8323387
20
24.1203307
11
91.8953387
21
24.1737307
0
LINE
8
DEFAULT_255_2_778
10
91.8953387
20
24.1737307
11
91.9487387
21
24.2367307
0
LINE
8
DEFAULT_255_2_778
10
91.9487387
20
24.2367307
11
91.9778387
21
24.2827307
0
LINE
8
DEFAULT_255_2_778
10
91.9778387
20
24.2827307
11
92.0016387
21
24.3309307
0
LINE
8
DEFAULT_255_2_778
10
92.0016387
20
24.3309307
11
92.0196387
21
24.3803307
0
LINE
8
DEFAULT_255_2_778
10
92.0196387
20
24.3803307
11
92.0321387
21
24.4301307
0
LINE
8
DEFAULT_255_2_778
10
92.0321387
20
24.4301307
11
92.0363387
21
24.4547307
0
LINE
8
DEFAULT_255_2_778
10
92.0363387
20
24.4547307
11
92.0392387
21
24.4793307
0
LINE
8
DEFAULT_255_2_778
10
92.0392387
20
24.4793307
11
92.0416387
21
24.5272307
0
LINE
8
DEFAULT_255_2_778
10
92.0416387
20
24.5272307
11
92.0371387
21
24.5121307
0
LINE
8
DEFAULT_255_2_778
10
92.0371387
20
24.5121307
11
92.0262387
21
24.4928307
0
LINE
8
DEFAULT_255_2_778
10
92.0262387
20
24.4928307
11
91.9903387
21
24.4663307
0
LINE
8
DEFAULT_255_2_778
10
91.9903387
20
24.4663307
11
91.8540387
21
24.4195307
0
LINE
8
DEFAULT_255_2_778
10
91.8540387
20
24.4195307
11
91.5415387
21
24.3893307
0
LINE
8
DEFAULT_255_2_778
10
91.5415387
20
24.3893307
11
91.5415387
21
23.8573307
0
LINE
8
DEFAULT_255_2_778
10
91.5415387
20
23.8573307
11
30.4416387
21
23.8573307
0
LINE
8
DEFAULT_255_2_778
10
30.4416387
20
23.8573307
11
26.2416387
21
23.8573307
0
LINE
8
DEFAULT_255_2_778
10
26.2416387
20
23.8573307
11
26.2416387
21
65.6572307
0
LINE
8
DEFAULT_255_2_778
10
26.2416387
20
65.6572307
11
30.4416387
21
65.6572307
0
LINE
8
DEFAULT_255_2_778
10
92.0416387
20
40.2572307
11
92.1416387
21
40.2572307
0
LINE
8
DEFAULT_255_2_778
10
92.1416387
20
40.2572307
11
92.0416387
21
40.3572307
0
ARC
8
DEFAULT_255_2_778
10
149.6417661
20
24.2574453
40
0.5000116
50
270.0013268
51
0.0101312
0
LINE
8
DEFAULT_255_2_778
10
148.1415777
20
67.2293337
11
148.1415777
21
65.7574337
0
LINE
8
DEFAULT_255_2_778
10
31.7415777
20
67.2293337
11
31.7415777
21
65.4891337
0
LINE
8
DEFAULT_255_2_778
10
143.6415777
20
67.2573337
11
143.6415777
21
65.7574337
0
LINE
8
DEFAULT_255_2_778
10
145.0414777
20
65.7574337
11
145.0414777
21
67.2573337
0
LINE
8
DEFAULT_255_2_778
10
138.1413777
20
64.2572337
11
138.2413777
21
64.2572337
0
LINE
8
DEFAULT_255_2_778
10
138.2413777
20
65.3999337
11
149.6414777
21
65.3999337
0
LINE
8
DEFAULT_255_2_778
10
92.1414777
20
65.3999337
11
138.1413777
21
65.3999337
0
LINE
8
DEFAULT_255_2_778
10
34.8414777
20
65.4888337
11
34.8414777
21
67.2570337
0
LINE
8
DEFAULT_255_2_778
10
148.0415777
20
67.0557337
11
148.0415777
21
65.7568337
0
LINE
8
DEFAULT_255_2_778
10
31.8415777
20
67.0560337
11
31.8415777
21
65.4888337
0
LINE
8
DEFAULT_255_2_778
10
92.1414777
20
65.7571337
11
35.2414777
21
65.7571337
0
LINE
8
DEFAULT_255_2_778
10
35.2414777
20
65.7571337
11
35.2414777
21
67.2570337
0
LINE
8
DEFAULT_255_2_778
10
31.7415777
20
24.0254337
11
31.7415777
21
22.2853337
0
LINE
8
DEFAULT_255_2_778
10
148.1415777
20
23.7572337
11
148.1415777
21
22.2853337
0
LINE
8
DEFAULT_255_2_778
10
138.1416777
20
25.2571337
11
138.2416777
21
25.2571337
0
LINE
8
DEFAULT_255_2_778
10
145.0416777
20
23.7572337
11
145.0416777
21
22.2572337
0
LINE
8
DEFAULT_255_2_778
10
143.6417777
20
23.7572337
11
143.6417777
21
22.2572337
0
LINE
8
DEFAULT_255_2_778
10
148.1418777
20
22.7573337
11
149.6417777
21
22.7573337
0
LINE
8
DEFAULT_255_2_778
10
149.6417777
20
22.7573337
11
149.6417777
21
23.7574337
0
LINE
8
DEFAULT_255_2_778
10
150.1417777
20
24.2575337
11
150.1372777
21
24.2419337
0
LINE
8
DEFAULT_255_2_778
10
150.1372777
20
24.2419337
11
150.1322777
21
24.2297337
0
LINE
8
DEFAULT_255_2_778
10
150.1322777
20
24.2297337
11
150.0904777
21
24.1945337
0
LINE
8
DEFAULT_255_2_778
10
150.0904777
20
24.1945337
11
149.9322777
21
24.1413337
0
LINE
8
DEFAULT_255_2_778
10
149.9322777
20
24.1413337
11
149.6417777
21
24.1149337
0
LINE
8
DEFAULT_255_2_778
10
138.1416777
20
24.1149337
11
92.1414777
21
24.1149337
0
LINE
8
DEFAULT_255_2_778
10
35.2414777
20
22.2575337
11
35.2414777
21
23.7574337
0
LINE
8
DEFAULT_255_2_778
10
35.2414777
20
23.7574337
11
138.2413777
21
23.7574337
0
LINE
8
DEFAULT_255_2_778
10
34.8414777
20
24.0257337
11
34.8414777
21
22.2575337
0
LINE
8
DEFAULT_255_2_778
10
31.8412777
20
22.4588337
11
31.8412777
21
24.0260337
0
LINE
8
DEFAULT_255_2_778
10
148.0412777
20
22.4588337
11
148.0412777
21
23.7577337
0
ARC
8
DEFAULT_255_2_778
10
148.1439724
20
1.7570848
40
1.9978151
50
341.7951029
51
0.0071812
0
ARC
8
DEFAULT_255_2_778
10
1.1402029
20
0.7539268
40
0.9962924
50
228.3631677
51
270.0738756
0
ARC
8
DEFAULT_255_2_778
10
1.1392919
20
0.7565863
40
0.9976779
50
181.7590525
51
228.5037457
0
ARC
8
DEFAULT_255_2_778
10
1.1603292
20
0.7577642
40
1.0187417
50
180.0297526
51
181.7889516
0
ARC
8
DEFAULT_255_2_778
10
1.1402245
20
88.7609554
40
0.9962806
50
89.9273648
51
131.6532185
0
ARC
8
DEFAULT_255_2_778
10
1.1392694
20
88.7582673
40
0.9976575
50
131.5096321
51
178.2683305
0
ARC
8
DEFAULT_255_2_778
10
1.159985
20
88.7571579
40
1.0183973
50
178.2411575
51
180.0012746
0
ARC
8
DEFAULT_255_2_778
10
13.3432547
20
37.2561154
40
6.4981678
50
313.809411
51
337.267963
0
ARC
8
DEFAULT_255_2_778
10
13.3426636
20
37.25692
40
6.4990239
50
337.2634348
51
0.0036608
0
ARC
8
DEFAULT_255_2_778
10
13.3429098
20
37.2577171
40
6.4987778
50
359.9966333
51
23.0955089
0
ARC
8
DEFAULT_255_2_778
10
13.3432467
20
37.2584401
40
6.4981841
50
23.0908104
51
46.1906288
0
LINE
8
DEFAULT_255_2_778
10
6.6415875
20
0.2571352
11
6.6415875
21
21.6572352
0
LINE
8
DEFAULT_255_2_778
10
6.6415875
20
21.6572352
11
0.1415875
21
21.6572352
0
LINE
8
DEFAULT_255_2_778
10
0.1415875
20
21.6572352
11
0.1415875
21
0.7572352
0
LINE
8
DEFAULT_255_2_778
10
0.1415875
20
0.7572352
11
0.5291875
21
0.7572352
0
LINE
8
DEFAULT_255_2_778
10
0.5291875
20
0.7572352
11
0.5291875
21
21.6572352
0
LINE
8
DEFAULT_255_2_778
10
30.3416875
20
1.6740352
11
149.5417875
21
1.6740352
0
LINE
8
DEFAULT_255_2_778
10
149.5417875
20
1.6740352
11
149.5417875
21
-0.2426648
0
LINE
8
DEFAULT_255_2_778
10
149.5417875
20
-0.2426648
11
1.1416875
21
-0.2426648
0
LINE
8
DEFAULT_255_2_778
10
1.1416875
20
-0.2426648
11
6.6987875
21
-0.2426648
0
LINE
8
DEFAULT_255_2_778
10
149.6417875
20
56.7570352
11
150.1417875
21
56.7520352
0
LINE
8
DEFAULT_255_2_778
10
150.1417875
20
56.7520352
11
150.1417875
21
1.7573352
0
LINE
8
DEFAULT_255_2_778
10
149.6417875
20
32.7572352
11
150.1417875
21
32.7622352
0
LINE
8
DEFAULT_255_2_778
10
150.1417875
20
41.8684352
11
150.1417875
21
88.7573352
0
LINE
8
DEFAULT_255_2_778
10
1.1416875
20
89.7572352
11
7.7417875
21
89.7572352
0
LINE
8
DEFAULT_255_2_778
10
7.7417875
20
89.7572352
11
7.7417875
21
59.0573352
0
LINE
8
DEFAULT_255_2_778
10
7.7417875
20
59.0573352
11
24.5414875
21
59.0573352
0
LINE
8
DEFAULT_255_2_778
10
24.5414875
20
59.0573352
11
24.5414875
21
89.7572352
0
LINE
8
DEFAULT_255_2_778
10
24.5414875
20
89.7572352
11
149.5414875
21
89.7572352
0
LINE
8
DEFAULT_255_2_778
10
149.5414875
20
89.7572352
11
149.5414875
21
67.7780352
0
LINE
8
DEFAULT_255_2_778
10
149.5414875
20
67.7780352
11
30.3413875
21
67.7780352
0
LINE
8
DEFAULT_255_2_778
10
30.3413875
20
67.7780352
11
30.3413875
21
87.8406352
0
LINE
8
DEFAULT_255_2_778
10
30.3413875
20
87.8406352
11
30.0508875
21
87.8366352
0
LINE
8
DEFAULT_255_2_778
10
1.0294875
20
89.2569352
11
0.5916875
21
89.0000352
0
LINE
8
DEFAULT_255_2_778
10
0.5916875
20
89.0000352
11
0.5426875
21
88.8740352
0
LINE
8
DEFAULT_255_2_778
10
0.5426875
20
88.8740352
11
0.5315875
21
88.8111352
0
LINE
8
DEFAULT_255_2_778
10
0.5315875
20
88.8111352
11
0.5294875
21
88.7571352
0
LINE
8
DEFAULT_255_2_778
10
0.5294875
20
0.7572352
11
0.5315875
21
0.7043352
0
LINE
8
DEFAULT_255_2_778
10
0.5315875
20
0.7043352
11
0.5405875
21
0.6492352
0
LINE
8
DEFAULT_255_2_778
10
0.5405875
20
0.6492352
11
0.5654875
21
0.5693352
0
LINE
8
DEFAULT_255_2_778
10
0.5654875
20
0.5693352
11
0.7373875
21
0.3513352
0
LINE
8
DEFAULT_255_2_778
10
0.7373875
20
0.3513352
11
1.0294875
21
0.2574352
0
LINE
8
DEFAULT_255_2_778
10
1.0289875
20
0.2577352
11
1.0310875
21
0.1606352
0
LINE
8
DEFAULT_255_2_778
10
1.0310875
20
0.1606352
11
1.0339875
21
0.1108352
0
LINE
8
DEFAULT_255_2_778
10
1.0339875
20
0.1108352
11
1.0379875
21
0.0613352
0
LINE
8
DEFAULT_255_2_778
10
1.0379875
20
0.0613352
11
1.0432875
21
0.0132352
0
LINE
8
DEFAULT_255_2_778
10
1.0432875
20
0.0132352
11
1.0498875
21
-0.0328648
0
LINE
8
DEFAULT_255_2_778
10
1.0498875
20
-0.0328648
11
1.0617875
21
-0.0957648
0
LINE
8
DEFAULT_255_2_778
10
1.0617875
20
-0.0957648
11
1.0760875
21
-0.1492648
0
LINE
8
DEFAULT_255_2_778
10
1.0760875
20
-0.1492648
11
1.0972875
21
-0.2021648
0
LINE
8
DEFAULT_255_2_778
10
1.0972875
20
-0.2021648
11
1.1133875
21
-0.2270648
0
LINE
8
DEFAULT_255_2_778
10
1.1133875
20
-0.2270648
11
1.1414875
21
-0.2423648
0
LINE
8
DEFAULT_255_2_778
10
1.0292875
20
89.2571352
11
1.0313875
21
89.3542352
0
LINE
8
DEFAULT_255_2_778
10
1.0313875
20
89.3542352
11
1.0342875
21
89.4040352
0
LINE
8
DEFAULT_255_2_778
10
1.0342875
20
89.4040352
11
1.0382875
21
89.4535352
0
LINE
8
DEFAULT_255_2_778
10
1.0382875
20
89.4535352
11
1.0435875
21
89.5016352
0
LINE
8
DEFAULT_255_2_778
10
1.0435875
20
89.5016352
11
1.0501875
21
89.5477352
0
LINE
8
DEFAULT_255_2_778
10
1.0501875
20
89.5477352
11
1.0620875
21
89.6106352
0
LINE
8
DEFAULT_255_2_778
10
1.0620875
20
89.6106352
11
1.0763875
21
89.6641352
0
LINE
8
DEFAULT_255_2_778
10
1.0763875
20
89.6641352
11
1.0974875
21
89.7170352
0
LINE
8
DEFAULT_255_2_778
10
1.0974875
20
89.7170352
11
1.1136875
21
89.7419352
0
LINE
8
DEFAULT_255_2_778
10
1.1136875
20
89.7419352
11
1.1414875
21
89.7572352
0
LINE
8
DEFAULT_255_2_778
10
0.5291875
20
52.8571352
11
0.5291875
21
88.7571352
0
LINE
8
DEFAULT_255_2_778
10
0.5291875
20
88.7571352
11
0.1415875
21
88.7571352
0
LINE
8
DEFAULT_255_2_778
10
0.1415875
20
88.7571352
11
0.1415875
21
52.8571352
0
LINE
8
DEFAULT_255_2_778
10
0.1415875
20
52.8571352
11
6.6415875
21
52.8571352
0
LINE
8
DEFAULT_255_2_778
10
6.6415875
20
21.6572352
11
17.8416875
21
21.6572352
0
LINE
8
DEFAULT_255_2_778
10
17.8416875
20
21.6572352
11
17.8416875
21
32.5667352
0
LINE
8
DEFAULT_255_2_778
10
17.8416875
20
41.9478352
11
17.8416875
21
52.8574352
0
LINE
8
DEFAULT_255_2_778
10
17.8416875
20
52.8574352
11
6.6415875
21
52.8574352
0
LINE
8
DEFAULT_255_2_778
10
6.6415875
20
52.8574352
11
6.6415875
21
89.2571352
0
LINE
8
DEFAULT_255_2_778
10
6.6415875
20
89.2571352
11
1.0292875
21
89.2571352
0
ENDSEC
0
EOF