0
SECTION
2
HEADER
9
$MEASUREMENT
70
1
0
ENDSEC
0
SECTION
2
TABLES
0
TABLE
2
LTYPE
0
LTYPE
72
65
70
64
2
CONTINUOUS
3
______
73
0
40
0
0
ENDTAB
0
TABLE
2
LAYER
0
LAYER
2
DEFAULT_255_2_778
70
0
62
255
6
CONTINUOUS
0
ENDTAB
0
ENDSEC
0
SECTION
2
ENTITIES
0
ARC
8
DEFAULT_255_2_778
10
129.7197933
20
9.2564563
40
0.5001534
50
323.1359388
51
359.994128
0
LINE
8
DEFAULT_255_2_778
10
0.6074466
20
88.756305
11
0.2198466
21
88.756305
0
LINE
8
DEFAULT_255_2_778
10
0.2198466
20
88.756305
11
0.6074466
21
88.756305
0
LINE
8
DEFAULT_255_2_778
10
0.6074466
20
88.756305
11
0.6074466
21
52.856305
0
LINE
8
DEFAULT_255_2_778
10
0.6074466
20
52.856305
11
6.7198466
21
52.856305
0
LINE
8
DEFAULT_255_2_778
10
130.2199466
20
9.256405
11
130.2199466
21
22.756505
0
LINE
8
DEFAULT_255_2_778
10
130.2199466
20
22.756505
11
129.7198466
21
22.756505
0
LINE
8
DEFAULT_255_2_778
10
129.7198466
20
22.756505
11
129.7198466
21
22.256505
0
LINE
8
DEFAULT_255_2_778
10
1.2199466
20
-0.243695
11
30.4199466
21
-0.243695
0
LINE
8
DEFAULT_255_2_778
10
30.4199466
20
-0.243695
11
30.4199466
21
21.735505
0
LINE
8
DEFAULT_255_2_778
10
30.4199466
20
21.735505
11
129.6198466
21
21.735505
0
LINE
8
DEFAULT_255_2_778
10
129.6198466
20
21.735505
11
129.6198466
21
1.672905
0
LINE
8
DEFAULT_255_2_778
10
6.7198466
20
0.256405
11
6.7198466
21
21.656405
0
LINE
8
DEFAULT_255_2_778
10
6.7198466
20
21.656405
11
0.6074466
21
21.656405
0
LINE
8
DEFAULT_255_2_778
10
118.3200622
20
23.756422
11
92.2200622
21
23.756422
0
LINE
8
DEFAULT_255_2_778
10
92.2200622
20
23.756422
11
92.2200622
21
24.113822
0
LINE
8
DEFAULT_255_2_778
10
92.2200622
20
24.113822
11
118.2200622
21
24.113822
0
LINE
8
DEFAULT_255_2_778
10
118.2200622
20
24.113822
11
118.2200622
21
65.399122
0
LINE
8
DEFAULT_255_2_778
10
118.2200622
20
65.399122
11
92.2200622
21
65.399122
0
LINE
8
DEFAULT_255_2_778
10
92.2200622
20
65.399122
11
92.2200622
21
24.113822
0
LINE
8
DEFAULT_255_2_778
10
1.1046622
20
89.748222
11
1.1075622
21
89.256322
0
LINE
8
DEFAULT_255_2_778
10
1.1075622
20
89.256322
11
7.7200622
21
89.256322
0
LINE
8
DEFAULT_255_2_778
10
7.7200622
20
89.256322
11
7.7200622
21
57.556322
0
LINE
8
DEFAULT_255_2_778
10
7.7200622
20
57.556322
11
24.7200622
21
57.556322
0
LINE
8
DEFAULT_255_2_778
10
24.7200622
20
57.556322
11
24.7200622
21
89.256322
0
LINE
8
DEFAULT_255_2_778
10
24.7200622
20
89.256322
11
29.9201622
21
89.256322
0
LINE
8
DEFAULT_255_2_778
10
29.9201622
20
89.256322
11
29.9201622
21
67.256822
0
LINE
8
DEFAULT_255_2_778
10
129.7196622
20
32.756422
11
130.2197622
21
32.761422
0
ARC
8
DEFAULT_255_2_778
10
129.7196292
20
65.2561885
40
0.5000755
50
0.0086483
51
90.0028154
0
LINE
8
DEFAULT_255_2_778
10
129.7196046
20
56.756464
11
130.2197046
21
56.751464
0
LINE
8
DEFAULT_255_2_778
10
128.2197046
20
22.356464
11
128.2197046
21
22.756464
0
LINE
8
DEFAULT_255_2_778
10
128.2197046
20
22.756464
11
129.7196046
21
22.756464
0
LINE
8
DEFAULT_255_2_778
10
129.7196046
20
22.756464
11
129.7196046
21
24.113764
0
LINE
8
DEFAULT_255_2_778
10
129.7196046
20
24.113764
11
118.3195046
21
24.113764
0
LINE
8
DEFAULT_255_2_778
10
118.3195046
20
24.113764
11
118.3195046
21
65.756264
0
LINE
8
DEFAULT_255_2_778
10
118.3195046
20
65.756264
11
129.7196046
21
65.756264
0
LINE
8
DEFAULT_255_2_778
10
130.2197046
20
65.256264
11
130.2152046
21
65.271864
0
LINE
8
DEFAULT_255_2_778
10
130.2152046
20
65.271864
11
130.2101046
21
65.284064
0
LINE
8
DEFAULT_255_2_778
10
130.2101046
20
65.284064
11
130.1684046
21
65.319164
0
LINE
8
DEFAULT_255_2_778
10
130.1684046
20
65.319164
11
130.0101046
21
65.372364
0
LINE
8
DEFAULT_255_2_778
10
130.0101046
20
65.372364
11
129.7196046
21
65.398864
0
LINE
8
DEFAULT_255_2_778
10
129.7196046
20
65.398864
11
129.7196046
21
66.756164
0
LINE
8
DEFAULT_255_2_778
10
129.7196046
20
66.756164
11
130.2197046
21
66.756164
0
LINE
8
DEFAULT_255_2_778
10
130.2197046
20
66.756164
11
130.2197046
21
22.756264
0
ARC
8
DEFAULT_255_2_778
10
129.7199147
20
24.2564818
40
0.5000969
50
269.9996485
51
0.0003515
0
LINE
8
DEFAULT_255_2_778
10
129.7199116
20
65.3991848
11
129.7199116
21
24.1138848
0
LINE
8
DEFAULT_255_2_778
10
129.7199116
20
24.1138848
11
130.0324116
21
24.1450848
0
LINE
8
DEFAULT_255_2_778
10
130.0324116
20
24.1450848
11
130.1686116
21
24.1934848
0
LINE
8
DEFAULT_255_2_778
10
130.1686116
20
24.1934848
11
130.2046116
21
24.2207848
0
LINE
8
DEFAULT_255_2_778
10
130.2046116
20
24.2207848
11
130.2105116
21
24.2286848
0
LINE
8
DEFAULT_255_2_778
10
130.2105116
20
24.2286848
11
130.2155116
21
24.2408848
0
LINE
8
DEFAULT_255_2_778
10
130.2155116
20
24.2408848
11
130.2200116
21
24.2564848
0
LINE
8
DEFAULT_255_2_778
10
129.7199116
20
23.7563848
11
118.3198116
21
23.7563848
0
LINE
8
DEFAULT_255_2_778
10
118.3198116
20
23.7563848
11
118.3198116
21
24.1138848
0
LINE
8
DEFAULT_255_2_778
10
118.3198116
20
58.2564848
11
118.2198116
21
58.2564848
0
LINE
8
DEFAULT_255_2_778
10
118.2197938
20
60.0564256
11
118.3197938
21
60.0564256
0
LINE
8
DEFAULT_255_2_778
10
118.3197938
20
58.9362256
11
118.2197938
21
58.9563256
0
LINE
8
DEFAULT_255_2_778
10
118.2197938
20
64.2564256
11
118.3197938
21
64.2564256
0
LINE
8
DEFAULT_255_2_778
10
118.3197938
20
29.4565256
11
118.2197938
21
29.4565256
0
LINE
8
DEFAULT_255_2_778
10
28.7186532
20
62.8673468
11
29.3251532
21
62.8673468
0
LINE
8
DEFAULT_255_2_778
10
29.3251532
20
62.8673468
11
30.4892532
21
59.8100468
0
LINE
8
DEFAULT_255_2_778
10
30.4892532
20
59.8100468
11
31.6534532
21
62.8673468
0
LINE
8
DEFAULT_255_2_778
10
31.6534532
20
62.8673468
11
32.2622532
21
62.8673468
0
LINE
8
DEFAULT_255_2_778
10
32.2622532
20
62.8673468
11
32.2622532
21
59.1203468
0
LINE
8
DEFAULT_255_2_778
10
32.2622532
20
59.1203468
11
31.7926532
21
59.1203468
0
LINE
8
DEFAULT_255_2_778
10
31.7926532
20
59.1203468
11
31.7926532
21
60.5794468
0
LINE
8
DEFAULT_255_2_778
10
31.7926532
20
60.5794468
11
31.8365532
21
62.1545468
0
LINE
8
DEFAULT_255_2_778
10
31.8365532
20
62.1545468
11
30.6675532
21
59.1203468
0
LINE
8
DEFAULT_255_2_778
10
30.6675532
20
59.1203468
11
30.3080532
21
59.1203468
0
LINE
8
DEFAULT_255_2_778
10
30.3080532
20
59.1203468
11
29.1414532
21
62.1466468
0
LINE
8
DEFAULT_255_2_778
10
29.1414532
20
62.1466468
11
29.1877532
21
60.5792468
0
LINE
8
DEFAULT_255_2_778
10
29.1877532
20
60.5792468
11
29.1877532
21
59.1200468
0
LINE
8
DEFAULT_255_2_778
10
29.1877532
20
59.1200468
11
28.7181532
21
59.1200468
0
LINE
8
DEFAULT_255_2_778
10
28.7181532
20
59.1200468
11
28.7181532
21
62.8670468
0
LINE
8
DEFAULT_255_2_778
10
28.7181532
20
62.8670468
11
28.7186532
21
62.8673468
0
LINE
8
DEFAULT_255_2_778
10
33.5951823
20
62.8673145
11
33.5951823
21
59.1203145
0
LINE
8
DEFAULT_255_2_778
10
33.5951823
20
59.1203145
11
33.1255823
21
59.1203145
0
LINE
8
DEFAULT_255_2_778
10
33.1255823
20
59.1203145
11
33.1255823
21
62.8673145
0
LINE
8
DEFAULT_255_2_778
10
33.1255823
20
62.8673145
11
33.5951823
21
62.8673145
0
LINE
8
DEFAULT_255_2_778
10
33.5951823
20
62.8673145
11
33.5951823
21
62.8673145
0
ARC
8
DEFAULT_255_2_778
10
39.4310027
20
64.3034097
40
3.6663184
50
247.7612053
51
253.3572758
0
ARC
8
DEFAULT_255_2_778
10
38.9091641
20
63.0378632
40
2.2974147
50
239.8211009
51
247.8622844
0
ARC
8
DEFAULT_255_2_778
10
38.4364093
20
62.2340182
40
1.3648759
50
227.5296112
51
240.0135108
0
ARC
8
DEFAULT_255_2_778
10
38.2192619
20
61.9815046
40
1.032047
50
225.9549598
51
226.9563443
0
ARC
8
DEFAULT_255_2_778
10
38.1053344
20
61.8785125
40
0.878872
50
178.7897104
51
226.6256614
0
ARC
8
DEFAULT_255_2_778
10
38.1494471
20
61.9161915
40
0.9229866
50
130.3028123
51
181.1867117
0
ARC
8
DEFAULT_255_2_778
10
38.3211838
20
61.74818
40
1.1624161
50
130.7205232
51
131.4019658
0
ARC
8
DEFAULT_255_2_778
10
38.3199436
20
61.7377386
40
1.1695463
50
100.5520011
51
130.3407682
0
ARC
8
DEFAULT_255_2_778
10
38.4277394
20
61.2415366
40
1.6771653
50
89.6816361
51
101.0680122
0
ARC
8
DEFAULT_255_2_778
10
38.4510143
20
61.4306678
40
1.4880736
50
72.2819707
51
90.5373517
0
ARC
8
DEFAULT_255_2_778
10
38.5114393
20
61.6503611
40
1.2604461
50
62.6070583
51
71.8591719
0
ARC
8
DEFAULT_255_2_778
10
38.5997768
20
61.7915589
40
1.0945201
50
31.1526478
51
63.3121294
0
ARC
8
DEFAULT_255_2_778
10
38.6002876
20
61.7919119
40
1.0939004
50
359.5790946
51
31.1506666
0
ARC
8
DEFAULT_255_2_778
10
38.3789336
20
61.7973303
40
0.8433322
50
359.085876
51
19.8015955
0
ARC
8
DEFAULT_255_2_778
10
38.5917669
20
61.8670349
40
0.6195043
50
20.4043628
51
46.6842007
0
ARC
8
DEFAULT_255_2_778
10
38.5479264
20
61.8080284
40
0.6925649
50
47.3942062
51
79.0454652
0
ARC
8
DEFAULT_255_2_778
10
38.4463482
20
61.3689414
40
1.1430699
50
78.2290309
51
90.4506088
0
ARC
8
DEFAULT_255_2_778
10
38.4245722
20
61.3883833
40
1.1236655
50
89.3480113
51
103.6979905
0
ARC
8
DEFAULT_255_2_778
10
38.3129498
20
61.833112
40
0.6651608
50
103.4280286
51
128.8441107
0
ARC
8
DEFAULT_255_2_778
10
38.2401424
20
61.9376763
40
0.5381285
50
129.7892801
51
179.7737782
0
ARC
8
DEFAULT_255_2_778
10
38.5074727
20
61.9048067
40
0.8062143
50
177.5122557
51
180.0163964
0
ARC
8
DEFAULT_255_2_778
10
38.1926102
20
61.9011073
40
0.4913639
50
179.5955296
51
231.3851135
0
ARC
8
DEFAULT_255_2_778
10
38.4794496
20
62.2316016
40
0.9287818
50
230.282746
51
242.6095272
0
ARC
8
DEFAULT_255_2_778
10
38.9376446
20
63.0927918
40
1.9042488
50
242.2895268
51
249.5151427
0
ARC
8
DEFAULT_255_2_778
10
39.4639207
20
64.4721605
40
3.3805838
50
249.3410265
51
253.686847
0
ARC
8
DEFAULT_255_2_778
10
37.3221846
20
57.15192
40
4.2465357
50
69.3444264
51
73.6956047
0
ARC
8
DEFAULT_255_2_778
10
37.9114959
20
58.7035872
40
2.586737
50
63.1252849
51
69.4347839
0
ARC
8
DEFAULT_255_2_778
10
38.3274087
20
59.5343018
40
1.6577384
50
57.8783792
51
62.9689188
0
ARC
8
DEFAULT_255_2_778
10
38.5714985
20
59.9046279
40
1.2143542
50
42.1674078
51
58.3415106
0
ARC
8
DEFAULT_255_2_778
10
38.7927522
20
60.1143157
40
0.909627
50
29.9815821
51
41.733391
0
ARC
8
DEFAULT_255_2_778
10
38.7637068
20
60.1116672
40
0.9361891
50
3.4683607
51
29.2336512
0
ARC
8
DEFAULT_255_2_778
10
38.4389805
20
60.0733136
40
1.2627784
50
359.9529193
51
4.3140605
0
ARC
8
DEFAULT_255_2_778
10
38.7306555
20
60.0578155
40
0.9712107
50
336.6941993
51
0.8531137
0
ARC
8
DEFAULT_255_2_778
10
38.8130291
20
60.0394804
40
0.8884438
50
308.3650039
51
335.678359
0
ARC
8
DEFAULT_255_2_778
10
38.6358745
20
60.2562554
40
1.1683735
50
283.7075444
51
308.5786454
0
ARC
8
DEFAULT_255_2_778
10
38.4915384
20
60.8068087
40
1.7374761
50
271.5365676
51
284.0294828
0
ARC
8
DEFAULT_255_2_778
10
38.4624703
20
61.3027879
40
2.234112
50
269.9868747
51
271.9406992
0
ARC
8
DEFAULT_255_2_778
10
38.4500211
20
60.6712807
40
1.6026491
50
245.1792018
51
270.4267748
0
ARC
8
DEFAULT_255_2_778
10
38.2877756
20
60.3480014
40
1.2411788
50
225.3607698
51
245.7124494
0
ARC
8
DEFAULT_255_2_778
10
38.1626615
20
60.2080357
40
1.0537179
50
213.7922117
51
224.8539223
0
ARC
8
DEFAULT_255_2_778
10
38.1390037
20
60.1911317
40
1.0246557
50
179.1587344
51
213.742434
0
ARC
8
DEFAULT_255_2_778
10
38.3141005
20
60.1917943
40
0.7277841
50
178.8677049
51
205.5993359
0
ARC
8
DEFAULT_255_2_778
10
38.2257466
20
60.1630884
40
0.6358191
50
206.7066797
51
230.9124902
0
ARC
8
DEFAULT_255_2_778
10
38.3520862
20
60.323851
40
0.8402647
50
231.13745
51
259.3012901
0
ARC
8
DEFAULT_255_2_778
10
38.4530133
20
60.7823967
40
1.3096512
50
258.6867688
51
270.3913433
0
ARC
8
DEFAULT_255_2_778
10
38.4743963
20
60.7762519
40
1.3035353
50
269.4532988
51
281.547147
0
ARC
8
DEFAULT_255_2_778
10
38.5959257
20
60.2114461
40
0.7258588
50
281.0727353
51
303.8745699
0
ARC
8
DEFAULT_255_2_778
10
38.6774036
20
60.0729294
40
0.5655209
50
304.8429961
51
308.8126703
0
ARC
8
DEFAULT_255_2_778
10
38.7019397
20
60.0452508
40
0.5285779
50
308.6207873
51
2.388139
0
ARC
8
DEFAULT_255_2_778
10
38.635537
20
60.0810568
40
0.5946812
50
358.6721411
51
25.5576414
0
ARC
8
DEFAULT_255_2_778
10
38.745931
20
60.1227506
40
0.4772066
50
26.7598131
51
50.9363667
0
ARC
8
DEFAULT_255_2_778
10
38.4835026
20
59.786436
40
0.9037518
50
51.4548486
51
62.3471627
0
ARC
8
DEFAULT_255_2_778
10
37.9920473
20
58.8713992
40
1.9423893
50
62.0333457
51
68.3215832
0
ARC
8
DEFAULT_255_2_778
10
37.3679923
20
57.3242297
40
3.610664
50
68.1883294
51
72.197105
0
ARC
8
DEFAULT_255_2_778
10
36.8832474
20
55.8617397
40
5.1513485
50
72.0371005
51
73.0906683
0
ARC
8
DEFAULT_255_2_778
10
41.348209
20
60.3128073
40
1.4616657
50
343.8682309
51
0.2692453
0
ARC
8
DEFAULT_255_2_778
10
41.6664061
20
60.2250756
40
1.1316291
50
316.9355507
51
343.6589766
0
ARC
8
DEFAULT_255_2_778
10
41.6446931
20
60.2509119
40
1.1651408
50
282.6420777
51
316.7364106
0
ARC
8
DEFAULT_255_2_778
10
41.5218238
20
60.6997211
40
1.6301044
50
274.1911457
51
283.4035632
0
ARC
8
DEFAULT_255_2_778
10
41.5035277
20
60.7423522
40
1.6734254
50
256.9923323
51
270.4393123
0
ARC
8
DEFAULT_255_2_778
10
41.3810467
20
60.2418269
40
1.1581948
50
226.5450205
51
257.3227525
0
ARC
8
DEFAULT_255_2_778
10
41.3519167
20
60.1968929
40
1.1055843
50
191.5488619
51
226.0392654
0
ARC
8
DEFAULT_255_2_778
10
41.8568384
20
60.3178013
40
1.6245829
50
180.1102225
51
192.1615973
0
ARC
8
DEFAULT_255_2_778
10
41.8865624
20
60.31727
40
1.189775
50
179.3736588
51
194.2395905
0
ARC
8
DEFAULT_255_2_778
10
41.4544122
20
60.2037092
40
0.7429785
50
193.9486584
51
222.8444585
0
ARC
8
DEFAULT_255_2_778
10
41.4167271
20
60.1878972
40
0.7047352
50
223.9854237
51
260.1029458
0
ARC
8
DEFAULT_255_2_778
10
41.5089529
20
60.5993602
40
1.1261066
50
259.0786021
51
270.3615331
0
ARC
8
DEFAULT_255_2_778
10
41.5288284
20
60.5528248
40
1.0796243
50
269.3222846
51
285.0458649
0
ARC
8
DEFAULT_255_2_778
10
41.6354533
20
60.1672662
40
0.6796105
50
284.8029205
51
316.2230687
0
ARC
8
DEFAULT_255_2_778
10
41.5740262
20
60.2060266
40
0.75092
50
317.3304141
51
348.2892753
0
ARC
8
DEFAULT_255_2_778
10
41.1098677
20
60.3170456
40
1.2280362
50
347.6128548
51
0.4913168
0
ARC
8
DEFAULT_255_2_778
10
44.7274572
20
60.7582126
40
2.109201
50
81.2288622
51
90.3422424
0
ARC
8
DEFAULT_255_2_778
10
44.855409
20
61.5580847
40
1.2991797
50
67.1348853
51
81.4266376
0
ARC
8
DEFAULT_255_2_778
10
45.0168939
20
61.9467664
40
0.8782955
50
49.5551163
51
66.989306
0
ARC
8
DEFAULT_255_2_778
10
45.0518827
20
62.0043399
40
0.8118534
50
12.4949938
51
48.7984473
0
ARC
8
DEFAULT_255_2_778
10
44.5690819
20
61.8808645
40
1.3100324
50
359.4712896
51
13.1989403
0
ARC
8
DEFAULT_255_2_778
10
45.0901013
20
61.8556334
40
0.7890667
50
325.1003434
51
0.9543576
0
ARC
8
DEFAULT_255_2_778
10
44.9820469
20
61.9421797
40
0.92725
50
293.4441904
51
324.5343842
0
ARC
8
DEFAULT_255_2_778
10
45.1303037
20
60.2965176
40
0.8250135
50
34.8856294
51
74.4870643
0
ARC
8
DEFAULT_255_2_778
10
45.03572
20
60.2354503
40
0.9375356
50
2.2435299
51
34.6409946
0
ARC
8
DEFAULT_255_2_778
10
44.7355136
20
60.2013995
40
1.2390449
50
359.9757909
51
3.2735059
0
ARC
8
DEFAULT_255_2_778
10
44.6770077
20
60.1875744
40
1.297619
50
344.4557539
51
0.5873339
0
ARC
8
DEFAULT_255_2_778
10
45.0323432
20
60.0893814
40
0.9289664
50
312.8367532
51
344.4173821
0
ARC
8
DEFAULT_255_2_778
10
44.9789876
20
60.1610008
40
1.0178066
50
285.2917707
51
312.2980446
0
ARC
8
DEFAULT_255_2_778
10
44.8267824
20
60.6792828
40
1.5579137
50
272.5457831
51
285.6642366
0
ARC
8
DEFAULT_255_2_778
10
44.7872743
20
61.2086348
40
2.0885592
50
269.966646
51
272.9835255
0
ARC
8
DEFAULT_255_2_778
10
44.8087817
20
60.4224134
40
0.8981347
50
269.1564047
51
287.8868778
0
ARC
8
DEFAULT_255_2_778
10
44.8914254
20
60.1531116
40
0.6164802
50
288.2645799
51
313.1265192
0
ARC
8
DEFAULT_255_2_778
10
44.8926585
20
60.1392047
40
0.6055486
50
313.9409244
51
354.6815463
0
ARC
8
DEFAULT_255_2_778
10
44.5768002
20
60.1939127
40
0.9254608
50
353.1215067
51
0.1339328
0
ARC
8
DEFAULT_255_2_778
10
44.5418046
20
60.2086704
40
0.9605365
50
359.2487242
51
14.6428302
0
ARC
8
DEFAULT_255_2_778
10
44.9630019
20
60.3290073
40
0.5226941
50
13.5517682
51
74.9430937
0
ARC
8
DEFAULT_255_2_778
10
44.8279031
20
59.9037713
40
0.9686333
50
73.7603717
51
89.026631
0
ARC
8
DEFAULT_255_2_778
10
44.8032674
20
59.491407
40
1.381469
50
88.2955385
51
90.0128116
0
ARC
8
DEFAULT_255_2_778
10
44.7424098
20
62.1469828
40
0.8778024
50
269.1546141
51
288.0541756
0
ARC
8
DEFAULT_255_2_778
10
44.8206081
20
61.8918867
40
0.6110495
50
288.495847
51
311.1076702
0
ARC
8
DEFAULT_255_2_778
10
44.8592459
20
61.8409188
40
0.5472606
50
311.5680765
51
0.0542914
0
ARC
8
DEFAULT_255_2_778
10
44.5991754
20
61.8713029
40
0.8078829
50
357.8814218
51
0.0122722
0
ARC
8
DEFAULT_255_2_778
10
44.6182378
20
61.8842432
40
0.788924
50
359.0727401
51
16.300399
0
ARC
8
DEFAULT_255_2_778
10
44.9545274
20
61.9848925
40
0.437908
50
16.0104526
51
50.0257485
0
ARC
8
DEFAULT_255_2_778
10
44.8813477
20
61.8678174
40
0.5749589
50
51.932848
51
76.8571807
0
ARC
8
DEFAULT_255_2_778
10
44.743859
20
61.3333159
40
1.1267897
50
76.2290435
51
88.8316199
0
ARC
8
DEFAULT_255_2_778
10
44.7153591
20
60.8141961
40
1.6464801
50
88.2083985
51
90.0174192
0
LINE
8
DEFAULT_255_2_778
10
36.8429585
20
62.867376
11
36.8429585
21
62.460676
0
LINE
8
DEFAULT_255_2_778
10
36.8429585
20
62.460676
11
35.6983585
21
62.460676
0
LINE
8
DEFAULT_255_2_778
10
35.6983585
20
62.460676
11
35.6983585
21
59.120276
0
LINE
8
DEFAULT_255_2_778
10
35.6983585
20
59.120276
11
35.2313585
21
59.120276
0
LINE
8
DEFAULT_255_2_778
10
35.2313585
20
59.120276
11
35.2313585
21
62.460676
0
LINE
8
DEFAULT_255_2_778
10
35.2313585
20
62.460676
11
34.0894585
21
62.460676
0
LINE
8
DEFAULT_255_2_778
10
34.0894585
20
62.460676
11
34.0894585
21
62.867376
0
LINE
8
DEFAULT_255_2_778
10
34.0894585
20
62.867376
11
36.8429585
21
62.867376
0
LINE
8
DEFAULT_255_2_778
10
36.8429585
20
62.867376
11
36.8429585
21
62.867376
0
LINE
8
DEFAULT_255_2_778
10
39.6941585
20
61.783876
11
39.2221585
21
61.783876
0
LINE
8
DEFAULT_255_2_778
10
37.1144585
20
60.206176
11
37.5864585
21
60.206176
0
LINE
8
DEFAULT_255_2_778
10
38.3815585
20
60.790376
11
38.3809585
21
60.790676
0
LINE
8
DEFAULT_255_2_778
10
42.3378585
20
62.867376
11
42.8098585
21
62.867376
0
LINE
8
DEFAULT_255_2_778
10
42.8098585
20
62.867376
11
42.8098585
21
60.319676
0
LINE
8
DEFAULT_255_2_778
10
41.6409585
20
59.073976
11
41.5163585
21
59.068976
0
LINE
8
DEFAULT_255_2_778
10
40.2322585
20
60.314676
11
40.2322585
21
62.867576
0
LINE
8
DEFAULT_255_2_778
10
40.2322585
20
62.867576
11
40.6968585
21
62.867576
0
LINE
8
DEFAULT_255_2_778
10
40.6968585
20
62.867576
11
40.6968585
21
60.330276
0
LINE
8
DEFAULT_255_2_778
10
42.3378585
20
60.327576
11
42.3378585
21
62.867576
0
LINE
8
DEFAULT_255_2_778
10
42.3378585
20
62.867576
11
42.3378585
21
62.867376
0
LINE
8
DEFAULT_255_2_778
10
44.7857585
20
59.120276
11
43.5506585
21
59.120276
0
LINE
8
DEFAULT_255_2_778
10
43.5506585
20
59.120276
11
43.5506585
21
62.867376
0
LINE
8
DEFAULT_255_2_778
10
43.5506585
20
62.867376
11
44.7148585
21
62.867376
0
LINE
8
DEFAULT_255_2_778
10
44.7860585
20
59.120076
11
44.7857585
21
59.120276
0
LINE
8
DEFAULT_255_2_778
10
44.8029585
20
60.872876
11
44.0203585
21
60.872876
0
LINE
8
DEFAULT_255_2_778
10
44.0203585
20
60.872876
11
44.0203585
21
59.524376
0
LINE
8
DEFAULT_255_2_778
10
44.0203585
20
59.524376
11
44.7955585
21
59.524376
0
LINE
8
DEFAULT_255_2_778
10
44.8029585
20
60.872876
11
44.8029585
21
60.872876
0
LINE
8
DEFAULT_255_2_778
10
44.0203585
20
62.460676
11
44.0203585
21
61.269276
0
LINE
8
DEFAULT_255_2_778
10
44.0203585
20
61.269276
11
44.7294585
21
61.269276
0
LINE
8
DEFAULT_255_2_778
10
44.7148585
20
62.460676
11
44.0203585
21
62.460676
0
LINE
8
DEFAULT_255_2_778
10
44.0203585
20
62.460676
11
44.0203585
21
62.460676
0
LINE
8
DEFAULT_255_2_778
10
47.1724823
20
62.8673145
11
47.1724823
21
59.1203145
0
LINE
8
DEFAULT_255_2_778
10
47.1724823
20
59.1203145
11
46.7028823
21
59.1203145
0
LINE
8
DEFAULT_255_2_778
10
46.7028823
20
59.1203145
11
46.7028823
21
62.8673145
0
LINE
8
DEFAULT_255_2_778
10
46.7028823
20
62.8673145
11
47.1724823
21
62.8673145
0
LINE
8
DEFAULT_255_2_778
10
47.1724823
20
62.8673145
11
47.1724823
21
62.8673145
0
ARC
8
DEFAULT_255_2_778
10
50.1299401
20
64.3034097
40
3.6663184
50
247.7612053
51
253.3572758
0
ARC
8
DEFAULT_255_2_778
10
49.6081015
20
63.0378632
40
2.2974147
50
239.8211009
51
247.8622844
0
ARC
8
DEFAULT_255_2_778
10
49.1353467
20
62.2340182
40
1.3648759
50
227.5296112
51
240.0135108
0
ARC
8
DEFAULT_255_2_778
10
48.9181993
20
61.9815046
40
1.032047
50
225.9549598
51
226.9563443
0
ARC
8
DEFAULT_255_2_778
10
48.8040155
20
61.8785389
40
0.8787152
50
178.7912154
51
226.638989
0
ARC
8
DEFAULT_255_2_778
10
48.8481667
20
61.9161646
40
0.9228682
50
130.2915612
51
181.185188
0
ARC
8
DEFAULT_255_2_778
10
49.0203012
20
61.7477025
40
1.1628954
50
130.7118962
51
131.3931731
0
ARC
8
DEFAULT_255_2_778
10
49.018881
20
61.7377386
40
1.1695463
50
100.5520011
51
130.3407682
0
ARC
8
DEFAULT_255_2_778
10
49.1266768
20
61.2415366
40
1.6771653
50
89.6816361
51
101.0680122
0
ARC
8
DEFAULT_255_2_778
10
49.1499517
20
61.4306678
40
1.4880736
50
72.2819707
51
90.5373517
0
ARC
8
DEFAULT_255_2_778
10
49.2103768
20
61.6503611
40
1.2604461
50
62.6070583
51
71.8591719
0
ARC
8
DEFAULT_255_2_778
10
49.2987142
20
61.7915589
40
1.0945201
50
31.1526478
51
63.3121294
0
ARC
8
DEFAULT_255_2_778
10
49.2992251
20
61.7919119
40
1.0939004
50
359.5790946
51
31.1506666
0
ARC
8
DEFAULT_255_2_778
10
49.0773982
20
61.7973325
40
0.843705
50
359.0861302
51
19.7923208
0
ARC
8
DEFAULT_255_2_778
10
49.2905699
20
61.8671329
40
0.6195251
50
20.3939802
51
46.6689402
0
ARC
8
DEFAULT_255_2_778
10
49.2468638
20
61.8080284
40
0.6925649
50
47.3942062
51
79.0454652
0
ARC
8
DEFAULT_255_2_778
10
49.1452856
20
61.3689414
40
1.1430699
50
78.2290309
51
90.4506088
0
ARC
8
DEFAULT_255_2_778
10
49.123492
20
61.3881247
40
1.1239243
50
89.3472655
51
103.6964449
0
ARC
8
DEFAULT_255_2_778
10
49.0116874
20
61.8335778
40
0.6646727
50
103.4247444
51
128.8558848
0
ARC
8
DEFAULT_255_2_778
10
48.9390798
20
61.9376763
40
0.5381285
50
129.7892801
51
179.7737782
0
ARC
8
DEFAULT_255_2_778
10
49.2064101
20
61.9048067
40
0.8062143
50
177.5122557
51
180.0163964
0
ARC
8
DEFAULT_255_2_778
10
48.8915476
20
61.9011073
40
0.4913639
50
179.5955296
51
231.3851135
0
ARC
8
DEFAULT_255_2_778
10
49.178387
20
62.2316016
40
0.9287818
50
230.282746
51
242.6095272
0
ARC
8
DEFAULT_255_2_778
10
49.6365821
20
63.0927918
40
1.9042488
50
242.2895268
51
249.5151427
0
ARC
8
DEFAULT_255_2_778
10
50.1628581
20
64.4721605
40
3.3805838
50
249.3410265
51
253.686847
0
ARC
8
DEFAULT_255_2_778
10
48.0204274
20
57.1505279
40
4.2480668
50
69.3428742
51
73.6918834
0
ARC
8
DEFAULT_255_2_778
10
48.6094998
20
58.7014567
40
2.5890432
50
63.1288775
51
69.4329736
0
ARC
8
DEFAULT_255_2_778
10
49.0253316
20
59.5321403
40
1.6601086
50
57.8883903
51
62.9727357
0
ARC
8
DEFAULT_255_2_778
10
49.2709202
20
59.9053703
40
1.2134681
50
42.1580174
51
58.342578
0
ARC
8
DEFAULT_255_2_778
10
49.4922584
20
60.1150722
40
0.9086698
50
29.9613371
51
41.7233078
0
ARC
8
DEFAULT_255_2_778
10
49.4618753
20
60.1116974
40
0.9367581
50
3.4644003
51
29.2120592
0
ARC
8
DEFAULT_255_2_778
10
49.1367322
20
60.0733163
40
1.2637641
50
359.9528359
51
4.310569
0
ARC
8
DEFAULT_255_2_778
10
49.4296387
20
60.0578196
40
0.9709649
50
336.6876959
51
0.853092
0
ARC
8
DEFAULT_255_2_778
10
49.5117572
20
60.0395971
40
0.8884789
50
308.3557479
51
335.6711272
0
ARC
8
DEFAULT_255_2_778
10
49.3345119
20
60.2562554
40
1.1683735
50
283.7075444
51
308.5786454
0
ARC
8
DEFAULT_255_2_778
10
49.1901758
20
60.8068087
40
1.7374761
50
271.5365676
51
284.0294828
0
ARC
8
DEFAULT_255_2_778
10
49.1611077
20
61.3027879
40
2.234112
50
269.9868747
51
271.9406992
0
ARC
8
DEFAULT_255_2_778
10
49.1486585
20
60.6712807
40
1.6026491
50
245.1792018
51
270.4267748
0
ARC
8
DEFAULT_255_2_778
10
48.9868278
20
60.348451
40
1.2417593
50
225.363176
51
245.7035376
0
ARC
8
DEFAULT_255_2_778
10
48.862121
20
60.2089194
40
1.0548927
50
213.8072697
51
224.8581485
0
ARC
8
DEFAULT_255_2_778
10
48.8376411
20
60.1911317
40
1.0246557
50
179.1587344
51
213.742434
0
ARC
8
DEFAULT_255_2_778
10
49.0127379
20
60.1917943
40
0.7277841
50
178.8677049
51
205.5993359
0
ARC
8
DEFAULT_255_2_778
10
48.924384
20
60.1630884
40
0.6358191
50
206.7066797
51
230.9124902
0
ARC
8
DEFAULT_255_2_778
10
49.0507236
20
60.323851
40
0.8402647
50
231.13745
51
259.3012901
0
ARC
8
DEFAULT_255_2_778
10
49.1516508
20
60.7823967
40
1.3096512
50
258.6867688
51
270.3913433
0
ARC
8
DEFAULT_255_2_778
10
49.1730484
20
60.7765768
40
1.3038603
50
269.4527881
51
281.5457324
0
ARC
8
DEFAULT_255_2_778
10
49.2947315
20
60.2110296
40
0.725427
50
281.0697361
51
303.8827844
0
ARC
8
DEFAULT_255_2_778
10
49.3763393
20
60.0723358
40
0.5648714
50
304.8537402
51
308.8268322
0
ARC
8
DEFAULT_255_2_778
10
49.4005771
20
60.0452508
40
0.5285779
50
308.6207873
51
2.388139
0
ARC
8
DEFAULT_255_2_778
10
49.333903
20
60.0810608
40
0.5949527
50
358.6723567
51
25.5446975
0
ARC
8
DEFAULT_255_2_778
10
49.4445902
20
60.1228748
40
0.4771594
50
26.7459588
51
50.9196746
0
ARC
8
DEFAULT_255_2_778
10
49.181801
20
59.7855259
40
0.9047372
50
51.4690197
51
62.3522444
0
ARC
8
DEFAULT_255_2_778
10
48.6902339
20
58.8700622
40
1.9438038
50
62.0388594
51
68.323382
0
ARC
8
DEFAULT_255_2_778
10
48.0660965
20
57.3225268
40
3.6124486
50
68.1902922
51
72.1972959
0
ARC
8
DEFAULT_255_2_778
10
47.5814336
20
55.8602581
40
5.1528974
50
72.0373987
51
73.0906597
0
LINE
8
DEFAULT_255_2_778
10
50.3930959
20
61.783876
11
49.9209959
21
61.783876
0
LINE
8
DEFAULT_255_2_778
10
47.8130959
20
60.206176
11
48.2850959
21
60.206176
0
LINE
8
DEFAULT_255_2_778
10
49.0801959
20
60.790376
11
49.0798959
21
60.790676
0
LINE
8
DEFAULT_255_2_778
10
53.7386959
20
62.867376
11
53.7386959
21
59.120276
0
LINE
8
DEFAULT_255_2_778
10
53.7386959
20
59.120276
11
53.2666959
21
59.120276
0
LINE
8
DEFAULT_255_2_778
10
53.2666959
20
59.120276
11
53.2666959
21
60.852276
0
LINE
8
DEFAULT_255_2_778
10
53.2666959
20
60.852276
11
51.4717959
21
60.852276
0
LINE
8
DEFAULT_255_2_778
10
51.4717959
20
60.852276
11
51.4717959
21
59.120276
0
LINE
8
DEFAULT_255_2_778
10
51.4717959
20
59.120276
11
51.0020959
21
59.120276
0
LINE
8
DEFAULT_255_2_778
10
51.0020959
20
59.120276
11
51.0020959
21
62.867376
0
LINE
8
DEFAULT_255_2_778
10
51.0020959
20
62.867376
11
51.4717959
21
62.867376
0
LINE
8
DEFAULT_255_2_778
10
51.4717959
20
62.867376
11
51.4717959
21
61.256276
0
LINE
8
DEFAULT_255_2_778
10
51.4717959
20
61.256276
11
53.2666959
21
61.256276
0
LINE
8
DEFAULT_255_2_778
10
53.2666959
20
61.256276
11
53.2666959
21
62.867376
0
LINE
8
DEFAULT_255_2_778
10
53.2666959
20
62.867376
11
53.7386959
21
62.867376
0
LINE
8
DEFAULT_255_2_778
10
53.7386959
20
62.867376
11
53.7386959
21
62.867376
0
LINE
8
DEFAULT_255_2_778
10
55.0763823
20
62.8673145
11
55.0763823
21
59.1203145
0
LINE
8
DEFAULT_255_2_778
10
55.0763823
20
59.1203145
11
54.6067823
21
59.1203145
0
LINE
8
DEFAULT_255_2_778
10
54.6067823
20
59.1203145
11
54.6067823
21
62.8673145
0
LINE
8
DEFAULT_255_2_778
10
54.6067823
20
62.8673145
11
55.0763823
21
62.8673145
0
LINE
8
DEFAULT_255_2_778
10
55.0763823
20
62.8673145
11
55.0763823
21
62.8673145
0
LINE
8
DEFAULT_255_2_778
10
118.2197938
20
31.2565437
11
118.3197938
21
31.2565437
0
LINE
8
DEFAULT_255_2_778
10
118.2197938
20
30.5564437
11
118.3197938
21
30.5765437
0
LINE
8
DEFAULT_255_2_778
10
74.79375
20
62.4455708
11
75.21765
21
62.4455708
0
LINE
8
DEFAULT_255_2_778
10
75.21765
20
62.4455708
11
76.03125
21
60.4151708
0
LINE
8
DEFAULT_255_2_778
10
76.03125
20
60.4151708
11
76.84475
21
62.4455708
0
LINE
8
DEFAULT_255_2_778
10
76.84475
20
62.4455708
11
77.27025
21
62.4455708
0
LINE
8
DEFAULT_255_2_778
10
77.27025
20
62.4455708
11
77.27025
21
59.9574708
0
LINE
8
DEFAULT_255_2_778
10
77.27025
20
59.9574708
11
76.94215
21
59.9574708
0
LINE
8
DEFAULT_255_2_778
10
76.94215
20
59.9574708
11
76.94215
21
60.9263708
0
LINE
8
DEFAULT_255_2_778
10
76.94215
20
60.9263708
11
76.97285
21
61.9722708
0
LINE
8
DEFAULT_255_2_778
10
76.97285
20
61.9722708
11
76.15585
21
59.9574708
0
LINE
8
DEFAULT_255_2_778
10
76.15585
20
59.9574708
11
75.90445
21
59.9574708
0
LINE
8
DEFAULT_255_2_778
10
75.90445
20
59.9574708
11
75.08925
21
61.9671708
0
LINE
8
DEFAULT_255_2_778
10
75.08925
20
61.9671708
11
75.12185
21
60.9263708
0
LINE
8
DEFAULT_255_2_778
10
75.12185
20
60.9263708
11
75.12185
21
59.9574708
0
LINE
8
DEFAULT_255_2_778
10
75.12185
20
59.9574708
11
74.79375
21
59.9574708
0
LINE
8
DEFAULT_255_2_778
10
74.79375
20
59.9574708
11
74.79375
21
62.4455708
0
LINE
8
DEFAULT_255_2_778
10
74.79375
20
62.4455708
11
74.79375
21
62.4455708
0
LINE
8
DEFAULT_255_2_778
10
79.2559573
20
61.3758708
11
79.2559573
21
61.1075708
0
LINE
8
DEFAULT_255_2_778
10
79.2559573
20
61.1075708
11
78.1774573
21
61.1075708
0
LINE
8
DEFAULT_255_2_778
10
78.1774573
20
61.1075708
11
78.1774573
21
60.2256708
0
LINE
8
DEFAULT_255_2_778
10
78.1774573
20
60.2256708
11
79.4300573
21
60.2256708
0
LINE
8
DEFAULT_255_2_778
10
79.4300573
20
60.2256708
11
79.4300573
21
59.9574708
0
LINE
8
DEFAULT_255_2_778
10
79.4300573
20
59.9574708
11
77.8491573
21
59.9574708
0
LINE
8
DEFAULT_255_2_778
10
77.8491573
20
59.9574708
11
77.8491573
21
62.4455708
0
LINE
8
DEFAULT_255_2_778
10
77.8491573
20
62.4455708
11
79.4128573
21
62.4455708
0
LINE
8
DEFAULT_255_2_778
10
79.4128573
20
62.4455708
11
79.4128573
21
62.1756708
0
LINE
8
DEFAULT_255_2_778
10
79.4128573
20
62.1756708
11
78.1772573
21
62.1756708
0
LINE
8
DEFAULT_255_2_778
10
78.1772573
20
62.1756708
11
78.1772573
21
61.3758708
0
LINE
8
DEFAULT_255_2_778
10
78.1772573
20
61.3758708
11
79.2556573
21
61.3758708
0
LINE
8
DEFAULT_255_2_778
10
79.2556573
20
61.3758708
11
79.2559573
21
61.3758708
0
ARC
8
DEFAULT_255_2_778
10
83.1476946
20
63.5169883
40
2.5466136
50
247.7075024
51
254.2241397
0
ARC
8
DEFAULT_255_2_778
10
82.7213188
20
62.488996
40
1.4337221
50
237.7673682
51
247.8895246
0
ARC
8
DEFAULT_255_2_778
10
82.4145199
20
61.9963214
40
0.8533463
50
227.7659868
51
237.5488815
0
ARC
8
DEFAULT_255_2_778
10
82.2181344
20
61.7914137
40
0.5696807
50
179.0359152
51
228.5378328
0
ARC
8
DEFAULT_255_2_778
10
82.2505056
20
61.8100327
40
0.602039
50
127.5567735
51
180.8597696
0
ARC
8
DEFAULT_255_2_778
10
82.4113278
20
61.628071
40
0.8444805
50
98.339251
51
128.6815829
0
ARC
8
DEFAULT_255_2_778
10
82.4892239
20
61.223766
40
1.2559435
50
89.7622984
51
99.1802604
0
ARC
8
DEFAULT_255_2_778
10
82.5085456
20
61.4289243
40
1.0508694
50
68.8607322
51
90.7693945
0
ARC
8
DEFAULT_255_2_778
10
82.5569644
20
61.5813572
40
0.8912866
50
63.71674
51
68.2299493
0
ARC
8
DEFAULT_255_2_778
10
82.629086
20
61.6998401
40
0.7532157
50
32.7127773
51
64.6448152
0
ARC
8
DEFAULT_255_2_778
10
82.6741796
20
61.7300166
40
0.6989669
50
359.662464
51
32.6291347
0
ARC
8
DEFAULT_255_2_778
10
82.5486181
20
61.7401707
40
0.4948222
50
358.3472316
51
29.6723727
0
ARC
8
DEFAULT_255_2_778
10
82.6252121
20
61.7724649
40
0.4124029
50
31.0420361
51
48.303825
0
ARC
8
DEFAULT_255_2_778
10
82.5702389
20
61.6991733
40
0.5037544
50
49.1801604
51
81.9066274
0
ARC
8
DEFAULT_255_2_778
10
82.4991863
20
61.3424796
40
0.8671323
50
80.5766034
51
90.3139791
0
ARC
8
DEFAULT_255_2_778
10
82.4817053
20
61.4328094
40
0.7768938
50
89.0611885
51
106.2845596
0
ARC
8
DEFAULT_255_2_778
10
82.394419
20
61.7413143
40
0.4562983
50
106.6264544
51
127.6279505
0
ARC
8
DEFAULT_255_2_778
10
82.3362291
20
61.8225217
40
0.3564731
50
128.1894991
51
182.6405543
0
ARC
8
DEFAULT_255_2_778
10
82.3002446
20
61.8057758
40
0.3201104
50
179.9421723
51
233.3660054
0
ARC
8
DEFAULT_255_2_778
10
82.5403947
20
62.1016927
40
0.7010565
50
232.0469833
51
245.5633285
0
ARC
8
DEFAULT_255_2_778
10
82.9371558
20
62.942259
40
1.6305147
50
245.0893834
51
252.332047
0
ARC
8
DEFAULT_255_2_778
10
83.282868
20
63.9720896
40
2.7167455
50
251.9766451
51
254.3157513
0
ARC
8
DEFAULT_255_2_778
10
81.7645124
20
58.5213608
40
2.9415203
50
69.5150229
51
74.5437589
0
ARC
8
DEFAULT_255_2_778
10
82.2411919
20
59.7821549
40
1.5936432
50
61.4918347
51
69.7058068
0
ARC
8
DEFAULT_255_2_778
10
82.49379
20
60.2656985
40
1.0482057
50
59.001361
51
61.0098654
0
ARC
8
DEFAULT_255_2_778
10
82.6330247
20
60.4703195
40
0.8012221
50
40.1408829
51
60.0001111
0
ARC
8
DEFAULT_255_2_778
10
82.7905517
20
60.6144442
40
0.5879492
50
31.1864577
51
39.3003404
0
ARC
8
DEFAULT_255_2_778
10
82.7527039
20
60.6044789
40
0.6255858
50
358.7177874
51
30.1722251
0
ARC
8
DEFAULT_255_2_778
10
82.4645148
20
60.588876
40
0.9136197
50
0.0077075
51
0.1006027
0
ARC
8
DEFAULT_255_2_778
10
82.7967117
20
60.5722682
40
0.5816633
50
306.4676647
51
1.6482612
0
ARC
8
DEFAULT_255_2_778
10
82.6329919
20
60.7825747
40
0.8481264
50
281.0843518
51
306.9177625
0
ARC
8
DEFAULT_255_2_778
10
82.5224039
20
61.2825956
40
1.360137
50
269.5589696
51
281.6064585
0
ARC
8
DEFAULT_255_2_778
10
82.5027417
20
61.0930788
40
1.170616
50
246.3598135
51
270.4499444
0
ARC
8
DEFAULT_255_2_778
10
82.3599564
20
60.7958751
40
0.8411778
50
222.8993751
51
247.1517814
0
ARC
8
DEFAULT_255_2_778
10
82.2641425
20
60.6938611
40
0.7016115
50
215.1730853
51
222.1228419
0
ARC
8
DEFAULT_255_2_778
10
82.2275958
20
60.6690014
40
0.6574176
50
179.2506824
51
215.2368822
0
ARC
8
DEFAULT_255_2_778
10
82.3284032
20
60.660682
40
0.4285029
50
177.7374264
51
232.3966494
0
ARC
8
DEFAULT_255_2_778
10
82.4384251
20
60.8124851
40
0.6159281
50
232.904909
51
262.3645326
0
ARC
8
DEFAULT_255_2_778
10
82.5077205
20
61.1868622
40
0.996373
50
261.2754745
51
270.2538183
0
ARC
8
DEFAULT_255_2_778
10
82.5246259
20
61.0919317
40
0.9015194
50
269.2060819
51
283.7245948
0
ARC
8
DEFAULT_255_2_778
10
82.6266694
20
60.6797
40
0.4768495
50
283.5652945
51
306.5035847
0
ARC
8
DEFAULT_255_2_778
10
82.7049673
20
60.5723827
40
0.3440097
50
306.6539603
51
2.1517457
0
ARC
8
DEFAULT_255_2_778
10
82.7111312
20
60.6028616
40
0.3380597
50
357.0220698
51
51.6825326
0
ARC
8
DEFAULT_255_2_778
10
82.5061536
20
60.3140988
40
0.691949
50
53.1910014
51
65.298663
0
ARC
8
DEFAULT_255_2_778
10
82.0592543
20
59.3748501
40
1.7320616
50
64.8518749
51
71.3406668
0
ARC
8
DEFAULT_255_2_778
10
81.5605382
20
57.9478485
40
3.2436553
50
71.058986
51
73.9775135
0
LINE
8
DEFAULT_255_2_778
10
80.1685344
20
62.4455989
11
80.1685344
21
60.2256989
0
LINE
8
DEFAULT_255_2_778
10
80.1685344
20
60.2256989
11
81.3477344
21
60.2256989
0
LINE
8
DEFAULT_255_2_778
10
81.3477344
20
60.2256989
11
81.3477344
21
59.9573989
0
LINE
8
DEFAULT_255_2_778
10
81.3477344
20
59.9573989
11
79.8388344
21
59.9573989
0
LINE
8
DEFAULT_255_2_778
10
79.8388344
20
59.9573989
11
79.8388344
21
62.4455989
0
LINE
8
DEFAULT_255_2_778
10
79.8388344
20
62.4455989
11
80.1687344
21
62.4455989
0
LINE
8
DEFAULT_255_2_778
10
80.1687344
20
62.4455989
11
80.1685344
21
62.4455989
0
LINE
8
DEFAULT_255_2_778
10
83.3731344
20
61.7258989
11
83.0432344
21
61.7258989
0
LINE
8
DEFAULT_255_2_778
10
81.5702344
20
60.6775989
11
81.9002344
21
60.6775989
0
LINE
8
DEFAULT_255_2_778
10
82.4558344
20
61.0654989
11
82.4553344
21
61.0662989
0
LINE
8
DEFAULT_255_2_778
10
85.2048573
20
61.3758708
11
85.2048573
21
61.1075708
0
LINE
8
DEFAULT_255_2_778
10
85.2048573
20
61.1075708
11
84.1263573
21
61.1075708
0
LINE
8
DEFAULT_255_2_778
10
84.1263573
20
61.1075708
11
84.1263573
21
60.2256708
0
LINE
8
DEFAULT_255_2_778
10
84.1263573
20
60.2256708
11
85.3789573
21
60.2256708
0
LINE
8
DEFAULT_255_2_778
10
85.3789573
20
60.2256708
11
85.3789573
21
59.9574708
0
LINE
8
DEFAULT_255_2_778
10
85.3789573
20
59.9574708
11
83.7980573
21
59.9574708
0
LINE
8
DEFAULT_255_2_778
10
83.7980573
20
59.9574708
11
83.7980573
21
62.4455708
0
LINE
8
DEFAULT_255_2_778
10
83.7980573
20
62.4455708
11
85.3617573
21
62.4455708
0
LINE
8
DEFAULT_255_2_778
10
85.3617573
20
62.4455708
11
85.3617573
21
62.1756708
0
LINE
8
DEFAULT_255_2_778
10
85.3617573
20
62.1756708
11
84.1261573
21
62.1756708
0
LINE
8
DEFAULT_255_2_778
10
84.1261573
20
62.1756708
11
84.1261573
21
61.3758708
0
LINE
8
DEFAULT_255_2_778
10
84.1261573
20
61.3758708
11
85.2045573
21
61.3758708
0
LINE
8
DEFAULT_255_2_778
10
85.2045573
20
61.3758708
11
85.2048573
21
61.3758708
0
ARC
8
DEFAULT_255_2_778
10
86.5005045
20
60.8638553
40
1.1237024
50
336.7918547
51
354.0122003
0
ARC
8
DEFAULT_255_2_778
10
86.7963241
20
60.7404437
40
0.8031939
50
311.3325562
51
336.5671935
0
ARC
8
DEFAULT_255_2_778
10
86.7708946
20
60.786094
40
0.854338
50
279.5884626
51
310.5912004
0
ARC
8
DEFAULT_255_2_778
10
86.6816436
20
61.2113552
40
1.2886391
50
269.6946536
51
280.351826
0
ARC
8
DEFAULT_255_2_778
10
86.6605701
20
60.8900607
40
0.9674306
50
247.399677
51
270.8413768
0
ARC
8
DEFAULT_255_2_778
10
86.6322729
20
60.7856057
40
0.8602365
50
219.4562997
51
246.4659744
0
ARC
8
DEFAULT_255_2_778
10
86.8090629
20
60.9326195
40
1.0901642
50
192.8758077
51
219.5174021
0
ARC
8
DEFAULT_255_2_778
10
87.3478449
20
61.0662926
40
1.6452182
50
180.2862474
51
193.2327907
0
ARC
8
DEFAULT_255_2_778
10
87.7835055
20
61.0847662
40
2.0810294
50
179.9981242
51
180.7349446
0
ARC
8
DEFAULT_255_2_778
10
87.2774476
20
61.3374003
40
1.5750283
50
165.756814
51
180.4862279
0
ARC
8
DEFAULT_255_2_778
10
86.9286961
20
61.4184081
40
1.2170882
50
154.9292046
51
165.413698
0
ARC
8
DEFAULT_255_2_778
10
86.6701685
20
61.555886
40
0.9247844
50
122.1997633
51
155.8571892
0
ARC
8
DEFAULT_255_2_778
10
86.6790181
20
61.5133377
40
0.9656237
50
90.7275409
51
121.2987529
0
ARC
8
DEFAULT_255_2_778
10
86.7037329
20
61.2376031
40
1.241831
50
89.9933923
51
91.7062527
0
ARC
8
DEFAULT_255_2_778
10
86.7171394
20
61.377883
40
1.1016312
50
73.178008
51
90.68984
0
ARC
8
DEFAULT_255_2_778
10
86.8037665
20
61.67647
40
0.790759
50
47.3346285
51
72.9250905
0
ARC
8
DEFAULT_255_2_778
10
86.7536387
20
61.6355138
40
0.8548959
50
13.3633285
51
46.7244898
0
ARC
8
DEFAULT_255_2_778
10
86.3757271
20
61.5245229
40
1.2483986
50
5.5487698
51
14.3106894
0
ARC
8
DEFAULT_255_2_778
10
86.2358973
20
61.5068527
40
1.0615371
50
7.490378
51
20.2373903
0
ARC
8
DEFAULT_255_2_778
10
86.7323941
20
61.6969812
40
0.5299645
50
19.5186546
51
45.6476161
0
ARC
8
DEFAULT_255_2_778
10
86.7695873
20
61.7057136
40
0.4981413
50
48.0050816
51
82.7955624
0
ARC
8
DEFAULT_255_2_778
10
86.7074707
20
61.3807301
40
0.828612
50
81.3523176
51
90.2485546
0
ARC
8
DEFAULT_255_2_778
10
86.6792872
20
61.6228909
40
0.5869587
50
87.5990666
51
142.9262759
0
ARC
8
DEFAULT_255_2_778
10
86.8526415
20
61.4985529
40
0.800245
50
143.3058139
51
166.1564076
0
ARC
8
DEFAULT_255_2_778
10
87.4102148
20
61.3511921
40
1.3769154
50
165.7540805
51
178.1379256
0
ARC
8
DEFAULT_255_2_778
10
87.9629949
20
61.3161167
40
1.930619
50
177.6305811
51
180.0261865
0
ARC
8
DEFAULT_255_2_778
10
87.5345489
20
61.0614203
40
1.5022275
50
179.5112614
51
191.4986959
0
ARC
8
DEFAULT_255_2_778
10
86.9467253
20
60.9361192
40
0.9012412
50
191.1422847
51
212.8357462
0
ARC
8
DEFAULT_255_2_778
10
86.805378
20
60.8568138
40
0.739543
50
213.6111713
51
215.2553013
0
ARC
8
DEFAULT_255_2_778
10
86.6537133
20
60.7371406
40
0.5467121
50
214.1883994
51
272.2079421
0
ARC
8
DEFAULT_255_2_778
10
86.6872333
20
61.0555006
40
0.864756
50
269.1745972
51
284.9152086
0
ARC
8
DEFAULT_255_2_778
10
86.7850555
20
60.6903357
40
0.4867161
50
284.8520129
51
309.4742276
0
ARC
8
DEFAULT_255_2_778
10
86.7741555
20
60.6730852
40
0.4807206
50
311.7847626
51
338.5394773
0
ARC
8
DEFAULT_255_2_778
10
86.2944062
20
60.8770008
40
1.0019147
50
337.7241449
51
350.4376624
0
ARC
8
DEFAULT_255_2_778
10
85.8285921
20
60.9730928
40
1.4773216
50
349.7637624
51
351.1627478
0
LINE
8
DEFAULT_255_2_778
10
87.2880761
20
60.7466343
11
87.6180761
21
60.7466343
0
LINE
8
DEFAULT_255_2_778
10
85.7024761
20
61.0848343
11
85.7024761
21
61.3240343
0
LINE
8
DEFAULT_255_2_778
10
87.6182761
20
61.6452343
11
87.2883761
21
61.6452343
0
LINE
8
DEFAULT_255_2_778
10
86.0323761
20
61.3152343
11
86.0323761
21
61.0742343
0
LINE
8
DEFAULT_255_2_778
10
87.2883761
20
60.7461343
11
87.2880761
21
60.7466343
0
ARC
8
DEFAULT_255_2_778
10
30.4196871
20
89.2563356
40
0.5000956
50
90.0053149
51
135.0041129
0
ARC
8
DEFAULT_255_2_778
10
30.4192921
20
89.2565688
40
0.4996515
50
134.9909954
51
180.0272389
0
LINE
8
DEFAULT_255_2_778
10
24.7197407
20
89.7564312
11
30.4196407
21
89.7564312
0
ARC
8
DEFAULT_255_2_778
10
32.8018039
20
32.1458593
40
0.5649036
50
269.5387686
51
292.9064723
0
ARC
8
DEFAULT_255_2_778
10
32.8667034
20
31.973778
40
0.3811996
50
293.9883026
51
311.2721144
0
ARC
8
DEFAULT_255_2_778
10
32.8812938
20
31.9505203
40
0.3541222
50
311.9801173
51
2.5821245
0
ARC
8
DEFAULT_255_2_778
10
32.7166109
20
31.979081
40
0.5185988
50
358.6070056
51
20.3738596
0
ARC
8
DEFAULT_255_2_778
10
32.9141745
20
32.0436385
40
0.311029
50
21.8959875
51
84.3299553
0
ARC
8
DEFAULT_255_2_778
10
32.8416892
20
31.7185399
40
0.6429447
50
80.7620762
51
90.332642
0
ARC
8
DEFAULT_255_2_778
10
32.8239347
20
31.9118395
40
0.449853
50
88.213829
51
119.7547338
0
ARC
8
DEFAULT_255_2_778
10
32.7860868
20
31.9963634
40
0.3578049
50
121.2105134
51
133.5074363
0
ARC
8
DEFAULT_255_2_778
10
32.7954789
20
31.991978
40
0.3674712
50
134.0988287
51
182.4961308
0
ARC
8
DEFAULT_255_2_778
10
32.7099791
20
31.9882284
40
0.5698544
50
130.8356084
51
181.2322202
0
ARC
8
DEFAULT_255_2_778
10
32.8010155
20
31.893653
40
0.7009723
50
92.3037234
51
131.4106463
0
ARC
8
DEFAULT_255_2_778
10
32.8373574
20
31.6111212
40
0.9850529
50
89.9651576
51
93.7554331
0
ARC
8
DEFAULT_255_2_778
10
32.8510551
20
31.6878926
40
0.9083758
50
73.0410953
51
90.8262277
0
ARC
8
DEFAULT_255_2_778
10
32.9404546
20
31.9896559
40
0.5936638
50
47.5747871
51
72.7990276
0
ARC
8
DEFAULT_255_2_778
10
32.9514433
20
32.0142538
40
0.5681568
50
4.7805445
51
46.7192843
0
ARC
8
DEFAULT_255_2_778
10
32.6442405
20
31.9622337
40
0.8790178
50
359.878775
51
6.4909666
0
ARC
8
DEFAULT_255_2_778
10
33.0333593
20
31.9675727
40
0.48995
50
323.5486762
51
359.1581347
0
ARC
8
DEFAULT_255_2_778
10
32.9554689
20
32.008381
40
0.5770048
50
291.4588712
51
324.8846725
0
ARC
8
DEFAULT_255_2_778
10
33.0132026
20
30.9310625
40
0.5616528
50
39.1127176
51
74.1547334
0
ARC
8
DEFAULT_255_2_778
10
33.0512983
20
30.9728749
40
0.5057865
50
36.9587465
51
38.1599944
0
ARC
8
DEFAULT_255_2_778
10
33.064543
20
30.9827775
40
0.4892493
50
35.7996624
51
36.9646487
0
ARC
8
DEFAULT_255_2_778
10
33.0196721
20
30.9614606
40
0.5381864
50
358.4240603
51
34.8459516
0
ARC
8
DEFAULT_255_2_778
10
32.8683721
20
30.9451743
40
0.6892845
50
359.9999661
51
0.1234482
0
ARC
8
DEFAULT_255_2_778
10
32.879042
20
30.9309853
40
0.6787628
50
334.4499262
51
1.197777
0
ARC
8
DEFAULT_255_2_778
10
32.9813167
20
30.8939597
40
0.5706209
50
311.3306111
51
333.3748569
0
ARC
8
DEFAULT_255_2_778
10
32.8939078
20
30.9983971
40
0.7067771
50
275.1533817
51
311.0603029
0
ARC
8
DEFAULT_255_2_778
10
32.8415639
20
31.3224538
40
1.0344818
50
269.8888144
51
276.4287379
0
ARC
8
DEFAULT_255_2_778
10
32.8262119
20
31.1940012
40
0.9061256
50
250.9125916
51
270.8438248
0
ARC
8
DEFAULT_255_2_778
10
32.7552117
20
30.9689363
40
0.6702483
50
229.5265452
51
250.3567806
0
ARC
8
DEFAULT_255_2_778
10
32.6854509
20
30.890952
40
0.565649
50
177.9715136
51
229.7745293
0
ARC
8
DEFAULT_255_2_778
10
32.7750378
20
30.8951501
40
0.365524
50
177.5188427
51
227.1723865
0
ARC
8
DEFAULT_255_2_778
10
32.8066105
20
30.9484677
40
0.4262912
50
228.9319637
51
268.0048131
0
ARC
8
DEFAULT_255_2_778
10
32.8389677
20
31.192099
40
0.6713254
50
265.9683866
51
270.0502444
0
ARC
8
DEFAULT_255_2_778
10
32.8522587
20
31.0682076
40
0.547581
50
268.6707912
51
290.9533683
0
ARC
8
DEFAULT_255_2_778
10
32.9200974
20
30.8755273
40
0.3434274
50
291.8795723
51
314.0450725
0
ARC
8
DEFAULT_255_2_778
10
32.8875407
20
30.8932656
40
0.3789736
50
315.718865
51
355.864309
0
ARC
8
DEFAULT_255_2_778
10
32.6208343
20
30.9372335
40
0.6486239
50
353.6890894
51
0.1360712
0
ARC
8
DEFAULT_255_2_778
10
32.847692
20
30.9525761
40
0.4219902
50
358.1256684
51
29.587828
0
ARC
8
DEFAULT_255_2_778
10
32.9336317
20
30.9907734
40
0.3285261
50
31.1955086
51
49.2555097
0
ARC
8
DEFAULT_255_2_778
10
32.8664301
20
30.896124
40
0.4442296
50
50.6566862
51
81.5377633
0
ARC
8
DEFAULT_255_2_778
10
32.7921871
20
30.5344803
40
0.8131128
50
80.1130948
51
89.6075573
0
ARC
8
DEFAULT_255_2_778
10
34.3780972
20
31.0603936
40
0.8991135
50
339.9157874
51
0.6296311
0
ARC
8
DEFAULT_255_2_778
10
34.5833595
20
30.9932388
40
0.6833128
50
319.6554316
51
339.2939287
0
ARC
8
DEFAULT_255_2_778
10
34.6119894
20
30.9740323
40
0.6490697
50
274.7261799
51
319.3115176
0
ARC
8
DEFAULT_255_2_778
10
34.5624958
20
31.2307988
40
0.9094775
50
274.7720264
51
276.5010879
0
ARC
8
DEFAULT_255_2_778
10
34.5562481
20
31.0929001
40
0.7717479
50
247.6721397
51
271.0177864
0
ARC
8
DEFAULT_255_2_778
10
34.503042
20
30.9397047
40
0.6098912
50
223.4882542
51
246.8282162
0
ARC
8
DEFAULT_255_2_778
10
34.5630049
20
30.9880345
40
0.6866842
50
189.2027385
51
222.970697
0
ARC
8
DEFAULT_255_2_778
10
34.9462524
20
31.0700786
40
1.0782998
50
180.1543407
51
190.2493455
0
ARC
8
DEFAULT_255_2_778
10
34.8405868
20
31.0635904
40
0.7187441
50
178.9808843
51
197.677434
0
ARC
8
DEFAULT_255_2_778
10
34.571035
20
30.9813999
40
0.4369768
50
198.141868
51
220.419411
0
ARC
8
DEFAULT_255_2_778
10
34.5363164
20
30.9632072
40
0.3988431
50
221.6636048
51
268.7019555
0
ARC
8
DEFAULT_255_2_778
10
34.5694765
20
31.2029363
40
0.6398627
50
266.2189393
51
270.0429798
0
ARC
8
DEFAULT_255_2_778
10
34.583423
20
31.0465021
40
0.4836157
50
268.4043581
51
296.289392
0
ARC
8
DEFAULT_255_2_778
10
34.6307586
20
30.9311255
40
0.359312
50
297.6706542
51
319.3956946
0
ARC
8
DEFAULT_255_2_778
10
34.5323146
20
31.0027295
40
0.4807531
50
320.5526547
51
352.3901258
0
ARC
8
DEFAULT_255_2_778
10
34.1792575
20
31.0704153
40
0.8399104
50
351.0027849
51
0.2973314
0
ARC
8
DEFAULT_255_2_778
10
39.4959152
20
31.4566856
40
0.9113957
50
90.2300117
51
109.9572177
0
ARC
8
DEFAULT_255_2_778
10
39.4180501
20
31.6885251
40
0.6669284
50
110.4677022
51
134.0246438
0
ARC
8
DEFAULT_255_2_778
10
39.4770871
20
31.6422211
40
0.7413228
50
134.8184419
51
166.124637
0
ARC
8
DEFAULT_255_2_778
10
39.8664783
20
31.527026
40
1.1471248
50
165.2028911
51
175.2120787
0
ARC
8
DEFAULT_255_2_778
10
39.1758612
20
31.2260043
40
0.6018195
50
91.3778344
51
138.7547506
0
ARC
8
DEFAULT_255_2_778
10
39.2133912
20
30.9414222
40
0.8877517
50
89.969974
51
93.358085
0
ARC
8
DEFAULT_255_2_778
10
39.2369581
20
31.2396791
40
0.5899473
50
40.1248687
51
92.2442075
0
ARC
8
DEFAULT_255_2_778
10
39.1079908
20
31.1399386
40
0.7528705
50
6.0259899
51
39.6037131
0
ARC
8
DEFAULT_255_2_778
10
38.7639226
20
31.0819411
40
1.1013371
50
359.861245
51
7.1475344
0
ARC
8
DEFAULT_255_2_778
10
38.8793978
20
31.0661906
40
0.9859455
50
342.6194677
51
0.7603283
0
ARC
8
DEFAULT_255_2_778
10
39.1570577
20
30.9834732
40
0.6962654
50
317.9106127
51
342.2902243
0
ARC
8
DEFAULT_255_2_778
10
39.1983868
20
30.9511848
40
0.6439636
50
271.4636106
51
317.5777429
0
ARC
8
DEFAULT_255_2_778
10
39.1609163
20
31.2398238
40
0.9339501
50
269.9717889
51
273.3096301
0
ARC
8
DEFAULT_255_2_778
10
39.143688
20
30.9550736
40
0.6494162
50
217.8299183
51
271.4795897
0
ARC
8
DEFAULT_255_2_778
10
39.339712
20
31.119341
40
0.9050412
50
188.2688695
51
218.4325383
0
ARC
8
DEFAULT_255_2_778
10
39.7505675
20
31.1976839
40
1.3230213
50
179.7752352
51
189.0674632
0
ARC
8
DEFAULT_255_2_778
10
40.7901845
20
31.3265315
40
2.3626631
50
171.5116625
51
180.3118037
0
ARC
8
DEFAULT_255_2_778
10
39.9443324
20
31.4567142
40
1.5068655
50
158.4675538
51
171.6600318
0
ARC
8
DEFAULT_255_2_778
10
39.5052704
20
31.6286865
40
1.0353278
50
141.4518477
51
158.4023792
0
ARC
8
DEFAULT_255_2_778
10
39.3782491
20
31.7173585
40
0.880783
50
102.0238615
51
140.8138712
0
ARC
8
DEFAULT_255_2_778
10
39.5028918
20
31.2316971
40
1.3819104
50
90.3994966
51
102.8836173
0
ARC
8
DEFAULT_255_2_778
10
39.1647941
20
31.127124
40
0.4612509
50
89.8804555
51
126.2339043
0
ARC
8
DEFAULT_255_2_778
10
39.154927
20
31.1165573
40
0.4641593
50
124.4802135
51
159.9652162
0
ARC
8
DEFAULT_255_2_778
10
39.64423
20
31.1563107
40
0.9254644
50
179.1974195
51
196.2229366
0
ARC
8
DEFAULT_255_2_778
10
39.3323482
20
31.0694274
40
0.6017394
50
196.5760369
51
215.9717525
0
ARC
8
DEFAULT_255_2_778
10
39.1776844
20
30.9414951
40
0.4016238
50
214.1612126
51
252.7862826
0
ARC
8
DEFAULT_255_2_778
10
39.159192
20
30.9161457
40
0.3720761
50
254.3513675
51
270.2717094
0
ARC
8
DEFAULT_255_2_778
10
39.1762832
20
30.9110692
40
0.3673151
50
267.6085622
51
322.5416817
0
ARC
8
DEFAULT_255_2_778
10
39.0306535
20
31.014122
40
0.5456324
50
323.2522584
51
355.0021621
0
ARC
8
DEFAULT_255_2_778
10
38.7218491
20
31.0622126
40
0.8577096
50
353.5988509
51
0.1310206
0
ARC
8
DEFAULT_255_2_778
10
38.8819809
20
31.0773953
40
0.6977008
50
358.9141879
51
20.2878596
0
ARC
8
DEFAULT_255_2_778
10
39.0835947
20
31.1444412
40
0.4853983
50
21.1165678
51
37.9688049
0
ARC
8
DEFAULT_255_2_778
10
39.1762549
20
31.2247209
40
0.3630137
50
36.9774642
51
91.7046136
0
LINE
8
DEFAULT_255_2_778
10
32.5807564
20
31.3480739
11
32.5807564
21
31.5809739
0
LINE
8
DEFAULT_255_2_778
10
32.5807564
20
31.5809739
11
32.7972564
21
31.5809739
0
LINE
8
DEFAULT_255_2_778
10
32.4283564
20
31.9759739
11
32.1402564
21
31.9759739
0
LINE
8
DEFAULT_255_2_778
10
32.1201564
20
30.9109739
11
32.4098564
21
30.9109739
0
LINE
8
DEFAULT_255_2_778
10
32.7977564
20
31.3475739
11
32.5813564
21
31.3475739
0
LINE
8
DEFAULT_255_2_778
10
32.5813564
20
31.3475739
11
32.5807564
21
31.3480739
0
LINE
8
DEFAULT_255_2_778
10
35.0191564
20
32.5961739
11
35.2771564
21
32.5961739
0
LINE
8
DEFAULT_255_2_778
10
35.2771564
20
32.5961739
11
35.2771564
21
31.0702739
0
LINE
8
DEFAULT_255_2_778
10
34.6381564
20
30.3244739
11
34.5699564
21
30.3212739
0
LINE
8
DEFAULT_255_2_778
10
33.8679564
20
31.0671739
11
33.8679564
21
32.5961739
0
LINE
8
DEFAULT_255_2_778
10
33.8679564
20
32.5961739
11
34.1219564
21
32.5961739
0
LINE
8
DEFAULT_255_2_778
10
34.1219564
20
32.5961739
11
34.1219564
21
31.0763739
0
LINE
8
DEFAULT_255_2_778
10
35.0191564
20
31.0747739
11
35.0191564
21
32.5961739
0
LINE
8
DEFAULT_255_2_778
10
35.0191564
20
32.5961739
11
35.0191564
21
32.5961739
0
LINE
8
DEFAULT_255_2_778
10
29.7156564
20
31.5870739
11
29.7156564
21
31.3417739
0
LINE
8
DEFAULT_255_2_778
10
29.7156564
20
31.3417739
11
28.7609564
21
31.3417739
0
LINE
8
DEFAULT_255_2_778
10
28.7609564
20
31.3417739
11
28.7609564
21
30.3371739
0
LINE
8
DEFAULT_255_2_778
10
28.7609564
20
30.3371739
11
28.4609564
21
30.3371739
0
LINE
8
DEFAULT_255_2_778
10
28.4609564
20
30.3371739
11
28.4609564
21
32.6120739
0
LINE
8
DEFAULT_255_2_778
10
28.4609564
20
32.6120739
11
29.8703564
21
32.6120739
0
LINE
8
DEFAULT_255_2_778
10
29.8703564
20
32.6120739
11
29.8703564
21
32.3651739
0
LINE
8
DEFAULT_255_2_778
10
29.8703564
20
32.3651739
11
28.7609564
21
32.3651739
0
LINE
8
DEFAULT_255_2_778
10
28.7609564
20
32.3651739
11
28.7609564
21
31.5870739
0
LINE
8
DEFAULT_255_2_778
10
28.7609564
20
31.5870739
11
29.7156564
21
31.5870739
0
LINE
8
DEFAULT_255_2_778
10
29.7156564
20
31.5870739
11
29.7156564
21
31.5870739
0
LINE
8
DEFAULT_255_2_778
10
30.4236564
20
32.6120739
11
30.9721564
21
31.7402739
0
LINE
8
DEFAULT_255_2_778
10
30.9721564
20
31.7402739
11
31.5174564
21
32.6120739
0
LINE
8
DEFAULT_255_2_778
10
31.5174564
20
32.6120739
11
31.8706564
21
32.6120739
0
LINE
8
DEFAULT_255_2_778
10
31.8706564
20
32.6120739
11
31.1520564
21
31.4838739
0
LINE
8
DEFAULT_255_2_778
10
31.1520564
20
31.4838739
11
31.8878564
21
30.3368739
0
LINE
8
DEFAULT_255_2_778
10
31.8878564
20
30.3368739
11
31.5317564
21
30.3368739
0
LINE
8
DEFAULT_255_2_778
10
31.5317564
20
30.3368739
11
30.9723564
21
31.2242739
0
LINE
8
DEFAULT_255_2_778
10
30.9723564
20
31.2242739
11
30.4098564
21
30.3368739
0
LINE
8
DEFAULT_255_2_778
10
30.4098564
20
30.3368739
11
30.0550564
21
30.3368739
0
LINE
8
DEFAULT_255_2_778
10
30.0550564
20
30.3368739
11
30.7924564
21
31.4838739
0
LINE
8
DEFAULT_255_2_778
10
30.7924564
20
31.4838739
11
30.0722564
21
32.6120739
0
LINE
8
DEFAULT_255_2_778
10
30.0722564
20
32.6120739
11
30.4238564
21
32.6120739
0
LINE
8
DEFAULT_255_2_778
10
30.4238564
20
32.6120739
11
30.4236564
21
32.6120739
0
LINE
8
DEFAULT_255_2_778
10
36.3624564
20
31.4213739
11
36.3624564
21
31.1853739
0
LINE
8
DEFAULT_255_2_778
10
36.3624564
20
31.1853739
11
35.5999564
21
31.1853739
0
LINE
8
DEFAULT_255_2_778
10
35.5999564
20
31.1853739
11
35.5999564
21
31.4213739
0
LINE
8
DEFAULT_255_2_778
10
35.5999564
20
31.4213739
11
36.3624564
21
31.4213739
0
LINE
8
DEFAULT_255_2_778
10
36.3624564
20
31.4213739
11
36.3624564
21
31.4213739
0
LINE
8
DEFAULT_255_2_778
10
37.5639564
20
32.6228739
11
37.5639564
21
30.3368739
0
LINE
8
DEFAULT_255_2_778
10
37.5639564
20
30.3368739
11
37.2734564
21
30.3368739
0
LINE
8
DEFAULT_255_2_778
10
37.2734564
20
30.3368739
11
37.2734564
21
32.2632739
0
LINE
8
DEFAULT_255_2_778
10
37.2734564
20
32.2632739
11
36.6905564
21
32.0492739
0
LINE
8
DEFAULT_255_2_778
10
36.6905564
20
32.0492739
11
36.6905564
21
32.3117739
0
LINE
8
DEFAULT_255_2_778
10
36.6905564
20
32.3117739
11
37.5186564
21
32.6225739
0
LINE
8
DEFAULT_255_2_778
10
37.5186564
20
32.6225739
11
37.5639564
21
32.6225739
0
LINE
8
DEFAULT_255_2_778
10
37.5639564
20
32.6225739
11
37.5639564
21
32.6228739
0
LINE
8
DEFAULT_255_2_778
10
39.4938564
20
32.6133739
11
39.5454564
21
32.6133739
0
LINE
8
DEFAULT_255_2_778
10
39.5454564
20
32.6133739
11
39.5454564
21
32.3680739
0
LINE
8
DEFAULT_255_2_778
10
39.5454564
20
32.3680739
11
39.4922564
21
32.3680739
0
LINE
8
DEFAULT_255_2_778
10
38.4275564
20
31.2028739
11
38.4275564
21
31.3136739
0
LINE
8
DEFAULT_255_2_778
10
39.4932564
20
32.6135739
11
39.4938564
21
32.6133739
0
LINE
8
DEFAULT_255_2_778
10
38.7188564
20
31.2755739
11
38.7188564
21
31.1692739
0
LINE
8
DEFAULT_255_2_778
10
39.1654564
20
31.5875739
11
39.1657564
21
31.5883739
0
LINE
8
DEFAULT_255_2_778
10
40.2827564
20
32.6120739
11
40.6704564
21
32.6120739
0
LINE
8
DEFAULT_255_2_778
10
40.6704564
20
32.6120739
11
41.4141564
21
30.7556739
0
LINE
8
DEFAULT_255_2_778
10
41.4141564
20
30.7556739
11
42.1578564
21
32.6120739
0
LINE
8
DEFAULT_255_2_778
10
42.1578564
20
32.6120739
11
42.5468564
21
32.6120739
0
LINE
8
DEFAULT_255_2_778
10
42.5468564
20
32.6120739
11
42.5468564
21
30.3371739
0
LINE
8
DEFAULT_255_2_778
10
42.5468564
20
30.3371739
11
42.2467564
21
30.3371739
0
LINE
8
DEFAULT_255_2_778
10
42.2467564
20
30.3371739
11
42.2467564
21
31.2229739
0
LINE
8
DEFAULT_255_2_778
10
42.2467564
20
31.2229739
11
42.2748564
21
32.1791739
0
LINE
8
DEFAULT_255_2_778
10
42.2748564
20
32.1791739
11
41.5279564
21
30.3368739
0
LINE
8
DEFAULT_255_2_778
10
41.5279564
20
30.3368739
11
41.2982564
21
30.3368739
0
LINE
8
DEFAULT_255_2_778
10
41.2982564
20
30.3368739
11
40.5529564
21
32.1743739
0
LINE
8
DEFAULT_255_2_778
10
40.5529564
20
32.1743739
11
40.5825564
21
31.2229739
0
LINE
8
DEFAULT_255_2_778
10
40.5825564
20
31.2229739
11
40.5825564
21
30.3371739
0
LINE
8
DEFAULT_255_2_778
10
40.5825564
20
30.3371739
11
40.2825564
21
30.3371739
0
LINE
8
DEFAULT_255_2_778
10
40.2825564
20
30.3371739
11
40.2825564
21
32.6120739
0
LINE
8
DEFAULT_255_2_778
10
40.2825564
20
32.6120739
11
40.2827564
21
32.6120739
0
ARC
8
DEFAULT_255_2_778
10
13.4210592
20
37.2567939
40
6.2989336
50
20.7206695
51
45.7040133
0
ARC
8
DEFAULT_255_2_778
10
13.4220529
20
37.25663
40
6.2980622
50
359.9970251
51
20.7252617
0
ARC
8
DEFAULT_255_2_778
10
13.4213866
20
37.2560592
40
6.2987284
50
335.0181382
51
0.0022179
0
ARC
8
DEFAULT_255_2_778
10
13.4215506
20
37.2554202
40
6.2983098
50
314.2952782
51
335.0227779
0
ARC
8
DEFAULT_255_2_778
10
22.2245436
20
84.7598517
40
2.2545315
50
158.2393107
51
180.0901832
0
ARC
8
DEFAULT_255_2_778
10
22.2149884
20
84.7609085
40
2.2452669
50
100.452684
51
158.1739611
0
ARC
8
DEFAULT_255_2_778
10
22.2188274
20
84.7265749
40
2.2797285
50
89.9701533
51
100.3910176
0
ARC
8
DEFAULT_255_2_778
10
22.22357
20
84.7516382
40
2.2546676
50
68.2408662
51
90.0903398
0
ARC
8
DEFAULT_255_2_778
10
22.2247267
20
84.7614263
40
2.2451496
50
10.4535565
51
68.1756829
0
ARC
8
DEFAULT_255_2_778
10
22.1900631
20
84.7574963
40
2.2799523
50
359.9700133
51
10.3926283
0
ARC
8
DEFAULT_255_2_778
10
22.2154949
20
84.7527617
40
2.2545229
50
338.2401607
51
0.0899995
0
ARC
8
DEFAULT_255_2_778
10
22.2250488
20
84.7516805
40
2.2452504
50
280.46182
51
338.1754031
0
ARC
8
DEFAULT_255_2_778
10
22.2212064
20
84.7860694
40
2.2797667
50
269.9700565
51
280.3998477
0
ARC
8
DEFAULT_255_2_778
10
22.21648
20
84.760687
40
2.2543868
50
248.2386051
51
270.0898428
0
ARC
8
DEFAULT_255_2_778
10
22.215498
20
84.751365
40
2.2453665
50
190.4545112
51
248.173688
0
ARC
8
DEFAULT_255_2_778
10
22.2495269
20
84.7551144
40
2.2795122
50
179.9701221
51
190.3919857
0
LINE
8
DEFAULT_255_2_778
10
28.467315
20
9.154803
11
28.467315
21
9.754903
0
LINE
8
DEFAULT_255_2_778
10
28.467315
20
9.754903
11
29.467515
21
9.754903
0
LINE
8
DEFAULT_255_2_778
10
29.467515
20
9.754903
11
29.467515
21
10.754703
0
LINE
8
DEFAULT_255_2_778
10
29.467515
20
10.754703
11
28.467315
21
10.754703
0
LINE
8
DEFAULT_255_2_778
10
28.467315
20
10.754703
11
28.467315
21
11.354803
0
LINE
8
DEFAULT_255_2_778
10
28.467315
20
11.354803
11
27.467515
21
10.254703
0
LINE
8
DEFAULT_255_2_778
10
27.467515
20
10.254703
11
28.467315
21
9.154803
0
LINE
8
DEFAULT_255_2_778
10
17.920015
20
46.956303
11
17.820015
21
46.956303
0
LINE
8
DEFAULT_255_2_778
10
17.820015
20
44.756303
11
17.920015
21
44.756303
0
LINE
8
DEFAULT_255_2_778
10
17.920015
20
46.756303
11
17.820015
21
46.756303
0
LINE
8
DEFAULT_255_2_778
10
17.820015
20
27.556303
11
17.920015
21
27.556303
0
LINE
8
DEFAULT_255_2_778
10
17.920015
20
29.756303
11
17.820015
21
29.756303
0
LINE
8
DEFAULT_255_2_778
10
17.820015
20
27.756303
11
17.920015
21
27.756303
0
LINE
8
DEFAULT_255_2_778
10
12.919915
20
52.856303
11
12.919915
21
52.756303
0
LINE
8
DEFAULT_255_2_778
10
7.420015
20
52.856303
11
7.420015
21
52.756303
0
LINE
8
DEFAULT_255_2_778
10
7.020015
20
52.756303
11
6.020115
21
52.856303
0
LINE
8
DEFAULT_255_2_778
10
6.020115
20
52.856303
11
6.020115
21
52.756303
0
LINE
8
DEFAULT_255_2_778
10
11.920015
20
52.756303
11
11.920015
21
52.856303
0
LINE
8
DEFAULT_255_2_778
10
12.919915
20
21.756403
11
12.919915
21
21.656403
0
LINE
8
DEFAULT_255_2_778
10
7.420015
20
21.756403
11
7.420015
21
21.656403
0
LINE
8
DEFAULT_255_2_778
10
6.020115
20
21.756403
11
6.020115
21
21.656403
0
LINE
8
DEFAULT_255_2_778
10
6.020115
20
21.656403
11
7.020015
21
21.756403
0
LINE
8
DEFAULT_255_2_778
10
11.920015
20
21.656403
11
11.920015
21
21.756403
0
LINE
8
DEFAULT_255_2_778
10
6.719915
20
21.656403
11
17.920015
21
21.656403
0
LINE
8
DEFAULT_255_2_778
10
17.920015
20
21.656403
11
17.920015
21
32.565903
0
LINE
8
DEFAULT_255_2_778
10
17.820015
20
52.756303
11
17.820015
21
41.765203
0
LINE
8
DEFAULT_255_2_778
10
17.820015
20
32.747403
11
17.820015
21
21.756403
0
LINE
8
DEFAULT_255_2_778
10
17.920015
20
52.756303
11
6.719915
21
52.756303
0
LINE
8
DEFAULT_255_2_778
10
0.219915
20
21.756403
11
0.607515
21
21.756403
0
LINE
8
DEFAULT_255_2_778
10
0.607515
20
52.756303
11
6.719915
21
52.756303
0
LINE
8
DEFAULT_255_2_778
10
6.719915
20
52.756303
11
6.719915
21
21.756403
0
LINE
8
DEFAULT_255_2_778
10
6.719915
20
21.756403
11
17.920015
21
21.756403
0
LINE
8
DEFAULT_255_2_778
10
0.419915
20
52.756303
11
0.419915
21
52.856303
0
LINE
8
DEFAULT_255_2_778
10
0.419915
20
21.656403
11
0.419915
21
21.756403
0
LINE
8
DEFAULT_255_2_778
10
0.219915
20
52.756303
11
0.607515
21
52.756303
0
LINE
8
DEFAULT_255_2_778
10
0.607515
20
52.756303
11
0.607515
21
21.756403
0
LINE
8
DEFAULT_255_2_778
10
0.607515
20
21.756403
11
6.719915
21
21.756403
0
LINE
8
DEFAULT_255_2_778
10
19.970015
20
84.756303
11
19.970015
21
84.756303
0
LINE
8
DEFAULT_255_2_778
10
24.619815
20
89.756403
11
24.719815
21
89.756403
0
LINE
8
DEFAULT_255_2_778
10
24.719815
20
89.756403
11
24.719815
21
89.256303
0
LINE
8
DEFAULT_255_2_778
10
7.719815
20
66.256403
11
7.819815
21
66.256403
0
LINE
8
DEFAULT_255_2_778
10
7.819815
20
68.756403
11
7.719815
21
68.756403
0
LINE
8
DEFAULT_255_2_778
10
7.719815
20
67.756603
11
7.819815
21
67.756603
0
LINE
8
DEFAULT_255_2_778
10
7.819815
20
64.756503
11
7.719815
21
64.756503
0
LINE
8
DEFAULT_255_2_778
10
24.719815
20
66.556403
11
24.619815
21
66.556403
0
LINE
8
DEFAULT_255_2_778
10
24.619815
20
66.456403
11
24.719815
21
66.456403
0
LINE
8
DEFAULT_255_2_778
10
24.719815
20
64.856503
11
24.619815
21
64.856503
0
LINE
8
DEFAULT_255_2_778
10
24.619815
20
64.756503
11
24.719815
21
64.756503
0
LINE
8
DEFAULT_255_2_778
10
6.719715
20
89.256603
11
6.721815
21
89.327503
0
LINE
8
DEFAULT_255_2_778
10
6.721815
20
89.327503
11
6.725715
21
89.380403
0
LINE
8
DEFAULT_255_2_778
10
6.725715
20
89.380403
11
6.743715
21
89.542403
0
LINE
8
DEFAULT_255_2_778
10
6.743715
20
89.542403
11
6.745815
21
89.575403
0
LINE
8
DEFAULT_255_2_778
10
6.745815
20
89.575403
11
6.752715
21
89.660403
0
LINE
8
DEFAULT_255_2_778
10
6.752715
20
89.660403
11
6.756715
21
89.691303
0
LINE
8
DEFAULT_255_2_778
10
6.756715
20
89.691303
11
6.773615
21
89.753203
0
LINE
8
DEFAULT_255_2_778
10
6.773615
20
89.753203
11
6.775715
21
89.755303
0
LINE
8
DEFAULT_255_2_778
10
24.720115
20
58.556203
11
7.719815
21
58.556203
0
LINE
8
DEFAULT_255_2_778
10
7.819815
20
89.256303
11
7.819815
21
59.056303
0
LINE
8
DEFAULT_255_2_778
10
7.819815
20
59.056303
11
24.619815
21
59.056303
0
LINE
8
DEFAULT_255_2_778
10
24.619815
20
59.056303
11
24.619815
21
89.256303
0
LINE
8
DEFAULT_255_2_778
10
24.619815
20
89.256303
11
7.819815
21
89.256303
0
LINE
8
DEFAULT_255_2_778
10
7.819815
20
89.256303
11
7.819815
21
89.756403
0
LINE
8
DEFAULT_255_2_778
10
7.819815
20
89.756403
11
24.619815
21
89.756403
0
LINE
8
DEFAULT_255_2_778
10
24.619815
20
89.756403
11
24.619815
21
89.256303
0
LINE
8
DEFAULT_255_2_778
10
97.7259448
20
57.9990219
11
97.7259448
21
56.8616219
0
LINE
8
DEFAULT_255_2_778
10
97.7259448
20
56.8616219
11
97.5759448
21
56.8616219
0
LINE
8
DEFAULT_255_2_778
10
97.5759448
20
56.8616219
11
97.5759448
21
57.9990219
0
LINE
8
DEFAULT_255_2_778
10
97.5759448
20
57.9990219
11
97.7259448
21
57.9990219
0
LINE
8
DEFAULT_255_2_778
10
97.7259448
20
57.9990219
11
97.7259448
21
57.9990219
0
LINE
8
DEFAULT_255_2_778
10
98.8742448
20
57.9990219
11
98.8742448
21
56.8616219
0
LINE
8
DEFAULT_255_2_778
10
98.8742448
20
56.8616219
11
98.7234448
21
56.8616219
0
LINE
8
DEFAULT_255_2_778
10
98.7234448
20
56.8616219
11
98.1508448
21
57.7381219
0
LINE
8
DEFAULT_255_2_778
10
98.1508448
20
57.7381219
11
98.1508448
21
56.8616219
0
LINE
8
DEFAULT_255_2_778
10
98.1508448
20
56.8616219
11
98.0000448
21
56.8616219
0
LINE
8
DEFAULT_255_2_778
10
98.0000448
20
56.8616219
11
98.0000448
21
57.9990219
0
LINE
8
DEFAULT_255_2_778
10
98.0000448
20
57.9990219
11
98.1508448
21
57.9990219
0
LINE
8
DEFAULT_255_2_778
10
98.1508448
20
57.9990219
11
98.7250448
21
57.1185219
0
LINE
8
DEFAULT_255_2_778
10
98.7250448
20
57.1185219
11
98.7250448
21
57.9990219
0
LINE
8
DEFAULT_255_2_778
10
98.7250448
20
57.9990219
11
98.8742448
21
57.9990219
0
LINE
8
DEFAULT_255_2_778
10
98.8742448
20
57.9990219
11
98.8742448
21
57.9990219
0
ARC
8
DEFAULT_255_2_778
10
95.7658813
20
32.4840987
40
0.722975
50
339.3697911
51
1.0567461
0
ARC
8
DEFAULT_255_2_778
10
95.9289898
20
32.4330295
40
0.5524174
50
335.692085
51
338.3663156
0
ARC
8
DEFAULT_255_2_778
10
96.0392671
20
32.3731145
40
0.4273523
50
303.1781879
51
336.9268085
0
ARC
8
DEFAULT_255_2_778
10
96.0422007
20
32.3877448
40
0.438117
50
268.7487088
51
301.8099033
0
ARC
8
DEFAULT_255_2_778
10
96.0248366
20
32.3840184
40
0.4343561
50
237.9331633
51
271.0285314
0
ARC
8
DEFAULT_255_2_778
10
96.0312888
20
32.3823495
40
0.4364136
50
204.0735741
51
237.0989544
0
ARC
8
DEFAULT_255_2_778
10
96.2490182
20
32.4804475
40
0.675221
50
179.407295
51
204.1373648
0
ARC
8
DEFAULT_255_2_778
10
96.2675502
20
32.5831776
40
0.693853
50
156.5646866
51
181.1351106
0
ARC
8
DEFAULT_255_2_778
10
96.0322164
20
32.6867817
40
0.4367296
50
123.3170293
51
156.7565362
0
ARC
8
DEFAULT_255_2_778
10
96.0234539
20
32.6850878
40
0.4334108
50
88.9979671
51
122.2259745
0
ARC
8
DEFAULT_255_2_778
10
96.0398882
20
32.6783251
40
0.4401962
50
58.1722474
51
91.1526238
0
ARC
8
DEFAULT_255_2_778
10
96.0413271
20
32.6955866
40
0.4248445
50
22.9188155
51
57.1093845
0
ARC
8
DEFAULT_255_2_778
10
95.7927899
20
32.5868285
40
0.6961231
50
359.8200718
51
23.1974694
0
ARC
8
DEFAULT_255_2_778
10
95.5245084
20
32.5691767
40
0.9645251
50
359.9973614
51
0.9187506
0
ARC
8
DEFAULT_255_2_778
10
95.6596959
20
32.5833855
40
0.6799497
50
358.9590025
51
15.8354219
0
ARC
8
DEFAULT_255_2_778
10
95.9658437
20
32.6675587
40
0.3624607
50
16.2402945
51
36.2004388
0
ARC
8
DEFAULT_255_2_778
10
96.0429724
20
32.7220641
40
0.2680342
50
36.5359965
51
92.5529698
0
ARC
8
DEFAULT_255_2_778
10
96.0210947
20
32.7248363
40
0.2651823
50
87.8521336
51
143.7523707
0
ARC
8
DEFAULT_255_2_778
10
96.1537893
20
32.6343577
40
0.4257296
50
144.4913781
51
173.4728737
0
ARC
8
DEFAULT_255_2_778
10
96.4866159
20
32.5759803
40
0.7633015
50
171.9590218
51
179.5982603
0
ARC
8
DEFAULT_255_2_778
10
96.3597459
20
32.4851426
40
0.636537
50
178.8667089
51
197.8629363
0
ARC
8
DEFAULT_255_2_778
10
96.111026
20
32.4102711
40
0.3768745
50
198.6277269
51
215.8718514
0
ARC
8
DEFAULT_255_2_778
10
96.0229272
20
32.3435624
40
0.266407
50
215.3487125
51
272.0879644
0
ARC
8
DEFAULT_255_2_778
10
96.0453887
20
32.3421542
40
0.2651289
50
267.2424451
51
323.1450786
0
ARC
8
DEFAULT_255_2_778
10
95.9183771
20
32.4224732
40
0.4151036
50
324.7895717
51
352.655674
0
ARC
8
DEFAULT_255_2_778
10
95.5404048
20
32.4921178
40
0.7991474
50
351.1673605
51
359.6067084
0
ARC
8
DEFAULT_255_2_778
10
97.1513204
20
32.3180595
40
0.3632006
50
316.1474299
51
1.8417222
0
ARC
8
DEFAULT_255_2_778
10
97.1333106
20
32.3526267
40
0.4003299
50
273.3782181
51
314.3652762
0
ARC
8
DEFAULT_255_2_778
10
97.0971844
20
32.5596105
40
0.6095501
50
274.1158019
51
275.6221718
0
ARC
8
DEFAULT_255_2_778
10
97.0873913
20
32.4209775
40
0.4711427
50
242.7923193
51
271.6592444
0
ARC
8
DEFAULT_255_2_778
10
97.0418512
20
32.3132272
40
0.354601
50
227.7290623
51
241.3761176
0
ARC
8
DEFAULT_255_2_778
10
97.0487989
20
32.311204
40
0.3578362
50
178.6074111
51
226.6879232
0
ARC
8
DEFAULT_255_2_778
10
97.2495057
20
32.3331619
40
0.5585947
50
180.5159053
51
181.3603782
0
ARC
8
DEFAULT_255_2_778
10
97.1080273
20
32.3189076
40
0.2690597
50
177.0121098
51
217.692998
0
ARC
8
DEFAULT_255_2_778
10
97.0567967
20
32.2898782
40
0.210937
50
219.9624847
51
224.8814117
0
ARC
8
DEFAULT_255_2_778
10
97.0801906
20
32.3267721
40
0.2537299
50
227.0574643
51
271.209481
0
ARC
8
DEFAULT_255_2_778
10
97.1009235
20
32.5167496
40
0.4439173
50
268.0148836
51
270.0141801
0
ARC
8
DEFAULT_255_2_778
10
97.1143853
20
32.3575208
40
0.2850014
50
267.3147947
51
303.0339486
0
ARC
8
DEFAULT_255_2_778
10
97.1517693
20
32.2846601
40
0.203712
50
305.3910402
51
315.0867627
0
ARC
8
DEFAULT_255_2_778
10
97.1077942
20
32.3139413
40
0.2557357
50
317.3976543
51
2.1490288
0
ARC
8
DEFAULT_255_2_778
10
96.9222607
20
32.3320987
40
0.4411726
50
358.8872373
51
0.0043564
0
LINE
8
DEFAULT_255_2_778
10
96.4887334
20
32.5694323
11
96.4887334
21
32.4974323
0
LINE
8
DEFAULT_255_2_778
10
95.5738334
20
32.4874323
11
95.5738334
21
32.5694323
0
LINE
8
DEFAULT_255_2_778
10
96.4890334
20
32.5691323
11
96.4887334
21
32.5694323
0
LINE
8
DEFAULT_255_2_778
10
96.3395334
20
32.4866323
11
96.3395334
21
32.5710323
0
LINE
8
DEFAULT_255_2_778
10
95.7233334
20
32.5813323
11
95.7233334
21
32.4977323
0
LINE
8
DEFAULT_255_2_778
10
96.3395334
20
32.4866323
11
96.3395334
21
32.4866323
0
LINE
8
DEFAULT_255_2_778
10
97.3634334
20
33.1031323
11
97.5143334
21
33.1031323
0
LINE
8
DEFAULT_255_2_778
10
97.5143334
20
33.1031323
11
97.5143334
21
32.3297323
0
LINE
8
DEFAULT_255_2_778
10
97.1409334
20
31.9516323
11
97.1010334
21
31.9500323
0
LINE
8
DEFAULT_255_2_778
10
96.6909334
20
32.3281323
11
96.6909334
21
33.1031323
0
LINE
8
DEFAULT_255_2_778
10
96.6909334
20
33.1031323
11
96.8393334
21
33.1031323
0
LINE
8
DEFAULT_255_2_778
10
96.8393334
20
33.1031323
11
96.8393334
21
32.3329323
0
LINE
8
DEFAULT_255_2_778
10
97.3634334
20
32.3321323
11
97.3634334
21
33.1031323
0
LINE
8
DEFAULT_255_2_778
10
97.3634334
20
33.1031323
11
97.3634334
21
33.1031323
0
LINE
8
DEFAULT_255_2_778
10
98.5371334
20
33.1031323
11
98.5371334
21
32.9798323
0
LINE
8
DEFAULT_255_2_778
10
98.5371334
20
32.9798323
11
98.1715334
21
32.9798323
0
LINE
8
DEFAULT_255_2_778
10
98.1715334
20
32.9798323
11
98.1715334
21
31.9656323
0
LINE
8
DEFAULT_255_2_778
10
98.1715334
20
31.9656323
11
98.0223334
21
31.9656323
0
LINE
8
DEFAULT_255_2_778
10
98.0223334
20
31.9656323
11
98.0223334
21
32.9798323
0
LINE
8
DEFAULT_255_2_778
10
98.0223334
20
32.9798323
11
97.6574334
21
32.9798323
0
LINE
8
DEFAULT_255_2_778
10
97.6574334
20
32.9798323
11
97.6574334
21
33.1031323
0
LINE
8
DEFAULT_255_2_778
10
97.6574334
20
33.1031323
11
98.5371334
21
33.1031323
0
LINE
8
DEFAULT_255_2_778
10
98.5371334
20
33.1031323
11
98.5371334
21
33.1031323
0
ARC
8
DEFAULT_255_2_778
10
102.0197122
20
28.2562198
40
0.8247589
50
119.990324
51
180.0047282
0
ARC
8
DEFAULT_255_2_778
10
102.0197577
20
28.2569682
40
0.8241337
50
89.98901
51
120.0190721
0
LINE
8
DEFAULT_255_2_778
10
102.0199158
20
29.0811018
11
102.0202764
21
29.0811017
0
ARC
8
DEFAULT_255_2_778
10
102.0200404
20
28.2565611
40
0.8245406
50
59.9885563
51
89.9836058
0
ARC
8
DEFAULT_255_2_778
10
102.0199778
20
28.2562104
40
0.8248755
50
359.9959255
51
59.9969726
0
ARC
8
DEFAULT_255_2_778
10
102.0198162
20
28.2560864
40
0.8250371
50
300.0095076
51
0.0045388
0
ARC
8
DEFAULT_255_2_778
10
102.0200404
20
28.2556424
40
0.8245405
50
270.0163942
51
300.0114437
0
LINE
8
DEFAULT_255_2_778
10
102.0202764
20
27.4311019
11
102.0199158
21
27.4311018
0
ARC
8
DEFAULT_255_2_778
10
102.0197569
20
28.2552353
40
0.8241335
50
239.9809727
51
270.0110436
0
ARC
8
DEFAULT_255_2_778
10
102.0198741
20
28.256077
40
0.8249208
50
179.9948035
51
240.0031744
0
ARC
8
DEFAULT_255_2_778
10
105.4196122
20
28.2562201
40
0.8247589
50
119.9903322
51
180.0047446
0
ARC
8
DEFAULT_255_2_778
10
105.4196577
20
28.2569682
40
0.8241337
50
89.98901
51
120.0190721
0
LINE
8
DEFAULT_255_2_778
10
105.4198158
20
29.0811018
11
105.4201764
21
29.0811017
0
ARC
8
DEFAULT_255_2_778
10
105.4199404
20
28.2565611
40
0.8245406
50
59.9885563
51
89.9836058
0
ARC
8
DEFAULT_255_2_778
10
105.4198778
20
28.2562104
40
0.8248755
50
359.9959255
51
59.9969726
0
ARC
8
DEFAULT_255_2_778
10
105.4197162
20
28.2560864
40
0.8250371
50
300.0095076
51
0.0045388
0
ARC
8
DEFAULT_255_2_778
10
105.4199404
20
28.2556424
40
0.8245405
50
270.0163942
51
300.0114437
0
LINE
8
DEFAULT_255_2_778
10
105.4201764
20
27.4311019
11
105.4198158
21
27.4311018
0
ARC
8
DEFAULT_255_2_778
10
105.4196569
20
28.2552353
40
0.8241335
50
239.9809727
51
270.0110436
0
ARC
8
DEFAULT_255_2_778
10
105.4197736
20
28.2560766
40
0.8249202
50
179.9947776
51
240.0031921
0
ARC
8
DEFAULT_255_2_778
10
108.8195123
20
28.2562199
40
0.824759
50
119.9903357
51
180.0047351
0
ARC
8
DEFAULT_255_2_778
10
108.8195547
20
28.2569797
40
0.8241223
50
89.9896677
51
120.0192886
0
ARC
8
DEFAULT_255_2_778
10
108.8198519
20
28.2569797
40
0.8241221
50
59.9807114
51
90.0103323
0
ARC
8
DEFAULT_255_2_778
10
108.8198946
20
28.2562203
40
0.8247586
50
359.9952424
51
60.0096725
0
ARC
8
DEFAULT_255_2_778
10
108.8197326
20
28.2560768
40
0.8249207
50
299.9968221
51
0.005206
0
ARC
8
DEFAULT_255_2_778
10
108.8198527
20
28.2552238
40
0.8241218
50
269.9896141
51
300.0192438
0
ARC
8
DEFAULT_255_2_778
10
108.8195539
20
28.2552238
40
0.824122
50
239.9807562
51
270.0103859
0
ARC
8
DEFAULT_255_2_778
10
108.8196733
20
28.2560765
40
0.8249199
50
179.9947716
51
240.0032085
0
ARC
8
DEFAULT_255_2_778
10
112.2194124
20
28.25622
40
0.8247591
50
119.9903417
51
180.0047412
0
ARC
8
DEFAULT_255_2_778
10
112.2194547
20
28.2569797
40
0.8241223
50
89.9896677
51
120.0192886
0
ARC
8
DEFAULT_255_2_778
10
112.2197519
20
28.2569797
40
0.8241221
50
59.9807114
51
90.0103323
0
ARC
8
DEFAULT_255_2_778
10
112.2197939
20
28.2562197
40
0.8247594
50
359.9952813
51
60.0096501
0
ARC
8
DEFAULT_255_2_778
10
112.2196328
20
28.2560769
40
0.8249205
50
299.9968092
51
0.0052025
0
ARC
8
DEFAULT_255_2_778
10
112.2197527
20
28.2552238
40
0.8241218
50
269.9896141
51
300.0192438
0
ARC
8
DEFAULT_255_2_778
10
112.2194539
20
28.2552238
40
0.824122
50
239.9807562
51
270.0103859
0
ARC
8
DEFAULT_255_2_778
10
112.2195736
20
28.2560766
40
0.8249202
50
179.9947776
51
240.0031921
0
ARC
8
DEFAULT_255_2_778
10
112.219574
20
32.2561267
40
0.8249207
50
119.9968221
51
180.005206
0
ARC
8
DEFAULT_255_2_778
10
112.2194404
20
32.2564723
40
0.8245545
50
89.9886781
51
120.0007883
0
ARC
8
DEFAULT_255_2_778
10
112.2197662
20
32.2564723
40
0.8245545
50
59.9992117
51
90.0113219
0
ARC
8
DEFAULT_255_2_778
10
112.2196323
20
32.2561264
40
0.824921
50
359.9948165
51
60.0031697
0
ARC
8
DEFAULT_255_2_778
10
112.219673
20
32.2560535
40
0.8248803
50
299.9952002
51
359.9998775
0
ARC
8
DEFAULT_255_2_778
10
112.2197524
20
32.2552227
40
0.824121
50
269.9896339
51
300.0193003
0
ARC
8
DEFAULT_255_2_778
10
112.219454
20
32.2552223
40
0.8241205
50
239.9806962
51
270.0103763
0
ARC
8
DEFAULT_255_2_778
10
112.2195334
20
32.2560533
40
0.8248799
50
180.0001026
51
240.0048011
0
ARC
8
DEFAULT_255_2_778
10
108.8196739
20
32.2561267
40
0.8249206
50
119.9968161
51
180.0052
0
ARC
8
DEFAULT_255_2_778
10
108.8195404
20
32.2564723
40
0.8245545
50
89.9886781
51
120.0007883
0
ARC
8
DEFAULT_255_2_778
10
108.8198662
20
32.2564723
40
0.8245545
50
59.9992117
51
90.0113219
0
ARC
8
DEFAULT_255_2_778
10
108.819733
20
32.256127
40
0.8249202
50
359.9947776
51
60.0031921
0
ARC
8
DEFAULT_255_2_778
10
108.8197728
20
32.2560535
40
0.8248804
50
299.9952131
51
359.999881
0
ARC
8
DEFAULT_255_2_778
10
108.8198524
20
32.2552227
40
0.824121
50
269.9896339
51
300.0193003
0
ARC
8
DEFAULT_255_2_778
10
108.819554
20
32.2552223
40
0.8241205
50
239.9806962
51
270.0103763
0
ARC
8
DEFAULT_255_2_778
10
108.819633
20
32.2560532
40
0.8248796
50
180.0000966
51
240.0048175
0
ARC
8
DEFAULT_255_2_778
10
105.4197738
20
32.2561268
40
0.8249205
50
119.9968126
51
180.0052095
0
ARC
8
DEFAULT_255_2_778
10
105.4196434
20
32.2564608
40
0.824566
50
89.9880208
51
120.0005719
0
LINE
8
DEFAULT_255_2_778
10
105.4198158
20
33.0810268
11
105.4201764
21
33.0810267
0
ARC
8
DEFAULT_255_2_778
10
105.4199538
20
32.2560527
40
0.824974
50
60.0070215
51
89.9845426
0
ARC
8
DEFAULT_255_2_778
10
105.4197162
20
32.2561171
40
0.8250371
50
359.9954612
51
59.9904924
0
ARC
8
DEFAULT_255_2_778
10
105.4197564
20
32.2560631
40
0.8249969
50
300.0078987
51
359.9992145
0
ARC
8
DEFAULT_255_2_778
10
105.4199404
20
32.2556424
40
0.8245405
50
270.0163942
51
300.0114437
0
LINE
8
DEFAULT_255_2_778
10
105.4201764
20
31.4311019
11
105.4198158
21
31.4311018
0
ARC
8
DEFAULT_255_2_778
10
105.4196571
20
32.2552338
40
0.824132
50
239.9809127
51
270.011034
0
ARC
8
DEFAULT_255_2_778
10
105.4197335
20
32.2560533
40
0.82488
50
180.0001061
51
240.0047916
0
ARC
8
DEFAULT_255_2_778
10
102.0199951
20
32.1994565
40
0.8250418
50
120.0016689
51
180.0003277
0
ARC
8
DEFAULT_255_2_778
10
102.0197434
20
32.1998608
40
0.824566
50
89.9880208
51
120.0005719
0
LINE
8
DEFAULT_255_2_778
10
102.0199158
20
33.0244268
11
102.0202764
21
33.0244267
0
ARC
8
DEFAULT_255_2_778
10
102.0200538
20
32.1994527
40
0.824974
50
60.0070215
51
89.9845426
0
ARC
8
DEFAULT_255_2_778
10
102.0196951
20
32.1994472
40
0.8251583
50
0.0003204
51
59.9856444
0
ARC
8
DEFAULT_255_2_778
10
102.0199778
20
32.1993931
40
0.8248755
50
300.0030274
51
0.0040745
0
ARC
8
DEFAULT_255_2_778
10
102.0200404
20
32.1990424
40
0.8245405
50
270.0163942
51
300.0114437
0
LINE
8
DEFAULT_255_2_778
10
102.0202764
20
31.3745019
11
102.0199158
21
31.3745018
0
ARC
8
DEFAULT_255_2_778
10
102.0197566
20
32.1986326
40
0.8241309
50
239.980901
51
270.0110678
0
ARC
8
DEFAULT_255_2_778
10
102.0197121
20
32.1993834
40
0.8247588
50
179.9952528
51
240.0096747
0
ARC
8
DEFAULT_255_2_778
10
108.8077855
20
30.6283753
40
0.4014318
50
89.0482728
51
123.9131858
0
ARC
8
DEFAULT_255_2_778
10
108.7750617
20
30.6929728
40
0.3296853
50
125.4573674
51
134.0942103
0
ARC
8
DEFAULT_255_2_778
10
108.8270108
20
30.6530762
40
0.3946029
50
135.4807063
51
173.2123557
0
ARC
8
DEFAULT_255_2_778
10
109.0629017
20
30.6013848
40
0.6353827
50
171.097335
51
174.9828244
0
ARC
8
DEFAULT_255_2_778
10
108.6603701
20
30.4523967
40
0.3081147
50
87.2313056
51
138.4025838
0
ARC
8
DEFAULT_255_2_778
10
108.6867233
20
30.4654936
40
0.2948814
50
40.079212
51
92.2292029
0
ARC
8
DEFAULT_255_2_778
10
108.6019803
20
30.4047747
40
0.3988988
50
358.997631
51
38.9153805
0
ARC
8
DEFAULT_255_2_778
10
108.3950574
20
30.3849974
40
0.6058959
50
359.9956863
51
1.2104216
0
ARC
8
DEFAULT_255_2_778
10
108.5665493
20
30.3711322
40
0.4346238
50
330.4921075
51
1.8221212
0
ARC
8
DEFAULT_255_2_778
10
108.6542165
20
30.3317575
40
0.3390514
50
317.7411473
51
328.9858139
0
ARC
8
DEFAULT_255_2_778
10
108.6631238
20
30.3273059
40
0.3294765
50
267.4653755
51
317.2724318
0
ARC
8
DEFAULT_255_2_778
10
108.6401299
20
30.3228505
40
0.324808
50
217.849494
51
271.4860502
0
ARC
8
DEFAULT_255_2_778
10
108.7603542
20
30.4164857
40
0.4771938
50
181.6448628
51
217.8697043
0
ARC
8
DEFAULT_255_2_778
10
109.0057741
20
30.4462125
40
0.723721
50
179.9652211
51
183.4398956
0
ARC
8
DEFAULT_255_2_778
10
109.357385
20
30.5147264
40
1.0754052
50
167.2236348
51
180.6699709
0
ARC
8
DEFAULT_255_2_778
10
108.8696489
20
30.6304446
40
0.5741762
50
142.2011931
51
167.7217847
0
ARC
8
DEFAULT_255_2_778
10
108.7674749
20
30.6909239
40
0.4566154
50
95.9735501
51
140.339679
0
ARC
8
DEFAULT_255_2_778
10
108.8239132
20
30.4032561
40
0.7490529
50
90.7083194
51
97.977598
0
ARC
8
DEFAULT_255_2_778
10
108.6506019
20
30.4092244
40
0.2308281
50
89.8631436
51
126.1754823
0
ARC
8
DEFAULT_255_2_778
10
108.6458741
20
30.4037023
40
0.2326026
50
124.432256
51
159.8177767
0
ARC
8
DEFAULT_255_2_778
10
108.8312561
20
30.4177568
40
0.4039119
50
178.156321
51
206.3597131
0
ARC
8
DEFAULT_255_2_778
10
108.7172956
20
30.3706838
40
0.2810262
50
208.0767452
51
216.3153845
0
ARC
8
DEFAULT_255_2_778
10
108.6495217
20
30.3076165
40
0.1893672
50
213.0822779
51
269.7069855
0
ARC
8
DEFAULT_255_2_778
10
108.6561376
20
30.3015065
40
0.1834116
50
267.6300566
51
322.6570161
0
ARC
8
DEFAULT_255_2_778
10
108.5603129
20
30.3643737
40
0.2978398
50
324.2241256
51
2.5725984
0
ARC
8
DEFAULT_255_2_778
10
108.34127
20
30.3786514
40
0.5165832
50
359.8991699
51
0.0000426
0
ARC
8
DEFAULT_255_2_778
10
108.5595273
20
30.3926136
40
0.2986526
50
357.3204822
51
35.7073651
0
ARC
8
DEFAULT_255_2_778
10
108.6237319
20
30.4286875
40
0.225612
50
37.7853115
51
38.1496
0
ARC
8
DEFAULT_255_2_778
10
108.6562685
20
30.4589763
40
0.1813534
50
36.9740167
51
91.6795024
0
ARC
8
DEFAULT_255_2_778
10
105.6510757
20
30.4122728
40
0.3669293
50
89.0509435
51
120.0284483
0
ARC
8
DEFAULT_255_2_778
10
105.6716363
20
30.46563
40
0.3138561
50
42.2241916
51
92.6448742
0
ARC
8
DEFAULT_255_2_778
10
105.612762
20
30.4301634
40
0.3815205
50
1.7114184
51
40.226168
0
ARC
8
DEFAULT_255_2_778
10
105.3750326
20
30.399293
40
0.6205208
50
359.9500276
51
3.9055327
0
ARC
8
DEFAULT_255_2_778
10
105.5625377
20
30.3853033
40
0.4332244
50
332.4038759
51
1.7789039
0
ARC
8
DEFAULT_255_2_778
10
105.6679385
20
30.3398789
40
0.3188872
50
316.840957
51
330.8641055
0
ARC
8
DEFAULT_255_2_778
10
105.6605586
20
30.3577084
40
0.3365605
50
269.735052
51
315.4860916
0
ARC
8
DEFAULT_255_2_778
10
105.6356284
20
30.5674272
40
0.5467754
50
269.9816506
51
272.4500647
0
ARC
8
DEFAULT_255_2_778
10
105.620223
20
30.3798494
40
0.3595203
50
230.0468909
51
272.4279317
0
ARC
8
DEFAULT_255_2_778
10
105.6141494
20
30.3506614
40
0.3335431
50
182.6136023
51
227.6262258
0
ARC
8
DEFAULT_255_2_778
10
105.646758
20
30.3536117
40
0.2298233
50
184.5320676
51
226.0498781
0
ARC
8
DEFAULT_255_2_778
10
105.6255469
20
30.3542251
40
0.2161145
50
230.2149728
51
272.7069077
0
ARC
8
DEFAULT_255_2_778
10
105.6451449
20
30.3330406
40
0.1949152
50
267.2382501
51
319.7694754
0
ARC
8
DEFAULT_255_2_778
10
105.5765807
20
30.3744012
40
0.2742684
50
322.4248308
51
0.1015646
0
ARC
8
DEFAULT_255_2_778
10
105.3695542
20
30.3969334
40
0.4817992
50
357.3773607
51
0.0259752
0
ARC
8
DEFAULT_255_2_778
10
105.5883491
20
30.4099228
40
0.2633141
50
357.2200123
51
40.305758
0
ARC
8
DEFAULT_255_2_778
10
105.6327096
20
30.4379424
40
0.2114866
50
42.2912976
51
92.3458194
0
ARC
8
DEFAULT_255_2_778
10
105.6111133
20
30.4066
40
0.2429966
50
86.9474516
51
122.9081377
0
ARC
8
DEFAULT_255_2_778
10
105.5740765
20
30.4790395
40
0.1622692
50
125.8266287
51
127.3399338
0
ARC
8
DEFAULT_255_2_778
10
112.0151455
20
34.9253233
40
0.2386644
50
267.6965825
51
309.3441559
0
ARC
8
DEFAULT_255_2_778
10
112.0443166
20
34.8739675
40
0.1807313
50
312.515658
51
2.658963
0
ARC
8
DEFAULT_255_2_778
10
112.006871
20
34.895237
40
0.2183628
50
356.6171168
51
34.5482712
0
ARC
8
DEFAULT_255_2_778
10
112.0499717
20
34.9014764
40
0.1803605
50
40.6921951
51
91.2272563
0
ARC
8
DEFAULT_255_2_778
10
112.0259228
20
34.7158396
40
0.3665123
50
86.8427952
51
90.0421275
0
ARC
8
DEFAULT_255_2_778
10
112.0153627
20
34.8751896
40
0.2074176
50
87.1562182
51
132.1562855
0
ARC
8
DEFAULT_255_2_778
10
112.007545
20
34.8953686
40
0.187372
50
134.5261478
51
182.5133872
0
ARC
8
DEFAULT_255_2_778
10
111.9660036
20
34.8936326
40
0.2902227
50
131.274477
51
181.2795485
0
ARC
8
DEFAULT_255_2_778
10
112.0121843
20
34.8416472
40
0.3597568
50
87.8543863
51
131.3404748
0
ARC
8
DEFAULT_255_2_778
10
112.0390143
20
34.8060539
40
0.3953238
50
61.7282868
51
91.9368265
0
ARC
8
DEFAULT_255_2_778
10
112.0838087
20
34.9072424
40
0.285115
50
47.0558653
51
60.0244637
0
ARC
8
DEFAULT_255_2_778
10
112.0651662
20
34.8985701
40
0.3042625
50
358.1150128
51
45.5984869
0
ARC
8
DEFAULT_255_2_778
10
111.8763145
20
34.8791941
40
0.4930387
50
359.9950806
51
1.0886956
0
ARC
8
DEFAULT_255_2_778
10
112.1207929
20
34.8825534
40
0.2485837
50
323.746663
51
359.215943
0
ARC
8
DEFAULT_255_2_778
10
112.0824034
20
34.901906
40
0.2910722
50
291.7480829
51
325.1435559
0
ARC
8
DEFAULT_255_2_778
10
112.113213
20
34.3621663
40
0.2801852
50
37.5824056
51
74.0402478
0
ARC
8
DEFAULT_255_2_778
10
112.112445
20
34.3736725
40
0.273944
50
358.1966714
51
35.5769108
0
ARC
8
DEFAULT_255_2_778
10
112.0769684
20
34.3504413
40
0.3096298
50
312.5256134
51
2.7046218
0
ARC
8
DEFAULT_255_2_778
10
112.0429598
20
34.4049807
40
0.3729978
50
267.8015349
51
310.712612
0
ARC
8
DEFAULT_255_2_778
10
112.0261551
20
34.5885296
40
0.5562779
50
269.9998144
51
270.2570946
0
ARC
8
DEFAULT_255_2_778
10
112.0114101
20
34.4261068
40
0.3941309
50
234.9275654
51
272.1437589
0
ARC
8
DEFAULT_255_2_778
10
111.9840872
20
34.3722716
40
0.3344807
50
229.2051414
51
233.4589515
0
ARC
8
DEFAULT_255_2_778
10
111.9531141
20
34.3375323
40
0.2879458
50
177.9461694
51
229.3546168
0
ARC
8
DEFAULT_255_2_778
10
111.9958504
20
34.3396225
40
0.1854798
50
177.4570988
51
226.8730581
0
ARC
8
DEFAULT_255_2_778
10
112.0145932
20
34.3721854
40
0.2222242
50
229.086103
51
272.9302228
0
ARC
8
DEFAULT_255_2_778
10
112.0393433
20
34.3753811
40
0.2255272
50
266.596222
51
307.6522432
0
ARC
8
DEFAULT_255_2_778
10
112.0707292
20
34.3214206
40
0.1638333
50
310.4908313
51
314.7416336
0
ARC
8
DEFAULT_255_2_778
10
112.0312098
20
34.3481081
40
0.2108118
50
317.2658756
51
3.8197196
0
ARC
8
DEFAULT_255_2_778
10
112.0502645
20
34.3741652
40
0.1916656
50
356.406403
51
47.0926663
0
ARC
8
DEFAULT_255_2_778
10
112.0262295
20
34.3197932
40
0.2486132
50
51.5710886
51
89.2414068
0
ARC
8
DEFAULT_255_2_778
10
111.9988498
20
34.102548
40
0.4668452
50
86.2330164
51
89.2386212
0
ARC
8
DEFAULT_255_2_778
10
107.6953806
20
35.4186672
40
1.3066944
50
318.0727561
51
324.2428268
0
ARC
8
DEFAULT_255_2_778
10
108.349331
20
34.9458587
40
0.4997292
50
324.4202848
51
331.4403974
0
ARC
8
DEFAULT_255_2_778
10
108.5524106
20
34.8366329
40
0.2691449
50
331.1952528
51
359.7698561
0
ARC
8
DEFAULT_255_2_778
10
108.6182224
20
34.8433335
40
0.2034797
50
357.8082864
51
42.7868531
0
ARC
8
DEFAULT_255_2_778
10
108.6323351
20
34.8509412
40
0.1879975
50
44.0070025
51
92.5553752
0
ARC
8
DEFAULT_255_2_778
10
108.610561
20
34.8161149
40
0.2230393
50
86.5576405
51
133.7049152
0
ARC
8
DEFAULT_255_2_778
10
108.630567
20
34.8205312
40
0.2343251
50
137.9913069
51
183.3957116
0
ARC
8
DEFAULT_255_2_778
10
108.5874613
20
34.8203091
40
0.3355861
50
134.2593645
51
182.3324088
0
ARC
8
DEFAULT_255_2_778
10
108.601828
20
34.7894552
40
0.3678817
50
89.2092701
51
132.5079071
0
ARC
8
DEFAULT_255_2_778
10
108.6238603
20
34.582017
40
0.5755348
50
89.9907394
51
91.6881859
0
ARC
8
DEFAULT_255_2_778
10
108.6373626
20
34.762587
40
0.3951923
50
61.1829364
51
91.9444885
0
ARC
8
DEFAULT_255_2_778
10
108.6802544
20
34.8583544
40
0.2907368
50
48.0111326
51
59.4915966
0
ARC
8
DEFAULT_255_2_778
10
108.6838415
20
34.8649171
40
0.2834645
50
357.5807673
51
47.662636
0
ARC
8
DEFAULT_255_2_778
10
108.5839829
20
34.8657182
40
0.383283
50
331.2544343
51
358.0912382
0
ARC
8
DEFAULT_255_2_778
10
108.1151189
20
35.1051075
40
0.9096273
50
319.7317165
51
332.2370121
0
ARC
8
DEFAULT_255_2_778
10
107.6263276
20
35.494746
40
1.5345508
50
317.2428794
51
320.4274875
0
ARC
8
DEFAULT_255_2_778
10
101.2248739
20
34.4548604
40
1.0237544
50
348.9475194
51
0.6935197
0
ARC
8
DEFAULT_255_2_778
10
101.7850431
20
34.3395781
40
0.4519113
50
326.4696333
51
349.677202
0
ARC
8
DEFAULT_255_2_778
10
101.9207165
20
34.2658102
40
0.2983705
50
269.7587693
51
323.8858329
0
ARC
8
DEFAULT_255_2_778
10
101.8908569
20
34.4844146
40
0.5177628
50
269.9664064
51
273.1668699
0
ARC
8
DEFAULT_255_2_778
10
101.8768157
20
34.3179622
40
0.3515789
50
237.9915087
51
272.2393512
0
ARC
8
DEFAULT_255_2_778
10
101.8441143
20
34.2477942
40
0.2749085
50
215.7313027
51
236.0189765
0
ARC
8
DEFAULT_255_2_778
10
101.9999511
20
34.3462063
40
0.4590172
50
189.9764523
51
214.3432846
0
ARC
8
DEFAULT_255_2_778
10
102.504175
20
34.4516762
40
0.9740288
50
180.2190817
51
190.9483545
0
ARC
8
DEFAULT_255_2_778
10
102.5281072
20
34.6530642
40
0.9980298
50
168.7584507
51
180.706862
0
ARC
8
DEFAULT_255_2_778
10
101.9850045
20
34.7665348
40
0.4432596
50
146.1325262
51
169.4587999
0
ARC
8
DEFAULT_255_2_778
10
101.856694
20
34.8363855
40
0.2980999
50
90.3550552
51
143.5359204
0
ARC
8
DEFAULT_255_2_778
10
101.8882397
20
34.6150919
40
0.52046
50
89.9544732
51
93.6786548
0
ARC
8
DEFAULT_255_2_778
10
101.9020709
20
34.7687501
40
0.367047
50
60.5911789
51
92.0949408
0
ARC
8
DEFAULT_255_2_778
10
101.9435425
20
34.8602936
40
0.2670815
50
36.2048763
51
58.6979182
0
ARC
8
DEFAULT_255_2_778
10
101.8022248
20
34.7707071
40
0.4341727
50
10.3162177
51
34.7287405
0
ARC
8
DEFAULT_255_2_778
10
101.2652448
20
34.6567482
40
0.9830096
50
359.9186088
51
11.2461532
0
ARC
8
DEFAULT_255_2_778
10
101.2776331
20
34.677209
40
0.8265081
50
359.1641344
51
10.7645033
0
ARC
8
DEFAULT_255_2_778
10
101.7784285
20
34.7745872
40
0.3163447
50
10.3787531
51
29.9774528
0
ARC
8
DEFAULT_255_2_778
10
101.9014064
20
34.8393045
40
0.1775637
50
31.7161644
51
93.9246169
0
ARC
8
DEFAULT_255_2_778
10
101.8771265
20
34.8417267
40
0.1751454
50
86.0297493
51
148.6487934
0
ARC
8
DEFAULT_255_2_778
10
102.0472251
20
34.7550166
40
0.3658079
50
150.9125813
51
173.30638
0
ARC
8
DEFAULT_255_2_778
10
102.5525539
20
34.6739851
40
0.8774027
50
171.8971604
51
179.8715723
0
ARC
8
DEFAULT_255_2_778
10
102.4936174
20
34.4329904
40
0.8185486
50
179.1767138
51
191.0529373
0
ARC
8
DEFAULT_255_2_778
10
102.0169566
20
34.3382265
40
0.3325659
50
190.7733853
51
209.8989549
0
ARC
8
DEFAULT_255_2_778
10
101.8817275
20
34.2615155
40
0.177099
50
210.1922936
51
272.9537169
0
ARC
8
DEFAULT_255_2_778
10
101.9011163
20
34.2590068
40
0.1746569
50
266.6312977
51
328.3856209
0
ARC
8
DEFAULT_255_2_778
10
101.7404412
20
34.3442087
40
0.3563409
50
330.2621039
51
352.7718747
0
ARC
8
DEFAULT_255_2_778
10
101.21145
20
34.4333844
40
0.8926173
50
351.3654124
51
359.6769652
0
ARC
8
DEFAULT_255_2_778
10
102.0197122
20
57.2667198
40
0.8247589
50
119.990324
51
180.0047282
0
ARC
8
DEFAULT_255_2_778
10
102.0197581
20
57.2674656
40
0.8241362
50
89.9890342
51
120.0190005
0
LINE
8
DEFAULT_255_2_778
10
102.0199158
20
58.0916018
11
102.0202764
21
58.0916017
0
ARC
8
DEFAULT_255_2_778
10
102.0200404
20
57.2670611
40
0.8245406
50
59.9885563
51
89.9836058
0
ARC
8
DEFAULT_255_2_778
10
102.0199778
20
57.2667104
40
0.8248755
50
359.9959255
51
59.9969726
0
ARC
8
DEFAULT_255_2_778
10
102.0198162
20
57.2665864
40
0.8250371
50
300.0095076
51
0.0045388
0
ARC
8
DEFAULT_255_2_778
10
102.0200404
20
57.2661424
40
0.8245405
50
270.0163942
51
300.0114437
0
LINE
8
DEFAULT_255_2_778
10
102.0202764
20
56.4416019
11
102.0199158
21
56.4416018
0
ARC
8
DEFAULT_255_2_778
10
102.0197569
20
57.2657353
40
0.8241335
50
239.9809727
51
270.0110436
0
ARC
8
DEFAULT_255_2_778
10
102.0198741
20
57.266577
40
0.8249208
50
179.9948035
51
240.0031744
0
ARC
8
DEFAULT_255_2_778
10
105.4197337
20
57.25635
40
0.8248804
50
119.9952071
51
179.9998749
0
ARC
8
DEFAULT_255_2_778
10
105.4196567
20
57.2571698
40
0.8241319
50
89.9889427
51
120.0190679
0
LINE
8
DEFAULT_255_2_778
10
105.4198158
20
58.0813018
11
105.4201764
21
58.0813017
0
ARC
8
DEFAULT_255_2_778
10
105.4199404
20
57.2567611
40
0.8245406
50
59.9885563
51
89.9836058
0
ARC
8
DEFAULT_255_2_778
10
105.4197565
20
57.2563405
40
0.8249967
50
0.0007855
51
59.9921095
0
ARC
8
DEFAULT_255_2_778
10
105.4197162
20
57.2562864
40
0.8250371
50
300.0095076
51
0.0045388
0
ARC
8
DEFAULT_255_2_778
10
105.4199404
20
57.2558424
40
0.8245405
50
270.0163942
51
300.0114437
0
LINE
8
DEFAULT_255_2_778
10
105.4201764
20
56.4313019
11
105.4198158
21
56.4313018
0
ARC
8
DEFAULT_255_2_778
10
105.4196581
20
57.255438
40
0.8241362
50
239.9809995
51
270.0109658
0
ARC
8
DEFAULT_255_2_778
10
105.4197738
20
57.2562766
40
0.8249203
50
179.9947811
51
240.0031826
0
ARC
8
DEFAULT_255_2_778
10
108.8196338
20
57.2563498
40
0.8248805
50
119.9952106
51
179.9998655
0
ARC
8
DEFAULT_255_2_778
10
108.8195537
20
57.2571813
40
0.8241204
50
89.9896004
51
120.0192844
0
ARC
8
DEFAULT_255_2_778
10
108.8198528
20
57.2571809
40
0.8241209
50
59.9807252
51
90.0103964
0
ARC
8
DEFAULT_255_2_778
10
108.8197734
20
57.2563503
40
0.8248798
50
0.0001026
51
60.0048093
0
ARC
8
DEFAULT_255_2_778
10
108.8197326
20
57.2562768
40
0.8249207
50
299.9968221
51
0.005206
0
ARC
8
DEFAULT_255_2_778
10
108.8198516
20
57.2554265
40
0.8241248
50
269.9896919
51
300.0192169
0
ARC
8
DEFAULT_255_2_778
10
108.819555
20
57.2554265
40
0.8241247
50
239.9807831
51
270.0103081
0
ARC
8
DEFAULT_255_2_778
10
108.8196733
20
57.2562765
40
0.8249199
50
179.9947716
51
240.0032085
0
ARC
8
DEFAULT_255_2_778
10
112.2198288
20
57.2667104
40
0.8248755
50
120.0030274
51
180.0040745
0
ARC
8
DEFAULT_255_2_778
10
112.2197404
20
57.2671586
40
0.8244431
50
89.9921512
51
120.0132809
0
ARC
8
DEFAULT_255_2_778
10
112.2199662
20
57.2671586
40
0.8244431
50
59.9867191
51
90.0078488
0
ARC
8
DEFAULT_255_2_778
10
112.2200947
20
57.2667203
40
0.8247585
50
359.9952399
51
60.0096795
0
ARC
8
DEFAULT_255_2_778
10
112.2199325
20
57.266577
40
0.8249208
50
299.9968256
51
0.0051965
0
ARC
8
DEFAULT_255_2_778
10
112.2199675
20
57.2660407
40
0.8244388
50
269.9920598
51
300.0133483
0
ARC
8
DEFAULT_255_2_778
10
112.2197392
20
57.2660422
40
0.8244404
50
239.9866923
51
270.0079265
0
ARC
8
DEFAULT_255_2_778
10
112.2199904
20
57.2665864
40
0.8250371
50
179.9954612
51
239.9904924
0
ARC
8
DEFAULT_255_2_778
10
112.2199904
20
61.2563171
40
0.8250371
50
120.0095076
51
180.0045388
0
ARC
8
DEFAULT_255_2_778
10
112.2197257
20
61.2563537
40
0.8248731
50
89.9911365
51
119.9948552
0
ARC
8
DEFAULT_255_2_778
10
112.2199809
20
61.2563537
40
0.8248731
50
60.0051448
51
90.0088635
0
ARC
8
DEFAULT_255_2_778
10
112.2199331
20
61.256327
40
0.8249201
50
359.994775
51
60.0031991
0
ARC
8
DEFAULT_255_2_778
10
112.2200941
20
61.2561837
40
0.8247592
50
299.9903452
51
0.0047317
0
ARC
8
DEFAULT_255_2_778
10
112.2199669
20
61.2557426
40
0.8244408
50
269.9921069
51
300.0133236
0
ARC
8
DEFAULT_255_2_778
10
112.2197395
20
61.2557419
40
0.8244401
50
239.9866633
51
270.0079064
0
ARC
8
DEFAULT_255_2_778
10
112.2198288
20
61.2561931
40
0.8248755
50
179.9959255
51
239.9969726
0
ARC
8
DEFAULT_255_2_778
10
108.8200904
20
61.2563171
40
0.8250371
50
120.0095076
51
180.0045388
0
ARC
8
DEFAULT_255_2_778
10
108.8198528
20
61.2562527
40
0.8249741
50
90.0154574
51
119.9929785
0
LINE
8
DEFAULT_255_2_778
10
108.8196302
20
62.0812267
11
108.8199908
21
62.0812268
0
ARC
8
DEFAULT_255_2_778
10
108.8201632
20
61.2566608
40
0.824566
50
59.9994281
51
90.0119792
0
ARC
8
DEFAULT_255_2_778
10
108.820033
20
61.256327
40
0.8249202
50
359.9947776
51
60.0031921
0
ARC
8
DEFAULT_255_2_778
10
108.8201942
20
61.2561835
40
0.8247591
50
299.9903417
51
0.0047412
0
ARC
8
DEFAULT_255_2_778
10
108.8201492
20
61.2554357
40
0.8241339
50
269.9889899
51
300.0190432
0
LINE
8
DEFAULT_255_2_778
10
108.8199908
20
60.4313018
11
108.8196302
21
60.4313019
0
ARC
8
DEFAULT_255_2_778
10
108.8198662
20
61.2558424
40
0.8245406
50
239.9885563
51
269.9836058
0
ARC
8
DEFAULT_255_2_778
10
108.8199288
20
61.2561931
40
0.8248755
50
179.9959255
51
239.9969726
0
ARC
8
DEFAULT_255_2_778
10
105.4201904
20
61.2563171
40
0.8250371
50
120.0095076
51
180.0045388
0
ARC
8
DEFAULT_255_2_778
10
105.4199528
20
61.2562527
40
0.8249741
50
90.0154574
51
119.9929785
0
LINE
8
DEFAULT_255_2_778
10
105.4197302
20
62.0812267
11
105.4200908
21
62.0812268
0
ARC
8
DEFAULT_255_2_778
10
105.4202632
20
61.2566608
40
0.824566
50
59.9994281
51
90.0119792
0
ARC
8
DEFAULT_255_2_778
10
105.420133
20
61.2563268
40
0.8249203
50
359.994788
51
60.0031943
0
ARC
8
DEFAULT_255_2_778
10
105.4202939
20
61.2561839
40
0.8247594
50
299.9903499
51
0.0047187
0
ARC
8
DEFAULT_255_2_778
10
105.4202492
20
61.2554357
40
0.8241339
50
269.9889899
51
300.0190432
0
LINE
8
DEFAULT_255_2_778
10
105.4200908
20
60.4313018
11
105.4197302
21
60.4313019
0
ARC
8
DEFAULT_255_2_778
10
105.4199662
20
61.2558424
40
0.8245406
50
239.9885563
51
269.9836058
0
ARC
8
DEFAULT_255_2_778
10
105.4200288
20
61.2561931
40
0.8248755
50
179.9959255
51
239.9969726
0
ARC
8
DEFAULT_255_2_778
10
102.0202904
20
61.2563171
40
0.8250371
50
120.0095076
51
180.0045388
0
ARC
8
DEFAULT_255_2_778
10
102.0200528
20
61.2562527
40
0.8249741
50
90.0154574
51
119.9929785
0
LINE
8
DEFAULT_255_2_778
10
102.0198302
20
62.0812267
11
102.0201908
21
62.0812268
0
ARC
8
DEFAULT_255_2_778
10
102.0203632
20
61.2566608
40
0.824566
50
59.9994281
51
90.0119792
0
ARC
8
DEFAULT_255_2_778
10
102.0202331
20
61.256327
40
0.8249201
50
359.994775
51
60.0031991
0
ARC
8
DEFAULT_255_2_778
10
102.0203942
20
61.2561838
40
0.8247591
50
299.9903335
51
0.0047247
0
ARC
8
DEFAULT_255_2_778
10
102.0203492
20
61.2554357
40
0.8241339
50
269.9889899
51
300.0190432
0
LINE
8
DEFAULT_255_2_778
10
102.0201908
20
60.4313018
11
102.0198302
21
60.4313019
0
ARC
8
DEFAULT_255_2_778
10
102.0200662
20
61.2558424
40
0.8245406
50
239.9885563
51
269.9836058
0
ARC
8
DEFAULT_255_2_778
10
102.0201288
20
61.2561931
40
0.8248755
50
179.9959255
51
239.9969726
0
ARC
8
DEFAULT_255_2_778
10
108.8078855
20
55.6964081
40
0.4006009
50
89.0319904
51
124.1272306
0
ARC
8
DEFAULT_255_2_778
10
108.7754859
20
55.7600817
40
0.3298351
50
125.6739294
51
134.1232589
0
ARC
8
DEFAULT_255_2_778
10
108.8272905
20
55.7202586
40
0.3946019
50
135.4973544
51
173.1907998
0
ARC
8
DEFAULT_255_2_778
10
109.062002
20
55.6687929
40
0.6341869
50
171.0875862
51
174.9740785
0
ARC
8
DEFAULT_255_2_778
10
108.6606701
20
55.5197967
40
0.3081147
50
87.2313056
51
138.4025838
0
ARC
8
DEFAULT_255_2_778
10
108.6870582
20
55.5331878
40
0.2945888
50
40.0523262
51
92.2382114
0
ARC
8
DEFAULT_255_2_778
10
108.6028293
20
55.4722432
40
0.3983509
50
358.9874834
51
38.9663613
0
ARC
8
DEFAULT_255_2_778
10
108.3964529
20
55.4524069
40
0.6048004
50
359.9947758
51
1.2124229
0
ARC
8
DEFAULT_255_2_778
10
108.5668493
20
55.4385322
40
0.4346238
50
330.4921075
51
1.8221212
0
ARC
8
DEFAULT_255_2_778
10
108.6545165
20
55.3991575
40
0.3390514
50
317.7411473
51
328.9858139
0
ARC
8
DEFAULT_255_2_778
10
108.6633697
20
55.3948234
40
0.3295958
50
267.4582929
51
317.2638032
0
ARC
8
DEFAULT_255_2_778
10
108.6403794
20
55.3901507
40
0.3247069
50
217.841048
51
271.477762
0
ARC
8
DEFAULT_255_2_778
10
108.7606542
20
55.4838857
40
0.4771938
50
181.6448628
51
217.8697043
0
ARC
8
DEFAULT_255_2_778
10
109.0060741
20
55.5136125
40
0.723721
50
179.9652211
51
183.4398956
0
ARC
8
DEFAULT_255_2_778
10
109.3579403
20
55.5821181
40
1.0756604
50
167.2251821
51
180.6693706
0
ARC
8
DEFAULT_255_2_778
10
108.8704268
20
55.697764
40
0.5746645
50
142.2161712
51
167.7221379
0
ARC
8
DEFAULT_255_2_778
10
108.7675894
20
55.7585865
40
0.4563688
50
95.9533687
51
140.3405254
0
ARC
8
DEFAULT_255_2_778
10
108.8239206
20
55.4710039
40
0.7487015
50
90.6862559
51
97.9587534
0
ARC
8
DEFAULT_255_2_778
10
108.6507843
20
55.4762669
40
0.2308858
50
89.8339952
51
126.1288642
0
ARC
8
DEFAULT_255_2_778
10
108.6466792
20
55.4705816
40
0.2331528
50
124.4900713
51
159.8096942
0
ARC
8
DEFAULT_255_2_778
10
108.8314525
20
55.4847145
40
0.403813
50
178.1356574
51
206.3433298
0
ARC
8
DEFAULT_255_2_778
10
108.7157139
20
55.4368813
40
0.278997
50
208.0877883
51
216.3661864
0
ARC
8
DEFAULT_255_2_778
10
108.6498145
20
55.3749867
40
0.1895379
50
213.110072
51
269.6791914
0
ARC
8
DEFAULT_255_2_778
10
108.6564128
20
55.3689037
40
0.1836117
50
267.6091603
51
322.5879904
0
ARC
8
DEFAULT_255_2_778
10
108.5595199
20
55.4316907
40
0.2988537
50
324.3128744
51
2.6531357
0
LINE
8
DEFAULT_255_2_778
10
108.8580532
20
55.4455245
11
108.8580533
21
55.4457518
0
ARC
8
DEFAULT_255_2_778
10
108.5589319
20
55.4596961
40
0.2994462
50
357.3309335
51
35.625562
0
ARC
8
DEFAULT_255_2_778
10
108.6136389
20
55.4882246
40
0.2385188
50
37.7103578
51
38.0549989
0
ARC
8
DEFAULT_255_2_778
10
108.6565178
20
55.526078
40
0.1814531
50
36.9891571
51
91.6941358
0
ARC
8
DEFAULT_255_2_778
10
105.6513757
20
55.4794728
40
0.3669293
50
89.0509435
51
120.0284483
0
ARC
8
DEFAULT_255_2_778
10
105.6718657
20
55.5330919
40
0.3135912
50
42.1788375
51
92.6341926
0
ARC
8
DEFAULT_255_2_778
10
105.6138015
20
55.4974557
40
0.3807555
50
1.762438
51
40.285658
0
ARC
8
DEFAULT_255_2_778
10
105.3760271
20
55.4664097
40
0.6198263
50
359.9484298
51
3.9554752
0
ARC
8
DEFAULT_255_2_778
10
105.5628377
20
55.4524033
40
0.4332244
50
332.4038759
51
1.7789039
0
ARC
8
DEFAULT_255_2_778
10
105.6682385
20
55.4069789
40
0.3188872
50
316.840957
51
330.8641055
0
ARC
8
DEFAULT_255_2_778
10
105.6608586
20
55.4248084
40
0.3365605
50
269.735052
51
315.4860916
0
ARC
8
DEFAULT_255_2_778
10
105.6359284
20
55.6345272
40
0.5467754
50
269.9816506
51
272.4500647
0
ARC
8
DEFAULT_255_2_778
10
105.620523
20
55.4469494
40
0.3595203
50
230.0468909
51
272.4279317
0
ARC
8
DEFAULT_255_2_778
10
105.6150654
20
55.4181879
40
0.3342733
50
182.6639049
51
227.5974933
0
ARC
8
DEFAULT_255_2_778
10
105.6468614
20
55.4206067
40
0.2296112
50
184.4849263
51
226.0669866
0
ARC
8
DEFAULT_255_2_778
10
105.6257704
20
55.4215514
40
0.2162395
50
230.2689126
51
272.6991085
0
ARC
8
DEFAULT_255_2_778
10
105.645311
20
55.4005349
40
0.1952075
50
267.2523427
51
319.7289058
0
ARC
8
DEFAULT_255_2_778
10
105.5770064
20
55.4415582
40
0.2741426
50
322.4159308
51
0.0934275
0
ARC
8
DEFAULT_255_2_778
10
105.3706073
20
55.4640339
40
0.4810461
50
357.3753177
51
0.0259509
0
ARC
8
DEFAULT_255_2_778
10
105.5888814
20
55.4771017
40
0.2630859
50
357.2003952
51
40.3253751
0
ARC
8
DEFAULT_255_2_778
10
105.6329844
20
55.5052882
40
0.2113399
50
42.2374224
51
92.3406203
0
ARC
8
DEFAULT_255_2_778
10
105.611433
20
55.4740379
40
0.2427579
50
86.9491068
51
122.8381089
0
ARC
8
DEFAULT_255_2_778
10
105.5737647
20
55.547504
40
0.1608136
50
125.757045
51
127.4615075
0
ARC
8
DEFAULT_255_2_778
10
112.015471
20
59.9917258
40
0.2379684
50
267.6837125
51
309.4425417
0
ARC
8
DEFAULT_255_2_778
10
112.0447658
20
59.9411921
40
0.1805811
50
312.4521051
51
2.6533713
0
ARC
8
DEFAULT_255_2_778
10
112.007171
20
59.962437
40
0.2183628
50
356.6171168
51
34.5482712
0
ARC
8
DEFAULT_255_2_778
10
112.0502717
20
59.9686764
40
0.1803605
50
40.6921951
51
91.2272563
0
ARC
8
DEFAULT_255_2_778
10
112.0262228
20
59.7830396
40
0.3665123
50
86.8427952
51
90.0421275
0
ARC
8
DEFAULT_255_2_778
10
112.0156052
20
59.9428376
40
0.2069731
50
87.1341714
51
132.2462949
0
ARC
8
DEFAULT_255_2_778
10
112.0076398
20
59.9625494
40
0.1871705
50
134.4986884
51
182.5408466
0
ARC
8
DEFAULT_255_2_778
10
111.9663036
20
59.9607326
40
0.2902227
50
131.274477
51
181.2795485
0
ARC
8
DEFAULT_255_2_778
10
112.0125063
20
59.9090872
40
0.3595162
50
87.8564597
51
131.3788982
0
ARC
8
DEFAULT_255_2_778
10
112.0393792
20
59.8739363
40
0.3946439
50
61.5512999
51
91.9495962
0
ARC
8
DEFAULT_255_2_778
10
112.0838873
20
59.9739914
40
0.2855962
50
47.0849935
51
59.839794
0
ARC
8
DEFAULT_255_2_778
10
112.0654662
20
59.9657701
40
0.3042625
50
358.1150128
51
45.5984869
0
ARC
8
DEFAULT_255_2_778
10
111.8766145
20
59.9463941
40
0.4930387
50
359.9950806
51
1.0886956
0
ARC
8
DEFAULT_255_2_778
10
112.1212964
20
59.9497223
40
0.2483798
50
323.6924515
51
359.2224782
0
ARC
8
DEFAULT_255_2_778
10
112.0829752
20
59.9684342
40
0.2904403
50
291.7400641
51
325.1941923
0
ARC
8
DEFAULT_255_2_778
10
112.1138042
20
59.4297471
40
0.2796429
50
37.5694735
51
74.070535
0
ARC
8
DEFAULT_255_2_778
10
112.1128424
20
59.4407695
40
0.2738434
50
358.2175642
51
35.6184615
0
ARC
8
DEFAULT_255_2_778
10
112.0769565
20
59.4176757
40
0.3099397
50
312.5513077
51
2.6955407
0
ARC
8
DEFAULT_255_2_778
10
112.0432598
20
59.4720807
40
0.3729978
50
267.8015349
51
310.712612
0
ARC
8
DEFAULT_255_2_778
10
112.0264551
20
59.6556296
40
0.5562779
50
269.9998144
51
270.2570946
0
ARC
8
DEFAULT_255_2_778
10
112.0117285
20
59.4934721
40
0.3943953
50
235.0953409
51
272.1396436
0
ARC
8
DEFAULT_255_2_778
10
111.9839626
20
59.4386267
40
0.3336394
50
229.1767643
51
233.616205
0
ARC
8
DEFAULT_255_2_778
10
111.9532968
20
59.4047111
40
0.2879293
50
177.9418453
51
229.3825486
0
ARC
8
DEFAULT_255_2_778
10
111.9964267
20
59.4067523
40
0.185759
50
177.4392433
51
226.7946254
0
ARC
8
DEFAULT_255_2_778
10
112.0147727
20
59.4396372
40
0.2224767
50
229.1494427
51
272.9321958
0
ARC
8
DEFAULT_255_2_778
10
112.0395585
20
59.4428584
40
0.2258049
50
266.5965684
51
307.5930408
0
ARC
8
DEFAULT_255_2_778
10
112.0711524
20
59.3885052
40
0.1636654
50
310.4383336
51
314.6899404
0
ARC
8
DEFAULT_255_2_778
10
112.0313813
20
59.415361
40
0.2109365
50
317.2406297
51
3.8030587
0
ARC
8
DEFAULT_255_2_778
10
112.0507211
20
59.4413422
40
0.1915079
50
356.4103344
51
47.1535872
0
ARC
8
DEFAULT_255_2_778
10
112.0275666
20
59.3893399
40
0.2460687
50
51.4388945
51
88.703788
0
ARC
8
DEFAULT_255_2_778
10
111.9992086
20
59.1740305
40
0.4625608
50
85.7941277
51
89.2512418
0
ARC
8
DEFAULT_255_2_778
10
107.6940759
20
60.4863564
40
1.3082821
50
318.1005171
51
324.2636204
0
ARC
8
DEFAULT_255_2_778
10
108.3505435
20
60.012109
40
0.4984338
50
324.4404629
51
331.470543
0
ARC
8
DEFAULT_255_2_778
10
108.553344
20
59.9037517
40
0.2685115
50
331.1163228
51
359.7652942
0
ARC
8
DEFAULT_255_2_778
10
108.6183902
20
59.9104793
40
0.2036136
50
357.7968401
51
42.7727786
0
ARC
8
DEFAULT_255_2_778
10
108.632524
20
59.9175474
40
0.1884904
50
44.1133549
51
92.5452931
0
ARC
8
DEFAULT_255_2_778
10
108.6107277
20
59.8835566
40
0.2227002
50
86.5438087
51
133.7408659
0
ARC
8
DEFAULT_255_2_778
10
108.6305091
20
59.8877648
40
0.2339699
50
137.9569574
51
183.4091036
0
ARC
8
DEFAULT_255_2_778
10
108.588378
20
59.8872637
40
0.3361923
50
134.3054368
51
182.2863364
0
ARC
8
DEFAULT_255_2_778
10
108.6017016
20
59.8571748
40
0.3672106
50
89.359196
51
132.5136406
0
ARC
8
DEFAULT_255_2_778
10
108.6240532
20
59.649809
40
0.5748429
50
89.9900279
51
91.8188013
0
ARC
8
DEFAULT_255_2_778
10
108.6375231
20
59.8301222
40
0.3947561
50
61.1318038
51
91.9408923
0
ARC
8
DEFAULT_255_2_778
10
108.6800432
20
59.9249824
40
0.2912811
50
47.9721891
51
59.4474043
0
ARC
8
DEFAULT_255_2_778
10
108.6841415
20
59.9318171
40
0.2834645
50
357.5807673
51
47.662636
0
ARC
8
DEFAULT_255_2_778
10
108.5842829
20
59.9326182
40
0.383283
50
331.2544343
51
358.0912382
0
ARC
8
DEFAULT_255_2_778
10
108.1154189
20
60.1720075
40
0.9096273
50
319.7317165
51
332.2370121
0
ARC
8
DEFAULT_255_2_778
10
107.6266276
20
60.561646
40
1.5345508
50
317.2428794
51
320.4274875
0
ARC
8
DEFAULT_255_2_778
10
101.2239395
20
59.5219591
40
1.0248887
50
348.9599816
51
0.6928247
0
ARC
8
DEFAULT_255_2_778
10
101.7849603
20
59.4066258
40
0.4522016
50
326.5019417
51
349.6906274
0
ARC
8
DEFAULT_255_2_778
10
101.9208358
20
59.3327081
40
0.2983974
50
269.694098
51
323.9376156
0
ARC
8
DEFAULT_255_2_778
10
101.8911425
20
59.5511895
40
0.5176378
50
269.967988
51
273.1118562
0
ARC
8
DEFAULT_255_2_778
10
101.8770955
20
59.3850972
40
0.3518146
50
238.0023389
51
272.2411441
0
ARC
8
DEFAULT_255_2_778
10
101.8442507
20
59.3146547
40
0.2748339
50
215.7323646
51
236.0273218
0
ARC
8
DEFAULT_255_2_778
10
102.0005222
20
59.4130651
40
0.4593004
50
189.969244
51
214.3129183
0
ARC
8
DEFAULT_255_2_778
10
102.5049206
20
59.5184926
40
0.9744743
50
180.2199496
51
190.9402874
0
ARC
8
DEFAULT_255_2_778
10
102.5274599
20
59.7199635
40
0.9970826
50
168.7530806
51
180.7074906
0
ARC
8
DEFAULT_255_2_778
10
101.9847592
20
59.8334054
40
0.4427117
50
146.1115269
51
169.4540754
0
ARC
8
DEFAULT_255_2_778
10
101.8569585
20
59.9029108
40
0.2981751
50
90.3481319
51
143.5048753
0
ARC
8
DEFAULT_255_2_778
10
101.8885397
20
59.6813048
40
0.5208471
50
89.9545047
51
93.6759141
0
ARC
8
DEFAULT_255_2_778
10
101.9023436
20
59.8351439
40
0.367252
50
60.612651
51
92.0895102
0
ARC
8
DEFAULT_255_2_778
10
101.94374
20
59.9265964
40
0.2673988
50
36.2605764
51
58.725202
0
ARC
8
DEFAULT_255_2_778
10
101.8020059
20
59.8372288
40
0.4347008
50
10.3166978
51
34.7090931
0
ARC
8
DEFAULT_255_2_778
10
101.2652292
20
59.723337
40
0.9833251
50
359.9192874
51
11.2443405
0
ARC
8
DEFAULT_255_2_778
10
101.2776678
20
59.7443321
40
0.8267737
50
359.1628008
51
10.762888
0
ARC
8
DEFAULT_255_2_778
10
101.7793021
20
59.84187
40
0.3157565
50
10.3737699
51
30.0007277
0
ARC
8
DEFAULT_255_2_778
10
101.9016241
20
59.90647
40
0.1775993
50
31.6842263
51
93.9295413
0
ARC
8
DEFAULT_255_2_778
10
101.8773723
20
59.9090169
40
0.1750523
50
86.0426764
51
148.6647913
0
ARC
8
DEFAULT_255_2_778
10
102.0475251
20
59.8222166
40
0.3658079
50
150.9125813
51
173.30638
0
ARC
8
DEFAULT_255_2_778
10
102.5528539
20
59.7411851
40
0.8774027
50
171.8971604
51
179.8715723
0
ARC
8
DEFAULT_255_2_778
10
102.4949922
20
59.5000784
40
0.8196235
50
179.1769537
51
191.0353944
0
ARC
8
DEFAULT_255_2_778
10
102.0170257
20
59.4051953
40
0.332337
50
190.7529068
51
209.8756406
0
ARC
8
DEFAULT_255_2_778
10
101.8820367
20
59.3287159
40
0.1771936
50
210.1746162
51
272.9167698
0
ARC
8
DEFAULT_255_2_778
10
101.9013938
20
59.3259581
40
0.1745129
50
266.603032
51
328.4138866
0
ARC
8
DEFAULT_255_2_778
10
101.7406519
20
59.4115127
40
0.3564329
50
330.232763
51
352.7484952
0
ARC
8
DEFAULT_255_2_778
10
101.2139168
20
59.5004782
40
0.8904507
50
351.3477843
51
359.6765773
0
LINE
8
DEFAULT_255_2_778
10
101.1949533
20
28.2561518
11
101.1949533
21
28.2561518
0
LINE
8
DEFAULT_255_2_778
10
104.5948533
20
28.2561518
11
104.5948533
21
28.2561518
0
LINE
8
DEFAULT_255_2_778
10
107.9947533
20
28.2561518
11
107.9947533
21
28.2561518
0
LINE
8
DEFAULT_255_2_778
10
111.3946533
20
28.2561518
11
111.3946533
21
28.2561518
0
LINE
8
DEFAULT_255_2_778
10
111.3946533
20
32.2560518
11
111.3946533
21
32.2560518
0
LINE
8
DEFAULT_255_2_778
10
107.9947533
20
32.2560518
11
107.9947533
21
32.2560518
0
LINE
8
DEFAULT_255_2_778
10
104.5948533
20
32.2560518
11
104.5948533
21
32.2560518
0
LINE
8
DEFAULT_255_2_778
10
101.1949533
20
32.1994518
11
101.1949533
21
32.1994518
0
LINE
8
DEFAULT_255_2_778
10
112.4212533
20
31.1953518
11
112.4212533
21
31.1141518
0
LINE
8
DEFAULT_255_2_778
10
112.4212533
20
31.1141518
11
111.9499533
21
30.0579518
0
LINE
8
DEFAULT_255_2_778
10
111.9499533
20
30.0579518
11
111.7983533
21
30.0579518
0
LINE
8
DEFAULT_255_2_778
10
111.7983533
20
30.0579518
11
112.2680533
21
31.0765518
0
LINE
8
DEFAULT_255_2_778
10
112.2680533
20
31.0765518
11
111.6523533
21
31.0765518
0
LINE
8
DEFAULT_255_2_778
10
111.6523533
20
31.0765518
11
111.6523533
21
31.1953518
0
LINE
8
DEFAULT_255_2_778
10
111.6523533
20
31.1953518
11
112.4212533
21
31.1953518
0
LINE
8
DEFAULT_255_2_778
10
112.4212533
20
31.1953518
11
112.4212533
21
31.1953518
0
LINE
8
DEFAULT_255_2_778
10
108.8152533
20
31.1525518
11
108.8408533
21
31.1525518
0
LINE
8
DEFAULT_255_2_778
10
108.8408533
20
31.1525518
11
108.8408533
21
31.0297518
0
LINE
8
DEFAULT_255_2_778
10
108.8408533
20
31.0297518
11
108.8144533
21
31.0297518
0
LINE
8
DEFAULT_255_2_778
10
108.2820533
20
30.4466518
11
108.2820533
21
30.5021518
0
LINE
8
DEFAULT_255_2_778
10
108.8146533
20
31.1522518
11
108.8152533
21
31.1525518
0
LINE
8
DEFAULT_255_2_778
10
108.4275533
20
30.4839518
11
108.4275533
21
30.4307518
0
LINE
8
DEFAULT_255_2_778
10
108.6509533
20
30.6402518
11
108.6511533
21
30.6400518
0
LINE
8
DEFAULT_255_2_778
10
102.1455533
20
31.1297518
11
102.1455533
21
30.3743518
0
LINE
8
DEFAULT_255_2_778
10
102.1455533
20
30.3743518
11
102.3032533
21
30.3743518
0
LINE
8
DEFAULT_255_2_778
10
102.3032533
20
30.3743518
11
102.3032533
21
30.2563518
0
LINE
8
DEFAULT_255_2_778
10
102.3032533
20
30.2563518
11
102.1455533
21
30.2563518
0
LINE
8
DEFAULT_255_2_778
10
102.1455533
20
30.2563518
11
102.1455533
21
29.9923518
0
LINE
8
DEFAULT_255_2_778
10
102.1455533
20
29.9923518
11
102.0003533
21
29.9923518
0
LINE
8
DEFAULT_255_2_778
10
102.0003533
20
29.9923518
11
102.0003533
21
30.2563518
0
LINE
8
DEFAULT_255_2_778
10
102.0003533
20
30.2563518
11
101.4822533
21
30.2563518
0
LINE
8
DEFAULT_255_2_778
10
101.4822533
20
30.2563518
11
101.4822533
21
30.3415518
0
LINE
8
DEFAULT_255_2_778
10
101.4822533
20
30.3415518
11
101.9916533
21
31.1297518
0
LINE
8
DEFAULT_255_2_778
10
101.9916533
20
31.1297518
11
102.1455533
21
31.1297518
0
LINE
8
DEFAULT_255_2_778
10
102.1455533
20
31.1297518
11
102.1455533
21
31.1297518
0
LINE
8
DEFAULT_255_2_778
10
101.9831533
20
30.9008518
11
101.6463533
21
30.3743518
0
LINE
8
DEFAULT_255_2_778
10
101.6463533
20
30.3743518
11
102.0003533
21
30.3743518
0
LINE
8
DEFAULT_255_2_778
10
102.0003533
20
30.3743518
11
102.0003533
21
30.9321518
0
LINE
8
DEFAULT_255_2_778
10
102.0003533
20
30.9321518
11
101.9831533
21
30.9008518
0
LINE
8
DEFAULT_255_2_778
10
101.9831533
20
30.9008518
11
101.9831533
21
30.9008518
0
LINE
8
DEFAULT_255_2_778
10
105.4367533
20
30.5767518
11
105.3211533
21
30.6064518
0
LINE
8
DEFAULT_255_2_778
10
105.3211533
20
30.6064518
11
105.3790533
21
31.1736518
0
LINE
8
DEFAULT_255_2_778
10
105.3790533
20
31.1736518
11
105.9619533
21
31.1736518
0
LINE
8
DEFAULT_255_2_778
10
105.9619533
20
31.1736518
11
105.9619533
21
31.0400518
0
LINE
8
DEFAULT_255_2_778
10
105.9619533
20
31.0400518
11
105.5018533
21
31.0400518
0
LINE
8
DEFAULT_255_2_778
10
105.5018533
20
31.0400518
11
105.4674533
21
30.7299518
0
LINE
8
DEFAULT_255_2_778
10
105.2809533
20
30.3354518
11
105.4176533
21
30.3354518
0
LINE
8
DEFAULT_255_2_778
10
105.4756533
20
30.6080518
11
105.4372533
21
30.5767518
0
LINE
8
DEFAULT_255_2_778
10
105.4372533
20
30.5767518
11
105.4367533
21
30.5767518
0
LINE
8
DEFAULT_255_2_778
10
111.8970533
20
34.5688518
11
111.8970533
21
34.6868518
0
LINE
8
DEFAULT_255_2_778
10
111.8970533
20
34.6868518
11
112.0055533
21
34.6868518
0
LINE
8
DEFAULT_255_2_778
10
111.8203533
20
34.8871518
11
111.6758533
21
34.8871518
0
LINE
8
DEFAULT_255_2_778
10
111.6653533
20
34.3478518
11
111.8105533
21
34.3478518
0
LINE
8
DEFAULT_255_2_778
10
112.0050533
20
34.5693518
11
111.8965533
21
34.5693518
0
LINE
8
DEFAULT_255_2_778
10
111.8965533
20
34.5693518
11
111.8970533
21
34.5688518
0
LINE
8
DEFAULT_255_2_778
10
109.0192533
20
34.1219518
11
109.0192533
21
34.0039518
0
LINE
8
DEFAULT_255_2_778
10
109.0192533
20
34.0039518
11
108.2738533
21
34.0039518
0
LINE
8
DEFAULT_255_2_778
10
108.2738533
20
34.0039518
11
108.2738533
21
34.1079518
0
LINE
8
DEFAULT_255_2_778
10
108.2738533
20
34.1079518
11
108.6675533
21
34.5455518
0
LINE
8
DEFAULT_255_2_778
10
108.3966533
20
34.8066518
11
108.2521533
21
34.8066518
0
LINE
8
DEFAULT_255_2_778
10
108.7530533
20
34.4529518
11
108.4482533
21
34.1224518
0
LINE
8
DEFAULT_255_2_778
10
108.4482533
20
34.1224518
11
109.0194533
21
34.1224518
0
LINE
8
DEFAULT_255_2_778
10
109.0194533
20
34.1224518
11
109.0192533
21
34.1219518
0
LINE
8
DEFAULT_255_2_778
10
105.7296533
20
35.1688518
11
105.7296533
21
34.0258518
0
LINE
8
DEFAULT_255_2_778
10
105.7296533
20
34.0258518
11
105.5843533
21
34.0258518
0
LINE
8
DEFAULT_255_2_778
10
105.5843533
20
34.0258518
11
105.5843533
21
34.9892518
0
LINE
8
DEFAULT_255_2_778
10
105.5843533
20
34.9892518
11
105.2930533
21
34.8820518
0
LINE
8
DEFAULT_255_2_778
10
105.2930533
20
34.8820518
11
105.2930533
21
35.0133518
0
LINE
8
DEFAULT_255_2_778
10
105.2930533
20
35.0133518
11
105.7071533
21
35.1688518
0
LINE
8
DEFAULT_255_2_778
10
105.7071533
20
35.1688518
11
105.7299533
21
35.1688518
0
LINE
8
DEFAULT_255_2_778
10
105.7299533
20
35.1688518
11
105.7296533
21
35.1688518
0
LINE
8
DEFAULT_255_2_778
10
102.2485533
20
34.6548518
11
102.2485533
21
34.4672518
0
LINE
8
DEFAULT_255_2_778
10
101.5301533
20
34.4479518
11
101.5301533
21
34.6407518
0
LINE
8
DEFAULT_255_2_778
10
102.2482533
20
34.6553518
11
102.2485533
21
34.6548518
0
LINE
8
DEFAULT_255_2_778
10
102.1040533
20
34.4283518
11
102.1040533
21
34.6651518
0
LINE
8
DEFAULT_255_2_778
10
101.6751533
20
34.6759518
11
101.6751533
21
34.4447518
0
LINE
8
DEFAULT_255_2_778
10
102.1040533
20
34.4283518
11
102.1040533
21
34.4283518
0
LINE
8
DEFAULT_255_2_778
10
102.1455533
20
56.1969518
11
102.1455533
21
55.4415518
0
LINE
8
DEFAULT_255_2_778
10
102.1455533
20
55.4415518
11
102.3032533
21
55.4415518
0
LINE
8
DEFAULT_255_2_778
10
102.3032533
20
55.4415518
11
102.3032533
21
55.3235518
0
LINE
8
DEFAULT_255_2_778
10
102.3032533
20
55.3235518
11
102.1455533
21
55.3235518
0
LINE
8
DEFAULT_255_2_778
10
102.1455533
20
55.3235518
11
102.1455533
21
55.0594518
0
LINE
8
DEFAULT_255_2_778
10
102.1455533
20
55.0594518
11
102.0003533
21
55.0594518
0
LINE
8
DEFAULT_255_2_778
10
102.0003533
20
55.0594518
11
102.0003533
21
55.3235518
0
LINE
8
DEFAULT_255_2_778
10
102.0003533
20
55.3235518
11
101.4822533
21
55.3235518
0
LINE
8
DEFAULT_255_2_778
10
101.4822533
20
55.3235518
11
101.4822533
21
55.4087518
0
LINE
8
DEFAULT_255_2_778
10
101.4822533
20
55.4087518
11
101.9916533
21
56.1969518
0
LINE
8
DEFAULT_255_2_778
10
101.9916533
20
56.1969518
11
102.1455533
21
56.1969518
0
LINE
8
DEFAULT_255_2_778
10
102.1455533
20
56.1969518
11
102.1455533
21
56.1969518
0
LINE
8
DEFAULT_255_2_778
10
101.9831533
20
55.9680518
11
101.6463533
21
55.4415518
0
LINE
8
DEFAULT_255_2_778
10
101.6463533
20
55.4415518
11
102.0003533
21
55.4415518
0
LINE
8
DEFAULT_255_2_778
10
102.0003533
20
55.4415518
11
102.0003533
21
55.9992518
0
LINE
8
DEFAULT_255_2_778
10
102.0003533
20
55.9992518
11
101.9831533
21
55.9680518
0
LINE
8
DEFAULT_255_2_778
10
101.9831533
20
55.9680518
11
101.9831533
21
55.9680518
0
LINE
8
DEFAULT_255_2_778
10
101.1949533
20
57.2666518
11
101.1949533
21
57.2666518
0
LINE
8
DEFAULT_255_2_778
10
104.5948533
20
57.2563518
11
104.5948533
21
57.2563518
0
LINE
8
DEFAULT_255_2_778
10
107.9947533
20
57.2563518
11
107.9947533
21
57.2563518
0
LINE
8
DEFAULT_255_2_778
10
111.3949533
20
57.2666518
11
111.3949533
21
57.2666518
0
LINE
8
DEFAULT_255_2_778
10
111.3949533
20
61.2562518
11
111.3949533
21
61.2562518
0
LINE
8
DEFAULT_255_2_778
10
107.9950533
20
61.2562518
11
107.9950533
21
61.2562518
0
LINE
8
DEFAULT_255_2_778
10
104.5951533
20
61.2562518
11
104.5951533
21
61.2562518
0
LINE
8
DEFAULT_255_2_778
10
101.1952533
20
61.2562518
11
101.1952533
21
61.2562518
0
LINE
8
DEFAULT_255_2_778
10
112.4214533
20
56.2625518
11
112.4214533
21
56.1813518
0
LINE
8
DEFAULT_255_2_778
10
112.4214533
20
56.1813518
11
111.9502533
21
55.1250518
0
LINE
8
DEFAULT_255_2_778
10
111.9502533
20
55.1250518
11
111.7986533
21
55.1250518
0
LINE
8
DEFAULT_255_2_778
10
111.7986533
20
55.1250518
11
112.2682533
21
56.1437518
0
LINE
8
DEFAULT_255_2_778
10
112.2682533
20
56.1437518
11
111.6526533
21
56.1437518
0
LINE
8
DEFAULT_255_2_778
10
111.6526533
20
56.1437518
11
111.6526533
21
56.2625518
0
LINE
8
DEFAULT_255_2_778
10
111.6526533
20
56.2625518
11
112.4214533
21
56.2625518
0
LINE
8
DEFAULT_255_2_778
10
112.4214533
20
56.2625518
11
112.4214533
21
56.2625518
0
LINE
8
DEFAULT_255_2_778
10
108.8154533
20
56.2196518
11
108.8411533
21
56.2196518
0
LINE
8
DEFAULT_255_2_778
10
108.8411533
20
56.2196518
11
108.8411533
21
56.0969518
0
LINE
8
DEFAULT_255_2_778
10
108.8411533
20
56.0969518
11
108.8146533
21
56.0969518
0
LINE
8
DEFAULT_255_2_778
10
108.2823533
20
55.5140518
11
108.2823533
21
55.5695518
0
LINE
8
DEFAULT_255_2_778
10
108.8149533
20
56.2196518
11
108.8154533
21
56.2196518
0
LINE
8
DEFAULT_255_2_778
10
108.4278533
20
55.5510518
11
108.4278533
21
55.4978518
0
LINE
8
DEFAULT_255_2_778
10
108.6511533
20
55.7074518
11
108.6514533
21
55.7071518
0
LINE
8
DEFAULT_255_2_778
10
105.4370533
20
55.6439518
11
105.3213533
21
55.6735518
0
LINE
8
DEFAULT_255_2_778
10
105.3213533
20
55.6735518
11
105.3793533
21
56.2408518
0
LINE
8
DEFAULT_255_2_778
10
105.3793533
20
56.2408518
11
105.9622533
21
56.2408518
0
LINE
8
DEFAULT_255_2_778
10
105.9622533
20
56.2408518
11
105.9622533
21
56.1072518
0
LINE
8
DEFAULT_255_2_778
10
105.9622533
20
56.1072518
11
105.5021533
21
56.1072518
0
LINE
8
DEFAULT_255_2_778
10
105.5021533
20
56.1072518
11
105.4677533
21
55.7971518
0
LINE
8
DEFAULT_255_2_778
10
105.2811533
20
55.4026518
11
105.4179533
21
55.4026518
0
LINE
8
DEFAULT_255_2_778
10
105.4759533
20
55.6751518
11
105.4375533
21
55.6439518
0
LINE
8
DEFAULT_255_2_778
10
105.4375533
20
55.6439518
11
105.4370533
21
55.6439518
0
LINE
8
DEFAULT_255_2_778
10
111.8973533
20
59.6359518
11
111.8973533
21
59.7539518
0
LINE
8
DEFAULT_255_2_778
10
111.8973533
20
59.7539518
11
112.0058533
21
59.7539518
0
LINE
8
DEFAULT_255_2_778
10
111.8206533
20
59.9542518
11
111.6761533
21
59.9542518
0
LINE
8
DEFAULT_255_2_778
10
111.6655533
20
59.4150518
11
111.8108533
21
59.4150518
0
LINE
8
DEFAULT_255_2_778
10
112.0052533
20
59.6365518
11
111.8968533
21
59.6365518
0
LINE
8
DEFAULT_255_2_778
10
111.8968533
20
59.6365518
11
111.8973533
21
59.6359518
0
LINE
8
DEFAULT_255_2_778
10
109.0194533
20
59.1890518
11
109.0194533
21
59.0710518
0
LINE
8
DEFAULT_255_2_778
10
109.0194533
20
59.0710518
11
108.2741533
21
59.0710518
0
LINE
8
DEFAULT_255_2_778
10
108.2741533
20
59.0710518
11
108.2741533
21
59.1750518
0
LINE
8
DEFAULT_255_2_778
10
108.2741533
20
59.1750518
11
108.6678533
21
59.6126518
0
LINE
8
DEFAULT_255_2_778
10
108.3969533
20
59.8738518
11
108.2524533
21
59.8738518
0
LINE
8
DEFAULT_255_2_778
10
108.7533533
20
59.5198518
11
108.4485533
21
59.1893518
0
LINE
8
DEFAULT_255_2_778
10
108.4485533
20
59.1893518
11
109.0197533
21
59.1893518
0
LINE
8
DEFAULT_255_2_778
10
109.0197533
20
59.1893518
11
109.0194533
21
59.1890518
0
LINE
8
DEFAULT_255_2_778
10
105.7299533
20
60.2360518
11
105.7299533
21
59.0930518
0
LINE
8
DEFAULT_255_2_778
10
105.7299533
20
59.0930518
11
105.5846533
21
59.0930518
0
LINE
8
DEFAULT_255_2_778
10
105.5846533
20
59.0930518
11
105.5846533
21
60.0563518
0
LINE
8
DEFAULT_255_2_778
10
105.5846533
20
60.0563518
11
105.2933533
21
59.9492518
0
LINE
8
DEFAULT_255_2_778
10
105.2933533
20
59.9492518
11
105.2933533
21
60.0804518
0
LINE
8
DEFAULT_255_2_778
10
105.2933533
20
60.0804518
11
105.7074533
21
60.2360518
0
LINE
8
DEFAULT_255_2_778
10
105.7074533
20
60.2360518
11
105.7301533
21
60.2360518
0
LINE
8
DEFAULT_255_2_778
10
105.7301533
20
60.2360518
11
105.7299533
21
60.2360518
0
LINE
8
DEFAULT_255_2_778
10
102.2487533
20
59.7219518
11
102.2487533
21
59.5343518
0
LINE
8
DEFAULT_255_2_778
10
101.5304533
20
59.5147518
11
101.5304533
21
59.7076518
0
LINE
8
DEFAULT_255_2_778
10
102.2485533
20
59.7219518
11
102.2487533
21
59.7219518
0
LINE
8
DEFAULT_255_2_778
10
102.1043533
20
59.4954518
11
102.1043533
21
59.7322518
0
LINE
8
DEFAULT_255_2_778
10
101.6754533
20
59.7431518
11
101.6754533
21
59.5118518
0
LINE
8
DEFAULT_255_2_778
10
102.1043533
20
59.4954518
11
102.1043533
21
59.4954518
0
ARC
8
DEFAULT_255_2_778
10
109.213926
20
52.2421345
40
0.8115813
50
217.1026135
51
267.0853384
0
ARC
8
DEFAULT_255_2_778
10
109.22584
20
52.2591183
40
0.8313532
50
209.9712348
51
217.5408309
0
ARC
8
DEFAULT_255_2_778
10
109.2197492
20
52.2560932
40
0.824566
50
179.9880208
51
210.0005719
0
LINE
8
DEFAULT_255_2_778
10
108.3951833
20
52.2562656
11
108.3951833
21
52.2566262
0
ARC
8
DEFAULT_255_2_778
10
109.2201573
20
52.2564036
40
0.824974
50
150.0070215
51
179.9845426
0
ARC
8
DEFAULT_255_2_778
10
109.2259441
20
52.2542061
40
0.831085
50
103.4374497
51
150.0752416
0
ARC
8
DEFAULT_255_2_778
10
109.1970075
20
52.3506907
40
0.7305398
50
91.2287004
51
102.9885907
0
ARC
8
DEFAULT_255_2_778
10
109.1953692
20
52.3814408
40
0.6997622
50
90.0008956
51
91.1485827
0
ARC
8
DEFAULT_255_2_778
10
112.2198396
20
52.3831647
40
0.6983384
50
88.6466464
51
89.9984722
0
ARC
8
DEFAULT_255_2_778
10
112.2017975
20
52.27151
40
0.8105345
50
37.9600456
51
87.5579709
0
ARC
8
DEFAULT_255_2_778
10
112.1892724
20
52.2533
40
0.8316375
50
29.9908016
51
38.418418
0
ARC
8
DEFAULT_255_2_778
10
112.1951602
20
52.2566307
40
0.8248731
50
359.9911365
51
29.9948552
0
ARC
8
DEFAULT_255_2_778
10
112.1951602
20
52.2563755
40
0.8248731
50
330.0051448
51
0.0088635
0
ARC
8
DEFAULT_255_2_778
10
112.1894625
20
52.2584772
40
0.830859
50
282.6312582
51
330.0760487
0
ARC
8
DEFAULT_255_2_778
10
112.2172699
20
52.1632089
40
0.7318428
50
271.9802135
51
282.1379056
0
LINE
8
DEFAULT_255_2_778
10
112.2200583
20
51.4313031
11
109.1953583
21
51.4313031
0
LINE
8
DEFAULT_255_2_778
10
109.1953583
20
53.0812031
11
112.2198583
21
53.0815031
0
ARC
8
DEFAULT_255_2_778
10
109.213926
20
47.2420345
40
0.8115813
50
217.1026135
51
267.0853384
0
ARC
8
DEFAULT_255_2_778
10
109.22584
20
47.2590183
40
0.8313532
50
209.9712348
51
217.5408309
0
ARC
8
DEFAULT_255_2_778
10
109.2197492
20
47.2559932
40
0.824566
50
179.9880208
51
210.0005719
0
LINE
8
DEFAULT_255_2_778
10
108.3951833
20
47.2561656
11
108.3951833
21
47.2565262
0
ARC
8
DEFAULT_255_2_778
10
109.2201573
20
47.2563036
40
0.824974
50
150.0070215
51
179.9845426
0
ARC
8
DEFAULT_255_2_778
10
109.2259441
20
47.2541061
40
0.831085
50
103.4374497
51
150.0752416
0
ARC
8
DEFAULT_255_2_778
10
109.1970075
20
47.3505907
40
0.7305398
50
91.2287004
51
102.9885907
0
ARC
8
DEFAULT_255_2_778
10
109.1953692
20
47.3813408
40
0.6997622
50
90.0008956
51
91.1485827
0
ARC
8
DEFAULT_255_2_778
10
112.2198396
20
47.3830647
40
0.6983384
50
88.6466464
51
89.9984722
0
ARC
8
DEFAULT_255_2_778
10
112.2017975
20
47.27141
40
0.8105345
50
37.9600456
51
87.5579709
0
ARC
8
DEFAULT_255_2_778
10
112.1892724
20
47.2532
40
0.8316375
50
29.9908016
51
38.418418
0
ARC
8
DEFAULT_255_2_778
10
112.1951602
20
47.2565307
40
0.8248731
50
359.9911365
51
29.9948552
0
ARC
8
DEFAULT_255_2_778
10
112.1951602
20
47.2562755
40
0.8248731
50
330.0051448
51
0.0088635
0
ARC
8
DEFAULT_255_2_778
10
112.1894625
20
47.2583772
40
0.830859
50
282.6312582
51
330.0760487
0
ARC
8
DEFAULT_255_2_778
10
112.2172699
20
47.1631089
40
0.7318428
50
271.9802135
51
282.1379056
0
LINE
8
DEFAULT_255_2_778
10
112.2200583
20
46.4312031
11
109.1953583
21
46.4312031
0
LINE
8
DEFAULT_255_2_778
10
109.1953583
20
48.0811031
11
112.2198583
21
48.0814031
0
ARC
8
DEFAULT_255_2_778
10
109.213926
20
42.2419345
40
0.8115813
50
217.1026135
51
267.0853384
0
ARC
8
DEFAULT_255_2_778
10
109.22584
20
42.2589183
40
0.8313532
50
209.9712348
51
217.5408309
0
ARC
8
DEFAULT_255_2_778
10
109.2197492
20
42.2558932
40
0.824566
50
179.9880208
51
210.0005719
0
LINE
8
DEFAULT_255_2_778
10
108.3951833
20
42.2560656
11
108.3951833
21
42.2564262
0
ARC
8
DEFAULT_255_2_778
10
109.2201573
20
42.2562036
40
0.824974
50
150.0070215
51
179.9845426
0
ARC
8
DEFAULT_255_2_778
10
109.2259441
20
42.2540061
40
0.831085
50
103.4374497
51
150.0752416
0
ARC
8
DEFAULT_255_2_778
10
109.1970075
20
42.3504907
40
0.7305398
50
91.2287004
51
102.9885907
0
ARC
8
DEFAULT_255_2_778
10
109.1953692
20
42.3812408
40
0.6997622
50
90.0008956
51
91.1485827
0
ARC
8
DEFAULT_255_2_778
10
112.2198396
20
42.3829647
40
0.6983384
50
88.6466464
51
89.9984722
0
ARC
8
DEFAULT_255_2_778
10
112.2017975
20
42.27131
40
0.8105345
50
37.9600456
51
87.5579709
0
ARC
8
DEFAULT_255_2_778
10
112.1892724
20
42.2531
40
0.8316375
50
29.9908016
51
38.418418
0
ARC
8
DEFAULT_255_2_778
10
112.1951602
20
42.2564307
40
0.8248731
50
359.9911365
51
29.9948552
0
ARC
8
DEFAULT_255_2_778
10
112.1951602
20
42.2561755
40
0.8248731
50
330.0051448
51
0.0088635
0
ARC
8
DEFAULT_255_2_778
10
112.1894625
20
42.2582772
40
0.830859
50
282.6312582
51
330.0760487
0
ARC
8
DEFAULT_255_2_778
10
112.2172699
20
42.1630089
40
0.7318428
50
271.9802135
51
282.1379056
0
LINE
8
DEFAULT_255_2_778
10
112.2200583
20
41.4311031
11
109.1953583
21
41.4311031
0
LINE
8
DEFAULT_255_2_778
10
109.1953583
20
43.0810031
11
112.2198583
21
43.0813031
0
ARC
8
DEFAULT_255_2_778
10
109.213926
20
37.2418345
40
0.8115813
50
217.1026135
51
267.0853384
0
ARC
8
DEFAULT_255_2_778
10
109.22584
20
37.2588183
40
0.8313532
50
209.9712348
51
217.5408309
0
ARC
8
DEFAULT_255_2_778
10
109.2197492
20
37.2557932
40
0.824566
50
179.9880208
51
210.0005719
0
LINE
8
DEFAULT_255_2_778
10
108.3951833
20
37.2559656
11
108.3951833
21
37.2563262
0
ARC
8
DEFAULT_255_2_778
10
109.2201573
20
37.2561036
40
0.824974
50
150.0070215
51
179.9845426
0
ARC
8
DEFAULT_255_2_778
10
109.2259441
20
37.2539061
40
0.831085
50
103.4374497
51
150.0752416
0
ARC
8
DEFAULT_255_2_778
10
109.1970075
20
37.3503907
40
0.7305398
50
91.2287004
51
102.9885907
0
ARC
8
DEFAULT_255_2_778
10
109.1953692
20
37.3811408
40
0.6997622
50
90.0008956
51
91.1485827
0
ARC
8
DEFAULT_255_2_778
10
112.2198396
20
37.3828647
40
0.6983384
50
88.6466464
51
89.9984722
0
ARC
8
DEFAULT_255_2_778
10
112.2017975
20
37.27121
40
0.8105345
50
37.9600456
51
87.5579709
0
ARC
8
DEFAULT_255_2_778
10
112.1892724
20
37.253
40
0.8316375
50
29.9908016
51
38.418418
0
ARC
8
DEFAULT_255_2_778
10
112.1951602
20
37.2563307
40
0.8248731
50
359.9911365
51
29.9948552
0
ARC
8
DEFAULT_255_2_778
10
112.1951602
20
37.2560755
40
0.8248731
50
330.0051448
51
0.0088635
0
ARC
8
DEFAULT_255_2_778
10
112.1894625
20
37.2581772
40
0.830859
50
282.6312582
51
330.0760487
0
ARC
8
DEFAULT_255_2_778
10
112.2172699
20
37.1629089
40
0.7318428
50
271.9802135
51
282.1379056
0
LINE
8
DEFAULT_255_2_778
10
112.2200583
20
36.4310031
11
109.1953583
21
36.4310031
0
LINE
8
DEFAULT_255_2_778
10
109.1953583
20
38.0809031
11
112.2198583
21
38.0812031
0
ARC
8
DEFAULT_255_2_778
10
99.2072133
20
52.6414465
40
0.6425222
50
69.7090081
51
91.1672022
0
ARC
8
DEFAULT_255_2_778
10
99.2775285
20
52.8488624
40
0.4236355
50
48.2127644
51
68.9005176
0
ARC
8
DEFAULT_255_2_778
10
99.2886809
20
52.8656846
40
0.4036713
50
357.6930164
51
47.8019568
0
ARC
8
DEFAULT_255_2_778
10
99.2437106
20
52.835589
40
0.4485282
50
331.0891857
51
1.7690409
0
ARC
8
DEFAULT_255_2_778
10
99.3334432
20
52.7966963
40
0.3513001
50
310.7429483
51
329.5664434
0
ARC
8
DEFAULT_255_2_778
10
99.2696395
20
52.886676
40
0.4612323
50
278.162635
51
309.4526344
0
ARC
8
DEFAULT_255_2_778
10
99.1971271
20
53.2526088
40
0.833989
50
269.6494784
51
279.5245101
0
ARC
8
DEFAULT_255_2_778
10
99.2066618
20
52.9732614
40
0.4013219
50
268.2098577
51
293.6504428
0
ARC
8
DEFAULT_255_2_778
10
99.2633496
20
52.8266796
40
0.2444074
50
295.2624698
51
311.2894376
0
ARC
8
DEFAULT_255_2_778
10
99.2497321
20
52.8287861
40
0.2551291
50
313.2755423
51
2.3498393
0
ARC
8
DEFAULT_255_2_778
10
99.0674994
20
52.8475157
40
0.4372255
50
358.9163221
51
0.0025801
0
ARC
8
DEFAULT_255_2_778
10
99.2376733
20
52.8596529
40
0.2673265
50
357.4019702
51
45.6260447
0
ARC
8
DEFAULT_255_2_778
10
99.2184014
20
52.8197652
40
0.3096375
50
48.2396655
51
90.0809974
0
ARC
8
DEFAULT_255_2_778
10
99.1945558
20
52.6234743
40
0.5064694
50
87.3509786
51
88.8155616
0
LINE
8
DEFAULT_255_2_778
10
99.192325
20
52.4186354
11
98.857325
21
52.4186354
0
LINE
8
DEFAULT_255_2_778
10
98.857325
20
52.4186354
11
98.857325
21
51.8619354
0
LINE
8
DEFAULT_255_2_778
10
98.857325
20
51.8619354
11
98.669725
21
51.8619354
0
LINE
8
DEFAULT_255_2_778
10
98.669725
20
51.8619354
11
98.669725
21
53.2838354
0
LINE
8
DEFAULT_255_2_778
10
98.669725
20
53.2838354
11
99.194125
21
53.2838354
0
LINE
8
DEFAULT_255_2_778
10
99.192025
20
52.4186354
11
99.192325
21
52.4186354
0
LINE
8
DEFAULT_255_2_778
10
98.857325
20
53.1295354
11
98.857325
21
52.5721354
0
LINE
8
DEFAULT_255_2_778
10
98.857325
20
52.5721354
11
99.194125
21
52.5721354
0
LINE
8
DEFAULT_255_2_778
10
99.205025
20
53.1298354
11
98.857325
21
53.1298354
0
LINE
8
DEFAULT_255_2_778
10
98.857325
20
53.1298354
11
98.857325
21
53.1295354
0
ARC
8
DEFAULT_255_2_778
10
100.0857133
20
52.5140101
40
0.9396784
50
342.5881704
51
0.78686
0
ARC
8
DEFAULT_255_2_778
10
100.3089563
20
52.4533843
40
0.7085799
50
335.7284779
51
341.8640555
0
ARC
8
DEFAULT_255_2_778
10
100.4642974
20
52.370564
40
0.5330527
50
303.1390909
51
336.9802403
0
ARC
8
DEFAULT_255_2_778
10
100.4670521
20
52.3903597
40
0.5482798
50
268.7303139
51
301.7670292
0
ARC
8
DEFAULT_255_2_778
10
100.4450225
20
52.3859807
40
0.5438559
50
238.0099758
51
271.0409898
0
ARC
8
DEFAULT_255_2_778
10
100.4532681
20
52.3827416
40
0.5455465
50
204.1073442
51
237.0952451
0
ARC
8
DEFAULT_255_2_778
10
100.7072743
20
52.4994708
40
0.8250812
50
181.5850092
51
204.3017853
0
ARC
8
DEFAULT_255_2_778
10
100.9972994
20
52.5253716
40
1.115855
50
180.5882925
51
182.5025549
0
ARC
8
DEFAULT_255_2_778
10
100.7826445
20
52.6300607
40
0.9012417
50
160.3124237
51
180.8548574
0
ARC
8
DEFAULT_255_2_778
10
100.6054268
20
52.6831713
40
0.7165566
50
155.6324301
51
159.5370249
0
ARC
8
DEFAULT_255_2_778
10
100.4517513
20
52.7657975
40
0.5426097
50
123.2422864
51
156.8849473
0
ARC
8
DEFAULT_255_2_778
10
100.4432812
20
52.7624939
40
0.5408027
50
89.0017319
51
122.2998532
0
ARC
8
DEFAULT_255_2_778
10
100.4637327
20
52.751702
40
0.5516228
50
58.2379319
51
91.1456946
0
ARC
8
DEFAULT_255_2_778
10
100.4654839
20
52.7751602
40
0.5308669
50
22.8743778
51
57.06582
0
ARC
8
DEFAULT_255_2_778
10
100.1751308
20
52.6448816
40
0.8490577
50
1.6571595
51
23.3582071
0
ARC
8
DEFAULT_255_2_778
10
99.8507514
20
52.6170322
40
1.1742518
50
359.9796207
51
2.5577783
0
ARC
8
DEFAULT_255_2_778
10
99.9535792
20
52.6314854
40
0.8853118
50
359.1928809
51
13.7885136
0
ARC
8
DEFAULT_255_2_778
10
100.3586723
20
52.7317952
40
0.4679857
50
13.6820409
51
36.0369693
0
ARC
8
DEFAULT_255_2_778
10
100.4680299
20
52.8077966
40
0.3348553
50
36.5294646
51
92.5720309
0
ARC
8
DEFAULT_255_2_778
10
100.4404725
20
52.8109225
40
0.3316289
50
87.8345606
51
143.7292798
0
ARC
8
DEFAULT_255_2_778
10
100.5937292
20
52.7042395
40
0.5183238
50
144.2439368
51
171.4556736
0
ARC
8
DEFAULT_255_2_778
10
100.9916966
20
52.6258019
40
0.9237124
50
170.3118496
51
179.6332455
0
ARC
8
DEFAULT_255_2_778
10
100.8968662
20
52.5145876
40
0.8289592
50
179.1272163
51
195.4683921
0
ARC
8
DEFAULT_255_2_778
10
100.5649569
20
52.4252188
40
0.4852431
50
195.7506909
51
215.7210678
0
ARC
8
DEFAULT_255_2_778
10
100.4423795
20
52.3339248
40
0.332435
50
215.2810166
51
272.1072447
0
ARC
8
DEFAULT_255_2_778
10
100.4705088
20
52.332899
40
0.3315661
50
267.250393
51
323.1420414
0
ARC
8
DEFAULT_255_2_778
10
100.3299825
20
52.42446
40
0.4990481
50
324.4087384
51
350.5637386
0
ARC
8
DEFAULT_255_2_778
10
99.8845569
20
52.5162169
40
0.9536505
50
349.5130139
51
359.8316319
0
LINE
8
DEFAULT_255_2_778
10
101.0253031
20
52.6169146
11
101.0253031
21
52.5269146
0
LINE
8
DEFAULT_255_2_778
10
99.8815031
20
52.5139146
11
99.8815031
21
52.6166146
0
LINE
8
DEFAULT_255_2_778
10
101.0250031
20
52.6166146
11
101.0253031
21
52.6169146
0
LINE
8
DEFAULT_255_2_778
10
100.8388031
20
52.5134146
11
100.8388031
21
52.6190146
0
LINE
8
DEFAULT_255_2_778
10
100.0680031
20
52.6317146
11
100.0680031
21
52.5272146
0
LINE
8
DEFAULT_255_2_778
10
100.8382031
20
52.5134146
11
100.8388031
21
52.5134146
0
LINE
8
DEFAULT_255_2_778
10
101.388649
20
53.2839
11
101.613249
21
52.3102
0
LINE
8
DEFAULT_255_2_778
10
101.613249
20
52.3102
11
101.640449
21
52.1226
0
LINE
8
DEFAULT_255_2_778
10
101.640449
20
52.1226
11
101.680449
21
52.2914
0
LINE
8
DEFAULT_255_2_778
10
101.680449
20
52.2914
11
101.961649
21
53.2836
0
LINE
8
DEFAULT_255_2_778
10
101.961649
20
53.2836
11
102.119949
21
53.2836
0
LINE
8
DEFAULT_255_2_778
10
102.119949
20
53.2836
11
102.394249
21
52.2914
0
LINE
8
DEFAULT_255_2_778
10
102.394249
20
52.2914
11
102.433449
21
52.1195
0
LINE
8
DEFAULT_255_2_778
10
102.433449
20
52.1195
11
102.463549
21
52.3108
0
LINE
8
DEFAULT_255_2_778
10
102.463549
20
52.3108
11
102.684249
21
53.2834
0
LINE
8
DEFAULT_255_2_778
10
102.684249
20
53.2834
11
102.872649
21
53.2834
0
LINE
8
DEFAULT_255_2_778
10
102.872649
20
53.2834
11
102.527849
21
51.8615
0
LINE
8
DEFAULT_255_2_778
10
102.527849
20
51.8615
11
102.356949
21
51.8615
0
LINE
8
DEFAULT_255_2_778
10
102.356949
20
51.8615
11
102.064049
21
52.8976
0
LINE
8
DEFAULT_255_2_778
10
102.064049
20
52.8976
11
102.041549
21
53.0061
0
LINE
8
DEFAULT_255_2_778
10
102.041549
20
53.0061
11
102.019149
21
52.8976
0
LINE
8
DEFAULT_255_2_778
10
102.019149
20
52.8976
11
101.715349
21
51.8615
0
LINE
8
DEFAULT_255_2_778
10
101.715349
20
51.8615
11
101.544449
21
51.8615
0
LINE
8
DEFAULT_255_2_778
10
101.544449
20
51.8615
11
101.200749
21
53.2834
0
LINE
8
DEFAULT_255_2_778
10
101.200749
20
53.2834
11
101.388349
21
53.2834
0
LINE
8
DEFAULT_255_2_778
10
101.388349
20
53.2834
11
101.388649
21
53.2839
0
LINE
8
DEFAULT_255_2_778
10
103.8846563
20
52.6723354
11
103.8846563
21
52.5192354
0
LINE
8
DEFAULT_255_2_778
10
103.8846563
20
52.5192354
11
103.2684563
21
52.5192354
0
LINE
8
DEFAULT_255_2_778
10
103.2684563
20
52.5192354
11
103.2684563
21
52.0151354
0
LINE
8
DEFAULT_255_2_778
10
103.2684563
20
52.0151354
11
103.9841563
21
52.0151354
0
LINE
8
DEFAULT_255_2_778
10
103.9841563
20
52.0151354
11
103.9841563
21
51.8619354
0
LINE
8
DEFAULT_255_2_778
10
103.9841563
20
51.8619354
11
103.0808563
21
51.8619354
0
LINE
8
DEFAULT_255_2_778
10
103.0808563
20
51.8619354
11
103.0808563
21
53.2838354
0
LINE
8
DEFAULT_255_2_778
10
103.0808563
20
53.2838354
11
103.9743563
21
53.2838354
0
LINE
8
DEFAULT_255_2_778
10
103.9743563
20
53.2838354
11
103.9743563
21
53.1295354
0
LINE
8
DEFAULT_255_2_778
10
103.9743563
20
53.1295354
11
103.2684563
21
53.1295354
0
LINE
8
DEFAULT_255_2_778
10
103.2684563
20
53.1295354
11
103.2684563
21
52.6726354
0
LINE
8
DEFAULT_255_2_778
10
103.2684563
20
52.6726354
11
103.8846563
21
52.6726354
0
LINE
8
DEFAULT_255_2_778
10
103.8846563
20
52.6726354
11
103.8846563
21
52.6723354
0
ARC
8
DEFAULT_255_2_778
10
104.7004475
20
52.5475306
40
0.7364146
50
73.3893949
51
90.9895029
0
ARC
8
DEFAULT_255_2_778
10
104.7879056
20
52.8488065
40
0.4227161
50
50.4043617
51
73.075476
0
ARC
8
DEFAULT_255_2_778
10
104.8113419
20
52.8933277
40
0.3736148
50
2.0894269
51
48.8219722
0
ARC
8
DEFAULT_255_2_778
10
104.5681346
20
52.8569714
40
0.618596
50
359.9318316
51
4.6341351
0
ARC
8
DEFAULT_255_2_778
10
104.8034682
20
52.8480856
40
0.3833487
50
324.3643093
51
1.2181745
0
ARC
8
DEFAULT_255_2_778
10
104.7731058
20
52.8793711
40
0.4263234
50
289.4735926
51
323.3244514
0
ARC
8
DEFAULT_255_2_778
10
104.7069105
20
52.934283
40
0.3439198
50
267.7203204
51
302.1159713
0
ARC
8
DEFAULT_255_2_778
10
104.7436471
20
52.859473
40
0.2611709
50
304.0154036
51
311.1570587
0
ARC
8
DEFAULT_255_2_778
10
104.7539438
20
52.8460608
40
0.2442984
50
311.4090681
51
2.386967
0
ARC
8
DEFAULT_255_2_778
10
104.7325776
20
52.8707689
40
0.2658501
50
356.8661982
51
40.5218924
0
ARC
8
DEFAULT_255_2_778
10
104.7714429
20
52.893206
40
0.2218798
50
42.6389435
51
48.1316194
0
ARC
8
DEFAULT_255_2_778
10
104.7288842
20
52.8289668
40
0.2983316
50
50.2796758
51
86.7636805
0
ARC
8
DEFAULT_255_2_778
10
104.6910697
20
52.5779685
40
0.5515687
50
84.3130502
51
89.8482796
0
LINE
8
DEFAULT_255_2_778
10
105.0478302
20
51.8619354
11
104.7393302
21
52.4371354
0
LINE
8
DEFAULT_255_2_778
10
104.7393302
20
52.4371354
11
104.4054302
21
52.4371354
0
LINE
8
DEFAULT_255_2_778
10
104.4054302
20
52.4371354
11
104.4054302
21
51.8619354
0
LINE
8
DEFAULT_255_2_778
10
104.4054302
20
51.8619354
11
104.2170302
21
51.8619354
0
LINE
8
DEFAULT_255_2_778
10
104.2170302
20
51.8619354
11
104.2170302
21
53.2838354
0
LINE
8
DEFAULT_255_2_778
10
104.2170302
20
53.2838354
11
104.6877302
21
53.2838354
0
LINE
8
DEFAULT_255_2_778
10
104.9152302
20
52.4774354
11
105.2491302
21
51.8738354
0
LINE
8
DEFAULT_255_2_778
10
105.2491302
20
51.8738354
11
105.2491302
21
51.8622354
0
LINE
8
DEFAULT_255_2_778
10
105.2491302
20
51.8622354
11
105.0481302
21
51.8622354
0
LINE
8
DEFAULT_255_2_778
10
105.0481302
20
51.8622354
11
105.0478302
21
51.8619354
0
LINE
8
DEFAULT_255_2_778
10
104.4051302
20
53.1295354
11
104.4051302
21
52.5906354
0
LINE
8
DEFAULT_255_2_778
10
104.4051302
20
52.5906354
11
104.6932302
21
52.5906354
0
LINE
8
DEFAULT_255_2_778
10
104.6925302
20
53.1295354
11
104.4054302
21
53.1295354
0
LINE
8
DEFAULT_255_2_778
10
104.4054302
20
53.1295354
11
104.4051302
21
53.1295354
0
ARC
8
DEFAULT_255_2_778
10
102.1104475
20
47.5477306
40
0.7364146
50
73.3893949
51
90.9895029
0
ARC
8
DEFAULT_255_2_778
10
102.1979056
20
47.8490065
40
0.4227161
50
50.4043617
51
73.075476
0
ARC
8
DEFAULT_255_2_778
10
102.2213419
20
47.8935277
40
0.3736148
50
2.0894269
51
48.8219722
0
ARC
8
DEFAULT_255_2_778
10
101.9781346
20
47.8571714
40
0.618596
50
359.9318316
51
4.6341351
0
ARC
8
DEFAULT_255_2_778
10
102.2134682
20
47.8482856
40
0.3833487
50
324.3643093
51
1.2181745
0
ARC
8
DEFAULT_255_2_778
10
102.1831058
20
47.8795711
40
0.4263234
50
289.4735926
51
323.3244514
0
ARC
8
DEFAULT_255_2_778
10
102.1169105
20
47.934483
40
0.3439198
50
267.7203204
51
302.1159713
0
ARC
8
DEFAULT_255_2_778
10
102.1536471
20
47.859673
40
0.2611709
50
304.0154036
51
311.1570587
0
ARC
8
DEFAULT_255_2_778
10
102.1639438
20
47.8462608
40
0.2442984
50
311.4090681
51
2.386967
0
ARC
8
DEFAULT_255_2_778
10
102.1425776
20
47.8709689
40
0.2658501
50
356.8661982
51
40.5218924
0
ARC
8
DEFAULT_255_2_778
10
102.1814429
20
47.893406
40
0.2218798
50
42.6389435
51
48.1316194
0
ARC
8
DEFAULT_255_2_778
10
102.1388842
20
47.8291668
40
0.2983316
50
50.2796758
51
86.7636805
0
ARC
8
DEFAULT_255_2_778
10
102.1010697
20
47.5781685
40
0.5515687
50
84.3130502
51
89.8482796
0
LINE
8
DEFAULT_255_2_778
10
102.4578302
20
46.8621354
11
102.1493302
21
47.4373354
0
LINE
8
DEFAULT_255_2_778
10
102.1493302
20
47.4373354
11
101.8154302
21
47.4373354
0
LINE
8
DEFAULT_255_2_778
10
101.8154302
20
47.4373354
11
101.8154302
21
46.8621354
0
LINE
8
DEFAULT_255_2_778
10
101.8154302
20
46.8621354
11
101.6270302
21
46.8621354
0
LINE
8
DEFAULT_255_2_778
10
101.6270302
20
46.8621354
11
101.6270302
21
48.2840354
0
LINE
8
DEFAULT_255_2_778
10
101.6270302
20
48.2840354
11
102.0977302
21
48.2840354
0
LINE
8
DEFAULT_255_2_778
10
102.3252302
20
47.4776354
11
102.6591302
21
46.8740354
0
LINE
8
DEFAULT_255_2_778
10
102.6591302
20
46.8740354
11
102.6591302
21
46.8624354
0
LINE
8
DEFAULT_255_2_778
10
102.6591302
20
46.8624354
11
102.4581302
21
46.8624354
0
LINE
8
DEFAULT_255_2_778
10
102.4581302
20
46.8624354
11
102.4578302
21
46.8621354
0
LINE
8
DEFAULT_255_2_778
10
101.8151302
20
48.1297354
11
101.8151302
21
47.5908354
0
LINE
8
DEFAULT_255_2_778
10
101.8151302
20
47.5908354
11
102.1032302
21
47.5908354
0
LINE
8
DEFAULT_255_2_778
10
102.1025302
20
48.1297354
11
101.8154302
21
48.1297354
0
LINE
8
DEFAULT_255_2_778
10
101.8154302
20
48.1297354
11
101.8151302
21
48.1297354
0
ARC
8
DEFAULT_255_2_778
10
103.4060495
20
47.3028863
40
0.4542633
50
316.1394905
51
1.808822
0
ARC
8
DEFAULT_255_2_778
10
103.3889374
20
47.3370099
40
0.4904118
50
275.885572
51
314.6500682
0
ARC
8
DEFAULT_255_2_778
10
103.3404367
20
47.5787779
40
0.7362523
50
274.1163559
51
277.7110605
0
ARC
8
DEFAULT_255_2_778
10
103.3302215
20
47.4584178
40
0.6159378
50
247.2059155
51
271.2433394
0
ARC
8
DEFAULT_255_2_778
10
103.2720585
20
47.2998042
40
0.4472464
50
227.7918087
51
246.202845
0
ARC
8
DEFAULT_255_2_778
10
103.2707925
20
47.2892877
40
0.438649
50
181.0539547
51
226.9914081
0
ARC
8
DEFAULT_255_2_778
10
103.5055479
20
47.3206553
40
0.674484
50
180.4697944
51
183.3519129
0
ARC
8
DEFAULT_255_2_778
10
103.3738508
20
47.3074043
40
0.35752
50
177.8326686
51
210.5144063
0
ARC
8
DEFAULT_255_2_778
10
103.2887213
20
47.2672355
40
0.2639257
50
212.3859471
51
224.812066
0
ARC
8
DEFAULT_255_2_778
10
103.3128927
20
47.3043199
40
0.3073499
50
226.5409701
51
268.6060964
0
ARC
8
DEFAULT_255_2_778
10
103.3430509
20
47.5263662
40
0.5306416
50
265.9329951
51
270.0578316
0
ARC
8
DEFAULT_255_2_778
10
103.3566134
20
47.3753697
40
0.3798682
50
268.0347597
51
296.9715583
0
ARC
8
DEFAULT_255_2_778
10
103.4059491
20
47.2610891
40
0.2557625
50
298.733122
51
315.1541747
0
ARC
8
DEFAULT_255_2_778
10
103.3620233
20
47.2917851
40
0.3086906
50
316.8644193
51
359.1121907
0
ARC
8
DEFAULT_255_2_778
10
103.1472984
20
47.3195288
40
0.5243882
50
356.443779
51
0.0432889
0
LINE
8
DEFAULT_255_2_778
10
103.6716865
20
48.284025
11
103.8600865
21
48.284025
0
LINE
8
DEFAULT_255_2_778
10
103.8600865
20
48.284025
11
103.8600865
21
47.317225
0
LINE
8
DEFAULT_255_2_778
10
103.3932865
20
46.844425
11
103.3435865
21
46.842625
0
LINE
8
DEFAULT_255_2_778
10
102.8310865
20
47.315125
11
102.8310865
21
48.283725
0
LINE
8
DEFAULT_255_2_778
10
102.8310865
20
48.283725
11
103.0165865
21
48.283725
0
LINE
8
DEFAULT_255_2_778
10
103.0165865
20
48.283725
11
103.0165865
21
47.320925
0
LINE
8
DEFAULT_255_2_778
10
103.6716865
20
47.319925
11
103.6716865
21
48.283725
0
LINE
8
DEFAULT_255_2_778
10
103.6716865
20
48.283725
11
103.6716865
21
48.284025
0
LINE
8
DEFAULT_255_2_778
10
105.2487865
20
48.284025
11
105.2487865
21
46.862125
0
LINE
8
DEFAULT_255_2_778
10
105.2487865
20
46.862125
11
105.0604865
21
46.862125
0
LINE
8
DEFAULT_255_2_778
10
105.0604865
20
46.862125
11
104.3447865
21
47.957825
0
LINE
8
DEFAULT_255_2_778
10
104.3447865
20
47.957825
11
104.3447865
21
46.862125
0
LINE
8
DEFAULT_255_2_778
10
104.3447865
20
46.862125
11
104.1563865
21
46.862125
0
LINE
8
DEFAULT_255_2_778
10
104.1563865
20
46.862125
11
104.1563865
21
48.284025
0
LINE
8
DEFAULT_255_2_778
10
104.1563865
20
48.284025
11
104.3447865
21
48.284025
0
LINE
8
DEFAULT_255_2_778
10
104.3447865
20
48.284025
11
105.0625865
21
47.183325
0
LINE
8
DEFAULT_255_2_778
10
105.0625865
20
47.183325
11
105.0625865
21
48.284025
0
LINE
8
DEFAULT_255_2_778
10
105.0625865
20
48.284025
11
105.2490865
21
48.284025
0
LINE
8
DEFAULT_255_2_778
10
105.2490865
20
48.284025
11
105.2487865
21
48.284025
0
ARC
8
DEFAULT_255_2_778
10
101.1107835
20
42.5201716
40
0.7638649
50
75.3585316
51
90.9324946
0
ARC
8
DEFAULT_255_2_778
10
101.2065895
20
42.8852707
40
0.3864052
50
51.6098775
51
75.4191541
0
ARC
8
DEFAULT_255_2_778
10
101.232318
20
42.9377655
40
0.3295168
50
1.2428278
51
49.4473718
0
ARC
8
DEFAULT_255_2_778
10
101.0072349
20
42.9055511
40
0.5559176
50
359.9468449
51
4.0602029
0
ARC
8
DEFAULT_255_2_778
10
101.2747953
20
42.9004724
40
0.2883929
50
323.4766914
51
0.9065838
0
ARC
8
DEFAULT_255_2_778
10
101.2148164
20
42.9488835
40
0.3654188
50
292.109527
51
322.9737671
0
ARC
8
DEFAULT_255_2_778
10
101.2698984
20
42.2913828
40
0.329438
50
36.6072561
51
75.5055699
0
ARC
8
DEFAULT_255_2_778
10
101.2496181
20
42.2813122
40
0.351746
50
358.5539006
51
35.954116
0
ARC
8
DEFAULT_255_2_778
10
101.2056479
20
42.257036
40
0.3959038
50
322.4176258
51
2.2291858
0
ARC
8
DEFAULT_255_2_778
10
101.238431
20
42.2428632
40
0.3613862
50
311.3645131
51
321.0281883
0
ARC
8
DEFAULT_255_2_778
10
101.1915218
20
42.3121435
40
0.4445082
50
277.0343659
51
310.0009965
0
ARC
8
DEFAULT_255_2_778
10
101.1302902
20
42.6396293
40
0.7773024
50
269.7318318
51
278.5578058
0
ARC
8
DEFAULT_255_2_778
10
101.1442677
20
42.3286986
40
0.3137587
50
267.5128626
51
303.221856
0
ARC
8
DEFAULT_255_2_778
10
101.1798302
20
42.2587945
40
0.235951
50
305.2983078
51
311.8498085
0
ARC
8
DEFAULT_255_2_778
10
101.1746951
20
42.2576627
40
0.2385781
50
312.9498409
51
2.9726908
0
ARC
8
DEFAULT_255_2_778
10
101.1350266
20
42.2831641
40
0.2782354
50
357.2954586
51
31.9284771
0
ARC
8
DEFAULT_255_2_778
10
101.1876973
20
42.2939366
40
0.2286034
50
36.6237772
51
84.879506
0
ARC
8
DEFAULT_255_2_778
10
101.13615
20
42.0372537
40
0.4896887
50
81.5509122
51
90.303968
0
ARC
8
DEFAULT_255_2_778
10
101.1179509
20
42.9804125
40
0.303491
50
267.3940489
51
304.8868544
0
ARC
8
DEFAULT_255_2_778
10
101.150601
20
42.9187724
40
0.2344074
50
306.9583982
51
309.8970126
0
ARC
8
DEFAULT_255_2_778
10
101.1691393
20
42.8971102
40
0.2058978
50
309.8056723
51
2.4287082
0
ARC
8
DEFAULT_255_2_778
10
101.1515069
20
42.9190634
40
0.2237366
50
356.6105276
51
36.4475306
0
ARC
8
DEFAULT_255_2_778
10
101.2100275
20
42.9520829
40
0.1572603
50
39.4384051
51
52.136081
0
ARC
8
DEFAULT_255_2_778
10
101.1483604
20
42.8517048
40
0.2746609
50
54.8336261
51
85.9560453
0
ARC
8
DEFAULT_255_2_778
10
101.1008715
20
42.5328378
40
0.5966021
50
83.5656061
51
90.2227479
0
LINE
8
DEFAULT_255_2_778
10
101.1266521
20
41.8620354
11
100.6334521
21
41.8620354
0
LINE
8
DEFAULT_255_2_778
10
100.6334521
20
41.8620354
11
100.6334521
21
43.2839354
0
LINE
8
DEFAULT_255_2_778
10
100.6334521
20
43.2839354
11
101.0983521
21
43.2839354
0
LINE
8
DEFAULT_255_2_778
10
101.1266521
20
41.8623354
11
101.1266521
21
41.8620354
0
LINE
8
DEFAULT_255_2_778
10
101.1335521
20
42.5269354
11
100.8210521
21
42.5269354
0
LINE
8
DEFAULT_255_2_778
10
100.8210521
20
42.5269354
11
100.8210521
21
42.0152354
0
LINE
8
DEFAULT_255_2_778
10
100.8210521
20
42.0152354
11
101.1306521
21
42.0152354
0
LINE
8
DEFAULT_255_2_778
10
101.1335521
20
42.5269354
11
101.1335521
21
42.5269354
0
LINE
8
DEFAULT_255_2_778
10
100.8210521
20
43.1294354
11
100.8210521
21
42.6772354
0
LINE
8
DEFAULT_255_2_778
10
100.8210521
20
42.6772354
11
101.1041521
21
42.6772354
0
LINE
8
DEFAULT_255_2_778
10
101.0985521
20
43.1294354
11
100.8213521
21
43.1294354
0
LINE
8
DEFAULT_255_2_778
10
100.8213521
20
43.1294354
11
100.8210521
21
43.1294354
0
LINE
8
DEFAULT_255_2_778
10
102.7995521
20
41.8620354
11
102.6638521
21
42.2332354
0
LINE
8
DEFAULT_255_2_778
10
102.6638521
20
42.2332354
11
102.0682521
21
42.2332354
0
LINE
8
DEFAULT_255_2_778
10
102.0682521
20
42.2332354
11
101.9344521
21
41.8620354
0
LINE
8
DEFAULT_255_2_778
10
101.9344521
20
41.8620354
11
101.7409521
21
41.8620354
0
LINE
8
DEFAULT_255_2_778
10
101.7409521
20
41.8620354
11
102.2839521
21
43.2839354
0
LINE
8
DEFAULT_255_2_778
10
102.2839521
20
43.2839354
11
102.4479521
21
43.2839354
0
LINE
8
DEFAULT_255_2_778
10
102.4479521
20
43.2839354
11
102.9919521
21
41.8620354
0
LINE
8
DEFAULT_255_2_778
10
102.9919521
20
41.8620354
11
102.7995521
21
41.8620354
0
LINE
8
DEFAULT_255_2_778
10
102.7995521
20
41.8620354
11
102.7995521
21
41.8620354
0
LINE
8
DEFAULT_255_2_778
10
102.3659521
20
43.0524354
11
102.1246521
21
42.3875354
0
LINE
8
DEFAULT_255_2_778
10
102.1246521
20
42.3875354
11
102.6080521
21
42.3875354
0
LINE
8
DEFAULT_255_2_778
10
102.6080521
20
42.3875354
11
102.3659521
21
43.0524354
0
LINE
8
DEFAULT_255_2_778
10
102.3659521
20
43.0524354
11
102.3659521
21
43.0524354
0
LINE
8
DEFAULT_255_2_778
10
104.0396958
20
43.2839354
11
104.0396958
21
43.1296354
0
LINE
8
DEFAULT_255_2_778
10
104.0396958
20
43.1296354
11
103.5827958
21
43.1296354
0
LINE
8
DEFAULT_255_2_778
10
103.5827958
20
43.1296354
11
103.5827958
21
41.8620354
0
LINE
8
DEFAULT_255_2_778
10
103.5827958
20
41.8620354
11
103.3961958
21
41.8620354
0
LINE
8
DEFAULT_255_2_778
10
103.3961958
20
41.8620354
11
103.3961958
21
43.1296354
0
LINE
8
DEFAULT_255_2_778
10
103.3961958
20
43.1296354
11
102.9400958
21
43.1296354
0
LINE
8
DEFAULT_255_2_778
10
102.9400958
20
43.1296354
11
102.9400958
21
43.2839354
0
LINE
8
DEFAULT_255_2_778
10
102.9400958
20
43.2839354
11
104.0396958
21
43.2839354
0
LINE
8
DEFAULT_255_2_778
10
104.0396958
20
43.2839354
11
104.0396958
21
43.2839354
0
LINE
8
DEFAULT_255_2_778
10
105.2485958
20
43.2839354
11
105.2485958
21
43.1296354
0
LINE
8
DEFAULT_255_2_778
10
105.2485958
20
43.1296354
11
104.7916958
21
43.1296354
0
LINE
8
DEFAULT_255_2_778
10
104.7916958
20
43.1296354
11
104.7916958
21
41.8620354
0
LINE
8
DEFAULT_255_2_778
10
104.7916958
20
41.8620354
11
104.6050958
21
41.8620354
0
LINE
8
DEFAULT_255_2_778
10
104.6050958
20
41.8620354
11
104.6050958
21
43.1296354
0
LINE
8
DEFAULT_255_2_778
10
104.6050958
20
43.1296354
11
104.1489958
21
43.1296354
0
LINE
8
DEFAULT_255_2_778
10
104.1489958
20
43.1296354
11
104.1489958
21
43.2839354
0
LINE
8
DEFAULT_255_2_778
10
104.1489958
20
43.2839354
11
105.2485958
21
43.2839354
0
LINE
8
DEFAULT_255_2_778
10
105.2485958
20
43.2839354
11
105.2485958
21
43.2839354
0
LINE
8
DEFAULT_255_2_778
10
100.0468563
20
37.6723354
11
100.0468563
21
37.5192354
0
LINE
8
DEFAULT_255_2_778
10
100.0468563
20
37.5192354
11
99.4306563
21
37.5192354
0
LINE
8
DEFAULT_255_2_778
10
99.4306563
20
37.5192354
11
99.4306563
21
37.0151354
0
LINE
8
DEFAULT_255_2_778
10
99.4306563
20
37.0151354
11
100.1463563
21
37.0151354
0
LINE
8
DEFAULT_255_2_778
10
100.1463563
20
37.0151354
11
100.1463563
21
36.8619354
0
LINE
8
DEFAULT_255_2_778
10
100.1463563
20
36.8619354
11
99.2430563
21
36.8619354
0
LINE
8
DEFAULT_255_2_778
10
99.2430563
20
36.8619354
11
99.2430563
21
38.2838354
0
LINE
8
DEFAULT_255_2_778
10
99.2430563
20
38.2838354
11
100.1365563
21
38.2838354
0
LINE
8
DEFAULT_255_2_778
10
100.1365563
20
38.2838354
11
100.1365563
21
38.1295354
0
LINE
8
DEFAULT_255_2_778
10
100.1365563
20
38.1295354
11
99.4306563
21
38.1295354
0
LINE
8
DEFAULT_255_2_778
10
99.4306563
20
38.1295354
11
99.4306563
21
37.6726354
0
LINE
8
DEFAULT_255_2_778
10
99.4306563
20
37.6726354
11
100.0468563
21
37.6726354
0
LINE
8
DEFAULT_255_2_778
10
100.0468563
20
37.6726354
11
100.0468563
21
37.6723354
0
ARC
8
DEFAULT_255_2_778
10
100.8626475
20
37.5475306
40
0.7364146
50
73.3893949
51
90.9895029
0
ARC
8
DEFAULT_255_2_778
10
100.9501056
20
37.8488065
40
0.4227161
50
50.4043617
51
73.075476
0
ARC
8
DEFAULT_255_2_778
10
100.9735419
20
37.8933277
40
0.3736148
50
2.0894269
51
48.8219722
0
ARC
8
DEFAULT_255_2_778
10
100.7303346
20
37.8569714
40
0.618596
50
359.9318316
51
4.6341351
0
ARC
8
DEFAULT_255_2_778
10
100.9656682
20
37.8480856
40
0.3833487
50
324.3643093
51
1.2181745
0
ARC
8
DEFAULT_255_2_778
10
100.9353058
20
37.8793711
40
0.4263234
50
289.4735926
51
323.3244514
0
ARC
8
DEFAULT_255_2_778
10
100.8691105
20
37.934283
40
0.3439198
50
267.7203204
51
302.1159713
0
ARC
8
DEFAULT_255_2_778
10
100.9058471
20
37.859473
40
0.2611709
50
304.0154036
51
311.1570587
0
ARC
8
DEFAULT_255_2_778
10
100.9161438
20
37.8460608
40
0.2442984
50
311.4090681
51
2.386967
0
ARC
8
DEFAULT_255_2_778
10
100.8947776
20
37.8707689
40
0.2658501
50
356.8661982
51
40.5218924
0
ARC
8
DEFAULT_255_2_778
10
100.9336429
20
37.893206
40
0.2218798
50
42.6389435
51
48.1316194
0
ARC
8
DEFAULT_255_2_778
10
100.8910842
20
37.8289668
40
0.2983316
50
50.2796758
51
86.7636805
0
ARC
8
DEFAULT_255_2_778
10
100.8532697
20
37.5779685
40
0.5515687
50
84.3130502
51
89.8482796
0
LINE
8
DEFAULT_255_2_778
10
101.2100302
20
36.8619354
11
100.9015302
21
37.4371354
0
LINE
8
DEFAULT_255_2_778
10
100.9015302
20
37.4371354
11
100.5676302
21
37.4371354
0
LINE
8
DEFAULT_255_2_778
10
100.5676302
20
37.4371354
11
100.5676302
21
36.8619354
0
LINE
8
DEFAULT_255_2_778
10
100.5676302
20
36.8619354
11
100.3792302
21
36.8619354
0
LINE
8
DEFAULT_255_2_778
10
100.3792302
20
36.8619354
11
100.3792302
21
38.2838354
0
LINE
8
DEFAULT_255_2_778
10
100.3792302
20
38.2838354
11
100.8499302
21
38.2838354
0
LINE
8
DEFAULT_255_2_778
10
101.0774302
20
37.4774354
11
101.4113302
21
36.8738354
0
LINE
8
DEFAULT_255_2_778
10
101.4113302
20
36.8738354
11
101.4113302
21
36.8622354
0
LINE
8
DEFAULT_255_2_778
10
101.4113302
20
36.8622354
11
101.2103302
21
36.8622354
0
LINE
8
DEFAULT_255_2_778
10
101.2103302
20
36.8622354
11
101.2100302
21
36.8619354
0
LINE
8
DEFAULT_255_2_778
10
100.5673302
20
38.1295354
11
100.5673302
21
37.5906354
0
LINE
8
DEFAULT_255_2_778
10
100.5673302
20
37.5906354
11
100.8554302
21
37.5906354
0
LINE
8
DEFAULT_255_2_778
10
100.8547302
20
38.1295354
11
100.5676302
21
38.1295354
0
LINE
8
DEFAULT_255_2_778
10
100.5676302
20
38.1295354
11
100.5673302
21
38.1295354
0
ARC
8
DEFAULT_255_2_778
10
102.0940475
20
37.5475306
40
0.7364146
50
73.3893949
51
90.9895029
0
ARC
8
DEFAULT_255_2_778
10
102.1815056
20
37.8488065
40
0.4227161
50
50.4043617
51
73.075476
0
ARC
8
DEFAULT_255_2_778
10
102.2049419
20
37.8933277
40
0.3736148
50
2.0894269
51
48.8219722
0
ARC
8
DEFAULT_255_2_778
10
101.9617346
20
37.8569714
40
0.618596
50
359.9318316
51
4.6341351
0
ARC
8
DEFAULT_255_2_778
10
102.1970682
20
37.8480856
40
0.3833487
50
324.3643093
51
1.2181745
0
ARC
8
DEFAULT_255_2_778
10
102.1667058
20
37.8793711
40
0.4263234
50
289.4735926
51
323.3244514
0
ARC
8
DEFAULT_255_2_778
10
102.1005105
20
37.934283
40
0.3439198
50
267.7203204
51
302.1159713
0
ARC
8
DEFAULT_255_2_778
10
102.1372471
20
37.859473
40
0.2611709
50
304.0154036
51
311.1570587
0
ARC
8
DEFAULT_255_2_778
10
102.1475438
20
37.8460608
40
0.2442984
50
311.4090681
51
2.386967
0
ARC
8
DEFAULT_255_2_778
10
102.1261776
20
37.8707689
40
0.2658501
50
356.8661982
51
40.5218924
0
ARC
8
DEFAULT_255_2_778
10
102.1650429
20
37.893206
40
0.2218798
50
42.6389435
51
48.1316194
0
ARC
8
DEFAULT_255_2_778
10
102.1224842
20
37.8289668
40
0.2983316
50
50.2796758
51
86.7636805
0
ARC
8
DEFAULT_255_2_778
10
102.0846697
20
37.5779685
40
0.5515687
50
84.3130502
51
89.8482796
0
LINE
8
DEFAULT_255_2_778
10
102.4414302
20
36.8619354
11
102.1329302
21
37.4371354
0
LINE
8
DEFAULT_255_2_778
10
102.1329302
20
37.4371354
11
101.7990302
21
37.4371354
0
LINE
8
DEFAULT_255_2_778
10
101.7990302
20
37.4371354
11
101.7990302
21
36.8619354
0
LINE
8
DEFAULT_255_2_778
10
101.7990302
20
36.8619354
11
101.6106302
21
36.8619354
0
LINE
8
DEFAULT_255_2_778
10
101.6106302
20
36.8619354
11
101.6106302
21
38.2838354
0
LINE
8
DEFAULT_255_2_778
10
101.6106302
20
38.2838354
11
102.0813302
21
38.2838354
0
LINE
8
DEFAULT_255_2_778
10
102.3088302
20
37.4774354
11
102.6427302
21
36.8738354
0
LINE
8
DEFAULT_255_2_778
10
102.6427302
20
36.8738354
11
102.6427302
21
36.8622354
0
LINE
8
DEFAULT_255_2_778
10
102.6427302
20
36.8622354
11
102.4417302
21
36.8622354
0
LINE
8
DEFAULT_255_2_778
10
102.4417302
20
36.8622354
11
102.4414302
21
36.8619354
0
LINE
8
DEFAULT_255_2_778
10
101.7987302
20
38.1295354
11
101.7987302
21
37.5906354
0
LINE
8
DEFAULT_255_2_778
10
101.7987302
20
37.5906354
11
102.0868302
21
37.5906354
0
LINE
8
DEFAULT_255_2_778
10
102.0861302
20
38.1295354
11
101.7990302
21
38.1295354
0
LINE
8
DEFAULT_255_2_778
10
101.7990302
20
38.1295354
11
101.7987302
21
38.1295354
0
ARC
8
DEFAULT_255_2_778
10
102.9969133
20
37.5139101
40
0.9396784
50
342.5881704
51
0.78686
0
ARC
8
DEFAULT_255_2_778
10
103.2201563
20
37.4532843
40
0.7085799
50
335.7284779
51
341.8640555
0
ARC
8
DEFAULT_255_2_778
10
103.3754974
20
37.370464
40
0.5330527
50
303.1390909
51
336.9802403
0
ARC
8
DEFAULT_255_2_778
10
103.3782521
20
37.3902597
40
0.5482798
50
268.7303139
51
301.7670292
0
ARC
8
DEFAULT_255_2_778
10
103.3562225
20
37.3858807
40
0.5438559
50
238.0099758
51
271.0409898
0
ARC
8
DEFAULT_255_2_778
10
103.3644681
20
37.3826416
40
0.5455465
50
204.1073442
51
237.0952451
0
ARC
8
DEFAULT_255_2_778
10
103.6184743
20
37.4993708
40
0.8250812
50
181.5850092
51
204.3017853
0
ARC
8
DEFAULT_255_2_778
10
103.9084994
20
37.5252716
40
1.115855
50
180.5882925
51
182.5025549
0
ARC
8
DEFAULT_255_2_778
10
103.6938445
20
37.6299607
40
0.9012417
50
160.3124237
51
180.8548574
0
ARC
8
DEFAULT_255_2_778
10
103.5166268
20
37.6830713
40
0.7165566
50
155.6324301
51
159.5370249
0
ARC
8
DEFAULT_255_2_778
10
103.3629513
20
37.7656975
40
0.5426097
50
123.2422864
51
156.8849473
0
ARC
8
DEFAULT_255_2_778
10
103.3544812
20
37.7623939
40
0.5408027
50
89.0017319
51
122.2998532
0
ARC
8
DEFAULT_255_2_778
10
103.3749327
20
37.751602
40
0.5516228
50
58.2379319
51
91.1456946
0
ARC
8
DEFAULT_255_2_778
10
103.3766839
20
37.7750602
40
0.5308669
50
22.8743778
51
57.06582
0
ARC
8
DEFAULT_255_2_778
10
103.0863308
20
37.6447816
40
0.8490577
50
1.6571595
51
23.3582071
0
ARC
8
DEFAULT_255_2_778
10
102.7619514
20
37.6169322
40
1.1742518
50
359.9796207
51
2.5577783
0
ARC
8
DEFAULT_255_2_778
10
102.8639434
20
37.6313866
40
0.8861475
50
359.1935652
51
13.775174
0
ARC
8
DEFAULT_255_2_778
10
103.2696651
20
37.7317601
40
0.468196
50
13.6675985
51
36.0084274
0
ARC
8
DEFAULT_255_2_778
10
103.3791965
20
37.8074274
40
0.3351227
50
36.5528728
51
92.5642688
0
ARC
8
DEFAULT_255_2_778
10
103.3516725
20
37.8108225
40
0.3316289
50
87.8345606
51
143.7292798
0
ARC
8
DEFAULT_255_2_778
10
103.5049292
20
37.7041395
40
0.5183238
50
144.2439368
51
171.4556736
0
ARC
8
DEFAULT_255_2_778
10
103.9028966
20
37.6257019
40
0.9237124
50
170.3118496
51
179.6332455
0
ARC
8
DEFAULT_255_2_778
10
103.8080662
20
37.5144876
40
0.8289592
50
179.1272163
51
195.4683921
0
ARC
8
DEFAULT_255_2_778
10
103.4761569
20
37.4251188
40
0.4852431
50
195.7506909
51
215.7210678
0
ARC
8
DEFAULT_255_2_778
10
103.3535795
20
37.3338248
40
0.332435
50
215.2810166
51
272.1072447
0
ARC
8
DEFAULT_255_2_778
10
103.3817088
20
37.332799
40
0.3315661
50
267.250393
51
323.1420414
0
ARC
8
DEFAULT_255_2_778
10
103.2411825
20
37.42436
40
0.4990481
50
324.4087384
51
350.5637386
0
ARC
8
DEFAULT_255_2_778
10
102.7957569
20
37.5161169
40
0.9536505
50
349.5130139
51
359.8316319
0
LINE
8
DEFAULT_255_2_778
10
103.9365031
20
37.6168146
11
103.9365031
21
37.5268146
0
LINE
8
DEFAULT_255_2_778
10
102.7927031
20
37.5138146
11
102.7927031
21
37.6165146
0
LINE
8
DEFAULT_255_2_778
10
103.9362031
20
37.6165146
11
103.9365031
21
37.6168146
0
LINE
8
DEFAULT_255_2_778
10
103.7500031
20
37.5133146
11
103.7500031
21
37.6189146
0
LINE
8
DEFAULT_255_2_778
10
102.9792031
20
37.6316146
11
102.9792031
21
37.5271146
0
LINE
8
DEFAULT_255_2_778
10
103.7494031
20
37.5133146
11
103.7500031
21
37.5133146
0
ARC
8
DEFAULT_255_2_778
10
104.7004475
20
37.5475306
40
0.7364146
50
73.3893949
51
90.9895029
0
ARC
8
DEFAULT_255_2_778
10
104.7879056
20
37.8488065
40
0.4227161
50
50.4043617
51
73.075476
0
ARC
8
DEFAULT_255_2_778
10
104.8113419
20
37.8933277
40
0.3736148
50
2.0894269
51
48.8219722
0
ARC
8
DEFAULT_255_2_778
10
104.5681346
20
37.8569714
40
0.618596
50
359.9318316
51
4.6341351
0
ARC
8
DEFAULT_255_2_778
10
104.8034682
20
37.8480856
40
0.3833487
50
324.3643093
51
1.2181745
0
ARC
8
DEFAULT_255_2_778
10
104.7731058
20
37.8793711
40
0.4263234
50
289.4735926
51
323.3244514
0
ARC
8
DEFAULT_255_2_778
10
104.7069105
20
37.934283
40
0.3439198
50
267.7203204
51
302.1159713
0
ARC
8
DEFAULT_255_2_778
10
104.7436471
20
37.859473
40
0.2611709
50
304.0154036
51
311.1570587
0
ARC
8
DEFAULT_255_2_778
10
104.7539438
20
37.8460608
40
0.2442984
50
311.4090681
51
2.386967
0
ARC
8
DEFAULT_255_2_778
10
104.7325776
20
37.8707689
40
0.2658501
50
356.8661982
51
40.5218924
0
ARC
8
DEFAULT_255_2_778
10
104.7714429
20
37.893206
40
0.2218798
50
42.6389435
51
48.1316194
0
ARC
8
DEFAULT_255_2_778
10
104.7288842
20
37.8289668
40
0.2983316
50
50.2796758
51
86.7636805
0
ARC
8
DEFAULT_255_2_778
10
104.6910697
20
37.5779685
40
0.5515687
50
84.3130502
51
89.8482796
0
LINE
8
DEFAULT_255_2_778
10
105.0478302
20
36.8619354
11
104.7393302
21
37.4371354
0
LINE
8
DEFAULT_255_2_778
10
104.7393302
20
37.4371354
11
104.4054302
21
37.4371354
0
LINE
8
DEFAULT_255_2_778
10
104.4054302
20
37.4371354
11
104.4054302
21
36.8619354
0
LINE
8
DEFAULT_255_2_778
10
104.4054302
20
36.8619354
11
104.2170302
21
36.8619354
0
LINE
8
DEFAULT_255_2_778
10
104.2170302
20
36.8619354
11
104.2170302
21
38.2838354
0
LINE
8
DEFAULT_255_2_778
10
104.2170302
20
38.2838354
11
104.6877302
21
38.2838354
0
LINE
8
DEFAULT_255_2_778
10
104.9152302
20
37.4774354
11
105.2491302
21
36.8738354
0
LINE
8
DEFAULT_255_2_778
10
105.2491302
20
36.8738354
11
105.2491302
21
36.8622354
0
LINE
8
DEFAULT_255_2_778
10
105.2491302
20
36.8622354
11
105.0481302
21
36.8622354
0
LINE
8
DEFAULT_255_2_778
10
105.0481302
20
36.8622354
11
105.0478302
21
36.8619354
0
LINE
8
DEFAULT_255_2_778
10
104.4051302
20
38.1295354
11
104.4051302
21
37.5906354
0
LINE
8
DEFAULT_255_2_778
10
104.4051302
20
37.5906354
11
104.6932302
21
37.5906354
0
LINE
8
DEFAULT_255_2_778
10
104.6925302
20
38.1295354
11
104.4054302
21
38.1295354
0
LINE
8
DEFAULT_255_2_778
10
104.4054302
20
38.1295354
11
104.4051302
21
38.1295354
0
ARC
8
DEFAULT_255_2_778
10
91.7193881
20
65.0152473
40
0.3968821
50
3.6649638
51
9.8170583
0
ARC
8
DEFAULT_255_2_778
10
26.1963383
20
24.4940403
40
0.3726608
50
183.4650497
51
190.0174282
0
ARC
8
DEFAULT_255_2_778
10
128.3198729
20
67.0563447
40
0.2001722
50
90.0613019
51
134.9477895
0
ARC
8
DEFAULT_255_2_778
10
128.3201885
20
67.0565789
40
0.2002299
50
135.0590516
51
179.9605353
0
ARC
8
DEFAULT_255_2_778
10
31.7198711
20
67.0568292
40
0.1999877
50
359.967808
51
90.032192
0
ARC
8
DEFAULT_255_2_778
10
128.2192425
20
87.7565023
40
2.0007163
50
0.0061434
51
18.1915884
0
ARC
8
DEFAULT_255_2_778
10
129.6195618
20
89.2563199
40
0.5000969
50
359.9996485
51
90.0003515
0
LINE
8
DEFAULT_255_2_778
10
26.3196587
20
65.4864168
11
91.6196587
21
65.4864168
0
LINE
8
DEFAULT_255_2_778
10
91.6196587
20
65.4864168
11
91.7169587
21
65.4764168
0
LINE
8
DEFAULT_255_2_778
10
91.7169587
20
65.4764168
11
91.8162587
21
65.4457168
0
LINE
8
DEFAULT_255_2_778
10
91.8162587
20
65.4457168
11
91.9103587
21
65.3928168
0
LINE
8
DEFAULT_255_2_778
10
91.9103587
20
65.3928168
11
91.9733587
21
65.3393168
0
LINE
8
DEFAULT_255_2_778
10
91.9733587
20
65.3393168
11
92.0268587
21
65.2764168
0
LINE
8
DEFAULT_255_2_778
10
92.0268587
20
65.2764168
11
92.0559587
21
65.2303168
0
LINE
8
DEFAULT_255_2_778
10
92.0559587
20
65.2303168
11
92.0797587
21
65.1822168
0
LINE
8
DEFAULT_255_2_778
10
92.0797587
20
65.1822168
11
92.1045587
21
65.1107168
0
LINE
8
DEFAULT_255_2_778
10
92.1045587
20
65.1107168
11
92.1104587
21
65.0829168
0
LINE
8
DEFAULT_255_2_778
10
92.1154587
20
65.0406168
11
92.1199587
21
64.9856168
0
LINE
8
DEFAULT_255_2_778
10
92.1199587
20
64.9856168
11
92.1154587
21
65.0007168
0
LINE
8
DEFAULT_255_2_778
10
92.1154587
20
65.0007168
11
92.1045587
21
65.0200168
0
LINE
8
DEFAULT_255_2_778
10
92.1045587
20
65.0200168
11
92.0686587
21
65.0464168
0
LINE
8
DEFAULT_255_2_778
10
92.0686587
20
65.0464168
11
91.9323587
21
65.0933168
0
LINE
8
DEFAULT_255_2_778
10
91.9323587
20
65.0933168
11
91.6196587
21
65.1240168
0
LINE
8
DEFAULT_255_2_778
10
91.6196587
20
65.1240168
11
26.3196587
21
65.1240168
0
LINE
8
DEFAULT_255_2_778
10
92.1199587
20
57.3558168
11
92.2199587
21
57.3558168
0
LINE
8
DEFAULT_255_2_778
10
92.2199587
20
60.3559168
11
92.1199587
21
60.3559168
0
LINE
8
DEFAULT_255_2_778
10
92.2199587
20
61.2560168
11
92.1199587
21
61.2560168
0
LINE
8
DEFAULT_255_2_778
10
92.1199587
20
60.8560168
11
92.2199587
21
60.8560168
0
LINE
8
DEFAULT_255_2_778
10
92.2199587
20
56.8560168
11
92.1199587
21
56.8560168
0
LINE
8
DEFAULT_255_2_778
10
92.1199587
20
29.1560168
11
92.2199587
21
29.1560168
0
LINE
8
DEFAULT_255_2_778
10
92.2199587
20
32.1561168
11
92.1199587
21
32.1561168
0
LINE
8
DEFAULT_255_2_778
10
91.6196587
20
32.7564168
11
92.1196587
21
32.7614168
0
LINE
8
DEFAULT_255_2_778
10
91.6196587
20
56.7565168
11
92.1175587
21
56.7515168
0
LINE
8
DEFAULT_255_2_778
10
26.3196587
20
56.7565168
11
25.8206587
21
56.7515168
0
LINE
8
DEFAULT_255_2_778
10
26.3196587
20
32.7564168
11
25.8206587
21
32.7604168
0
LINE
8
DEFAULT_255_2_778
10
26.3196587
20
23.8564168
11
25.9746587
21
23.9974168
0
LINE
8
DEFAULT_255_2_778
10
25.9746587
20
23.9974168
11
25.8576587
21
24.1673168
0
LINE
8
DEFAULT_255_2_778
10
25.8576587
20
24.1673168
11
25.8357587
21
24.2313168
0
LINE
8
DEFAULT_255_2_778
10
25.8357587
20
24.2313168
11
25.8238587
21
24.2924168
0
LINE
8
DEFAULT_255_2_778
10
25.8238587
20
24.2924168
11
25.8198587
21
24.3435168
0
LINE
8
DEFAULT_255_2_778
10
25.8198587
20
24.3435168
11
25.8198587
21
24.3564168
0
LINE
8
DEFAULT_255_2_778
10
25.8198587
20
24.3564168
11
25.8201587
21
64.9861168
0
LINE
8
DEFAULT_255_2_778
10
25.8201587
20
64.9861168
11
25.8246587
21
65.0012168
0
LINE
8
DEFAULT_255_2_778
10
25.8246587
20
65.0012168
11
25.8354587
21
65.0205168
0
LINE
8
DEFAULT_255_2_778
10
25.8354587
20
65.0205168
11
25.8979587
21
65.0599168
0
LINE
8
DEFAULT_255_2_778
10
25.8979587
20
65.0599168
11
26.1238587
21
65.1128168
0
LINE
8
DEFAULT_255_2_778
10
26.1238587
20
65.1128168
11
26.3201587
21
65.1240168
0
LINE
8
DEFAULT_255_2_778
10
92.1201587
20
40.2560168
11
92.2202587
21
40.2560168
0
LINE
8
DEFAULT_255_2_778
10
92.2202587
20
40.2560168
11
92.1201587
21
40.3560168
0
LINE
8
DEFAULT_255_2_778
10
30.5199587
20
65.6563168
11
91.6198587
21
65.6563168
0
LINE
8
DEFAULT_255_2_778
10
91.6198587
20
65.6563168
11
91.6198587
21
23.8564168
0
LINE
8
DEFAULT_255_2_778
10
91.6198587
20
23.8564168
11
30.3876587
21
23.8564168
0
LINE
8
DEFAULT_255_2_778
10
30.5199587
20
23.8564168
11
26.3199587
21
23.8564168
0
LINE
8
DEFAULT_255_2_778
10
26.3199587
20
23.8564168
11
26.3199587
21
65.6563168
0
LINE
8
DEFAULT_255_2_778
10
26.3199587
20
65.6563168
11
30.5341587
21
65.6563168
0
LINE
8
DEFAULT_255_2_778
10
91.6196587
20
23.8566168
11
91.7145587
21
23.8656168
0
LINE
8
DEFAULT_255_2_778
10
91.7145587
20
23.8656168
11
91.9786587
21
24.0106168
0
LINE
8
DEFAULT_255_2_778
10
91.9786587
20
24.0106168
11
92.0847587
21
24.1736168
0
LINE
8
DEFAULT_255_2_778
10
92.0847587
20
24.1736168
11
92.1096587
21
24.2556168
0
LINE
8
DEFAULT_255_2_778
10
92.1096587
20
24.2556168
11
92.1175587
21
24.3056168
0
LINE
8
DEFAULT_255_2_778
10
92.1175587
20
24.3056168
11
92.1199587
21
24.3564168
0
LINE
8
DEFAULT_255_2_778
10
92.1199587
20
24.3564168
11
92.1199587
21
24.5266168
0
LINE
8
DEFAULT_255_2_778
10
92.1199587
20
24.5266168
11
92.1175587
21
24.4787168
0
LINE
8
DEFAULT_255_2_778
10
92.1175587
20
24.4787168
11
92.1146587
21
24.4541168
0
LINE
8
DEFAULT_255_2_778
10
92.1146587
20
24.4541168
11
92.1104587
21
24.4295168
0
LINE
8
DEFAULT_255_2_778
10
92.1104587
20
24.4295168
11
92.0979587
21
24.3797168
0
LINE
8
DEFAULT_255_2_778
10
92.0979587
20
24.3797168
11
92.0799587
21
24.3302168
0
LINE
8
DEFAULT_255_2_778
10
92.0799587
20
24.3302168
11
92.0561587
21
24.2821168
0
LINE
8
DEFAULT_255_2_778
10
92.0561587
20
24.2821168
11
92.0270587
21
24.2360168
0
LINE
8
DEFAULT_255_2_778
10
92.0270587
20
24.2360168
11
91.9736587
21
24.1731168
0
LINE
8
DEFAULT_255_2_778
10
91.9736587
20
24.1731168
11
91.9106587
21
24.1196168
0
LINE
8
DEFAULT_255_2_778
10
91.9106587
20
24.1196168
11
91.8164587
21
24.0667168
0
LINE
8
DEFAULT_255_2_778
10
91.8164587
20
24.0667168
11
91.7450587
21
24.0418168
0
LINE
8
DEFAULT_255_2_778
10
91.7450587
20
24.0418168
11
91.6201587
21
24.0265168
0
LINE
8
DEFAULT_255_2_778
10
91.6201587
20
24.0265168
11
26.3199587
21
24.0265168
0
LINE
8
DEFAULT_255_2_778
10
26.3199587
20
24.0265168
11
26.2228587
21
24.0360168
0
LINE
8
DEFAULT_255_2_778
10
26.2228587
20
24.0360168
11
26.1235587
21
24.0667168
0
LINE
8
DEFAULT_255_2_778
10
26.1235587
20
24.0667168
11
26.0293587
21
24.1196168
0
LINE
8
DEFAULT_255_2_778
10
26.0293587
20
24.1196168
11
25.9664587
21
24.1731168
0
LINE
8
DEFAULT_255_2_778
10
25.9664587
20
24.1731168
11
25.9129587
21
24.2360168
0
LINE
8
DEFAULT_255_2_778
10
25.9129587
20
24.2360168
11
25.8838587
21
24.2821168
0
LINE
8
DEFAULT_255_2_778
10
25.8838587
20
24.2821168
11
25.8600587
21
24.3302168
0
LINE
8
DEFAULT_255_2_778
10
25.8600587
20
24.3302168
11
25.8351587
21
24.4014168
0
LINE
8
DEFAULT_255_2_778
10
25.8351587
20
24.4014168
11
25.8293587
21
24.4292168
0
LINE
8
DEFAULT_255_2_778
10
25.8243587
20
24.4715168
11
25.8198587
21
24.5266168
0
LINE
8
DEFAULT_255_2_778
10
25.8198587
20
24.5266168
11
25.8243587
21
24.5115168
0
LINE
8
DEFAULT_255_2_778
10
25.8243587
20
24.5115168
11
25.8351587
21
24.4922168
0
LINE
8
DEFAULT_255_2_778
10
25.8351587
20
24.4922168
11
25.8711587
21
24.4657168
0
LINE
8
DEFAULT_255_2_778
10
25.8711587
20
24.4657168
11
26.0074587
21
24.4189168
0
LINE
8
DEFAULT_255_2_778
10
26.0074587
20
24.4189168
11
26.3199587
21
24.3887168
0
LINE
8
DEFAULT_255_2_778
10
26.3199587
20
24.3887168
11
91.6198587
21
24.3887168
0
LINE
8
DEFAULT_255_2_778
10
91.6198587
20
24.3887168
11
91.8162587
21
24.3998168
0
LINE
8
DEFAULT_255_2_778
10
91.8162587
20
24.3998168
11
92.0421587
21
24.4530168
0
LINE
8
DEFAULT_255_2_778
10
92.0421587
20
24.4530168
11
92.1045587
21
24.4924168
0
LINE
8
DEFAULT_255_2_778
10
92.1045587
20
24.4924168
11
92.1154587
21
24.5117168
0
LINE
8
DEFAULT_255_2_778
10
92.1154587
20
24.5117168
11
92.1199587
21
24.5268168
0
LINE
8
DEFAULT_255_2_778
10
92.1199587
20
24.5268168
11
92.1196587
21
65.1568168
0
LINE
8
DEFAULT_255_2_778
10
92.1196587
20
65.1568168
11
92.1175587
21
65.2078168
0
LINE
8
DEFAULT_255_2_778
10
92.1175587
20
65.2078168
11
92.1006587
21
65.2928168
0
LINE
8
DEFAULT_255_2_778
10
92.1006587
20
65.2928168
11
92.0797587
21
65.3507168
0
LINE
8
DEFAULT_255_2_778
10
92.0797587
20
65.3507168
11
91.9566587
21
65.5237168
0
LINE
8
DEFAULT_255_2_778
10
91.9566587
20
65.5237168
11
91.6196587
21
65.6568168
0
LINE
8
DEFAULT_255_2_778
10
26.3199587
20
65.4864168
11
26.1950587
21
65.4711168
0
LINE
8
DEFAULT_255_2_778
10
26.1950587
20
65.4711168
11
26.0992587
21
65.4351168
0
LINE
8
DEFAULT_255_2_778
10
26.0992587
20
65.4351168
11
26.0077587
21
65.3766168
0
LINE
8
DEFAULT_255_2_778
10
26.0077587
20
65.3766168
11
25.9476587
21
65.3197168
0
LINE
8
DEFAULT_255_2_778
10
25.9476587
20
65.3197168
11
25.8979587
21
65.2541168
0
LINE
8
DEFAULT_255_2_778
10
25.8979587
20
65.2541168
11
25.8714587
21
65.2070168
0
LINE
8
DEFAULT_255_2_778
10
25.8714587
20
65.2070168
11
25.8505587
21
65.1581168
0
LINE
8
DEFAULT_255_2_778
10
25.8505587
20
65.1581168
11
25.8351587
21
65.1083168
0
LINE
8
DEFAULT_255_2_778
10
25.8351587
20
65.1083168
11
25.8296587
21
65.0835168
0
LINE
8
DEFAULT_255_2_778
10
25.8296587
20
65.0835168
11
25.8254587
21
65.0589168
0
LINE
8
DEFAULT_255_2_778
10
25.8254587
20
65.0589168
11
25.8224587
21
65.0343168
0
LINE
8
DEFAULT_255_2_778
10
25.8224587
20
65.0343168
11
25.8201587
21
64.9864168
0
LINE
8
DEFAULT_255_2_778
10
25.8201587
20
64.9864168
11
25.8201587
21
65.1565168
0
LINE
8
DEFAULT_255_2_778
10
25.8201587
20
65.1565168
11
25.8219587
21
65.2007168
0
LINE
8
DEFAULT_255_2_778
10
25.8219587
20
65.2007168
11
25.8288587
21
65.2507168
0
LINE
8
DEFAULT_255_2_778
10
25.8288587
20
65.2507168
11
25.8508587
21
65.3277168
0
LINE
8
DEFAULT_255_2_778
10
25.8508587
20
65.3277168
11
25.8907587
21
65.4108168
0
LINE
8
DEFAULT_255_2_778
10
25.8907587
20
65.4108168
11
26.0058587
21
65.5439168
0
LINE
8
DEFAULT_255_2_778
10
26.0058587
20
65.5439168
11
26.2878587
21
65.6558168
0
LINE
8
DEFAULT_255_2_778
10
26.2878587
20
65.6558168
11
26.3199587
21
65.6568168
0
LINE
8
DEFAULT_255_2_778
10
128.2196587
20
67.2210168
11
128.2196587
21
66.7564168
0
LINE
8
DEFAULT_255_2_778
10
129.6195587
20
67.7780168
11
130.1196587
21
67.2570168
0
LINE
8
DEFAULT_255_2_778
10
130.1196587
20
89.2563168
11
130.1196587
21
67.2568168
0
LINE
8
DEFAULT_255_2_778
10
130.1196587
20
67.2568168
11
29.9195587
21
67.2562168
0
LINE
8
DEFAULT_255_2_778
10
29.9195587
20
67.2562168
11
30.4193587
21
67.7775168
0
LINE
8
DEFAULT_255_2_778
10
130.2196587
20
66.7562168
11
130.2196587
21
87.7564168
0
LINE
8
DEFAULT_255_2_778
10
130.2196587
20
87.7564168
11
130.1196587
21
87.7564168
0
LINE
8
DEFAULT_255_2_778
10
130.1196587
20
87.8189168
11
129.6195587
21
87.8395168
0
LINE
8
DEFAULT_255_2_778
10
129.6195587
20
87.8395168
11
30.4196587
21
87.8395168
0
LINE
8
DEFAULT_255_2_778
10
30.4196587
20
87.8395168
11
30.4196587
21
89.7564168
0
LINE
8
DEFAULT_255_2_778
10
30.4196587
20
89.7564168
11
129.6195587
21
89.7564168
0
LINE
8
DEFAULT_255_2_778
10
129.6195587
20
89.7564168
11
129.6195587
21
67.7772168
0
LINE
8
DEFAULT_255_2_778
10
129.6195587
20
67.7772168
11
30.4196587
21
67.7772168
0
LINE
8
DEFAULT_255_2_778
10
30.4196587
20
67.7772168
11
30.4196587
21
87.8395168
0
LINE
8
DEFAULT_255_2_778
10
30.4196587
20
87.8395168
11
29.9195587
21
87.8186168
0
LINE
8
DEFAULT_255_2_778
10
31.8198003
20
24.0246337
11
31.8198003
21
22.2844337
0
LINE
8
DEFAULT_255_2_778
10
128.2199003
20
23.7563337
11
128.2199003
21
22.7562337
0
LINE
8
DEFAULT_255_2_778
10
118.2200003
20
25.2562337
11
118.3201003
21
25.2562337
0
LINE
8
DEFAULT_255_2_778
10
125.1201003
20
23.7563337
11
125.1201003
21
22.2564337
0
LINE
8
DEFAULT_255_2_778
10
123.7202003
20
23.7563337
11
123.7202003
21
22.2564337
0
LINE
8
DEFAULT_255_2_778
10
31.9201003
20
22.4577337
11
31.9201003
21
24.0249337
0
LINE
8
DEFAULT_255_2_778
10
128.1202003
20
22.4577337
11
128.1202003
21
23.7563337
0
LINE
8
DEFAULT_255_2_778
10
118.2203003
20
23.7563337
11
118.2203003
21
24.1135337
0
LINE
8
DEFAULT_255_2_778
10
35.3202003
20
22.2561337
11
35.3202003
21
23.7561337
0
LINE
8
DEFAULT_255_2_778
10
35.3202003
20
23.7561337
11
92.2202003
21
23.7561337
0
LINE
8
DEFAULT_255_2_778
10
34.9202003
20
24.0243337
11
34.9202003
21
22.2561337
0
LINE
8
DEFAULT_255_2_778
10
31.8198003
20
67.2282337
11
31.8198003
21
65.4880337
0
LINE
8
DEFAULT_255_2_778
10
118.2197003
20
65.3991337
11
118.2197003
21
65.7563337
0
LINE
8
DEFAULT_255_2_778
10
118.2197003
20
65.7563337
11
118.3198003
21
65.7563337
0
LINE
8
DEFAULT_255_2_778
10
128.2197003
20
65.7563337
11
128.2197003
21
66.7561337
0
LINE
8
DEFAULT_255_2_778
10
128.2197003
20
66.7561337
11
129.7196003
21
66.7561337
0
LINE
8
DEFAULT_255_2_778
10
129.7196003
20
66.7561337
11
129.7196003
21
67.2562337
0
LINE
8
DEFAULT_255_2_778
10
125.1196003
20
65.7563337
11
125.1196003
21
67.2562337
0
LINE
8
DEFAULT_255_2_778
10
123.7196003
20
67.2562337
11
123.7196003
21
65.7563337
0
LINE
8
DEFAULT_255_2_778
10
118.3195003
20
65.3986337
11
129.7196003
21
65.3986337
0
LINE
8
DEFAULT_255_2_778
10
118.2197003
20
65.7563337
11
92.2197003
21
65.7563337
0
LINE
8
DEFAULT_255_2_778
10
92.2197003
20
65.7563337
11
92.2197003
21
65.3991337
0
LINE
8
DEFAULT_255_2_778
10
92.2197003
20
65.7563337
11
35.3197003
21
65.7563337
0
LINE
8
DEFAULT_255_2_778
10
35.3197003
20
65.7563337
11
35.3197003
21
67.2562337
0
LINE
8
DEFAULT_255_2_778
10
34.9197003
20
65.4880337
11
34.9197003
21
67.2562337
0
LINE
8
DEFAULT_255_2_778
10
128.1197003
20
67.0549337
11
128.1197003
21
65.7560337
0
LINE
8
DEFAULT_255_2_778
10
31.9195003
20
67.0549337
11
31.9195003
21
65.4877337
0
ARC
8
DEFAULT_255_2_778
10
125.2244344
20
4.7599766
40
2.2545229
50
158.2401607
51
180.0899995
0
ARC
8
DEFAULT_255_2_778
10
125.2148805
20
4.7610578
40
2.2452504
50
100.46182
51
158.1754031
0
ARC
8
DEFAULT_255_2_778
10
125.2187229
20
4.7266688
40
2.2797667
50
89.9700565
51
100.3998477
0
ARC
8
DEFAULT_255_2_778
10
125.2234493
20
4.7520512
40
2.2543868
50
68.2386051
51
90.0898428
0
ARC
8
DEFAULT_255_2_778
10
125.2244313
20
4.7613733
40
2.2453665
50
10.4545112
51
68.173688
0
ARC
8
DEFAULT_255_2_778
10
125.1904024
20
4.7576239
40
2.2795122
50
359.9701221
51
10.3919857
0
ARC
8
DEFAULT_255_2_778
10
125.2152776
20
4.752893
40
2.2546395
50
338.2398393
51
0.0900165
0
ARC
8
DEFAULT_255_2_778
10
125.2248489
20
4.7517958
40
2.245345
50
280.4547019
51
338.1752974
0
ARC
8
DEFAULT_255_2_778
10
125.221103
20
4.7858472
40
2.2795122
50
269.9701222
51
280.3919859
0
ARC
8
DEFAULT_255_2_778
10
125.2163642
20
4.760838
40
2.2545056
50
248.2390887
51
270.090221
0
ARC
8
DEFAULT_255_2_778
10
125.2153451
20
4.7513233
40
2.2452927
50
190.4596873
51
248.173229
0
ARC
8
DEFAULT_255_2_778
10
125.2499103
20
4.7552425
40
2.2799962
50
179.9700271
51
190.3988469
0
ARC
8
DEFAULT_255_2_778
10
31.7199267
20
22.4564228
40
0.1999877
50
269.967808
51
0.032192
0
ARC
8
DEFAULT_255_2_778
10
128.3210229
20
22.4565939
40
0.2010086
50
180.0167412
51
224.80856
0
ARC
8
DEFAULT_255_2_778
10
128.3194742
20
22.4557522
40
0.1993171
50
224.9506381
51
270.0690304
0
ARC
8
DEFAULT_255_2_778
10
30.4197112
20
0.2566321
40
0.5000969
50
179.9996485
51
270.0003515
0
ARC
8
DEFAULT_255_2_778
10
129.6199174
20
0.2566321
40
0.5000969
50
269.9996485
51
0.0003515
0
ARC
8
DEFAULT_255_2_778
10
128.2163842
20
1.757217
40
2.0036302
50
341.8217303
51
359.9805028
0
ARC
8
DEFAULT_255_2_778
10
1.2182953
20
0.7531568
40
0.9963226
50
228.3541388
51
270.0816049
0
ARC
8
DEFAULT_255_2_778
10
1.2172758
20
0.7558189
40
0.9976376
50
181.732932
51
228.4994886
0
ARC
8
DEFAULT_255_2_778
10
1.2383735
20
0.7569255
40
1.0187592
50
179.9994554
51
181.7592612
0
LINE
8
DEFAULT_255_2_778
10
0.2199143
20
88.7563352
11
0.2199142
21
88.7567123
0
ARC
8
DEFAULT_255_2_778
10
1.2195898
20
88.756556
40
0.9996755
50
134.9917417
51
179.9910402
0
ARC
8
DEFAULT_255_2_778
10
1.219823
20
88.7566884
40
0.9997468
50
89.9890368
51
135.0065606
0
LINE
8
DEFAULT_255_2_778
10
122.9699143
20
4.7564352
11
122.9699143
21
4.7564352
0
LINE
8
DEFAULT_255_2_778
10
130.1194143
20
22.2556352
11
129.6194143
21
21.7357352
0
LINE
8
DEFAULT_255_2_778
10
30.4194143
20
21.7357352
11
29.9193143
21
22.2556352
0
LINE
8
DEFAULT_255_2_778
10
29.9196143
20
1.6941352
11
29.9196143
21
22.2559352
0
LINE
8
DEFAULT_255_2_778
10
29.9196143
20
22.2559352
11
130.1197143
21
22.2564352
0
LINE
8
DEFAULT_255_2_778
10
130.1197143
20
22.2564352
11
130.1197143
21
1.6941352
0
LINE
8
DEFAULT_255_2_778
10
30.4197143
20
-0.2434648
11
129.6196143
21
-0.2434648
0
LINE
8
DEFAULT_255_2_778
10
129.6196143
20
-0.2434648
11
129.6196143
21
1.6732352
0
LINE
8
DEFAULT_255_2_778
10
129.6196143
20
1.6732352
11
30.4199143
21
1.6732352
0
LINE
8
DEFAULT_255_2_778
10
130.1200143
20
0.2566352
11
130.1200143
21
1.6941352
0
LINE
8
DEFAULT_255_2_778
10
130.1200143
20
1.6941352
11
129.6199143
21
1.6732352
0
LINE
8
DEFAULT_255_2_778
10
130.1200143
20
9.2564352
11
130.2200143
21
9.2564352
0
LINE
8
DEFAULT_255_2_778
10
130.2200143
20
9.2564352
11
130.2200143
21
1.7565352
0
LINE
8
DEFAULT_255_2_778
10
6.7199143
20
0.2569352
11
6.7220143
21
-0.0780648
0
LINE
8
DEFAULT_255_2_778
10
6.7220143
20
-0.0780648
11
6.7389143
21
-0.1719648
0
LINE
8
DEFAULT_255_2_778
10
6.7389143
20
-0.1719648
11
6.7540143
21
-0.2209648
0
LINE
8
DEFAULT_255_2_778
10
6.7540143
20
-0.2209648
11
6.7770143
21
-0.2428648
0
LINE
8
DEFAULT_255_2_778
10
30.4202143
20
1.6734352
11
29.9201143
21
1.6943352
0
LINE
8
DEFAULT_255_2_778
10
29.9201143
20
1.6943352
11
29.9201143
21
0.2569352
0
LINE
8
DEFAULT_255_2_778
10
29.9201143
20
0.2569352
11
1.1075143
21
0.2569352
0
LINE
8
DEFAULT_255_2_778
10
1.1075143
20
0.2569352
11
1.1097143
21
0.1598352
0
LINE
8
DEFAULT_255_2_778
10
1.1097143
20
0.1598352
11
1.1126143
21
0.1100352
0
LINE
8
DEFAULT_255_2_778
10
1.1126143
20
0.1100352
11
1.1165143
21
0.0605352
0
LINE
8
DEFAULT_255_2_778
10
1.1165143
20
0.0605352
11
1.1218143
21
0.0124352
0
LINE
8
DEFAULT_255_2_778
10
1.1218143
20
0.0124352
11
1.1284143
21
-0.0336648
0
LINE
8
DEFAULT_255_2_778
10
1.1284143
20
-0.0336648
11
1.1403143
21
-0.0965648
0
LINE
8
DEFAULT_255_2_778
10
1.1403143
20
-0.0965648
11
1.1544143
21
-0.1500648
0
LINE
8
DEFAULT_255_2_778
10
1.1544143
20
-0.1500648
11
1.1755143
21
-0.2029648
0
LINE
8
DEFAULT_255_2_778
10
1.1755143
20
-0.2029648
11
1.1917143
21
-0.2278648
0
LINE
8
DEFAULT_255_2_778
10
1.1917143
20
-0.2278648
11
1.2197143
21
-0.2431648
0
LINE
8
DEFAULT_255_2_778
10
1.1075143
20
89.2566352
11
0.6636143
21
88.9865352
0
LINE
8
DEFAULT_255_2_778
10
0.6636143
20
88.9865352
11
0.6215143
21
88.8764352
0
LINE
8
DEFAULT_255_2_778
10
0.6215143
20
88.8764352
11
0.6104143
21
88.8163352
0
LINE
8
DEFAULT_255_2_778
10
0.6104143
20
88.8163352
11
0.6075143
21
88.7703352
0
LINE
8
DEFAULT_255_2_778
10
0.6075143
20
88.7703352
11
0.6075143
21
88.7563352
0
LINE
8
DEFAULT_255_2_778
10
0.6075143
20
0.7564352
11
0.6096143
21
0.7064352
0
LINE
8
DEFAULT_255_2_778
10
0.6096143
20
0.7064352
11
0.6175143
21
0.6545352
0
LINE
8
DEFAULT_255_2_778
10
0.6175143
20
0.6545352
11
0.6427143
21
0.5707352
0
LINE
8
DEFAULT_255_2_778
10
0.6427143
20
0.5707352
11
0.7416143
21
0.4145352
0
LINE
8
DEFAULT_255_2_778
10
0.7416143
20
0.4145352
11
1.1075143
21
0.2566352
0
LINE
8
DEFAULT_255_2_778
10
0.2199143
20
62.1564352
11
0.2199143
21
88.7563352
0
LINE
8
DEFAULT_255_2_778
10
1.2200143
20
89.7564352
11
7.8928143
21
89.7564352
0
LINE
8
DEFAULT_255_2_778
10
0.6075143
20
62.1564352
11
0.2199143
21
62.1564352
0
LINE
8
DEFAULT_255_2_778
10
0.2199143
20
62.1564352
11
0.2199143
21
21.6564352
0
LINE
8
DEFAULT_255_2_778
10
0.2199143
20
21.6564352
11
0.6075143
21
21.6564352
0
LINE
8
DEFAULT_255_2_778
10
0.6075143
20
21.6564352
11
0.6075143
21
12.8563352
0
LINE
8
DEFAULT_255_2_778
10
0.6075143
20
12.8563352
11
0.2199143
21
12.8563352
0
LINE
8
DEFAULT_255_2_778
10
0.2199143
20
12.8563352
11
0.2199143
21
21.6564352
0
LINE
8
DEFAULT_255_2_778
10
0.6075143
20
12.8563352
11
0.6075143
21
0.7564352
0
LINE
8
DEFAULT_255_2_778
10
0.6075143
20
0.7564352
11
0.2199143
21
0.7564352
0
LINE
8
DEFAULT_255_2_778
10
0.2199143
20
0.7564352
11
0.2199143
21
12.8563352
0
LINE
8
DEFAULT_255_2_778
10
17.9200143
20
41.9467352
11
17.9200143
21
52.8563352
0
LINE
8
DEFAULT_255_2_778
10
17.9200143
20
52.8563352
11
6.7199143
21
52.8563352
0
LINE
8
DEFAULT_255_2_778
10
6.7199143
20
52.8563352
11
6.7199143
21
89.2563352
0
ARC
8
DEFAULT_255_2_778
10
8.4355133
20
14.6950553
40
0.5194442
50
69.7561446
51
91.4027862
0
ARC
8
DEFAULT_255_2_778
10
8.5041875
20
14.8976698
40
0.3056357
50
50.1587364
51
68.6920496
0
ARC
8
DEFAULT_255_2_778
10
8.508712
20
14.9168262
40
0.2881627
50
358.7538712
51
48.4090087
0
ARC
8
DEFAULT_255_2_778
10
8.3106187
20
14.8937524
40
0.4864782
50
359.9871987
51
1.9798623
0
ARC
8
DEFAULT_255_2_778
10
8.5102078
20
14.8873785
40
0.2869576
50
324.3532917
51
1.2510609
0
ARC
8
DEFAULT_255_2_778
10
8.4869784
20
14.9106015
40
0.319413
50
289.5183293
51
323.3964604
0
ARC
8
DEFAULT_255_2_778
10
8.440379
20
14.937629
40
0.2438258
50
266.971476
51
309.112994
0
ARC
8
DEFAULT_255_2_778
10
8.4731702
20
14.8858221
40
0.1830855
50
311.3792121
51
2.3858502
0
ARC
8
DEFAULT_255_2_778
10
8.4638298
20
14.9058977
40
0.1926701
50
356.2938915
51
46.2362981
0
ARC
8
DEFAULT_255_2_778
10
8.4477794
20
14.8602898
40
0.2375495
50
51.0549636
51
90.1580998
0
ARC
8
DEFAULT_255_2_778
10
8.4237181
20
14.6528693
40
0.4455843
50
86.9889719
51
89.6169693
0
ARC
8
DEFAULT_255_2_778
10
9.4047895
20
14.4785763
40
0.3402778
50
316.0805424
51
1.8133253
0
ARC
8
DEFAULT_255_2_778
10
9.3856726
20
14.5136287
40
0.3785518
50
272.4889224
51
314.2657226
0
ARC
8
DEFAULT_255_2_778
10
9.3531009
20
14.7115288
40
0.5781759
50
274.1156844
51
274.8626817
0
ARC
8
DEFAULT_255_2_778
10
9.3435925
20
14.5691086
40
0.4360803
50
241.3554674
51
271.800899
0
ARC
8
DEFAULT_255_2_778
10
9.3013911
20
14.4734159
40
0.3319866
50
227.7319446
51
239.8302872
0
ARC
8
DEFAULT_255_2_778
10
9.3086253
20
14.4723461
40
0.3361155
50
178.2376379
51
226.6966729
0
ARC
8
DEFAULT_255_2_778
10
9.4960855
20
14.492546
40
0.5235096
50
180.5146456
51
181.0795201
0
ARC
8
DEFAULT_255_2_778
10
9.3576299
20
14.4779654
40
0.2463529
50
176.6540414
51
221.2956542
0
ARC
8
DEFAULT_255_2_778
10
9.3172731
20
14.4530409
40
0.1997402
50
223.5644219
51
224.7811488
0
ARC
8
DEFAULT_255_2_778
10
9.3392495
20
14.4893211
40
0.2411139
50
227.2227046
51
272.3747917
0
ARC
8
DEFAULT_255_2_778
10
9.3569568
20
14.6700608
40
0.4217171
50
268.9515629
51
270.0054561
0
ARC
8
DEFAULT_255_2_778
10
9.3704359
20
14.5100187
40
0.2620198
50
267.0600033
51
305.0293182
0
ARC
8
DEFAULT_255_2_778
10
9.404753
20
14.4465324
40
0.1905182
50
307.5382734
51
315.1393402
0
ARC
8
DEFAULT_255_2_778
10
9.3617267
20
14.475536
40
0.2416734
50
317.4613705
51
2.9422229
0
ARC
8
DEFAULT_255_2_778
10
9.1884929
20
14.4915145
40
0.414604
50
359.5061369
51
0.0040462
0
LINE
8
DEFAULT_255_2_778
10
8.6931969
20
14.1478437
11
8.4615969
21
14.5793437
0
LINE
8
DEFAULT_255_2_778
10
8.4615969
20
14.5793437
11
8.2110969
21
14.5793437
0
LINE
8
DEFAULT_255_2_778
10
8.2110969
20
14.5793437
11
8.2110969
21
14.1478437
0
LINE
8
DEFAULT_255_2_778
10
8.2110969
20
14.1478437
11
8.0697969
21
14.1478437
0
LINE
8
DEFAULT_255_2_778
10
8.0697969
20
14.1478437
11
8.0697969
21
15.2143437
0
LINE
8
DEFAULT_255_2_778
10
8.0697969
20
15.2143437
11
8.4227969
21
15.2143437
0
LINE
8
DEFAULT_255_2_778
10
8.5936969
20
14.6095437
11
8.8441969
21
14.1568437
0
LINE
8
DEFAULT_255_2_778
10
8.8441969
20
14.1568437
11
8.8441969
21
14.1480437
0
LINE
8
DEFAULT_255_2_778
10
8.8441969
20
14.1480437
11
8.6933969
21
14.1480437
0
LINE
8
DEFAULT_255_2_778
10
8.6933969
20
14.1480437
11
8.6931969
21
14.1478437
0
LINE
8
DEFAULT_255_2_778
10
8.2113969
20
15.0984437
11
8.2113969
21
14.6941437
0
LINE
8
DEFAULT_255_2_778
10
8.2113969
20
14.6941437
11
8.4274969
21
14.6941437
0
LINE
8
DEFAULT_255_2_778
10
8.4266969
20
15.0984437
11
8.2113969
21
15.0984437
0
LINE
8
DEFAULT_255_2_778
10
8.2113969
20
15.0984437
11
8.2113969
21
15.0984437
0
LINE
8
DEFAULT_255_2_778
10
9.6032969
20
15.2143437
11
9.7448969
21
15.2143437
0
LINE
8
DEFAULT_255_2_778
10
9.7448969
20
15.2143437
11
9.7448969
21
14.4893437
0
LINE
8
DEFAULT_255_2_778
10
9.3945969
20
14.1348437
11
9.3572969
21
14.1332437
0
LINE
8
DEFAULT_255_2_778
10
8.9725969
20
14.4878437
11
8.9725969
21
15.2143437
0
LINE
8
DEFAULT_255_2_778
10
8.9725969
20
15.2143437
11
9.1116969
21
15.2143437
0
LINE
8
DEFAULT_255_2_778
10
9.1116969
20
15.2143437
11
9.1116969
21
14.4923437
0
LINE
8
DEFAULT_255_2_778
10
9.6030969
20
14.4915437
11
9.6030969
21
15.2143437
0
LINE
8
DEFAULT_255_2_778
10
9.6030969
20
15.2143437
11
9.6032969
21
15.2143437
0
LINE
8
DEFAULT_255_2_778
10
10.7864969
20
15.2143437
11
10.7864969
21
14.1478437
0
LINE
8
DEFAULT_255_2_778
10
10.7864969
20
14.1478437
11
10.6452969
21
14.1478437
0
LINE
8
DEFAULT_255_2_778
10
10.6452969
20
14.1478437
11
10.1083969
21
14.9696437
0
LINE
8
DEFAULT_255_2_778
10
10.1083969
20
14.9696437
11
10.1083969
21
14.1478437
0
LINE
8
DEFAULT_255_2_778
10
10.1083969
20
14.1478437
11
9.9670969
21
14.1478437
0
LINE
8
DEFAULT_255_2_778
10
9.9670969
20
14.1478437
11
9.9670969
21
15.2143437
0
LINE
8
DEFAULT_255_2_778
10
9.9670969
20
15.2143437
11
10.1083969
21
15.2143437
0
LINE
8
DEFAULT_255_2_778
10
10.1083969
20
15.2143437
11
10.6467969
21
14.3888437
0
LINE
8
DEFAULT_255_2_778
10
10.6467969
20
14.3888437
11
10.6467969
21
15.2143437
0
LINE
8
DEFAULT_255_2_778
10
10.6467969
20
15.2143437
11
10.7867969
21
15.2143437
0
LINE
8
DEFAULT_255_2_778
10
10.7867969
20
15.2143437
11
10.7864969
21
15.2143437
0
ARC
8
DEFAULT_255_2_778
10
8.3359637
20
5.0034971
40
0.9365015
50
243.371128
51
254.6850486
0
ARC
8
DEFAULT_255_2_778
10
8.1052268
20
4.542521
40
0.4210034
50
228.3269548
51
243.3232777
0
ARC
8
DEFAULT_255_2_778
10
7.9873433
20
4.4109742
40
0.2443668
50
179.0438394
51
228.4654171
0
ARC
8
DEFAULT_255_2_778
10
8.0011572
20
4.4188662
40
0.2581749
50
127.5503186
51
180.8464909
0
ARC
8
DEFAULT_255_2_778
10
8.0830463
20
4.3150578
40
0.3903877
50
89.9421683
51
127.7934014
0
ARC
8
DEFAULT_255_2_778
10
8.1056707
20
4.0985618
40
0.6072904
50
89.9868101
51
92.0978256
0
ARC
8
DEFAULT_255_2_778
10
8.1135604
20
4.269317
40
0.4366038
50
64.4582256
51
91.0170815
0
ARC
8
DEFAULT_255_2_778
10
8.1625548
20
4.3702281
40
0.3244305
50
32.8162336
51
64.5812277
0
ARC
8
DEFAULT_255_2_778
10
8.1835305
20
4.3846525
40
0.298986
50
359.6358153
51
32.6716039
0
ARC
8
DEFAULT_255_2_778
10
8.147408
20
4.3927739
40
0.1940615
50
357.0397922
51
46.9786352
0
ARC
8
DEFAULT_255_2_778
10
8.1257856
20
4.3471465
40
0.2426561
50
50.5988804
51
91.3422407
0
ARC
8
DEFAULT_255_2_778
10
8.1064064
20
4.1557089
40
0.4342431
50
88.1927152
51
90.0126568
0
ARC
8
DEFAULT_255_2_778
10
8.0935007
20
4.3190433
40
0.2712115
50
87.2928151
51
120.1082573
0
ARC
8
DEFAULT_255_2_778
10
8.0517736
20
4.407245
40
0.174169
50
122.7896073
51
128.1813503
0
ARC
8
DEFAULT_255_2_778
10
8.0381585
20
4.4242173
40
0.1524119
50
128.1021233
51
182.6569611
0
ARC
8
DEFAULT_255_2_778
10
8.0237426
20
4.417243
40
0.1378322
50
180.037788
51
233.2169155
0
ARC
8
DEFAULT_255_2_778
10
8.1648287
20
4.6049221
40
0.372627
50
233.1220184
51
250.5270118
0
ARC
8
DEFAULT_255_2_778
10
8.3905952
20
5.1720615
40
0.9828753
50
249.1400953
51
254.5832983
0
ARC
8
DEFAULT_255_2_778
10
7.8544545
20
3.201323
40
1.0595016
50
65.7026676
51
74.9643449
0
ARC
8
DEFAULT_255_2_778
10
8.0686893
20
3.689539
40
0.5264089
50
59.3168604
51
65.0900044
0
ARC
8
DEFAULT_255_2_778
10
8.183632
20
3.8676115
40
0.3147134
50
32.6177639
51
60.770278
0
ARC
8
DEFAULT_255_2_778
10
8.2163972
20
3.9024481
40
0.2685918
50
358.6141425
51
30.1252316
0
ARC
8
DEFAULT_255_2_778
10
8.2356489
20
3.8888269
40
0.2493634
50
306.4527229
51
1.6373679
0
ARC
8
DEFAULT_255_2_778
10
8.1498509
20
4.009328
40
0.3972743
50
272.882198
51
306.0798429
0
ARC
8
DEFAULT_255_2_778
10
8.1146583
20
4.271647
40
0.6613957
50
269.917887
51
274.7847299
0
ARC
8
DEFAULT_255_2_778
10
8.1098318
20
4.1130971
40
0.5028599
50
246.4122051
51
270.4419396
0
ARC
8
DEFAULT_255_2_778
10
8.0402113
20
3.970733
40
0.3445996
50
216.1090765
51
247.5488961
0
ARC
8
DEFAULT_255_2_778
10
7.9917527
20
3.93015
40
0.2815653
50
179.2669917
51
215.2484735
0
ARC
8
DEFAULT_255_2_778
10
8.0350586
20
3.9266287
40
0.1836863
50
177.7775166
51
232.371322
0
ARC
8
DEFAULT_255_2_778
10
8.0956304
20
4.019195
40
0.2941031
50
234.0359984
51
271.3639759
0
ARC
8
DEFAULT_255_2_778
10
8.1136588
20
4.2186464
40
0.4935943
50
268.7198186
51
270.0060011
0
ARC
8
DEFAULT_255_2_778
10
8.1260979
20
4.0387061
40
0.3138986
50
267.7383416
51
294.7592425
0
ARC
8
DEFAULT_255_2_778
10
8.1771912
20
3.9105798
40
0.1763017
50
297.1204447
51
307.4154774
0
ARC
8
DEFAULT_255_2_778
10
8.1960123
20
3.888949
40
0.147697
50
306.7148506
51
2.0964582
0
ARC
8
DEFAULT_255_2_778
10
8.198999
20
3.9018074
40
0.1448035
50
357.0487604
51
51.7678946
0
ARC
8
DEFAULT_255_2_778
10
8.0662169
20
3.7058074
40
0.3813144
50
54.3220274
51
69.7123757
0
ARC
8
DEFAULT_255_2_778
10
7.7708819
20
2.975425
40
1.1690307
50
68.547501
51
74.1936518
0
ARC
8
DEFAULT_255_2_778
10
9.6854364
20
4.1103513
40
0.6739034
50
338.6237767
51
1.12241
0
ARC
8
DEFAULT_255_2_778
10
9.8352802
20
4.0619995
40
0.516833
50
335.7774258
51
337.5604522
0
ARC
8
DEFAULT_255_2_778
10
9.9401194
20
4.0052324
40
0.3980297
50
303.035797
51
337.037886
0
ARC
8
DEFAULT_255_2_778
10
9.9406153
20
4.0205038
40
0.4106549
50
268.7156026
51
301.816114
0
ARC
8
DEFAULT_255_2_778
10
9.923988
20
4.0168957
40
0.4070113
50
237.9677284
51
271.0449335
0
ARC
8
DEFAULT_255_2_778
10
9.9309753
20
4.0162081
40
0.4101826
50
204.1560108
51
237.0893385
0
ARC
8
DEFAULT_255_2_778
10
10.1331104
20
4.10692
40
0.6317391
50
179.3622106
51
204.1605837
0
ARC
8
DEFAULT_255_2_778
10
10.1530524
20
4.2037556
40
0.6517677
50
156.5953763
51
181.1256108
0
ARC
8
DEFAULT_255_2_778
10
9.9277515
20
4.3037885
40
0.4052753
50
123.1370324
51
156.9216631
0
ARC
8
DEFAULT_255_2_778
10
9.9230856
20
4.2998172
40
0.4060956
50
89.0088187
51
122.2794709
0
ARC
8
DEFAULT_255_2_778
10
9.9382206
20
4.2922958
40
0.4136358
50
58.2289891
51
91.1234662
0
ARC
8
DEFAULT_255_2_778
10
9.9397101
20
4.3094638
40
0.3983318
50
22.9137095
51
57.1108475
0
ARC
8
DEFAULT_255_2_778
10
9.7013824
20
4.2068557
40
0.6578057
50
359.46126
51
23.0635226
0
ARC
8
DEFAULT_255_2_778
10
9.4474996
20
4.1909896
40
0.9117109
50
359.9976437
51
0.6084104
0
ARC
8
DEFAULT_255_2_778
10
9.593041
20
4.2050055
40
0.6262933
50
358.8606364
51
16.6583575
0
ARC
8
DEFAULT_255_2_778
10
9.872799
20
4.285041
40
0.3353514
50
17.2597882
51
36.3166626
0
ARC
8
DEFAULT_255_2_778
10
9.9411069
20
4.3337224
40
0.2514835
50
36.5968594
51
92.574549
0
ARC
8
DEFAULT_255_2_778
10
9.9203004
20
4.3367423
40
0.2483919
50
87.8058016
51
143.7404906
0
ARC
8
DEFAULT_255_2_778
10
10.0522755
20
4.2483362
40
0.4071531
50
144.6932045
51
174.3416779
0
ARC
8
DEFAULT_255_2_778
10
10.3745265
20
4.1945941
40
0.7334539
50
172.6456871
51
179.4173939
0
ARC
8
DEFAULT_255_2_778
10
10.2279853
20
4.1111069
40
0.587011
50
178.7656616
51
198.731354
0
ARC
8
DEFAULT_255_2_778
10
10.0004667
20
4.0399368
40
0.3487342
50
199.6617702
51
216.0211178
0
ARC
8
DEFAULT_255_2_778
10
9.9219197
20
3.979169
40
0.2494862
50
215.3420424
51
272.1111783
0
ARC
8
DEFAULT_255_2_778
10
9.9431864
20
3.9779662
40
0.2484078
50
267.2135738
51
323.1677383
0
ARC
8
DEFAULT_255_2_778
10
9.8218339
20
4.0545922
40
0.3916393
50
324.8382037
51
352.8875451
0
ARC
8
DEFAULT_255_2_778
10
9.4655246
20
4.1194512
40
0.7535096
50
351.3481337
51
359.5438292
0
ARC
8
DEFAULT_255_2_778
10
10.9761442
20
4.2368622
40
0.4545796
50
65.0434024
51
91.6556164
0
ARC
8
DEFAULT_255_2_778
10
11.0296014
20
4.3704049
40
0.3110506
50
48.0803294
51
63.5917242
0
ARC
8
DEFAULT_255_2_778
10
11.033853
20
4.3774151
40
0.3029976
50
357.718319
51
47.7929381
0
ARC
8
DEFAULT_255_2_778
10
11.0239395
20
4.3506504
40
0.3130164
50
321.455662
51
2.692047
0
ARC
8
DEFAULT_255_2_778
10
11.0639286
20
4.3297632
40
0.2688616
50
310.7724762
51
319.6265584
0
ARC
8
DEFAULT_255_2_778
10
11.0127169
20
4.4059608
40
0.360178
50
275.0359278
51
309.0258277
0
ARC
8
DEFAULT_255_2_778
10
10.963957
20
4.7006091
40
0.6583607
50
269.8044897
51
277.0124963
0
ARC
8
DEFAULT_255_2_778
10
10.9760931
20
4.433598
40
0.2767413
50
267.3525756
51
299.8483025
0
ARC
8
DEFAULT_255_2_778
10
11.0193354
20
4.3422846
40
0.176198
50
302.4314601
51
311.4665335
0
ARC
8
DEFAULT_255_2_778
10
11.0023458
20
4.3511014
40
0.1941772
50
313.5007677
51
3.7354714
0
ARC
8
DEFAULT_255_2_778
10
10.995763
20
4.3727941
40
0.2005514
50
357.4159051
51
45.6283787
0
ARC
8
DEFAULT_255_2_778
10
10.9790805
20
4.3386766
40
0.2369063
50
48.5157718
51
91.9037121
0
LINE
8
DEFAULT_255_2_778
10
8.4825105
20
4.3827521
11
8.3412105
21
4.3827521
0
LINE
8
DEFAULT_255_2_778
10
7.7102105
20
3.9337521
11
7.8515105
21
3.9337521
0
LINE
8
DEFAULT_255_2_778
10
8.0893105
20
4.1002521
11
8.0886105
21
4.1002521
0
LINE
8
DEFAULT_255_2_778
10
9.4012105
20
4.6912521
11
9.4012105
21
4.5756521
0
LINE
8
DEFAULT_255_2_778
10
9.4012105
20
4.5756521
11
9.0583105
21
4.5756521
0
LINE
8
DEFAULT_255_2_778
10
9.0583105
20
4.5756521
11
9.0583105
21
3.6250521
0
LINE
8
DEFAULT_255_2_778
10
9.0583105
20
3.6250521
11
8.9183105
21
3.6250521
0
LINE
8
DEFAULT_255_2_778
10
8.9183105
20
3.6250521
11
8.9183105
21
4.5756521
0
LINE
8
DEFAULT_255_2_778
10
8.9183105
20
4.5756521
11
8.5762105
21
4.5756521
0
LINE
8
DEFAULT_255_2_778
10
8.5762105
20
4.5756521
11
8.5762105
21
4.6912521
0
LINE
8
DEFAULT_255_2_778
10
8.5762105
20
4.6912521
11
9.4009105
21
4.6912521
0
LINE
8
DEFAULT_255_2_778
10
9.4009105
20
4.6912521
11
9.4012105
21
4.6912521
0
LINE
8
DEFAULT_255_2_778
10
10.3592105
20
4.1909521
11
10.3592105
21
4.1235521
0
LINE
8
DEFAULT_255_2_778
10
9.5014105
20
4.1139521
11
9.5014105
21
4.1909521
0
LINE
8
DEFAULT_255_2_778
10
10.3592105
20
4.1909521
11
10.3592105
21
4.1909521
0
LINE
8
DEFAULT_255_2_778
10
10.2192105
20
4.1134521
11
10.2192105
21
4.1925521
0
LINE
8
DEFAULT_255_2_778
10
9.6411105
20
4.2020521
11
9.6411105
21
4.1237521
0
LINE
8
DEFAULT_255_2_778
10
10.2190105
20
4.1134521
11
10.2192105
21
4.1134521
0
LINE
8
DEFAULT_255_2_778
10
10.9619105
20
4.0422521
11
10.7106105
21
4.0422521
0
LINE
8
DEFAULT_255_2_778
10
10.7106105
20
4.0422521
11
10.7106105
21
3.6247521
0
LINE
8
DEFAULT_255_2_778
10
10.7106105
20
3.6247521
11
10.5698105
21
3.6247521
0
LINE
8
DEFAULT_255_2_778
10
10.5698105
20
3.6247521
11
10.5698105
21
4.6912521
0
LINE
8
DEFAULT_255_2_778
10
10.5698105
20
4.6912521
11
10.9630105
21
4.6912521
0
LINE
8
DEFAULT_255_2_778
10
10.9617105
20
4.0422521
11
10.9619105
21
4.0422521
0
LINE
8
DEFAULT_255_2_778
10
10.7106105
20
4.5754521
11
10.7106105
21
4.1571521
0
LINE
8
DEFAULT_255_2_778
10
10.7106105
20
4.1571521
11
10.9633105
21
4.1571521
0
LINE
8
DEFAULT_255_2_778
10
10.9712105
20
4.5754521
11
10.7103105
21
4.5754521
0
LINE
8
DEFAULT_255_2_778
10
10.7103105
20
4.5754521
11
10.7106105
21
4.5754521
0
ARC
8
DEFAULT_255_2_778
10
20.0367894
20
10.26966
40
6.9123304
50
180.0007871
51
180.1225068
0
ARC
8
DEFAULT_255_2_778
10
19.9829694
20
10.2698454
40
6.8585103
50
156.7987853
51
180.0023423
0
ARC
8
DEFAULT_255_2_778
10
19.9837875
20
10.2700392
40
6.8591861
50
134.9968784
51
156.8029654
0
ARC
8
DEFAULT_255_2_778
10
19.9842626
20
10.2704451
40
6.859235
50
111.797574
51
135.0020824
0
ARC
8
DEFAULT_255_2_778
10
19.9847948
20
10.2706897
40
6.8592056
50
89.9977412
51
111.8024604
0
ARC
8
DEFAULT_255_2_778
10
19.9849678
20
10.2114233
40
6.918472
50
89.8806874
51
89.9991925
0
ARC
8
DEFAULT_255_2_778
10
20.0030156
20
10.2239304
40
6.905951
50
78.4567947
51
90.0302069
0
ARC
8
DEFAULT_255_2_778
10
20.0164644
20
10.302403
40
6.8263749
50
62.6525149
51
78.4355921
0
ARC
8
DEFAULT_255_2_778
10
19.9828561
20
10.2395337
40
6.8976571
50
19.7060436
51
62.6444503
0
ARC
8
DEFAULT_255_2_778
10
20.0387834
20
10.2694525
40
6.834923
50
6.1731586
51
19.6280145
0
ARC
8
DEFAULT_255_2_778
10
19.9227037
20
10.2560472
40
6.9517713
50
359.9895589
51
6.1801236
0
ARC
8
DEFAULT_255_2_778
10
19.9685247
20
10.2511395
40
6.905951
50
348.4567947
51
0.0302069
0
ARC
8
DEFAULT_255_2_778
10
20.0469973
20
10.2376907
40
6.8263749
50
332.6525149
51
348.4355921
0
ARC
8
DEFAULT_255_2_778
10
19.9841281
20
10.271299
40
6.8976571
50
289.7060436
51
332.6444503
0
ARC
8
DEFAULT_255_2_778
10
20.0140469
20
10.2153718
40
6.834923
50
276.1731586
51
289.6280145
0
ARC
8
DEFAULT_255_2_778
10
20.0006416
20
10.3314515
40
6.9517713
50
269.9895589
51
276.1801236
0
ARC
8
DEFAULT_255_2_778
10
19.9849678
20
10.2981375
40
6.9184721
50
270.0008075
51
270.1193126
0
ARC
8
DEFAULT_255_2_778
10
19.9848186
20
10.2389469
40
6.8592814
50
246.4503075
51
270.0020602
0
ARC
8
DEFAULT_255_2_778
10
19.984028
20
10.2385346
40
6.8585876
50
224.9952799
51
246.4549864
0
ARC
8
DEFAULT_255_2_778
10
19.9832868
20
10.2393642
40
6.85865
50
201.7992734
51
225.0045583
0
ARC
8
DEFAULT_255_2_778
10
19.982667
20
10.2397231
40
6.8582079
50
179.997715
51
201.8039807
0
ARC
8
DEFAULT_255_2_778
10
20.036036
20
10.2399017
40
6.911577
50
179.8774866
51
179.9992128
0
LINE
8
DEFAULT_255_2_778
10
10.0724748
20
7.0632804
11
10.0724748
21
8.8666804
0
LINE
8
DEFAULT_255_2_778
10
10.0724748
20
8.8666804
11
9.1265748
21
8.8666804
0
LINE
8
DEFAULT_255_2_778
10
9.1265748
20
8.8666804
11
9.1265748
21
7.0632804
0
LINE
8
DEFAULT_255_2_778
10
9.1265748
20
7.0632804
11
10.0724748
21
7.0632804
0
LINE
8
DEFAULT_255_2_778
10
11.0995748
20
6.4546804
11
11.0995748
21
12.4546804
0
LINE
8
DEFAULT_255_2_778
10
11.0995748
20
12.4546804
11
8.0994748
21
12.4546804
0
LINE
8
DEFAULT_255_2_778
10
8.0994748
20
12.4546804
11
8.0994748
21
6.4546804
0
LINE
8
DEFAULT_255_2_778
10
8.0994748
20
6.4546804
11
11.0995748
21
6.4546804
0
LINE
8
DEFAULT_255_2_778
10
11.0995748
20
6.4546804
11
12.2994748
21
5.2547804
0
LINE
8
DEFAULT_255_2_778
10
12.2994748
20
5.2547804
11
6.8995748
21
5.2547804
0
LINE
8
DEFAULT_255_2_778
10
6.8995748
20
5.2547804
11
8.0994748
21
6.4546804
0
LINE
8
DEFAULT_255_2_778
10
12.2994748
20
13.6547804
11
6.8995748
21
13.6547804
0
LINE
8
DEFAULT_255_2_778
10
6.8995748
20
13.6547804
11
8.0994748
21
12.4549804
0
LINE
8
DEFAULT_255_2_778
10
6.9196748
20
5.2563804
11
8.1195748
21
6.4562804
0
LINE
8
DEFAULT_255_2_778
10
8.1195748
20
6.4562804
11
11.1196748
21
6.4562804
0
LINE
8
DEFAULT_255_2_778
10
11.1196748
20
6.4562804
11
12.3195748
21
5.2563804
0
LINE
8
DEFAULT_255_2_778
10
12.3195748
20
5.2563804
11
6.9199748
21
5.2563804
0
LINE
8
DEFAULT_255_2_778
10
6.9199748
20
5.2563804
11
6.9199748
21
13.6563804
0
LINE
8
DEFAULT_255_2_778
10
6.9199748
20
13.6563804
11
8.1198748
21
12.4564804
0
LINE
8
DEFAULT_255_2_778
10
8.1198748
20
12.4564804
11
11.1199748
21
12.4564804
0
LINE
8
DEFAULT_255_2_778
10
11.1199748
20
12.4564804
11
12.3198748
21
13.6563804
0
LINE
8
DEFAULT_255_2_778
10
8.1198748
20
6.4562804
11
8.1198748
21
12.4562804
0
LINE
8
DEFAULT_255_2_778
10
12.2994748
20
5.2545804
11
12.2994748
21
13.6545804
0
LINE
8
DEFAULT_255_2_778
10
12.2994748
20
13.6545804
11
11.0995748
21
12.4546804
0
LINE
8
DEFAULT_255_2_778
10
13.1244748
20
10.2546804
11
13.1244748
21
10.2548804
0
ARC
8
DEFAULT_255_2_778
10
20.0438722
20
10.2704172
40
7.44443
50
180.0000075
51
180.1217236
0
ARC
8
DEFAULT_255_2_778
10
19.9817813
20
10.2707271
40
7.3823392
50
158.1968877
51
180.0024133
0
ARC
8
DEFAULT_255_2_778
10
19.9825126
20
10.2710619
40
7.3828937
50
135.7316318
51
158.201408
0
ARC
8
DEFAULT_255_2_778
10
19.9905515
20
10.2634807
40
7.393942
50
134.9998438
51
135.7330463
0
ARC
8
DEFAULT_255_2_778
10
19.983026
20
10.2718731
40
7.3826866
50
113.3713054
51
135.0046013
0
ARC
8
DEFAULT_255_2_778
10
19.9836528
20
10.2719531
40
7.382862
50
90.7376675
51
113.3760163
0
ARC
8
DEFAULT_255_2_778
10
19.9839359
20
10.2608024
40
7.3940155
50
90.0001164
51
90.7387489
0
ARC
8
DEFAULT_255_2_778
10
19.9839201
20
10.2060903
40
7.4487275
50
89.8812431
51
89.9999938
0
ARC
8
DEFAULT_255_2_778
10
20.0029017
20
10.2159295
40
7.438873
50
79.1734477
51
90.0272869
0
ARC
8
DEFAULT_255_2_778
10
20.0182538
20
10.3078461
40
7.3457089
50
64.4451472
51
79.1563936
0
ARC
8
DEFAULT_255_2_778
10
19.980582
20
10.2368877
40
7.4259772
50
21.2665316
51
64.4190926
0
ARC
8
DEFAULT_255_2_778
10
20.049002
20
10.2725296
40
7.3492935
50
8.0144976
51
21.201057
0
ARC
8
DEFAULT_255_2_778
10
19.935526
20
10.2569485
40
7.4638335
50
359.9835201
51
8.0114865
0
ARC
8
DEFAULT_255_2_778
10
19.9604869
20
10.2512589
40
7.438873
50
349.1734477
51
0.0272869
0
ARC
8
DEFAULT_255_2_778
10
20.0524035
20
10.2359068
40
7.3457089
50
334.4451472
51
349.1563936
0
ARC
8
DEFAULT_255_2_778
10
19.9814451
20
10.2735787
40
7.4259772
50
291.2665316
51
334.4190926
0
ARC
8
DEFAULT_255_2_778
10
20.017087
20
10.2051587
40
7.3492935
50
278.0144976
51
291.201057
0
ARC
8
DEFAULT_255_2_778
10
20.0015058
20
10.3186346
40
7.4638335
50
269.9835201
51
278.0114865
0
ARC
8
DEFAULT_255_2_778
10
19.9839201
20
10.303513
40
7.4487274
50
270.0000062
51
270.1187569
0
ARC
8
DEFAULT_255_2_778
10
19.9836388
20
10.2375842
40
7.3827987
50
248.1965002
51
270.0021887
0
ARC
8
DEFAULT_255_2_778
10
19.9832376
20
10.2382674
40
7.3832841
50
225.7319909
51
248.2013603
0
ARC
8
DEFAULT_255_2_778
10
19.9881047
20
10.2435034
40
7.3904307
50
224.9997591
51
225.7333053
0
ARC
8
DEFAULT_255_2_778
10
19.9823622
20
10.2382582
40
7.3826613
50
203.5446865
51
225.0024874
0
ARC
8
DEFAULT_255_2_778
10
19.9821729
20
10.2388614
40
7.3827287
50
180.7434738
51
203.5495651
0
ARC
8
DEFAULT_255_2_778
10
19.9924199
20
10.2390868
40
7.3929777
50
179.9999916
51
180.7441905
0
ARC
8
DEFAULT_255_2_778
10
20.0431186
20
10.2390869
40
7.4436765
50
179.8782702
51
179.9999925
0
LINE
8
DEFAULT_255_2_778
10
12.599459
20
10.2549016
11
12.599459
21
10.2546016
0
ARC
8
DEFAULT_255_2_778
10
20.001846
20
10.2573507
40
6.5034328
50
214.7029167
51
226.8422349
0
ARC
8
DEFAULT_255_2_778
10
19.9920545
20
10.2498318
40
6.4912509
50
226.859885
51
245.4807882
0
ARC
8
DEFAULT_255_2_778
10
20.0009748
20
10.2644876
40
6.5082872
50
245.4628845
51
269.9836183
0
ARC
8
DEFAULT_255_2_778
10
19.9991441
20
10.2352965
40
6.4790958
50
269.9997332
51
275.0327561
0
ARC
8
DEFAULT_255_2_778
10
19.9989055
20
10.2376611
40
6.4814722
50
275.0330234
51
276.2000871
0
ARC
8
DEFAULT_255_2_778
10
19.9979176
20
10.2451697
40
6.4890436
50
276.2015987
51
281.7549488
0
ARC
8
DEFAULT_255_2_778
10
19.9905321
20
10.2801229
40
6.5247684
50
281.7559126
51
286.6506796
0
ARC
8
DEFAULT_255_2_778
10
19.9801932
20
10.315867
40
6.5619764
50
286.6477405
51
287.3486205
0
ARC
8
DEFAULT_255_2_778
10
20.0010862
20
10.2565552
40
6.4991332
50
287.3287258
51
301.4589924
0
ARC
8
DEFAULT_255_2_778
10
19.9931863
20
10.2614497
40
6.5074325
50
301.4958346
51
345.0470287
0
ARC
8
DEFAULT_255_2_778
10
20.0047818
20
10.2545685
40
6.4944551
50
345.0792849
51
359.052068
0
ARC
8
DEFAULT_255_2_778
10
19.9417891
20
10.2574653
40
6.5574873
50
359.0358668
51
359.9759025
0
ARC
8
DEFAULT_255_2_778
10
20.0002201
20
10.2541644
40
6.4990559
50
0.0047864
51
14.1351811
0
ARC
8
DEFAULT_255_2_778
10
19.9931234
20
10.2480518
40
6.5074317
50
14.1721115
51
57.7233091
0
ARC
8
DEFAULT_255_2_778
10
20.0030911
20
10.2570008
40
6.4945437
50
57.7554984
51
71.7281302
0
ARC
8
DEFAULT_255_2_778
10
19.9812768
20
10.1968196
40
6.5585301
50
71.7120033
51
72.6518922
0
ARC
8
DEFAULT_255_2_778
10
19.988712
20
10.2222397
40
6.5320495
50
72.6476584
51
77.5464975
0
ARC
8
DEFAULT_255_2_778
10
19.9973899
20
10.2610133
40
6.4923168
50
77.5474881
51
83.0202188
0
ARC
8
DEFAULT_255_2_778
10
19.9990458
20
10.2731355
40
6.4800832
50
83.0217268
51
83.7998263
0
ARC
8
DEFAULT_255_2_778
10
19.9991628
20
10.2743946
40
6.4788188
50
83.7996521
51
88.4558631
0
ARC
8
DEFAULT_255_2_778
10
19.9991272
20
10.2731409
40
6.4800729
50
88.4558471
51
90.0001168
0
ARC
8
DEFAULT_255_2_778
10
20.0011567
20
10.2446314
40
6.5085828
50
90.0179825
51
130.0700596
0
ARC
8
DEFAULT_255_2_778
10
19.9915742
20
10.2614492
40
6.4895454
50
130.1008987
51
142.8990074
0
ARC
8
DEFAULT_255_2_778
10
20.0358655
20
10.226443
40
6.5459875
50
142.8884818
51
145.2822441
0
ARC
8
DEFAULT_255_2_778
10
20.0022323
20
10.2513613
40
6.8041958
50
147.025947
51
156.9654594
0
ARC
8
DEFAULT_255_2_778
10
19.9884742
20
10.2581897
40
6.7888628
50
156.9730598
51
170.7114656
0
ARC
8
DEFAULT_255_2_778
10
20.0081006
20
10.2546718
40
6.8087997
50
170.708908
51
180.000963
0
ARC
8
DEFAULT_255_2_778
10
20.000235
20
10.2538041
40
6.8009341
50
179.9936545
51
198.6226713
0
ARC
8
DEFAULT_255_2_778
10
19.9885033
20
10.2510699
40
6.7889436
50
198.6324214
51
209.3590862
0
ARC
8
DEFAULT_255_2_778
10
20.020549
20
10.2686551
40
6.8254953
50
209.3558561
51
212.9671413
0
LINE
8
DEFAULT_255_2_778
10
14.6552759
20
13.9546073
11
14.2940759
21
13.9546073
0
LINE
8
DEFAULT_255_2_778
10
14.2940759
20
6.5545073
11
14.6560759
21
6.5529073
0
LINE
8
DEFAULT_255_2_778
10
18.9995084
20
13.1735551
11
20.9995084
21
13.1735551
0
LINE
8
DEFAULT_255_2_778
10
20.9995084
20
13.1735551
11
20.9995084
21
15.1735551
0
LINE
8
DEFAULT_255_2_778
10
20.9995084
20
15.1735551
11
18.9995084
21
15.1735551
0
LINE
8
DEFAULT_255_2_778
10
18.9995084
20
15.1735551
11
18.9995084
21
13.1735551
0
LINE
8
DEFAULT_255_2_778
10
18.9995084
20
8.8153551
11
20.9995084
21
8.8153551
0
LINE
8
DEFAULT_255_2_778
10
20.9995084
20
8.8153551
11
20.9995084
21
10.8153551
0
LINE
8
DEFAULT_255_2_778
10
20.9995084
20
10.8153551
11
18.9995084
21
10.8153551
0
LINE
8
DEFAULT_255_2_778
10
18.9995084
20
10.8153551
11
18.9995084
21
8.8153551
0
LINE
8
DEFAULT_255_2_778
10
18.9995084
20
5.7472551
11
20.9995084
21
5.7472551
0
LINE
8
DEFAULT_255_2_778
10
20.9995084
20
5.7472551
11
20.9995084
21
7.7472551
0
LINE
8
DEFAULT_255_2_778
10
20.9995084
20
7.7472551
11
18.9995084
21
7.7472551
0
LINE
8
DEFAULT_255_2_778
10
18.9995084
20
7.7472551
11
18.9995084
21
5.7472551
0
LINE
8
DEFAULT_255_2_778
10
15.8610084
20
8.3139551
11
17.8610084
21
8.3139551
0
LINE
8
DEFAULT_255_2_778
10
17.8610084
20
8.3139551
11
17.8610084
21
10.3139551
0
LINE
8
DEFAULT_255_2_778
10
17.8610084
20
10.3139551
11
15.8610084
21
10.3139551
0
LINE
8
DEFAULT_255_2_778
10
15.8610084
20
10.3139551
11
15.8610084
21
8.3139551
0
LINE
8
DEFAULT_255_2_778
10
15.8610084
20
11.0325551
11
17.8610084
21
11.0325551
0
LINE
8
DEFAULT_255_2_778
10
17.8610084
20
11.0325551
11
17.8610084
21
13.0325551
0
LINE
8
DEFAULT_255_2_778
10
17.8610084
20
13.0325551
11
15.8610084
21
13.0325551
0
LINE
8
DEFAULT_255_2_778
10
15.8610084
20
13.0325551
11
15.8610084
21
11.0325551
0
LINE
8
DEFAULT_255_2_778
10
21.9996084
20
11.2545551
11
23.9996084
21
11.2545551
0
LINE
8
DEFAULT_255_2_778
10
23.9996084
20
11.2545551
11
23.9996084
21
9.2545551
0
LINE
8
DEFAULT_255_2_778
10
23.9996084
20
9.2545551
11
21.9996084
21
9.2545551
0
LINE
8
DEFAULT_255_2_778
10
21.9996084
20
9.2545551
11
21.9996084
21
11.2545551
0
LINE
8
DEFAULT_255_2_778
10
21.9996084
20
12.1139551
11
21.9996084
21
14.1138551
0
LINE
8
DEFAULT_255_2_778
10
21.9996084
20
14.1138551
11
23.9996084
21
14.1138551
0
LINE
8
DEFAULT_255_2_778
10
23.9996084
20
14.1138551
11
23.9996084
21
12.1139551
0
LINE
8
DEFAULT_255_2_778
10
23.9996084
20
12.1139551
11
21.9996084
21
12.1139551
0
LINE
8
DEFAULT_255_2_778
10
23.9996084
20
6.3952551
11
23.9996084
21
8.3951551
0
LINE
8
DEFAULT_255_2_778
10
23.9996084
20
8.3951551
11
21.9996084
21
8.3951551
0
LINE
8
DEFAULT_255_2_778
10
21.9996084
20
8.3951551
11
21.9996084
21
6.3952551
0
LINE
8
DEFAULT_255_2_778
10
21.9996084
20
6.3952551
11
23.9996084
21
6.3952551
0
ENDSEC
0
EOF