0
SECTION
2
HEADER
9
$MEASUREMENT
70
1
0
ENDSEC
0
SECTION
2
TABLES
0
TABLE
2
LTYPE
0
LTYPE
72
65
70
64
2
CONTINUOUS
3
______
73
0
40
0
0
ENDTAB
0
TABLE
2
LAYER
0
LAYER
2
DEFAULT_255_2_778
70
0
62
255
6
CONTINUOUS
0
LAYER
2
DEFAULT_255_1_388
70
0
62
255
6
CONTINUOUS
0
ENDTAB
0
ENDSEC
0
SECTION
2
ENTITIES
0
ARC
8
DEFAULT_255_2_778
10
3.5700693
20
91.6802028
40
0.7914215
50
129.1312896
51
180.1450914
0
ARC
8
DEFAULT_255_2_778
10
3.5703345
20
91.6806899
40
0.7912112
50
89.854026
51
129.1684493
0
ARC
8
DEFAULT_255_2_778
10
25.7993937
20
91.6803765
40
0.7915249
50
39.4792447
51
90.147911
0
ARC
8
DEFAULT_255_2_778
10
25.7999935
20
91.6802231
40
0.7911595
50
359.8533901
51
39.5154338
0
ARC
8
DEFAULT_255_2_778
10
25.7996693
20
-1.9863495
40
0.7914836
50
309.4761667
51
0.1482649
0
ARC
8
DEFAULT_255_2_778
10
25.799398
20
-1.9867805
40
0.7913235
50
269.8517415
51
309.511178
0
ARC
8
DEFAULT_255_2_778
10
3.570342
20
-1.9867224
40
0.7913815
50
219.1282118
51
270.1454017
0
ARC
8
DEFAULT_255_2_778
10
3.5700247
20
-1.9863399
40
0.7913769
50
179.8524075
51
219.1641908
0
LINE
8
DEFAULT_255_2_778
10
3.5723503
20
92.4718987
11
25.7973503
21
92.4718987
0
LINE
8
DEFAULT_255_2_778
10
26.5911503
20
91.6781987
11
26.5911503
21
-1.9843013
0
LINE
8
DEFAULT_255_2_778
10
25.7973503
20
-2.7781013
11
3.5723503
21
-2.7781013
0
LINE
8
DEFAULT_255_2_778
10
2.7786503
20
-1.9843013
11
2.7786503
21
91.6781987
0
LINE
8
DEFAULT_255_1_388
10
8.0990646
20
0.0830516
11
8.0990646
21
-0.0588081
0
LINE
8
DEFAULT_255_1_388
10
8.0990646
20
-0.0588081
11
7.5469868
21
-0.0588081
0
LINE
8
DEFAULT_255_1_388
10
7.5469868
20
-0.0588081
11
7.5469868
21
-0.6398
0
LINE
8
DEFAULT_255_1_388
10
7.5469868
20
-0.6398
11
7.3735024
21
-0.6398
0
LINE
8
DEFAULT_255_1_388
10
7.3735024
20
-0.6398
11
7.3735024
21
0.6757898
0
LINE
8
DEFAULT_255_1_388
10
7.3735024
20
0.6757898
11
8.1885175
21
0.6757898
0
LINE
8
DEFAULT_255_1_388
10
8.1885175
20
0.6757898
11
8.1885175
21
0.5330267
0
LINE
8
DEFAULT_255_1_388
10
8.1885175
20
0.5330267
11
7.5469868
21
0.5330267
0
LINE
8
DEFAULT_255_1_388
10
7.5469868
20
0.5330267
11
7.5469868
21
0.0830516
0
LINE
8
DEFAULT_255_1_388
10
7.5469868
20
0.0830516
11
8.0990646
21
0.0830516
0
LINE
8
DEFAULT_255_1_388
10
8.5083793
20
0.6757898
11
8.8255305
21
0.1716009
0
LINE
8
DEFAULT_255_1_388
10
8.8255305
20
0.1716009
11
9.1408745
21
0.6757898
0
LINE
8
DEFAULT_255_1_388
10
9.1408745
20
0.6757898
11
9.34508
21
0.6757898
0
LINE
8
DEFAULT_255_1_388
10
9.34508
20
0.6757898
11
8.9294404
21
0.0234163
0
LINE
8
DEFAULT_255_1_388
10
8.9294404
20
0.0234163
11
9.3550192
21
-0.6398
0
LINE
8
DEFAULT_255_1_388
10
9.3550192
20
-0.6398
11
9.1490065
21
-0.6398
0
LINE
8
DEFAULT_255_1_388
10
9.1490065
20
-0.6398
11
8.8255305
21
-0.1265754
0
LINE
8
DEFAULT_255_1_388
10
8.8255305
20
-0.1265754
11
8.5002473
21
-0.6398
0
LINE
8
DEFAULT_255_1_388
10
8.5002473
20
-0.6398
11
8.2951381
21
-0.6398
0
LINE
8
DEFAULT_255_1_388
10
8.2951381
20
-0.6398
11
8.7216206
21
0.0234163
0
LINE
8
DEFAULT_255_1_388
10
8.7216206
20
0.0234163
11
8.3050773
21
0.6757898
0
LINE
8
DEFAULT_255_1_388
10
8.3050773
20
0.6757898
11
8.5083793
21
0.6757898
0
LINE
8
DEFAULT_255_1_388
10
9.7562019
20
-0.0371225
11
9.7562019
21
0.0993157
0
LINE
8
DEFAULT_255_1_388
10
9.7562019
20
0.0993157
11
9.8817973
21
0.0993157
0
LINE
8
DEFAULT_255_1_388
10
9.6676525
20
0.3306282
11
9.5004931
21
0.3306282
0
LINE
8
DEFAULT_255_1_388
10
9.4887468
20
-0.2928312
11
9.6568098
21
-0.2928312
0
LINE
8
DEFAULT_255_1_388
10
9.8817973
20
-0.0371225
11
9.7562019
21
-0.0371225
0
ARC
8
DEFAULT_255_1_388
10
9.87852
20
0.4809922
40
0.3816905
50
270.491971
51
281.8953028
0
ARC
8
DEFAULT_255_1_388
10
9.9056627
20
0.3570199
40
0.2547877
50
281.6690378
51
301.2943765
0
ARC
8
DEFAULT_255_1_388
10
9.9248078
20
0.3219926
40
0.2149197
50
301.7834992
51
311.754567
0
ARC
8
DEFAULT_255_1_388
10
9.9351119
20
0.310565
40
0.1995326
50
311.7325027
51
354.2803031
0
ARC
8
DEFAULT_255_1_388
10
9.8533535
20
0.324628
40
0.2823461
50
353.0941646
51
0.1174696
0
ARC
8
DEFAULT_255_1_388
10
9.8015093
20
0.3299874
40
0.3342238
50
359.1804452
51
15.0452323
0
ARC
8
DEFAULT_255_1_388
10
9.9529152
20
0.3741546
40
0.1765747
50
13.957816
51
77.6713812
0
ARC
8
DEFAULT_255_1_388
10
9.9094387
20
0.2183464
40
0.3381982
50
76.111571
51
90.7028736
0
ARC
8
DEFAULT_255_1_388
10
9.9027799
20
0.249125
40
0.3074046
50
89.5321574
51
103.5319393
0
ARC
8
DEFAULT_255_1_388
10
9.8802183
20
0.3390443
40
0.2147041
50
103.2930114
51
133.5619756
0
ARC
8
DEFAULT_255_1_388
10
9.8752125
20
0.3457351
40
0.2064084
50
133.8349761
51
173.5343225
0
ARC
8
DEFAULT_255_1_388
10
9.9565782
20
0.3313144
40
0.2889266
50
172.5097183
51
180.1360699
0
ARC
8
DEFAULT_255_1_388
10
9.8495546
20
0.335188
40
0.3490913
50
155.3483706
51
180.7484035
0
ARC
8
DEFAULT_255_1_388
10
9.8440522
20
0.3319519
40
0.3454798
50
131.5745177
51
154.4799474
0
ARC
8
DEFAULT_255_1_388
10
9.8792804
20
0.2963422
40
0.3955058
50
96.9874487
51
131.9690874
0
ARC
8
DEFAULT_255_1_388
10
9.9039697
20
0.1562407
40
0.537622
50
89.8592909
51
97.7827481
0
ARC
8
DEFAULT_255_1_388
10
9.9093806
20
0.126736
40
0.5671399
50
78.3654493
51
90.4132586
0
ARC
8
DEFAULT_255_1_388
10
9.9496447
20
0.3133918
40
0.3762034
50
56.6229818
51
78.6387103
0
ARC
8
DEFAULT_255_1_388
10
9.9738276
20
0.3556846
40
0.3275964
50
47.0254604
51
56.085558
0
ARC
8
DEFAULT_255_1_388
10
9.9760527
20
0.3601189
40
0.3228382
50
10.9207523
51
46.777927
0
ARC
8
DEFAULT_255_1_388
10
9.8226121
20
0.3246401
40
0.4802559
50
359.6364235
51
11.6087615
0
ARC
8
DEFAULT_255_1_388
10
10.0290287
20
0.3229404
40
0.273833
50
332.3549969
51
359.7179765
0
ARC
8
DEFAULT_255_1_388
10
9.9558687
20
0.3576285
40
0.3547505
50
325.2332381
51
332.8746682
0
ARC
8
DEFAULT_255_1_388
10
9.973027
20
0.3456763
40
0.3338396
50
292.9803892
51
325.2391113
0
ARC
8
DEFAULT_255_1_388
10
9.9419466
20
0.4061679
40
0.4016959
50
292.542178
51
293.6931461
0
ARC
8
DEFAULT_255_1_388
10
9.9863038
20
-0.3203964
40
0.372079
50
57.643292
51
72.8626085
0
ARC
8
DEFAULT_255_1_388
10
10.0261873
20
-0.2557727
40
0.2961455
50
36.7246661
51
57.4701329
0
ARC
8
DEFAULT_255_1_388
10
10.0249029
20
-0.254353
40
0.2963321
50
8.054535
51
36.3561529
0
ARC
8
DEFAULT_255_1_388
10
9.9278702
20
-0.2717927
40
0.3948682
50
359.8316595
51
8.5873361
0
ARC
8
DEFAULT_255_1_388
10
9.8856176
20
-0.277203
40
0.4371398
50
343.9831631
51
0.557075
0
ARC
8
DEFAULT_255_1_388
10
9.9853226
20
-0.3045037
40
0.3337749
50
311.6358204
51
343.7652116
0
ARC
8
DEFAULT_255_1_388
10
9.9427479
20
-0.2565045
40
0.3979351
50
279.7829743
51
311.625622
0
ARC
8
DEFAULT_255_1_388
10
9.9088615
20
-0.0948358
40
0.5630417
50
269.7285092
51
280.3857694
0
ARC
8
DEFAULT_255_1_388
10
9.9018928
20
-0.0994759
40
0.5584119
50
256.6827433
51
270.4412869
0
ARC
8
DEFAULT_255_1_388
10
9.8637914
20
-0.2552302
40
0.3980715
50
229.4223821
51
256.8554507
0
ARC
8
DEFAULT_255_1_388
10
9.8171468
20
-0.3077317
40
0.3278564
50
181.8183354
51
229.6455015
0
ARC
8
DEFAULT_255_1_388
10
9.9341077
20
-0.2930175
40
0.4453611
50
179.9760419
51
183.2330638
0
ARC
8
DEFAULT_255_1_388
10
9.9147629
20
-0.2953219
40
0.2579652
50
179.4467996
51
196.2871626
0
ARC
8
DEFAULT_255_1_388
10
9.8599083
20
-0.3103291
40
0.2011057
50
196.5661293
51
227.7059371
0
ARC
8
DEFAULT_255_1_388
10
9.878369
20
-0.2896845
40
0.2287994
50
227.7653015
51
257.8763321
0
ARC
8
DEFAULT_255_1_388
10
9.9036773
20
-0.1836039
40
0.3378385
50
257.4583525
51
270.4267406
0
ARC
8
DEFAULT_255_1_388
10
9.9088023
20
-0.150977
40
0.3704652
50
269.5965319
51
280.8788143
0
ARC
8
DEFAULT_255_1_388
10
9.9346251
20
-0.2799471
40
0.2389415
50
280.6347277
51
299.8594068
0
ARC
8
DEFAULT_255_1_388
10
9.9561021
20
-0.3207264
40
0.19289
50
300.3575552
51
314.5515667
0
ARC
8
DEFAULT_255_1_388
10
9.9467696
20
-0.3138975
40
0.204312
50
315.0730962
51
345.0429362
0
ARC
8
DEFAULT_255_1_388
10
9.8429204
20
-0.2836461
40
0.31246
50
344.598526
51
357.9270698
0
ARC
8
DEFAULT_255_1_388
10
9.7419509
20
-0.2767295
40
0.4136265
50
357.4755098
51
0.0224936
0
ARC
8
DEFAULT_255_1_388
10
9.8572386
20
-0.2739901
40
0.2983498
50
359.5051035
51
13.4236939
0
ARC
8
DEFAULT_255_1_388
10
9.9547476
20
-0.2490363
40
0.1977186
50
12.9497905
51
48.7550905
0
ARC
8
DEFAULT_255_1_388
10
9.9342398
20
-0.2770627
40
0.2323321
50
49.509109
51
72.1832965
0
ARC
8
DEFAULT_255_1_388
10
9.8939866
20
-0.3965368
40
0.358397
50
71.9008458
51
84.3555134
0
ARC
8
DEFAULT_255_1_388
10
9.8758261
20
-0.5497288
40
0.512641
50
84.019632
51
89.3326067
0
LINE
8
DEFAULT_255_1_388
10
11.3473789
20
0.6757898
11
11.5217668
21
0.6757898
0
LINE
8
DEFAULT_255_1_388
10
11.5217668
20
0.6757898
11
11.5217668
21
-0.218739
0
LINE
8
DEFAULT_255_1_388
10
11.089863
20
-0.6560642
11
11.0437812
21
-0.6578713
0
LINE
8
DEFAULT_255_1_388
10
10.5694099
20
-0.2205461
11
10.5694099
21
0.6757898
0
LINE
8
DEFAULT_255_1_388
10
10.5694099
20
0.6757898
11
10.7410871
21
0.6757898
0
LINE
8
DEFAULT_255_1_388
10
10.7410871
20
0.6757898
11
10.7410871
21
-0.2151247
0
LINE
8
DEFAULT_255_1_388
10
11.3473789
20
-0.2160283
11
11.3473789
21
0.6757898
0
ARC
8
DEFAULT_255_1_388
10
11.0320466
20
-0.220973
40
0.4897252
50
343.0897723
51
0.2613727
0
ARC
8
DEFAULT_255_1_388
10
11.1252438
20
-0.246973
40
0.3930016
50
315.3344451
51
342.7642569
0
ARC
8
DEFAULT_255_1_388
10
11.1000933
20
-0.2208915
40
0.4292244
50
284.6605441
51
315.2183439
0
ARC
8
DEFAULT_255_1_388
10
11.0488713
20
-0.0469492
40
0.6104926
50
273.8500371
51
285.1796441
0
ARC
8
DEFAULT_255_1_388
10
11.0389778
20
-0.0085238
40
0.6493653
50
257.6315393
51
270.4238259
0
ARC
8
DEFAULT_255_1_388
10
10.9911861
20
-0.2134085
40
0.4390079
50
230.6086859
51
257.9965362
0
ARC
8
DEFAULT_255_1_388
10
10.9765919
20
-0.2363357
40
0.4120404
50
227.745033
51
230.1538266
0
ARC
8
DEFAULT_255_1_388
10
10.9612449
20
-0.2547747
40
0.3880742
50
189.2524335
51
227.5915299
0
ARC
8
DEFAULT_255_1_388
10
11.132432
20
-0.2179265
40
0.5630282
50
180.2665782
51
190.1525221
0
ARC
8
DEFAULT_255_1_388
10
11.1574048
20
-0.2182746
40
0.4163296
50
179.566507
51
191.9954402
0
ARC
8
DEFAULT_255_1_388
10
11.0192736
20
-0.2490849
40
0.274815
50
191.6974619
51
215.1403758
0
ARC
8
DEFAULT_255_1_388
10
10.9925129
20
-0.2650311
40
0.2437647
50
215.6958251
51
224.8509274
0
ARC
8
DEFAULT_255_1_388
10
10.9987605
20
-0.2560984
40
0.2545012
50
225.2846515
51
255.0110023
0
ARC
8
DEFAULT_255_1_388
10
11.0352051
20
-0.1307983
40
0.384974
50
254.5945979
51
267.9129427
0
ARC
8
DEFAULT_255_1_388
10
11.0435744
20
-0.0090556
40
0.506956
50
267.4687563
51
270.0233681
0
ARC
8
DEFAULT_255_1_388
10
11.046974
20
-0.0750712
40
0.440952
50
269.5851384
51
281.1845308
0
ARC
8
DEFAULT_255_1_388
10
11.0783344
20
-0.2272531
40
0.2855802
50
280.9345159
51
300.9740496
0
ARC
8
DEFAULT_255_1_388
10
11.1022524
20
-0.2712872
40
0.2355257
50
301.4982546
51
315.1468616
0
ARC
8
DEFAULT_255_1_388
10
11.086002
20
-0.2579512
40
0.2564594
50
315.5952932
51
345.6679188
0
ARC
8
DEFAULT_255_1_388
10
10.9600577
20
-0.2228765
40
0.3871766
50
345.2525685
51
358.6303941
0
ARC
8
DEFAULT_255_1_388
10
10.8456967
20
-0.2161305
40
0.5016822
50
358.1723541
51
0.0116795
0
LINE
8
DEFAULT_255_1_388
10
12.1172158
20
-0.0127263
11
12.1172158
21
-0.1491645
0
LINE
8
DEFAULT_255_1_388
10
12.1172158
20
-0.1491645
11
11.6762763
21
-0.1491645
0
LINE
8
DEFAULT_255_1_388
10
11.6762763
20
-0.1491645
11
11.6762763
21
-0.0127263
0
LINE
8
DEFAULT_255_1_388
10
11.6762763
20
-0.0127263
11
12.1172158
21
-0.0127263
0
LINE
8
DEFAULT_255_1_388
10
12.8120568
20
0.6821148
11
12.8120568
21
-0.6398
0
LINE
8
DEFAULT_255_1_388
10
12.8120568
20
-0.6398
11
12.6439938
21
-0.6398
0
LINE
8
DEFAULT_255_1_388
10
12.6439938
20
-0.6398
11
12.6439938
21
0.474295
0
LINE
8
DEFAULT_255_1_388
10
12.6439938
20
0.474295
11
12.3069643
21
0.3505066
0
LINE
8
DEFAULT_255_1_388
10
12.3069643
20
0.3505066
11
12.3069643
21
0.5023055
0
LINE
8
DEFAULT_255_1_388
10
12.3069643
20
0.5023055
11
12.7858535
21
0.6821148
0
LINE
8
DEFAULT_255_1_388
10
12.7858535
20
0.6821148
11
12.8120568
21
0.6821148
0
LINE
8
DEFAULT_255_1_388
10
13.9279589
20
0.6766934
11
13.9577766
21
0.6766934
0
LINE
8
DEFAULT_255_1_388
10
13.9577766
20
0.6766934
11
13.9577766
21
0.5348338
0
LINE
8
DEFAULT_255_1_388
10
13.9577766
20
0.5348338
11
13.9270554
21
0.5348338
0
LINE
8
DEFAULT_255_1_388
10
13.311728
20
-0.1392253
11
13.311728
21
-0.0750722
0
LINE
8
DEFAULT_255_1_388
10
13.479791
20
-0.0967578
11
13.479791
21
-0.1582001
0
ARC
8
DEFAULT_255_1_388
10
13.9329445
20
-0.0274174
40
0.562282
50
90.6001079
51
104.5146616
0
ARC
8
DEFAULT_255_1_388
10
13.8892405
20
0.13511
40
0.3939917
50
104.2855758
51
133.8630124
0
ARC
8
DEFAULT_255_1_388
10
13.9076657
20
0.1229243
40
0.4155734
50
134.5304124
51
161.6210222
0
ARC
8
DEFAULT_255_1_388
10
14.093659
20
0.0573421
40
0.6127682
50
161.2850533
51
174.2074364
0
ARC
8
DEFAULT_255_1_388
10
14.2526156
20
0.0354437
40
0.7731446
50
173.7817938
51
174.9251711
0
ARC
8
DEFAULT_255_1_388
10
13.740035
20
-0.120073
40
0.3412588
50
95.8332067
51
138.995412
0
ARC
8
DEFAULT_255_1_388
10
13.765163
20
-0.2639305
40
0.4870358
50
89.8755506
51
97.0540979
0
ARC
8
DEFAULT_255_1_388
10
13.770502
20
-0.1699159
40
0.3930432
50
71.6407016
51
90.6240821
0
ARC
8
DEFAULT_255_1_388
10
13.7874413
20
-0.1075567
40
0.3285421
50
39.6368051
51
71.0190743
0
ARC
8
DEFAULT_255_1_388
10
13.7158321
20
-0.1694414
40
0.4231706
50
10.6588054
51
39.9044509
0
ARC
8
DEFAULT_255_1_388
10
13.5416866
20
-0.2072777
40
0.60133
50
359.6827842
51
11.1326896
0
ARC
8
DEFAULT_255_1_388
10
13.5372202
20
-0.2152285
40
0.6058047
50
347.2485908
51
0.4371098
0
ARC
8
DEFAULT_255_1_388
10
13.7247987
20
-0.2603621
40
0.4128987
50
318.1408565
51
347.6118497
0
ARC
8
DEFAULT_255_1_388
10
13.7613584
20
-0.2904097
40
0.3656244
50
275.6342406
51
317.824739
0
ARC
8
DEFAULT_255_1_388
10
13.7365105
20
-0.1442173
40
0.513655
50
269.8872513
51
276.7916069
0
ARC
8
DEFAULT_255_1_388
10
13.7303298
20
-0.2595819
40
0.398323
50
246.9139443
51
270.7436787
0
ARC
8
DEFAULT_255_1_388
10
13.7310494
20
-0.2755956
40
0.3839368
50
218.1665534
51
245.8780431
0
ARC
8
DEFAULT_255_1_388
10
13.8299866
20
-0.1928097
40
0.5128958
50
191.4115343
51
218.6077624
0
ARC
8
DEFAULT_255_1_388
10
14.0480182
20
-0.1439223
40
0.7363054
50
179.6344971
51
191.7836758
0
ARC
8
DEFAULT_255_1_388
10
14.6760056
20
-0.0675505
40
1.3642984
50
171.4523743
51
180.3158856
0
ARC
8
DEFAULT_255_1_388
10
14.1815783
20
0.0093895
40
0.8639311
50
157.9802296
51
171.6246761
0
ARC
8
DEFAULT_255_1_388
10
13.9325134
20
0.1087038
40
0.5958004
50
141.4299236
51
157.8541251
0
ARC
8
DEFAULT_255_1_388
10
13.8603218
20
0.1597746
40
0.5075416
50
102.871586
51
140.8564533
0
ARC
8
DEFAULT_255_1_388
10
13.933177
20
-0.1147057
40
0.7914163
50
90.377773
51
103.5868422
0
ARC
8
DEFAULT_255_1_388
10
13.7376291
20
-0.1827457
40
0.2667015
50
89.8751238
51
126.2072139
0
ARC
8
DEFAULT_255_1_388
10
13.7427762
20
-0.2001153
40
0.2838229
50
124.9742447
51
144.8960197
0
ARC
8
DEFAULT_255_1_388
10
13.7230007
20
-0.1840019
40
0.2583845
50
145.2974778
51
160.2660922
0
ARC
8
DEFAULT_255_1_388
10
14.0686496
20
-0.1617849
40
0.5888695
50
179.6512124
51
190.285571
0
ARC
8
DEFAULT_255_1_388
10
13.8780975
20
-0.1977032
40
0.3949683
50
190.0944895
51
207.5099647
0
ARC
8
DEFAULT_255_1_388
10
13.8144557
20
-0.2279823
40
0.3245464
50
207.9585471
51
216.325377
0
ARC
8
DEFAULT_255_1_388
10
13.7762194
20
-0.2594288
40
0.2751259
50
215.7661336
51
232.5457193
0
ARC
8
DEFAULT_255_1_388
10
13.733131
20
-0.3141727
40
0.2054668
50
232.8005815
51
270.6605497
0
ARC
8
DEFAULT_255_1_388
10
13.7382734
20
-0.2732147
40
0.2464268
50
269.3550767
51
288.474612
0
ARC
8
DEFAULT_255_1_388
10
13.7487241
20
-0.3125279
40
0.2058436
50
289.1831976
51
322.9685307
0
ARC
8
DEFAULT_255_1_388
10
13.6799343
20
-0.2582721
40
0.2934408
50
322.6007085
51
346.5183319
0
ARC
8
DEFAULT_255_1_388
10
13.5497099
20
-0.2250566
40
0.4278249
50
346.2584622
51
358.7739592
0
ARC
8
DEFAULT_255_1_388
10
13.4345674
20
-0.2188171
40
0.5430876
50
358.3757628
51
0.0082477
0
ARC
8
DEFAULT_255_1_388
10
13.5202493
20
-0.2157144
40
0.4574157
50
359.6211417
51
11.28403
0
ARC
8
DEFAULT_255_1_388
10
13.6639099
20
-0.1857465
40
0.3106708
50
11.0483152
51
31.8145585
0
ARC
8
DEFAULT_255_1_388
10
13.6986804
20
-0.1668955
40
0.2711963
50
32.3028554
51
38.0820598
0
ARC
8
DEFAULT_255_1_388
10
13.7460037
20
-0.1240283
40
0.2075566
50
36.8249851
51
85.741667
0
ARC
8
DEFAULT_255_1_388
10
13.738445
20
-0.1803935
40
0.2643487
50
85.0150021
51
90.050843
0
LINE
8
DEFAULT_255_1_388
10
14.384259
20
0.6757898
11
14.608343
21
0.6757898
0
LINE
8
DEFAULT_255_1_388
10
14.608343
20
0.6757898
11
15.0384396
21
-0.3976447
0
LINE
8
DEFAULT_255_1_388
10
15.0384396
20
-0.3976447
11
15.4685363
21
0.6757898
0
LINE
8
DEFAULT_255_1_388
10
15.4685363
20
0.6757898
11
15.6935239
21
0.6757898
0
LINE
8
DEFAULT_255_1_388
10
15.6935239
20
0.6757898
11
15.6935239
21
-0.6398
0
LINE
8
DEFAULT_255_1_388
10
15.6935239
20
-0.6398
11
15.5200395
21
-0.6398
0
LINE
8
DEFAULT_255_1_388
10
15.5200395
20
-0.6398
11
15.5200395
21
-0.127479
0
LINE
8
DEFAULT_255_1_388
10
15.5200395
20
-0.127479
11
15.5363037
21
0.4255025
0
LINE
8
DEFAULT_255_1_388
10
15.5363037
20
0.4255025
11
15.1043999
21
-0.6398
0
LINE
8
DEFAULT_255_1_388
10
15.1043999
20
-0.6398
11
14.9715759
21
-0.6398
0
LINE
8
DEFAULT_255_1_388
10
14.9715759
20
-0.6398
11
14.5405756
21
0.4227918
0
LINE
8
DEFAULT_255_1_388
10
14.5405756
20
0.4227918
11
14.5577434
21
-0.127479
0
LINE
8
DEFAULT_255_1_388
10
14.5577434
20
-0.127479
11
14.5577434
21
-0.6398
0
LINE
8
DEFAULT_255_1_388
10
14.5577434
20
-0.6398
11
14.384259
21
-0.6398
0
LINE
8
DEFAULT_255_1_388
10
14.384259
20
-0.6398
11
14.384259
21
0.6757898
0
LINE
8
DEFAULT_255_1_388
10
16.8826147
20
0.6757898
11
16.8826147
21
0.5330267
0
LINE
8
DEFAULT_255_1_388
10
16.8826147
20
0.5330267
11
16.4597465
21
0.5330267
0
LINE
8
DEFAULT_255_1_388
10
16.4597465
20
0.5330267
11
16.4597465
21
-0.6398
0
LINE
8
DEFAULT_255_1_388
10
16.4597465
20
-0.6398
11
16.2871657
21
-0.6398
0
LINE
8
DEFAULT_255_1_388
10
16.2871657
20
-0.6398
11
16.2871657
21
0.5330267
0
LINE
8
DEFAULT_255_1_388
10
16.2871657
20
0.5330267
11
15.8652011
21
0.5330267
0
LINE
8
DEFAULT_255_1_388
10
15.8652011
20
0.5330267
11
15.8652011
21
0.6757898
0
LINE
8
DEFAULT_255_1_388
10
15.8652011
20
0.6757898
11
16.8826147
21
0.6757898
0
LINE
8
DEFAULT_255_1_388
10
17.6334768
20
0.6757898
11
17.0850131
21
-0.7527456
0
LINE
8
DEFAULT_255_1_388
10
17.0850131
20
-0.7527456
11
16.9413464
21
-0.7527456
0
LINE
8
DEFAULT_255_1_388
10
16.9413464
20
-0.7527456
11
17.4907136
21
0.6757898
0
LINE
8
DEFAULT_255_1_388
10
17.4907136
20
0.6757898
11
17.6334768
21
0.6757898
0
LINE
8
DEFAULT_255_1_388
10
18.2045295
20
-0.6398
11
17.840393
21
-0.6398
0
LINE
8
DEFAULT_255_1_388
10
17.840393
20
-0.6398
11
17.840393
21
0.6757898
0
LINE
8
DEFAULT_255_1_388
10
17.840393
20
0.6757898
11
18.211758
21
0.6757898
0
LINE
8
DEFAULT_255_1_388
10
18.7918464
20
0.0622696
11
18.7918464
21
-0.0217619
0
LINE
8
DEFAULT_255_1_388
10
18.2162758
20
0.5330267
11
18.0138774
21
0.5330267
0
LINE
8
DEFAULT_255_1_388
10
18.0138774
20
0.5330267
11
18.0138774
21
-0.4979404
0
LINE
8
DEFAULT_255_1_388
10
18.0138774
20
-0.4979404
11
18.1963974
21
-0.4979404
0
LINE
8
DEFAULT_255_1_388
10
18.6201691
20
-0.0181477
11
18.6201691
21
0.0586553
0
ARC
8
DEFAULT_255_1_388
10
18.2161375
20
0.0159436
40
0.6598608
50
75.4100343
51
90.3802731
0
ARC
8
DEFAULT_255_1_388
10
18.241962
20
0.1235691
40
0.5492049
50
60.1455157
51
75.1889627
0
ARC
8
DEFAULT_255_1_388
10
18.2598212
20
0.1546914
40
0.5133226
50
26.525419
51
60.1451222
0
ARC
8
DEFAULT_255_1_388
10
18.1337998
20
0.0878642
40
0.6559324
50
7.4029944
51
26.832209
0
ARC
8
DEFAULT_255_1_388
10
17.9544395
20
0.0599229
40
0.8374103
50
0.1605597
51
7.7176135
0
ARC
8
DEFAULT_255_1_388
10
17.9728795
20
-0.0260679
40
0.8189782
50
348.7289744
51
0.30125
0
ARC
8
DEFAULT_255_1_388
10
18.1592259
20
-0.0630844
40
0.628991
50
333.0706936
51
348.7181455
0
ARC
8
DEFAULT_255_1_388
10
18.2679888
20
-0.1221551
40
0.5052808
50
299.2531435
51
333.4571133
0
ARC
8
DEFAULT_255_1_388
10
18.2273918
20
-0.0450371
40
0.5924066
50
278.1072193
51
299.0340218
0
ARC
8
DEFAULT_255_1_388
10
18.1985967
20
0.1245979
40
0.7644209
50
270.4446841
51
278.4508355
0
ARC
8
DEFAULT_255_1_388
10
18.2009451
20
0.02003
40
0.5179903
50
269.4969684
51
284.0204874
0
ARC
8
DEFAULT_255_1_388
10
18.2409169
20
-0.1335585
40
0.3592968
50
283.7699076
51
318.1557121
0
ARC
8
DEFAULT_255_1_388
10
18.2029714
20
-0.1051601
40
0.4065308
50
318.7417595
51
343.687252
0
ARC
8
DEFAULT_255_1_388
10
18.0000293
20
-0.0417725
40
0.6191194
50
343.3324891
51
355.8548594
0
ARC
8
DEFAULT_255_1_388
10
17.7639331
20
-0.0193281
40
0.856237
50
355.4988754
51
0.0789913
0
ARC
8
DEFAULT_255_1_388
10
17.852013
20
0.063408
40
0.7681709
50
359.6455047
51
9.8607559
0
ARC
8
DEFAULT_255_1_388
10
18.1175853
20
0.1113664
40
0.498312
50
9.6573037
51
26.1931522
0
ARC
8
DEFAULT_255_1_388
10
18.2219928
20
0.1598587
40
0.3832303
50
26.5777895
51
40.1533752
0
ARC
8
DEFAULT_255_1_388
10
18.2507593
20
0.182302
40
0.3467742
50
40.3839958
51
80.1430923
0
ARC
8
DEFAULT_255_1_388
10
18.2139849
20
0.0192486
40
0.5137832
50
79.2153636
51
89.7445174
0
LINE
8
DEFAULT_255_1_388
10
19.9267233
20
0.2953892
11
19.7523354
21
0.2953892
0
LINE
8
DEFAULT_255_1_388
10
18.9734628
20
-0.2584958
11
19.1478508
21
-0.2584958
0
ARC
8
DEFAULT_255_1_388
10
19.8264081
20
1.3017821
40
1.4087688
50
248.9196578
51
254.1442424
0
ARC
8
DEFAULT_255_1_388
10
19.6373961
20
0.8151805
40
0.8867498
50
241.6337352
51
249.0064643
0
ARC
8
DEFAULT_255_1_388
10
19.4654274
20
0.5000764
40
0.5277799
50
230.4982261
51
241.8087583
0
ARC
8
DEFAULT_255_1_388
10
19.3772046
20
0.3876686
40
0.3849419
50
227.4062979
51
229.9877433
0
ARC
8
DEFAULT_255_1_388
10
19.3223392
20
0.3341155
40
0.3084129
50
200.6782127
51
228.1765252
0
ARC
8
DEFAULT_255_1_388
10
19.3304761
20
0.3324277
40
0.315461
50
179.506278
51
199.8695278
0
ARC
8
DEFAULT_255_1_388
10
19.329435
20
0.3407671
40
0.3144584
50
132.4834401
51
181.0242352
0
ARC
8
DEFAULT_255_1_388
10
19.3963554
20
0.2775788
40
0.4063094
50
129.2526113
51
133.4249077
0
ARC
8
DEFAULT_255_1_388
10
19.4129147
20
0.2527619
40
0.436014
50
101.9878945
51
128.8741833
0
ARC
8
DEFAULT_255_1_388
10
19.4577562
20
0.059136
40
0.6347415
50
89.5906376
51
102.3170567
0
ARC
8
DEFAULT_255_1_388
10
19.4656873
20
0.0949586
40
0.5989122
50
77.2359491
51
90.3248968
0
ARC
8
DEFAULT_255_1_388
10
19.4889804
20
0.2037554
40
0.4876594
50
63.8379856
51
77.0808925
0
ARC
8
DEFAULT_255_1_388
10
19.5202338
20
0.2619882
40
0.4216191
50
45.9863127
51
64.1608798
0
ARC
8
DEFAULT_255_1_388
10
19.5495732
20
0.295499
40
0.3771394
50
32.2747934
51
45.6544796
0
ARC
8
DEFAULT_255_1_388
10
19.5570538
20
0.2976426
40
0.3696765
50
359.6507495
51
32.6129943
0
ARC
8
DEFAULT_255_1_388
10
19.4509721
20
0.2981788
40
0.3013762
50
359.469654
51
14.983205
0
ARC
8
DEFAULT_255_1_388
10
19.5302973
20
0.3194288
40
0.2192542
50
14.9781954
51
48.2004799
0
ARC
8
DEFAULT_255_1_388
10
19.5118084
20
0.2961937
40
0.2489048
50
48.5926661
51
74.1242559
0
ARC
8
DEFAULT_255_1_388
10
19.4742886
20
0.1723607
40
0.3782845
50
73.7889321
51
86.6653996
0
ARC
8
DEFAULT_255_1_388
10
19.4627701
20
0.0365955
40
0.5145025
50
86.2642725
51
90.0533288
0
ARC
8
DEFAULT_255_1_388
10
19.4595794
20
0.0810376
40
0.4700681
50
89.669455
51
99.2313411
0
ARC
8
DEFAULT_255_1_388
10
19.4322953
20
0.2435401
40
0.3052945
50
99.0695987
51
113.7659242
0
ARC
8
DEFAULT_255_1_388
10
19.4014948
20
0.3161772
40
0.226407
50
114.0402885
51
127.9848946
0
ARC
8
DEFAULT_255_1_388
10
19.3744424
20
0.3494884
40
0.1835045
50
127.7287217
51
176.7106493
0
ARC
8
DEFAULT_255_1_388
10
19.4508089
20
0.338121
40
0.2604907
50
175.1780759
51
180.0581213
0
ARC
8
DEFAULT_255_1_388
10
19.3559433
20
0.3367411
40
0.1656287
50
179.6140658
51
228.124674
0
ARC
8
DEFAULT_255_1_388
10
19.405679
20
0.382794
40
0.2332038
50
226.5785315
51
230.8792476
0
ARC
8
DEFAULT_255_1_388
10
19.4586277
20
0.4530908
40
0.3211664
50
231.4636401
51
241.9261664
0
ARC
8
DEFAULT_255_1_388
10
19.593306
20
0.7009349
40
0.6032345
50
241.7177136
51
248.3259138
0
ARC
8
DEFAULT_255_1_388
10
19.7491655
20
1.0870771
40
1.0196417
50
248.2007377
51
252.4527713
0
ARC
8
DEFAULT_255_1_388
10
19.8845181
20
1.5055092
40
1.4594143
50
252.3388938
51
254.347037
0
ARC
8
DEFAULT_255_1_388
10
19.0360482
20
-1.5292905
40
1.6917621
50
71.0197462
51
74.4085467
0
ARC
8
DEFAULT_255_1_388
10
19.226757
20
-0.9787856
40
1.1091618
50
66.1845203
51
71.086519
0
ARC
8
DEFAULT_255_1_388
10
19.4018119
20
-0.5846561
40
0.6779073
50
59.3537334
51
66.269255
0
ARC
8
DEFAULT_255_1_388
10
19.5017845
20
-0.4155223
40
0.4814366
50
49.1021732
51
59.3294421
0
ARC
8
DEFAULT_255_1_388
10
19.5938833
20
-0.3105425
40
0.3417875
50
32.7924183
51
49.2503526
0
ARC
8
DEFAULT_255_1_388
10
19.6288447
20
-0.2855689
40
0.2988789
50
31.121225
51
32.3977355
0
ARC
8
DEFAULT_255_1_388
10
19.6200625
20
-0.2888272
40
0.3080861
50
8.1116803
51
30.7958224
0
ARC
8
DEFAULT_255_1_388
10
19.5288971
20
-0.3043563
40
0.4005385
50
359.8390945
51
8.4707348
0
ARC
8
DEFAULT_255_1_388
10
19.5993018
20
-0.3098249
40
0.3301608
50
337.4732479
51
0.7538283
0
ARC
8
DEFAULT_255_1_388
10
19.6194044
20
-0.3120446
40
0.3107929
50
307.5917028
51
336.4313755
0
ARC
8
DEFAULT_255_1_388
10
19.5683101
20
-0.2552491
40
0.3870096
50
307.6560665
51
308.4561779
0
ARC
8
DEFAULT_255_1_388
10
19.5417318
20
-0.2144168
40
0.435591
50
284.3733666
51
307.1426212
0
ARC
8
DEFAULT_255_1_388
10
19.4860212
20
-0.0094609
40
0.6479685
50
272.4384566
51
284.6464689
0
ARC
8
DEFAULT_255_1_388
10
19.4717597
20
0.1929434
40
0.8508149
50
269.9708517
51
272.8180721
0
ARC
8
DEFAULT_255_1_388
10
19.466928
20
-0.0362717
40
0.6216151
50
248.2707343
51
270.4054609
0
ARC
8
DEFAULT_255_1_388
10
19.4608151
20
-0.0577327
40
0.5994203
50
246.1380358
51
248.054058
0
ARC
8
DEFAULT_255_1_388
10
19.4137294
20
-0.1566295
40
0.4899388
50
233.1671897
51
246.4951656
0
ARC
8
DEFAULT_255_1_388
10
19.3513929
20
-0.2407863
40
0.3852115
50
215.3403381
51
233.084328
0
ARC
8
DEFAULT_255_1_388
10
19.3207293
20
-0.2630907
40
0.3472969
50
179.2419235
51
215.2648426
0
ARC
8
DEFAULT_255_1_388
10
19.4070844
20
-0.2615021
40
0.259251
50
179.3355796
51
199.1045873
0
ARC
8
DEFAULT_255_1_388
10
19.3696986
20
-0.2712777
40
0.2207454
50
199.8830064
51
232.7061328
0
ARC
8
DEFAULT_255_1_388
10
19.422826
20
-0.2044544
40
0.306101
50
232.3736206
51
255.5136621
0
ARC
8
DEFAULT_255_1_388
10
19.4611766
20
-0.0644823
40
0.4512213
50
255.2447928
51
267.5318292
0
ARC
8
DEFAULT_255_1_388
10
19.4710233
20
0.0741709
40
0.5901825
50
267.1564563
51
270.0294721
0
ARC
8
DEFAULT_255_1_388
10
19.4741558
20
0.0242623
40
0.5402814
50
269.6999944
51
278.1662446
0
ARC
8
DEFAULT_255_1_388
10
19.5029586
20
-0.1704026
40
0.3435003
50
278.0229022
51
290.6255326
0
ARC
8
DEFAULT_255_1_388
10
19.5420752
20
-0.2747453
40
0.2320666
50
290.6616368
51
307.0374127
0
ARC
8
DEFAULT_255_1_388
10
19.5758652
20
-0.316196
40
0.1786372
50
306.3942078
51
355.303191
0
ARC
8
DEFAULT_255_1_388
10
19.5182945
20
-0.3075814
40
0.2367516
50
354.3662092
51
0.0709489
0
ARC
8
DEFAULT_255_1_388
10
19.5342814
20
-0.3050439
40
0.2207761
50
359.4175379
51
16.1975911
0
ARC
8
DEFAULT_255_1_388
10
19.5854932
20
-0.2910046
40
0.1676828
50
16.4721294
51
52.6261798
0
ARC
8
DEFAULT_255_1_388
10
19.4931439
20
-0.4129394
40
0.3206412
50
52.7381828
51
62.4979144
0
ARC
8
DEFAULT_255_1_388
10
19.3373192
20
-0.7061764
40
0.6527035
50
62.2517425
51
68.1219454
0
ARC
8
DEFAULT_255_1_388
10
19.143868
20
-1.1816049
40
1.1659797
50
68.006043
51
71.8055127
0
ARC
8
DEFAULT_255_1_388
10
18.9418588
20
-1.7874277
40
1.8045908
50
71.718361
51
73.9260743
0
LINE
8
DEFAULT_255_1_388
10
21.0245542
20
0.2953892
11
20.8501662
21
0.2953892
0
LINE
8
DEFAULT_255_1_388
10
20.0712937
20
-0.2584958
11
20.2456816
21
-0.2584958
0
ARC
8
DEFAULT_255_1_388
10
20.9242389
20
1.3017821
40
1.4087688
50
248.9196578
51
254.1442424
0
ARC
8
DEFAULT_255_1_388
10
20.7352269
20
0.8151805
40
0.8867498
50
241.6337352
51
249.0064643
0
ARC
8
DEFAULT_255_1_388
10
20.5632582
20
0.5000764
40
0.5277799
50
230.4982261
51
241.8087583
0
ARC
8
DEFAULT_255_1_388
10
20.4750354
20
0.3876686
40
0.3849419
50
227.4062979
51
229.9877433
0
ARC
8
DEFAULT_255_1_388
10
20.42017
20
0.3341155
40
0.3084129
50
200.6782127
51
228.1765252
0
ARC
8
DEFAULT_255_1_388
10
20.4283069
20
0.3324277
40
0.315461
50
179.506278
51
199.8695278
0
ARC
8
DEFAULT_255_1_388
10
20.4272658
20
0.3407671
40
0.3144584
50
132.4834401
51
181.0242352
0
ARC
8
DEFAULT_255_1_388
10
20.4941862
20
0.2775788
40
0.4063094
50
129.2526113
51
133.4249077
0
ARC
8
DEFAULT_255_1_388
10
20.5107455
20
0.2527619
40
0.436014
50
101.9878945
51
128.8741833
0
ARC
8
DEFAULT_255_1_388
10
20.555587
20
0.059136
40
0.6347415
50
89.5906376
51
102.3170567
0
ARC
8
DEFAULT_255_1_388
10
20.5635181
20
0.0949586
40
0.5989122
50
77.2359491
51
90.3248968
0
ARC
8
DEFAULT_255_1_388
10
20.5868112
20
0.2037554
40
0.4876594
50
63.8379856
51
77.0808925
0
ARC
8
DEFAULT_255_1_388
10
20.6180646
20
0.2619882
40
0.4216191
50
45.9863127
51
64.1608798
0
ARC
8
DEFAULT_255_1_388
10
20.647404
20
0.295499
40
0.3771394
50
32.2747934
51
45.6544796
0
ARC
8
DEFAULT_255_1_388
10
20.6548846
20
0.2976426
40
0.3696765
50
359.6507495
51
32.6129943
0
ARC
8
DEFAULT_255_1_388
10
20.5488029
20
0.2981788
40
0.3013762
50
359.469654
51
14.983205
0
ARC
8
DEFAULT_255_1_388
10
20.6281281
20
0.3194288
40
0.2192542
50
14.9781954
51
48.2004799
0
ARC
8
DEFAULT_255_1_388
10
20.6096392
20
0.2961937
40
0.2489048
50
48.5926661
51
74.1242559
0
ARC
8
DEFAULT_255_1_388
10
20.5721194
20
0.1723607
40
0.3782845
50
73.7889321
51
86.6653996
0
ARC
8
DEFAULT_255_1_388
10
20.5606009
20
0.0365955
40
0.5145025
50
86.2642725
51
90.0533288
0
ARC
8
DEFAULT_255_1_388
10
20.5574102
20
0.0810376
40
0.4700681
50
89.669455
51
99.2313411
0
ARC
8
DEFAULT_255_1_388
10
20.5301261
20
0.2435401
40
0.3052945
50
99.0695987
51
113.7659242
0
ARC
8
DEFAULT_255_1_388
10
20.4993256
20
0.3161772
40
0.226407
50
114.0402885
51
127.9848946
0
ARC
8
DEFAULT_255_1_388
10
20.4722732
20
0.3494884
40
0.1835045
50
127.7287217
51
176.7106493
0
ARC
8
DEFAULT_255_1_388
10
20.5486397
20
0.338121
40
0.2604907
50
175.1780759
51
180.0581213
0
ARC
8
DEFAULT_255_1_388
10
20.4537741
20
0.3367411
40
0.1656287
50
179.6140658
51
228.124674
0
ARC
8
DEFAULT_255_1_388
10
20.5035098
20
0.382794
40
0.2332038
50
226.5785315
51
230.8792476
0
ARC
8
DEFAULT_255_1_388
10
20.5564585
20
0.4530908
40
0.3211664
50
231.4636401
51
241.9261664
0
ARC
8
DEFAULT_255_1_388
10
20.6911368
20
0.7009349
40
0.6032345
50
241.7177136
51
248.3259138
0
ARC
8
DEFAULT_255_1_388
10
20.8469963
20
1.0870771
40
1.0196417
50
248.2007377
51
252.4527713
0
ARC
8
DEFAULT_255_1_388
10
20.9823489
20
1.5055092
40
1.4594143
50
252.3388938
51
254.347037
0
ARC
8
DEFAULT_255_1_388
10
20.133879
20
-1.5292905
40
1.6917621
50
71.0197462
51
74.4085467
0
ARC
8
DEFAULT_255_1_388
10
20.3245878
20
-0.9787856
40
1.1091618
50
66.1845203
51
71.086519
0
ARC
8
DEFAULT_255_1_388
10
20.4996427
20
-0.5846561
40
0.6779073
50
59.3537334
51
66.269255
0
ARC
8
DEFAULT_255_1_388
10
20.5996153
20
-0.4155223
40
0.4814366
50
49.1021732
51
59.3294421
0
ARC
8
DEFAULT_255_1_388
10
20.6917141
20
-0.3105425
40
0.3417875
50
32.7924183
51
49.2503526
0
ARC
8
DEFAULT_255_1_388
10
20.7266755
20
-0.2855689
40
0.2988789
50
31.121225
51
32.3977355
0
ARC
8
DEFAULT_255_1_388
10
20.7178933
20
-0.2888272
40
0.3080861
50
8.1116803
51
30.7958224
0
ARC
8
DEFAULT_255_1_388
10
20.6267279
20
-0.3043563
40
0.4005385
50
359.8390945
51
8.4707348
0
ARC
8
DEFAULT_255_1_388
10
20.6971327
20
-0.3098249
40
0.3301608
50
337.4732479
51
0.7538283
0
ARC
8
DEFAULT_255_1_388
10
20.7172352
20
-0.3120446
40
0.3107929
50
307.5917028
51
336.4313755
0
ARC
8
DEFAULT_255_1_388
10
20.6661409
20
-0.2552491
40
0.3870096
50
307.6560665
51
308.4561779
0
ARC
8
DEFAULT_255_1_388
10
20.6395626
20
-0.2144168
40
0.435591
50
284.3733666
51
307.1426212
0
ARC
8
DEFAULT_255_1_388
10
20.583852
20
-0.0094609
40
0.6479685
50
272.4384566
51
284.6464689
0
ARC
8
DEFAULT_255_1_388
10
20.5695905
20
0.1929434
40
0.8508149
50
269.9708517
51
272.8180721
0
ARC
8
DEFAULT_255_1_388
10
20.5647588
20
-0.0362717
40
0.6216151
50
248.2707343
51
270.4054609
0
ARC
8
DEFAULT_255_1_388
10
20.5586459
20
-0.0577327
40
0.5994203
50
246.1380358
51
248.054058
0
ARC
8
DEFAULT_255_1_388
10
20.5115602
20
-0.1566295
40
0.4899388
50
233.1671897
51
246.4951656
0
ARC
8
DEFAULT_255_1_388
10
20.4492237
20
-0.2407863
40
0.3852115
50
215.3403381
51
233.084328
0
ARC
8
DEFAULT_255_1_388
10
20.4185601
20
-0.2630907
40
0.3472969
50
179.2419235
51
215.2648426
0
ARC
8
DEFAULT_255_1_388
10
20.5049152
20
-0.2615021
40
0.259251
50
179.3355796
51
199.1045873
0
ARC
8
DEFAULT_255_1_388
10
20.4675294
20
-0.2712777
40
0.2207454
50
199.8830064
51
232.7061328
0
ARC
8
DEFAULT_255_1_388
10
20.5206568
20
-0.2044544
40
0.306101
50
232.3736206
51
255.5136621
0
ARC
8
DEFAULT_255_1_388
10
20.5590074
20
-0.0644823
40
0.4512213
50
255.2447928
51
267.5318292
0
ARC
8
DEFAULT_255_1_388
10
20.5688541
20
0.0741709
40
0.5901825
50
267.1564563
51
270.0294721
0
ARC
8
DEFAULT_255_1_388
10
20.5719866
20
0.0242623
40
0.5402814
50
269.6999944
51
278.1662446
0
ARC
8
DEFAULT_255_1_388
10
20.6007894
20
-0.1704026
40
0.3435003
50
278.0229022
51
290.6255326
0
ARC
8
DEFAULT_255_1_388
10
20.639906
20
-0.2747453
40
0.2320666
50
290.6616368
51
307.0374127
0
ARC
8
DEFAULT_255_1_388
10
20.673696
20
-0.316196
40
0.1786372
50
306.3942078
51
355.303191
0
ARC
8
DEFAULT_255_1_388
10
20.6161253
20
-0.3075814
40
0.2367516
50
354.3662092
51
0.0709489
0
ARC
8
DEFAULT_255_1_388
10
20.6321122
20
-0.3050439
40
0.2207761
50
359.4175379
51
16.1975911
0
ARC
8
DEFAULT_255_1_388
10
20.683324
20
-0.2910046
40
0.1676828
50
16.4721294
51
52.6261798
0
ARC
8
DEFAULT_255_1_388
10
20.5909747
20
-0.4129394
40
0.3206412
50
52.7381828
51
62.4979144
0
ARC
8
DEFAULT_255_1_388
10
20.43515
20
-0.7061764
40
0.6527035
50
62.2517425
51
68.1219454
0
ARC
8
DEFAULT_255_1_388
10
20.2416988
20
-1.1816049
40
1.1659797
50
68.006043
51
71.8055127
0
ARC
8
DEFAULT_255_1_388
10
20.0396896
20
-1.7874277
40
1.8045908
50
71.718361
51
73.9260743
0
LINE
8
DEFAULT_255_2_778
10
10.5738396
20
88.5243073
11
9.3932396
21
88.5243073
0
LINE
8
DEFAULT_255_2_778
10
9.3932396
20
88.5243073
11
9.9837396
21
89.5469073
0
LINE
8
DEFAULT_255_2_778
10
9.9837396
20
89.5469073
11
11.1643396
21
89.5469073
0
LINE
8
DEFAULT_255_2_778
10
11.1643396
20
89.5469073
11
10.5738396
21
88.5243073
0
LINE
8
DEFAULT_255_2_778
10
10.5738396
20
88.5243073
11
10.5738396
21
88.5243073
0
LINE
8
DEFAULT_255_2_778
10
11.7546396
20
88.5243073
11
12.9354396
21
88.5243073
0
LINE
8
DEFAULT_255_2_778
10
12.9354396
20
88.5243073
11
12.3451396
21
89.5469073
0
LINE
8
DEFAULT_255_2_778
10
12.3451396
20
89.5469073
11
11.1643396
21
89.5469073
0
LINE
8
DEFAULT_255_2_778
10
11.1643396
20
89.5469073
11
11.7546396
21
88.5243073
0
LINE
8
DEFAULT_255_2_778
10
11.7546396
20
88.5243073
11
11.7546396
21
88.5243073
0
LINE
8
DEFAULT_255_2_778
10
11.7545823
20
90.5695146
11
11.1642823
21
91.5921146
0
LINE
8
DEFAULT_255_2_778
10
11.1642823
20
91.5921146
11
10.5737823
21
90.5695146
0
LINE
8
DEFAULT_255_2_778
10
10.5737823
20
90.5695146
11
11.1642823
21
89.5469146
0
LINE
8
DEFAULT_255_2_778
10
11.1642823
20
89.5469146
11
11.7545823
21
90.5695146
0
LINE
8
DEFAULT_255_2_778
10
11.7545823
20
90.5695146
11
11.7545823
21
90.5695146
0
ARC
8
DEFAULT_255_2_778
10
16.5183731
20
90.2157426
40
0.5650491
50
268.7543645
51
289.1417717
0
ARC
8
DEFAULT_255_2_778
10
16.606208
20
89.9605531
40
0.2951681
50
289.2776255
51
3.7648372
0
ARC
8
DEFAULT_255_2_778
10
16.3901618
20
89.9871085
40
0.5106278
50
359.1949826
51
0.0020862
0
ARC
8
DEFAULT_255_2_778
10
16.547449
20
89.9730832
40
0.1541914
50
280.2616216
51
358.5297855
0
ARC
8
DEFAULT_255_2_778
10
16.5080075
20
90.085655
40
0.2726346
50
269.5969454
51
284.2065679
0
ARC
8
DEFAULT_255_2_778
10
16.4981883
20
90.0698788
40
0.2569732
50
246.5218562
51
271.7619895
0
ARC
8
DEFAULT_255_2_778
10
16.4527498
20
89.9619164
40
0.1398527
50
188.0764216
51
245.9747848
0
ARC
8
DEFAULT_255_2_778
10
16.4833113
20
89.9689608
40
0.1711218
50
179.9443312
51
188.9740498
0
ARC
8
DEFAULT_255_2_778
10
16.4924507
20
89.9757849
40
0.3763411
50
178.2272621
51
205.8283807
0
ARC
8
DEFAULT_255_2_778
10
16.4132476
20
89.9580833
40
0.2979176
50
209.4028057
51
263.0375728
0
ARC
8
DEFAULT_255_2_778
10
16.5005111
20
90.3327629
40
0.6816586
50
259.5722942
51
270.4689037
0
ARC
8
DEFAULT_255_2_778
10
17.411252
20
90.3889767
40
0.1217154
50
2.0482843
51
87.015299
0
ARC
8
DEFAULT_255_2_778
10
17.4057913
20
90.3933868
40
0.1270984
50
353.0742102
51
359.9730821
0
ARC
8
DEFAULT_255_2_778
10
17.4111345
20
90.3901717
40
0.1214332
50
270.7420557
51
354.2761882
0
ARC
8
DEFAULT_255_2_778
10
17.4065072
20
90.4267509
40
0.1581238
50
269.9936646
51
272.2471507
0
ARC
8
DEFAULT_255_2_778
10
17.414084
20
89.9755295
40
0.1400686
50
358.2807293
51
95.6106825
0
ARC
8
DEFAULT_255_2_778
10
17.4103233
20
89.9716963
40
0.1437669
50
266.9962473
51
359.8528392
0
ARC
8
DEFAULT_255_2_778
10
17.4725249
20
90.0119988
40
0.3335288
50
268.2414507
51
302.0223478
0
ARC
8
DEFAULT_255_2_778
10
17.5091261
20
89.936683
40
0.2504234
50
304.0600275
51
2.0468005
0
ARC
8
DEFAULT_255_2_778
10
17.4835388
20
89.943488
40
0.2758592
50
0.4442832
51
66.1293704
0
ARC
8
DEFAULT_255_2_778
10
17.5193244
20
90.008436
40
0.202088
50
67.956084
51
75.8901834
0
ARC
8
DEFAULT_255_2_778
10
17.5042026
20
90.415722
40
0.2208874
50
286.9473417
51
358.0074963
0
ARC
8
DEFAULT_255_2_778
10
17.4710866
20
90.4245045
40
0.2544031
50
356.2897886
51
0.0050857
0
ARC
8
DEFAULT_255_2_778
10
17.497262
20
90.4295946
40
0.2282839
50
358.7280137
51
81.8073164
0
ARC
8
DEFAULT_255_2_778
10
17.4216369
20
90.1781283
40
0.4895182
50
77.2355086
51
90.5088275
0
ARC
8
DEFAULT_255_2_778
10
17.5842747
20
89.2135989
40
0.1302704
50
89.9972707
51
92.6773048
0
ARC
8
DEFAULT_255_2_778
10
17.5844071
20
89.21437
40
0.1294993
50
45.0546048
51
90.0558451
0
ARC
8
DEFAULT_255_2_778
10
17.5844118
20
89.214219
40
0.1296029
50
0.001866
51
45.1031959
0
ARC
8
DEFAULT_255_2_778
10
17.5845123
20
89.2142202
40
0.1295026
50
357.4803735
51
0.0013544
0
ARC
8
DEFAULT_255_2_778
10
17.5901979
20
89.2103512
40
0.1237052
50
339.8672523
51
359.1550732
0
ARC
8
DEFAULT_255_2_778
10
17.5794513
20
89.2075079
40
0.1329691
50
272.0853006
51
342.6124646
0
ARC
8
DEFAULT_255_2_778
10
17.6596145
20
89.2457661
40
0.2575135
50
286.787355
51
290.6121696
0
ARC
8
DEFAULT_255_2_778
10
17.6689461
20
89.2314533
40
0.24086
50
289.7330405
51
342.3216972
0
ARC
8
DEFAULT_255_2_778
10
17.641261
20
89.2362954
40
0.268735
50
343.130572
51
0.3905272
0
ARC
8
DEFAULT_255_2_778
10
17.6578783
20
89.2536767
40
0.2525904
50
356.4706028
51
80.1788963
0
ARC
8
DEFAULT_255_2_778
10
17.5921649
20
89.0267163
40
0.4881286
50
77.1212301
51
90.4900821
0
ARC
8
DEFAULT_255_2_778
10
17.5166337
20
88.729036
40
0.1865405
50
50.1507009
51
92.9634648
0
ARC
8
DEFAULT_255_2_778
10
17.5301354
20
88.7573678
40
0.1563319
50
12.621233
51
47.2950617
0
ARC
8
DEFAULT_255_2_778
10
16.8485884
20
88.6244726
40
0.8506657
50
2.8173892
51
11.3253986
0
ARC
8
DEFAULT_255_2_778
10
-29.2295733
20
85.1281175
40
47.060992
50
4.3048394
51
4.3117143
0
ARC
8
DEFAULT_255_2_778
10
18.5500859
20
88.700584
40
0.8523717
50
182.6850102
51
191.2954256
0
ARC
8
DEFAULT_255_2_778
10
17.9656837
20
88.5942399
40
0.2586603
50
193.5512904
51
195.3825538
0
ARC
8
DEFAULT_255_2_778
10
19.3507425
20
88.8531408
40
1.4700994
50
182.6283124
51
192.8725697
0
ARC
8
DEFAULT_255_2_778
10
17.6207606
20
88.7802215
40
0.261487
50
1.2064311
51
30.4123358
0
ARC
8
DEFAULT_255_2_778
10
17.6663626
20
88.795276
40
0.2147766
50
33.1081154
51
71.7312197
0
LINE
8
DEFAULT_255_2_778
10
13.4657897
20
88.9598271
11
13.9385897
21
88.9598271
0
LINE
8
DEFAULT_255_2_778
10
13.9385897
20
88.9598271
11
13.9385897
21
89.1312271
0
LINE
8
DEFAULT_255_2_778
10
13.9385897
20
89.1312271
11
13.4657897
21
89.1312271
0
LINE
8
DEFAULT_255_2_778
10
13.4657897
20
89.1312271
11
13.4657897
21
89.3421271
0
LINE
8
DEFAULT_255_2_778
10
13.4657897
20
89.3421271
11
13.9977897
21
89.3421271
0
LINE
8
DEFAULT_255_2_778
10
13.9977897
20
89.3421271
11
13.9977897
21
89.5135271
0
LINE
8
DEFAULT_255_2_778
10
13.9977897
20
89.5135271
11
13.4657897
21
89.5135271
0
LINE
8
DEFAULT_255_2_778
10
13.4657897
20
89.5135271
11
13.2651897
21
89.5135271
0
LINE
8
DEFAULT_255_2_778
10
13.2651897
20
89.5135271
11
13.2651897
21
89.3421271
0
LINE
8
DEFAULT_255_2_778
10
13.2651897
20
89.3421271
11
13.2651897
21
88.6957271
0
LINE
8
DEFAULT_255_2_778
10
13.2651897
20
88.6957271
11
13.2651897
21
88.5242271
0
LINE
8
DEFAULT_255_2_778
10
13.2651897
20
88.5242271
11
13.4657897
21
88.5242271
0
LINE
8
DEFAULT_255_2_778
10
13.4657897
20
88.5242271
11
14.0118897
21
88.5242271
0
LINE
8
DEFAULT_255_2_778
10
14.0118897
20
88.5242271
11
14.0118897
21
88.6957271
0
LINE
8
DEFAULT_255_2_778
10
14.0118897
20
88.6957271
11
13.4657897
21
88.6957271
0
LINE
8
DEFAULT_255_2_778
10
13.4657897
20
88.6957271
11
13.4657897
21
88.9595271
0
LINE
8
DEFAULT_255_2_778
10
13.4657897
20
88.9595271
11
13.4657897
21
88.9598271
0
LINE
8
DEFAULT_255_2_778
10
13.4519897
20
90.4139271
11
13.6620897
21
89.6786271
0
LINE
8
DEFAULT_255_2_778
10
13.6620897
20
89.6786271
11
13.6704897
21
89.6786271
0
LINE
8
DEFAULT_255_2_778
10
13.6704897
20
89.6786271
11
13.8464897
21
89.6786271
0
LINE
8
DEFAULT_255_2_778
10
13.8464897
20
89.6786271
11
13.8546897
21
89.6786271
0
LINE
8
DEFAULT_255_2_778
10
13.8546897
20
89.6786271
11
14.0647897
21
90.4139271
0
LINE
8
DEFAULT_255_2_778
10
14.0647897
20
90.4139271
11
14.0647897
21
89.6786271
0
LINE
8
DEFAULT_255_2_778
10
14.0647897
20
89.6786271
11
14.2515897
21
89.6786271
0
LINE
8
DEFAULT_255_2_778
10
14.2515897
20
89.6786271
11
14.2515897
21
90.6679271
0
LINE
8
DEFAULT_255_2_778
10
14.2515897
20
90.6679271
11
14.1496897
21
90.6679271
0
LINE
8
DEFAULT_255_2_778
10
14.1496897
20
90.6679271
11
14.0615897
21
90.6679271
0
LINE
8
DEFAULT_255_2_778
10
14.0615897
20
90.6679271
11
13.9655897
21
90.6679271
0
LINE
8
DEFAULT_255_2_778
10
13.9655897
20
90.6679271
11
13.7583897
21
89.9736271
0
LINE
8
DEFAULT_255_2_778
10
13.7583897
20
89.9736271
11
13.5511897
21
90.6679271
0
LINE
8
DEFAULT_255_2_778
10
13.5511897
20
90.6679271
11
13.4551897
21
90.6679271
0
LINE
8
DEFAULT_255_2_778
10
13.4551897
20
90.6679271
11
13.3670897
21
90.6679271
0
LINE
8
DEFAULT_255_2_778
10
13.3670897
20
90.6679271
11
13.2651897
21
90.6679271
0
LINE
8
DEFAULT_255_2_778
10
13.2651897
20
90.6679271
11
13.2651897
21
89.6786271
0
LINE
8
DEFAULT_255_2_778
10
13.2651897
20
89.6786271
11
13.4519897
21
89.6786271
0
LINE
8
DEFAULT_255_2_778
10
13.4519897
20
89.6786271
11
13.4519897
21
90.4139271
0
LINE
8
DEFAULT_255_2_778
10
13.4519897
20
90.4139271
11
13.4519897
21
90.4139271
0
LINE
8
DEFAULT_255_2_778
10
18.0057897
20
90.6679271
11
17.8064897
21
90.6679271
0
LINE
8
DEFAULT_255_2_778
10
17.8064897
20
90.6679271
11
17.8064897
21
89.6786271
0
LINE
8
DEFAULT_255_2_778
10
17.8064897
20
89.6786271
11
18.0057897
21
89.6786271
0
LINE
8
DEFAULT_255_2_778
10
18.0057897
20
89.6786271
11
18.0057897
21
90.6679271
0
LINE
8
DEFAULT_255_2_778
10
18.0057897
20
90.6679271
11
18.0057897
21
90.6679271
0
LINE
8
DEFAULT_255_2_778
10
18.1681897
20
89.5138271
11
17.9689897
21
89.5138271
0
LINE
8
DEFAULT_255_2_778
10
17.9689897
20
89.5138271
11
17.9689897
21
88.5245271
0
LINE
8
DEFAULT_255_2_778
10
17.9689897
20
88.5245271
11
18.1681897
21
88.5245271
0
LINE
8
DEFAULT_255_2_778
10
18.1681897
20
88.5245271
11
18.1681897
21
89.5138271
0
LINE
8
DEFAULT_255_2_778
10
18.1681897
20
89.5138271
11
18.1681897
21
89.5138271
0
LINE
8
DEFAULT_255_2_778
10
19.9765897
20
90.6679271
11
19.7773897
21
90.6679271
0
LINE
8
DEFAULT_255_2_778
10
19.7773897
20
90.6679271
11
19.7773897
21
89.6786271
0
LINE
8
DEFAULT_255_2_778
10
19.7773897
20
89.6786271
11
19.9765897
21
89.6786271
0
LINE
8
DEFAULT_255_2_778
10
19.9765897
20
89.6786271
11
19.9765897
21
90.6679271
0
LINE
8
DEFAULT_255_2_778
10
19.9765897
20
90.6679271
11
19.9765897
21
90.6679271
0
LINE
8
DEFAULT_255_2_778
10
14.5298897
20
90.6679271
11
14.3306897
21
90.6679271
0
LINE
8
DEFAULT_255_2_778
10
14.3306897
20
90.6679271
11
14.3306897
21
89.6786271
0
LINE
8
DEFAULT_255_2_778
10
14.3306897
20
89.6786271
11
14.5298897
21
89.6786271
0
LINE
8
DEFAULT_255_2_778
10
14.5298897
20
89.6786271
11
14.5298897
21
90.6679271
0
LINE
8
DEFAULT_255_2_778
10
14.5298897
20
90.6679271
11
14.5298897
21
90.6679271
0
LINE
8
DEFAULT_255_2_778
10
19.4989897
20
90.2819271
11
19.1029897
21
90.2819271
0
LINE
8
DEFAULT_255_2_778
10
19.1029897
20
90.2819271
11
19.1029897
21
90.6676271
0
LINE
8
DEFAULT_255_2_778
10
19.1029897
20
90.6676271
11
18.9068897
21
90.6676271
0
LINE
8
DEFAULT_255_2_778
10
18.9068897
20
90.6676271
11
18.9068897
21
89.6786271
0
LINE
8
DEFAULT_255_2_778
10
18.9068897
20
89.6786271
11
19.1029897
21
89.6786271
0
LINE
8
DEFAULT_255_2_778
10
19.1029897
20
89.6786271
11
19.1029897
21
90.1104271
0
LINE
8
DEFAULT_255_2_778
10
19.1029897
20
90.1104271
11
19.4989897
21
90.1104271
0
LINE
8
DEFAULT_255_2_778
10
19.4989897
20
90.1104271
11
19.4989897
21
89.6786271
0
LINE
8
DEFAULT_255_2_778
10
19.4989897
20
89.6786271
11
19.6950897
21
89.6786271
0
LINE
8
DEFAULT_255_2_778
10
19.6950897
20
89.6786271
11
19.6950897
21
90.6676271
0
LINE
8
DEFAULT_255_2_778
10
19.6950897
20
90.6676271
11
19.4989897
21
90.6676271
0
LINE
8
DEFAULT_255_2_778
10
19.4989897
20
90.6676271
11
19.4989897
21
90.2819271
0
LINE
8
DEFAULT_255_2_778
10
19.4989897
20
90.2819271
11
19.4989897
21
90.2819271
0
LINE
8
DEFAULT_255_2_778
10
14.8246897
20
89.6786271
11
15.0280897
21
89.6786271
0
LINE
8
DEFAULT_255_2_778
10
15.0280897
20
89.6786271
11
15.0280897
21
90.4965271
0
LINE
8
DEFAULT_255_2_778
10
15.0280897
20
90.4965271
11
15.2696897
21
90.4965271
0
LINE
8
DEFAULT_255_2_778
10
15.2696897
20
90.4965271
11
15.2696897
21
90.6679271
0
LINE
8
DEFAULT_255_2_778
10
15.2696897
20
90.6679271
11
15.0280897
21
90.6679271
0
LINE
8
DEFAULT_255_2_778
10
15.0280897
20
90.6679271
11
14.8246897
21
90.6679271
0
LINE
8
DEFAULT_255_2_778
10
14.8246897
20
90.6679271
11
14.5830897
21
90.6679271
0
LINE
8
DEFAULT_255_2_778
10
14.5830897
20
90.6679271
11
14.5830897
21
90.4965271
0
LINE
8
DEFAULT_255_2_778
10
14.5830897
20
90.4965271
11
14.8246897
21
90.4965271
0
LINE
8
DEFAULT_255_2_778
10
14.8246897
20
90.4965271
11
14.8246897
21
89.6786271
0
LINE
8
DEFAULT_255_2_778
10
14.8246897
20
89.6786271
11
14.8246897
21
89.6786271
0
LINE
8
DEFAULT_255_2_778
10
16.6422897
20
88.5245271
11
16.8454897
21
88.5245271
0
LINE
8
DEFAULT_255_2_778
10
16.8454897
20
88.5245271
11
16.8454897
21
89.3423271
0
LINE
8
DEFAULT_255_2_778
10
16.8454897
20
89.3423271
11
17.0873897
21
89.3423271
0
LINE
8
DEFAULT_255_2_778
10
17.0873897
20
89.3423271
11
17.0873897
21
89.5141271
0
LINE
8
DEFAULT_255_2_778
10
17.0873897
20
89.5141271
11
16.8454897
21
89.5141271
0
LINE
8
DEFAULT_255_2_778
10
16.8454897
20
89.5141271
11
16.6422897
21
89.5141271
0
LINE
8
DEFAULT_255_2_778
10
16.6422897
20
89.5141271
11
16.4004897
21
89.5141271
0
LINE
8
DEFAULT_255_2_778
10
16.4004897
20
89.5141271
11
16.4004897
21
89.3423271
0
LINE
8
DEFAULT_255_2_778
10
16.4004897
20
89.3423271
11
16.6422897
21
89.3423271
0
LINE
8
DEFAULT_255_2_778
10
16.6422897
20
89.3423271
11
16.6422897
21
88.5245271
0
LINE
8
DEFAULT_255_2_778
10
16.6422897
20
88.5245271
11
16.6422897
21
88.5245271
0
LINE
8
DEFAULT_255_2_778
10
16.9007897
20
89.9871271
11
16.9007897
21
90.6676271
0
LINE
8
DEFAULT_255_2_778
10
16.9007897
20
90.6676271
11
16.7015897
21
90.6676271
0
LINE
8
DEFAULT_255_2_778
10
16.7015897
20
90.6676271
11
16.7015897
21
89.9691271
0
LINE
8
DEFAULT_255_2_778
10
16.3121897
20
89.9691271
11
16.3121897
21
90.6676271
0
LINE
8
DEFAULT_255_2_778
10
16.3121897
20
90.6676271
11
16.1162897
21
90.6676271
0
LINE
8
DEFAULT_255_2_778
10
16.1162897
20
90.6676271
11
16.1162897
21
89.9874271
0
LINE
8
DEFAULT_255_2_778
10
15.0000897
20
88.9598271
11
15.4730897
21
88.9598271
0
LINE
8
DEFAULT_255_2_778
10
15.4730897
20
88.9598271
11
15.4730897
21
89.1312271
0
LINE
8
DEFAULT_255_2_778
10
15.4730897
20
89.1312271
11
15.0000897
21
89.1312271
0
LINE
8
DEFAULT_255_2_778
10
15.0000897
20
89.1312271
11
15.0000897
21
89.3421271
0
LINE
8
DEFAULT_255_2_778
10
15.0000897
20
89.3421271
11
15.5321897
21
89.3421271
0
LINE
8
DEFAULT_255_2_778
10
15.5321897
20
89.3421271
11
15.5321897
21
89.5135271
0
LINE
8
DEFAULT_255_2_778
10
15.5321897
20
89.5135271
11
15.0000897
21
89.5135271
0
LINE
8
DEFAULT_255_2_778
10
15.0000897
20
89.5135271
11
14.7997897
21
89.5135271
0
LINE
8
DEFAULT_255_2_778
10
14.7997897
20
89.5135271
11
14.7997897
21
89.3421271
0
LINE
8
DEFAULT_255_2_778
10
14.7997897
20
89.3421271
11
14.7997897
21
88.6957271
0
LINE
8
DEFAULT_255_2_778
10
14.7997897
20
88.6957271
11
14.7997897
21
88.5242271
0
LINE
8
DEFAULT_255_2_778
10
14.7997897
20
88.5242271
11
15.0000897
21
88.5242271
0
LINE
8
DEFAULT_255_2_778
10
15.0000897
20
88.5242271
11
15.5461897
21
88.5242271
0
LINE
8
DEFAULT_255_2_778
10
15.5461897
20
88.5242271
11
15.5461897
21
88.6957271
0
LINE
8
DEFAULT_255_2_778
10
15.5461897
20
88.6957271
11
15.0000897
21
88.6957271
0
LINE
8
DEFAULT_255_2_778
10
15.0000897
20
88.6957271
11
15.0000897
21
88.9595271
0
LINE
8
DEFAULT_255_2_778
10
15.0000897
20
88.9595271
11
15.0000897
21
88.9598271
0
LINE
8
DEFAULT_255_2_778
10
17.4064897
20
90.2686271
11
17.1690897
21
90.2686271
0
LINE
8
DEFAULT_255_2_778
10
17.1690897
20
90.2686271
11
17.1690897
21
90.5102271
0
LINE
8
DEFAULT_255_2_778
10
17.1690897
20
90.5102271
11
17.4175897
21
90.5102271
0
LINE
8
DEFAULT_255_2_778
10
17.4175897
20
90.5102271
11
17.4175897
21
90.5105271
0
LINE
8
DEFAULT_255_2_778
10
17.4027897
20
89.8278271
11
17.1690897
21
89.8278271
0
LINE
8
DEFAULT_255_2_778
10
17.1690897
20
89.8278271
11
17.1690897
21
90.1149271
0
LINE
8
DEFAULT_255_2_778
10
17.1690897
20
90.1149271
11
17.4003897
21
90.1149271
0
LINE
8
DEFAULT_255_2_778
10
17.1767897
20
89.6786271
11
17.4622897
21
89.6786271
0
LINE
8
DEFAULT_255_2_778
10
17.4172897
20
90.6676271
11
17.1770897
21
90.6676271
0
LINE
8
DEFAULT_255_2_778
10
17.1770897
20
90.6676271
11
16.9722897
21
90.6676271
0
LINE
8
DEFAULT_255_2_778
10
16.9722897
20
90.6676271
11
16.9711897
21
90.6676271
0
LINE
8
DEFAULT_255_2_778
10
16.9711897
20
90.6676271
11
16.9711897
21
89.6786271
0
LINE
8
DEFAULT_255_2_778
10
16.9711897
20
89.6786271
11
16.9722897
21
89.6786271
0
LINE
8
DEFAULT_255_2_778
10
16.9722897
20
89.6786271
11
17.1770897
21
89.6786271
0
LINE
8
DEFAULT_255_2_778
10
17.1770897
20
89.6786271
11
17.1767897
21
89.6786271
0
LINE
8
DEFAULT_255_2_778
10
17.3368897
20
89.0743271
11
17.3368897
21
89.3437271
0
LINE
8
DEFAULT_255_2_778
10
17.3368897
20
89.3437271
11
17.5781897
21
89.3437271
0
LINE
8
DEFAULT_255_2_778
10
17.5842897
20
89.0746271
11
17.3370897
21
89.0746271
0
LINE
8
DEFAULT_255_2_778
10
17.3370897
20
89.0746271
11
17.3368897
21
89.0743271
0
LINE
8
DEFAULT_255_2_778
10
17.5879897
20
89.5148271
11
17.3368897
21
89.5148271
0
LINE
8
DEFAULT_255_2_778
10
17.3368897
20
89.5148271
11
17.1383897
21
89.5148271
0
LINE
8
DEFAULT_255_2_778
10
17.1383897
20
89.5148271
11
17.1362897
21
89.5148271
0
LINE
8
DEFAULT_255_2_778
10
17.1362897
20
89.5148271
11
17.1362897
21
88.5256271
0
LINE
8
DEFAULT_255_2_778
10
17.1362897
20
88.5256271
11
17.3368897
21
88.5256271
0
LINE
8
DEFAULT_255_2_778
10
17.3368897
20
88.5256271
11
17.3368897
21
88.9153271
0
LINE
8
DEFAULT_255_2_778
10
17.3368897
20
88.9153271
11
17.5069897
21
88.9153271
0
LINE
8
DEFAULT_255_2_778
10
17.7162897
20
88.5256271
11
17.9175897
21
88.5256271
0
LINE
8
DEFAULT_255_2_778
10
14.2763897
20
89.5138271
11
14.0760897
21
89.5138271
0
LINE
8
DEFAULT_255_2_778
10
14.0760897
20
89.5138271
11
14.0760897
21
88.6960271
0
LINE
8
DEFAULT_255_2_778
10
14.0760897
20
88.6960271
11
14.0760897
21
88.5245271
0
LINE
8
DEFAULT_255_2_778
10
14.0760897
20
88.5245271
11
14.2763897
21
88.5245271
0
LINE
8
DEFAULT_255_2_778
10
14.2763897
20
88.5245271
11
14.7428897
21
88.5245271
0
LINE
8
DEFAULT_255_2_778
10
14.7428897
20
88.5245271
11
14.7428897
21
88.6960271
0
LINE
8
DEFAULT_255_2_778
10
14.7428897
20
88.6960271
11
14.2763897
21
88.6960271
0
LINE
8
DEFAULT_255_2_778
10
14.2763897
20
88.6960271
11
14.2763897
21
89.5138271
0
LINE
8
DEFAULT_255_2_778
10
14.2763897
20
89.5138271
11
14.2763897
21
89.5138271
0
ARC
8
DEFAULT_255_2_778
10
15.4584271
20
89.1396969
40
0.9681224
50
72.4822103
51
81.3184214
0
ARC
8
DEFAULT_255_2_778
10
15.7160297
20
89.9163918
40
0.1503783
50
28.8883513
51
77.0092434
0
ARC
8
DEFAULT_255_2_778
10
15.7432379
20
89.9453196
40
0.113238
50
358.9917455
51
22.7117017
0
ARC
8
DEFAULT_255_2_778
10
15.7394861
20
89.9494918
40
0.1171346
50
289.2958104
51
356.9831562
0
ARC
8
DEFAULT_255_2_778
10
15.6668261
20
90.1069882
40
0.2902651
50
268.4665462
51
292.5613311
0
ARC
8
DEFAULT_255_2_778
10
15.6496856
20
90.0479179
40
0.2312808
50
236.4956947
51
272.3225735
0
ARC
8
DEFAULT_255_2_778
10
15.6106646
20
89.9796839
40
0.1529307
50
178.9722202
51
234.5742435
0
ARC
8
DEFAULT_255_2_778
10
15.5656113
20
89.9701079
40
0.3002058
50
177.6481608
51
245.5596397
0
ARC
8
DEFAULT_255_2_778
10
15.6409971
20
90.1423561
40
0.488217
50
245.8690375
51
267.169035
0
ARC
8
DEFAULT_255_2_778
10
15.6671503
20
90.3933916
40
0.7403648
50
266.1069867
51
270.0547972
0
ARC
8
DEFAULT_255_2_778
10
15.6772894
20
90.2246135
40
0.5716642
50
269.0547216
51
287.7147747
0
ARC
8
DEFAULT_255_2_778
10
15.7598889
20
89.9789091
40
0.3125017
50
286.995984
51
325.1221533
0
ARC
8
DEFAULT_255_2_778
10
15.7678294
20
89.962361
40
0.2966627
50
326.8673922
51
0.8625726
0
ARC
8
DEFAULT_255_2_778
10
15.7898286
20
89.9709409
40
0.2746606
50
359.1417932
51
76.9739731
0
ARC
8
DEFAULT_255_2_778
10
15.6705461
20
89.6900719
40
0.577616
50
71.7185727
51
79.1315439
0
ARC
8
DEFAULT_255_2_778
10
14.2492968
20
82.336467
40
8.0673056
50
79.0662148
51
79.6216572
0
ARC
8
DEFAULT_255_2_778
10
16.4356585
20
94.2141581
40
4.0099443
50
259.1227669
51
259.4665204
0
ARC
8
DEFAULT_255_2_778
10
15.7836732
20
90.9191142
40
0.6513291
50
249.9945768
51
260.7485895
0
ARC
8
DEFAULT_255_2_778
10
15.5880401
20
90.4080999
40
0.1046098
50
178.6705173
51
254.9333545
0
ARC
8
DEFAULT_255_2_778
10
15.6049957
20
90.4046688
40
0.1216785
50
93.288632
51
177.2403935
0
ARC
8
DEFAULT_255_2_778
10
15.6585677
20
90.2176752
40
0.3143588
50
89.6189463
51
101.1057977
0
ARC
8
DEFAULT_255_2_778
10
15.6722733
20
90.329516
40
0.2028439
50
53.5634072
51
93.2825843
0
ARC
8
DEFAULT_255_2_778
10
15.7018505
20
90.3877144
40
0.1388739
50
357.1985816
51
49.1152298
0
ARC
8
DEFAULT_255_2_778
10
15.7254907
20
90.3809274
40
0.3087677
50
359.9999335
51
2.3703878
0
ARC
8
DEFAULT_255_2_778
10
15.7353555
20
90.3824337
40
0.298851
50
2.1600756
51
60.1092229
0
ARC
8
DEFAULT_255_2_778
10
15.6766212
20
90.2758133
40
0.4205645
50
60.4106856
51
86.1444419
0
ARC
8
DEFAULT_255_2_778
10
15.6536151
20
90.0991228
40
0.5985046
50
85.0843314
51
90.0628677
0
ARC
8
DEFAULT_255_2_778
10
15.6529718
20
90.2225466
40
0.4750804
50
90.001616
51
92.2300394
0
ARC
8
DEFAULT_255_2_778
10
15.6281193
20
90.327687
40
0.3696351
50
89.0131319
51
149.6364996
0
ARC
8
DEFAULT_255_2_778
10
15.5505461
20
90.3999055
40
0.2671974
50
154.5962367
51
180.4885883
0
ARC
8
DEFAULT_255_2_778
10
15.5651524
20
90.398384
40
0.281795
50
180.1539064
51
255.1120325
0
ARC
8
DEFAULT_255_2_778
10
15.7094242
20
90.721232
40
0.6333958
50
249.9962237
51
260.4976723
0
ARC
8
DEFAULT_255_2_778
10
18.2470963
20
89.1408351
40
0.967002
50
72.4685023
51
81.3064395
0
ARC
8
DEFAULT_255_2_778
10
18.5045397
20
89.916427
40
0.1503535
50
28.8782248
51
76.9904304
0
ARC
8
DEFAULT_255_2_778
10
18.5317197
20
89.9453189
40
0.1132561
50
358.9922779
51
22.7082666
0
ARC
8
DEFAULT_255_2_778
10
18.5280402
20
89.9494088
40
0.1170763
50
289.2761556
51
357.0223042
0
ARC
8
DEFAULT_255_2_778
10
18.4553612
20
90.1072836
40
0.2905613
50
268.4611814
51
292.5289055
0
ARC
8
DEFAULT_255_2_778
10
18.4381801
20
90.0488175
40
0.2321799
50
236.6698634
51
272.3149402
0
ARC
8
DEFAULT_255_2_778
10
18.39878
20
89.9796762
40
0.1528464
50
178.9687581
51
234.7686008
0
ARC
8
DEFAULT_255_2_778
10
18.3540113
20
89.9701079
40
0.3002058
50
177.6481608
51
245.5596397
0
ARC
8
DEFAULT_255_2_778
10
18.4293971
20
90.1423561
40
0.488217
50
245.8690375
51
267.169035
0
ARC
8
DEFAULT_255_2_778
10
18.4555503
20
90.3933916
40
0.7403648
50
266.1069867
51
270.0547972
0
ARC
8
DEFAULT_255_2_778
10
18.4656836
20
90.2252451
40
0.5722957
50
269.0563423
51
287.7048702
0
ARC
8
DEFAULT_255_2_778
10
18.548344
20
89.9792682
40
0.312856
50
286.9832601
51
325.0871916
0
ARC
8
DEFAULT_255_2_778
10
18.5567708
20
89.9623856
40
0.2964208
50
326.8311942
51
0.8585267
0
ARC
8
DEFAULT_255_2_778
10
18.5785756
20
89.9710282
40
0.2746149
50
359.1234265
51
76.9343785
0
ARC
8
DEFAULT_255_2_778
10
18.4596421
20
89.6911965
40
0.5764934
50
71.6999697
51
79.1198353
0
ARC
8
DEFAULT_255_2_778
10
17.0173657
20
82.2144392
40
8.1910887
50
79.0843627
51
79.6321368
0
ARC
8
DEFAULT_255_2_778
10
19.2200266
20
94.1939177
40
3.9892176
50
259.1314419
51
259.4772924
0
ARC
8
DEFAULT_255_2_778
10
18.5723251
20
90.9185131
40
0.6507003
50
249.9919323
51
260.7592458
0
ARC
8
DEFAULT_255_2_778
10
18.376901
20
90.4080546
40
0.1045718
50
178.6452075
51
254.9151907
0
ARC
8
DEFAULT_255_2_778
10
18.3939581
20
90.4046016
40
0.121744
50
93.2745253
51
177.21023
0
ARC
8
DEFAULT_255_2_778
10
18.4475726
20
90.2175052
40
0.3145287
50
89.6200387
51
101.1027534
0
ARC
8
DEFAULT_255_2_778
10
18.4613489
20
90.3308453
40
0.2015212
50
53.1490002
51
93.3256649
0
ARC
8
DEFAULT_255_2_778
10
18.4902753
20
90.3876519
40
0.1391457
50
357.2298288
51
48.6469881
0
ARC
8
DEFAULT_255_2_778
10
18.5137232
20
90.3809226
40
0.3092351
50
0.0008291
51
2.3676985
0
ARC
8
DEFAULT_255_2_778
10
18.5240744
20
90.3824868
40
0.2988304
50
2.1500394
51
60.0956838
0
ARC
8
DEFAULT_255_2_778
10
18.4654399
20
90.2759909
40
0.4203859
50
60.40452
51
86.1455285
0
ARC
8
DEFAULT_255_2_778
10
18.4424157
20
90.0991686
40
0.5984588
50
85.0841409
51
90.0629301
0
ARC
8
DEFAULT_255_2_778
10
18.4417778
20
90.2221392
40
0.4754878
50
90.0023409
51
92.3231329
0
ARC
8
DEFAULT_255_2_778
10
18.4167555
20
90.3274604
40
0.3698206
50
89.1093915
51
149.6400816
0
ARC
8
DEFAULT_255_2_778
10
18.338761
20
90.3998917
40
0.2669122
50
154.6001925
51
180.486137
0
ARC
8
DEFAULT_255_2_778
10
18.3537607
20
90.3985152
40
0.2819037
50
180.1805176
51
255.132702
0
ARC
8
DEFAULT_255_2_778
10
18.4982264
20
90.7217784
40
0.6339516
50
250.0026216
51
260.4967164
0
ARC
8
DEFAULT_255_2_778
10
16.008917
20
88.9289283
40
0.2519711
50
190.2626864
51
267.3480013
0
ARC
8
DEFAULT_255_2_778
10
16.2443543
20
89.0202548
40
0.5022041
50
179.6723028
51
195.7380858
0
ARC
8
DEFAULT_255_2_778
10
16.1790511
20
89.0357671
40
0.4370755
50
148.7005643
51
181.6572045
0
ARC
8
DEFAULT_255_2_778
10
15.9957576
20
89.1458723
40
0.2232598
50
89.6148479
51
148.4074796
0
ARC
8
DEFAULT_255_2_778
10
16.0060936
20
89.167949
40
0.201372
50
41.9769772
51
92.5146611
0
ARC
8
DEFAULT_255_2_778
10
15.9522078
20
89.1302523
40
0.2667646
50
15.1848537
51
40.2549591
0
ARC
8
DEFAULT_255_2_778
10
16.028123
20
89.1405326
40
0.3935735
50
8.7091682
51
82.0550801
0
ARC
8
DEFAULT_255_2_778
10
15.9931241
20
88.9940871
40
0.543642
50
80.5350289
51
90.1544743
0
ARC
8
DEFAULT_255_2_778
10
15.9818804
20
89.0827192
40
0.4551129
50
88.7689246
51
119.6437418
0
ARC
8
DEFAULT_255_2_778
10
16.0077717
20
89.0864647
40
0.4653013
50
122.644121
51
173.3997839
0
ARC
8
DEFAULT_255_2_778
10
16.2711934
20
89.0221568
40
0.7351371
50
170.7798304
51
180.1348114
0
ARC
8
DEFAULT_255_2_778
10
16.1377257
20
89.0067615
40
0.6018225
50
178.6988735
51
210.5289552
0
ARC
8
DEFAULT_255_2_778
10
15.970325
20
88.9159953
40
0.4115783
50
211.4828222
51
265.8686737
0
ARC
8
DEFAULT_255_2_778
10
15.9909864
20
89.0407011
40
0.5375742
50
264.6297133
51
270.0503073
0
ARC
8
DEFAULT_255_2_778
10
16.0020995
20
88.9725749
40
0.4695684
50
268.7014824
51
300.1403067
0
ARC
8
DEFAULT_255_2_778
10
16.0350333
20
88.8941852
40
0.385394
50
301.7580058
51
353.77968
0
ARC
8
DEFAULT_255_2_778
10
16.0012256
20
88.8885219
40
0.2113379
50
268.8430278
51
350.1661143
0
ARC
8
DEFAULT_255_2_778
10
18.6896799
20
88.9288824
40
0.2519281
50
190.2538303
51
267.3332171
0
ARC
8
DEFAULT_255_2_778
10
18.9252249
20
89.0202581
40
0.5022746
50
179.672724
51
195.7362088
0
ARC
8
DEFAULT_255_2_778
10
18.8600432
20
89.0357917
40
0.4372682
50
148.7196987
51
181.6596982
0
ARC
8
DEFAULT_255_2_778
10
18.676443
20
89.1459906
40
0.2231415
50
89.6108896
51
148.4244661
0
ARC
8
DEFAULT_255_2_778
10
18.686876
20
89.167967
40
0.2013576
50
42.5913083
51
92.5383066
0
ARC
8
DEFAULT_255_2_778
10
18.6345542
20
89.1315973
40
0.2646316
50
15.0085433
51
40.7215892
0
ARC
8
DEFAULT_255_2_778
10
18.708623
20
89.1405326
40
0.3935735
50
8.7091682
51
82.0550801
0
ARC
8
DEFAULT_255_2_778
10
18.6736241
20
88.9940871
40
0.543642
50
80.5350289
51
90.1544743
0
ARC
8
DEFAULT_255_2_778
10
18.6623804
20
89.0827192
40
0.4551129
50
88.7689246
51
119.6437418
0
ARC
8
DEFAULT_255_2_778
10
18.6882717
20
89.0864647
40
0.4653013
50
122.644121
51
173.3997839
0
ARC
8
DEFAULT_255_2_778
10
18.9516934
20
89.0221568
40
0.7351371
50
170.7798304
51
180.1348114
0
ARC
8
DEFAULT_255_2_778
10
18.8177822
20
89.00682
40
0.6013778
50
178.7034849
51
210.5604279
0
ARC
8
DEFAULT_255_2_778
10
18.6511312
20
88.9163377
40
0.4119265
50
211.5090145
51
265.8592607
0
ARC
8
DEFAULT_255_2_778
10
18.6716883
20
89.0404521
40
0.5373252
50
264.628472
51
270.0501277
0
ARC
8
DEFAULT_255_2_778
10
18.682837
20
88.9723685
40
0.4693629
50
268.6963312
51
300.2191972
0
ARC
8
DEFAULT_255_2_778
10
18.7155684
20
88.8944124
40
0.3856821
50
301.8465101
51
353.7503927
0
ARC
8
DEFAULT_255_2_778
10
18.6820648
20
88.8883604
40
0.2111733
50
268.8857714
51
350.2028431
0
LINE
8
DEFAULT_255_2_778
10
15.4577584
20
89.9824271
11
15.2656584
21
89.9824271
0
LINE
8
DEFAULT_255_2_778
10
15.8405584
20
90.3809271
11
16.0342584
21
90.3809271
0
LINE
8
DEFAULT_255_2_778
10
18.2459584
20
89.9824271
11
18.0540584
21
89.9824271
0
LINE
8
DEFAULT_255_2_778
10
18.6292584
20
90.3809271
11
18.8229584
21
90.3809271
0
LINE
8
DEFAULT_255_2_778
10
16.2096584
20
89.2001271
11
16.4171584
21
89.2001271
0
LINE
8
DEFAULT_255_2_778
10
16.4181584
20
88.8524271
11
16.2094584
21
88.8524271
0
LINE
8
DEFAULT_255_2_778
10
18.8901584
20
89.2001271
11
19.0976584
21
89.2001271
0
LINE
8
DEFAULT_255_2_778
10
19.0989584
20
88.8524271
11
18.8901584
21
88.8524271
0
LINE
8
DEFAULT_255_1_388
10
11.3568661
20
86.7106589
11
11.3568661
21
86.6266274
0
LINE
8
DEFAULT_255_1_388
10
11.1264571
20
86.0826816
11
11.3613839
21
85.8983544
0
LINE
8
DEFAULT_255_1_388
10
11.3613839
20
85.8983544
11
11.2430169
21
85.7890231
0
LINE
8
DEFAULT_255_1_388
10
11.2430169
20
85.7890231
11
10.9656227
21
86.0094929
0
LINE
8
DEFAULT_255_1_388
10
10.2978885
20
86.6148811
11
10.2978885
21
86.7097553
0
LINE
8
DEFAULT_255_1_388
10
11.1833817
20
86.6139775
11
11.1833817
21
86.7115625
0
LINE
8
DEFAULT_255_1_388
10
10.4713729
20
86.7233088
11
10.4713729
21
86.6266274
0
ARC
8
DEFAULT_255_1_388
10
10.349554
20
86.6222529
40
1.0073215
50
351.4530536
51
0.2488167
0
ARC
8
DEFAULT_255_1_388
10
10.6403709
20
86.5772749
40
0.7130509
50
338.6860608
51
351.554089
0
ARC
8
DEFAULT_255_1_388
10
10.7456166
20
86.5400573
40
0.6014866
50
336.2886209
51
338.3448103
0
ARC
8
DEFAULT_255_1_388
10
10.783641
20
86.5191952
40
0.5582958
50
321.1168943
51
336.6796496
0
ARC
8
DEFAULT_255_1_388
10
10.8547183
20
86.4644644
40
0.4686152
50
305.4418419
51
320.8706891
0
ARC
8
DEFAULT_255_1_388
10
10.8326048
20
86.5485492
40
0.5552257
50
271.6372169
51
283.8614231
0
ARC
8
DEFAULT_255_1_388
10
10.8283501
20
86.6226271
40
0.6293984
50
269.993693
51
271.8317035
0
ARC
8
DEFAULT_255_1_388
10
10.8241326
20
86.531468
40
0.5382553
50
252.5221437
51
270.441579
0
ARC
8
DEFAULT_255_1_388
10
10.8079576
20
86.4708046
40
0.4755426
50
237.5349961
51
252.1858334
0
ARC
8
DEFAULT_255_1_388
10
10.8179952
20
86.483612
40
0.4917393
50
209.0632754
51
237.3492577
0
ARC
8
DEFAULT_255_1_388
10
10.9159278
20
86.5451104
40
0.6072464
50
205.118533
51
209.6465345
0
ARC
8
DEFAULT_255_1_388
10
11.005528
20
86.5831174
40
0.7045164
50
188.7216633
51
204.8239753
0
ARC
8
DEFAULT_255_1_388
10
11.2302056
20
86.6209387
40
0.9323368
50
180.3722704
51
188.9253909
0
ARC
8
DEFAULT_255_1_388
10
11.2271617
20
86.7142416
40
0.929284
50
169.5253055
51
180.2766048
0
ARC
8
DEFAULT_255_1_388
10
11.0131416
20
86.7536024
40
0.7116745
50
155.8314601
51
169.5088611
0
ARC
8
DEFAULT_255_1_388
10
10.8690879
20
86.8204312
40
0.5528904
50
139.6259579
51
156.0379072
0
ARC
8
DEFAULT_255_1_388
10
10.8027413
20
86.8738143
40
0.4677708
50
122.6414784
51
139.3431662
0
ARC
8
DEFAULT_255_1_388
10
10.8140668
20
86.8531787
40
0.4912586
50
93.0224537
51
122.4556091
0
ARC
8
DEFAULT_255_1_388
10
10.8262189
20
86.7445776
40
0.6003837
50
89.9756766
51
93.6340839
0
ARC
8
DEFAULT_255_1_388
10
10.8305886
20
86.7873547
40
0.5576216
50
73.9666049
51
90.4228101
0
ARC
8
DEFAULT_255_1_388
10
10.8512535
20
86.8678139
40
0.4745905
50
57.5177173
51
73.6814962
0
ARC
8
DEFAULT_255_1_388
10
10.8462759
20
86.8637592
40
0.4806881
50
28.7260666
51
57.2767723
0
ARC
8
DEFAULT_255_1_388
10
10.7438166
20
86.8004397
40
0.6010032
50
24.2451459
51
29.3250018
0
ARC
8
DEFAULT_255_1_388
10
10.6396631
20
86.7573744
40
0.713663
50
9.0643887
51
23.9639114
0
ARC
8
DEFAULT_255_1_388
10
10.3859068
20
86.7147505
40
0.9709678
50
359.7585581
51
9.1891216
0
ARC
8
DEFAULT_255_1_388
10
10.2447656
20
86.7162562
40
0.9386278
50
359.7134836
51
7.9655743
0
ARC
8
DEFAULT_255_1_388
10
10.5780355
20
86.7643391
40
0.6019121
50
7.8289718
51
20.0423308
0
ARC
8
DEFAULT_255_1_388
10
10.7607823
20
86.8308145
40
0.4074504
50
20.0676743
51
35.9162425
0
ARC
8
DEFAULT_255_1_388
10
10.8479702
20
86.8956196
40
0.2988273
50
35.659429
51
85.1578517
0
ARC
8
DEFAULT_255_1_388
10
10.8271864
20
86.7701214
40
0.4257521
50
83.7963246
51
90.0959039
0
ARC
8
DEFAULT_255_1_388
10
10.8223408
20
86.8526384
40
0.3432594
50
89.3101324
51
109.9889786
0
ARC
8
DEFAULT_255_1_388
10
10.8130598
20
86.8926665
40
0.3025108
50
110.9286914
51
143.9411475
0
ARC
8
DEFAULT_255_1_388
10
10.91779
20
86.8125455
40
0.434348
50
143.5289166
51
163.2980252
0
ARC
8
DEFAULT_255_1_388
10
11.1324187
20
86.7450685
40
0.659321
50
163.0418884
51
174.3139873
0
ARC
8
DEFAULT_255_1_388
10
11.4029152
20
86.7138378
40
0.9315905
50
174.050934
51
179.4174954
0
ARC
8
DEFAULT_255_1_388
10
11.3450866
20
86.6217922
40
0.8737271
50
179.6829249
51
188.9631837
0
ARC
8
DEFAULT_255_1_388
10
11.0446597
20
86.5728648
40
0.569348
50
188.8098723
51
202.9300437
0
ARC
8
DEFAULT_255_1_388
10
10.9078329
20
86.5171968
40
0.4216493
50
203.2071737
51
215.7877161
0
ARC
8
DEFAULT_255_1_388
10
10.8123612
20
86.441685
40
0.3000949
50
214.7520738
51
264.283405
0
ARC
8
DEFAULT_255_1_388
10
10.8276203
20
86.5378645
40
0.3973553
50
263.4754673
51
270.0952411
0
ARC
8
DEFAULT_255_1_388
10
10.8323596
20
86.5084808
40
0.3679937
50
269.3649295
51
287.5149684
0
ARC
8
DEFAULT_255_1_388
10
10.8524037
20
86.4356714
40
0.2925408
50
288.0629019
51
323.8115617
0
ARC
8
DEFAULT_255_1_388
10
10.7544013
20
86.5087754
40
0.4148018
50
323.6546541
51
342.6591359
0
ARC
8
DEFAULT_255_1_388
10
10.5258671
20
86.583128
40
0.6551163
50
342.4092446
51
353.6451501
0
ARC
8
DEFAULT_255_1_388
10
10.2073465
20
86.6227565
40
0.9760748
50
353.4027553
51
359.4846611
0
LINE
8
DEFAULT_255_1_388
10
12.4971644
20
86.9464892
11
12.3227765
21
86.9464892
0
LINE
8
DEFAULT_255_1_388
10
11.5439039
20
86.3926042
11
11.7182918
21
86.3926042
0
ARC
8
DEFAULT_255_1_388
10
12.3968492
20
87.9528821
40
1.4087688
50
248.9196578
51
254.1442424
0
ARC
8
DEFAULT_255_1_388
10
12.2078372
20
87.4662805
40
0.8867498
50
241.6337352
51
249.0064643
0
ARC
8
DEFAULT_255_1_388
10
12.0358685
20
87.1511764
40
0.5277799
50
230.4982261
51
241.8087583
0
ARC
8
DEFAULT_255_1_388
10
11.9476456
20
87.0387686
40
0.3849419
50
227.4062979
51
229.9877433
0
ARC
8
DEFAULT_255_1_388
10
11.8927803
20
86.9852155
40
0.3084129
50
200.6782127
51
228.1765252
0
ARC
8
DEFAULT_255_1_388
10
11.9009172
20
86.9835277
40
0.315461
50
179.506278
51
199.8695278
0
ARC
8
DEFAULT_255_1_388
10
11.899876
20
86.9918671
40
0.3144584
50
132.4834401
51
181.0242352
0
ARC
8
DEFAULT_255_1_388
10
11.9667965
20
86.9286788
40
0.4063094
50
129.2526113
51
133.4249077
0
ARC
8
DEFAULT_255_1_388
10
11.9833557
20
86.9038619
40
0.436014
50
101.9878945
51
128.8741833
0
ARC
8
DEFAULT_255_1_388
10
12.0281973
20
86.710236
40
0.6347415
50
89.5906376
51
102.3170567
0
ARC
8
DEFAULT_255_1_388
10
12.0361284
20
86.7460586
40
0.5989122
50
77.2359491
51
90.3248968
0
ARC
8
DEFAULT_255_1_388
10
12.0594215
20
86.8548554
40
0.4876594
50
63.8379856
51
77.0808925
0
ARC
8
DEFAULT_255_1_388
10
12.0906749
20
86.9130882
40
0.4216191
50
45.9863127
51
64.1608798
0
ARC
8
DEFAULT_255_1_388
10
12.1200142
20
86.946599
40
0.3771394
50
32.2747934
51
45.6544796
0
ARC
8
DEFAULT_255_1_388
10
12.1274949
20
86.9487426
40
0.3696765
50
359.6507495
51
32.6129943
0
ARC
8
DEFAULT_255_1_388
10
12.0214131
20
86.9492788
40
0.3013762
50
359.469654
51
14.983205
0
ARC
8
DEFAULT_255_1_388
10
12.1007384
20
86.9705288
40
0.2192542
50
14.9781954
51
48.2004799
0
ARC
8
DEFAULT_255_1_388
10
12.0822495
20
86.9472937
40
0.2489048
50
48.5926661
51
74.1242559
0
ARC
8
DEFAULT_255_1_388
10
12.0447297
20
86.8234607
40
0.3782845
50
73.7889321
51
86.6653996
0
ARC
8
DEFAULT_255_1_388
10
12.0332112
20
86.6876955
40
0.5145025
50
86.2642725
51
90.0533288
0
ARC
8
DEFAULT_255_1_388
10
12.0300204
20
86.7321376
40
0.4700681
50
89.669455
51
99.2313411
0
ARC
8
DEFAULT_255_1_388
10
12.0027364
20
86.8946401
40
0.3052945
50
99.0695987
51
113.7659242
0
ARC
8
DEFAULT_255_1_388
10
11.9719358
20
86.9672772
40
0.226407
50
114.0402885
51
127.9848946
0
ARC
8
DEFAULT_255_1_388
10
11.9448835
20
87.0005884
40
0.1835045
50
127.7287217
51
176.7106493
0
ARC
8
DEFAULT_255_1_388
10
12.02125
20
86.989221
40
0.2604907
50
175.1780759
51
180.0581213
0
ARC
8
DEFAULT_255_1_388
10
11.9263843
20
86.9878411
40
0.1656287
50
179.6140658
51
228.124674
0
ARC
8
DEFAULT_255_1_388
10
11.9761201
20
87.033894
40
0.2332038
50
226.5785315
51
230.8792476
0
ARC
8
DEFAULT_255_1_388
10
12.0290687
20
87.1041908
40
0.3211664
50
231.4636401
51
241.9261664
0
ARC
8
DEFAULT_255_1_388
10
12.1637471
20
87.3520349
40
0.6032345
50
241.7177136
51
248.3259138
0
ARC
8
DEFAULT_255_1_388
10
12.3196066
20
87.7381771
40
1.0196417
50
248.2007377
51
252.4527713
0
ARC
8
DEFAULT_255_1_388
10
12.4549592
20
88.1566092
40
1.4594143
50
252.3388938
51
254.347037
0
ARC
8
DEFAULT_255_1_388
10
11.6064893
20
85.1218095
40
1.6917621
50
71.0197462
51
74.4085467
0
ARC
8
DEFAULT_255_1_388
10
11.7971981
20
85.6723144
40
1.1091618
50
66.1845203
51
71.086519
0
ARC
8
DEFAULT_255_1_388
10
11.9722529
20
86.0664439
40
0.6779073
50
59.3537334
51
66.269255
0
ARC
8
DEFAULT_255_1_388
10
12.0722255
20
86.2355777
40
0.4814366
50
49.1021732
51
59.3294421
0
ARC
8
DEFAULT_255_1_388
10
12.1643244
20
86.3405575
40
0.3417875
50
32.7924183
51
49.2503526
0
ARC
8
DEFAULT_255_1_388
10
12.1992858
20
86.3655311
40
0.2988789
50
31.121225
51
32.3977355
0
ARC
8
DEFAULT_255_1_388
10
12.1905036
20
86.3622728
40
0.3080861
50
8.1116803
51
30.7958224
0
ARC
8
DEFAULT_255_1_388
10
12.0993381
20
86.3467437
40
0.4005385
50
359.8390945
51
8.4707348
0
ARC
8
DEFAULT_255_1_388
10
12.1697429
20
86.3412751
40
0.3301608
50
337.4732479
51
0.7538283
0
ARC
8
DEFAULT_255_1_388
10
12.1898454
20
86.3390554
40
0.3107929
50
307.5917028
51
336.4313755
0
ARC
8
DEFAULT_255_1_388
10
12.1387512
20
86.3958509
40
0.3870096
50
307.6560665
51
308.4561779
0
ARC
8
DEFAULT_255_1_388
10
12.1121728
20
86.4366832
40
0.435591
50
284.3733666
51
307.1426212
0
ARC
8
DEFAULT_255_1_388
10
12.0564623
20
86.6416391
40
0.6479685
50
272.4384566
51
284.6464689
0
ARC
8
DEFAULT_255_1_388
10
12.0422008
20
86.8440434
40
0.8508149
50
269.9708517
51
272.8180721
0
ARC
8
DEFAULT_255_1_388
10
12.037369
20
86.6148283
40
0.6216151
50
248.2707343
51
270.4054609
0
ARC
8
DEFAULT_255_1_388
10
12.0312562
20
86.5933673
40
0.5994203
50
246.1380358
51
248.054058
0
ARC
8
DEFAULT_255_1_388
10
11.9841704
20
86.4944705
40
0.4899388
50
233.1671897
51
246.4951656
0
ARC
8
DEFAULT_255_1_388
10
11.9218339
20
86.4103137
40
0.3852115
50
215.3403381
51
233.084328
0
ARC
8
DEFAULT_255_1_388
10
11.8911704
20
86.3880093
40
0.3472969
50
179.2419235
51
215.2648426
0
ARC
8
DEFAULT_255_1_388
10
11.9775254
20
86.3895979
40
0.259251
50
179.3355796
51
199.1045873
0
ARC
8
DEFAULT_255_1_388
10
11.9401396
20
86.3798223
40
0.2207454
50
199.8830064
51
232.7061328
0
ARC
8
DEFAULT_255_1_388
10
11.9932671
20
86.4466456
40
0.306101
50
232.3736206
51
255.5136621
0
ARC
8
DEFAULT_255_1_388
10
12.0316176
20
86.5866177
40
0.4512213
50
255.2447928
51
267.5318292
0
ARC
8
DEFAULT_255_1_388
10
12.0414643
20
86.7252709
40
0.5901825
50
267.1564563
51
270.0294721
0
ARC
8
DEFAULT_255_1_388
10
12.0445969
20
86.6753623
40
0.5402814
50
269.6999944
51
278.1662446
0
ARC
8
DEFAULT_255_1_388
10
12.0733996
20
86.4806974
40
0.3435003
50
278.0229022
51
290.6255326
0
ARC
8
DEFAULT_255_1_388
10
12.1125163
20
86.3763547
40
0.2320666
50
290.6616368
51
307.0374127
0
ARC
8
DEFAULT_255_1_388
10
12.1463063
20
86.334904
40
0.1786372
50
306.3942078
51
355.303191
0
ARC
8
DEFAULT_255_1_388
10
12.0887356
20
86.3435186
40
0.2367516
50
354.3662092
51
0.0709489
0
ARC
8
DEFAULT_255_1_388
10
12.1047225
20
86.3460561
40
0.2207761
50
359.4175379
51
16.1975911
0
ARC
8
DEFAULT_255_1_388
10
12.1559342
20
86.3600954
40
0.1676828
50
16.4721294
51
52.6261798
0
ARC
8
DEFAULT_255_1_388
10
12.063585
20
86.2381606
40
0.3206412
50
52.7381828
51
62.4979144
0
ARC
8
DEFAULT_255_1_388
10
11.9077602
20
85.9449236
40
0.6527035
50
62.2517425
51
68.1219454
0
ARC
8
DEFAULT_255_1_388
10
11.7143091
20
85.4694951
40
1.1659797
50
68.006043
51
71.8055127
0
ARC
8
DEFAULT_255_1_388
10
11.5122998
20
84.8636723
40
1.8045908
50
71.718361
51
73.9260743
0
LINE
8
DEFAULT_255_1_388
10
14.0531024
20
86.9464892
11
13.8787145
21
86.9464892
0
LINE
8
DEFAULT_255_1_388
10
13.0998419
20
86.3926042
11
13.2742298
21
86.3926042
0
ARC
8
DEFAULT_255_1_388
10
13.9527872
20
87.9528821
40
1.4087688
50
248.9196578
51
254.1442424
0
ARC
8
DEFAULT_255_1_388
10
13.7637752
20
87.4662805
40
0.8867498
50
241.6337352
51
249.0064643
0
ARC
8
DEFAULT_255_1_388
10
13.5918065
20
87.1511764
40
0.5277799
50
230.4982261
51
241.8087583
0
ARC
8
DEFAULT_255_1_388
10
13.5035836
20
87.0387686
40
0.3849419
50
227.4062979
51
229.9877433
0
ARC
8
DEFAULT_255_1_388
10
13.4487183
20
86.9852155
40
0.3084129
50
200.6782127
51
228.1765252
0
ARC
8
DEFAULT_255_1_388
10
13.4568552
20
86.9835277
40
0.315461
50
179.506278
51
199.8695278
0
ARC
8
DEFAULT_255_1_388
10
13.455814
20
86.9918671
40
0.3144584
50
132.4834401
51
181.0242352
0
ARC
8
DEFAULT_255_1_388
10
13.5227345
20
86.9286788
40
0.4063094
50
129.2526113
51
133.4249077
0
ARC
8
DEFAULT_255_1_388
10
13.5392937
20
86.9038619
40
0.436014
50
101.9878945
51
128.8741833
0
ARC
8
DEFAULT_255_1_388
10
13.5841353
20
86.710236
40
0.6347415
50
89.5906376
51
102.3170567
0
ARC
8
DEFAULT_255_1_388
10
13.5920664
20
86.7460586
40
0.5989122
50
77.2359491
51
90.3248968
0
ARC
8
DEFAULT_255_1_388
10
13.6153595
20
86.8548554
40
0.4876594
50
63.8379856
51
77.0808925
0
ARC
8
DEFAULT_255_1_388
10
13.6466129
20
86.9130882
40
0.4216191
50
45.9863127
51
64.1608798
0
ARC
8
DEFAULT_255_1_388
10
13.6759522
20
86.946599
40
0.3771394
50
32.2747934
51
45.6544796
0
ARC
8
DEFAULT_255_1_388
10
13.6834329
20
86.9487426
40
0.3696765
50
359.6507495
51
32.6129943
0
ARC
8
DEFAULT_255_1_388
10
13.5773511
20
86.9492788
40
0.3013762
50
359.469654
51
14.983205
0
ARC
8
DEFAULT_255_1_388
10
13.6566763
20
86.9705288
40
0.2192542
50
14.9781954
51
48.2004799
0
ARC
8
DEFAULT_255_1_388
10
13.6381874
20
86.9472937
40
0.2489048
50
48.5926661
51
74.1242559
0
ARC
8
DEFAULT_255_1_388
10
13.6006677
20
86.8234607
40
0.3782845
50
73.7889321
51
86.6653996
0
ARC
8
DEFAULT_255_1_388
10
13.5891491
20
86.6876955
40
0.5145025
50
86.2642725
51
90.0533288
0
ARC
8
DEFAULT_255_1_388
10
13.5859584
20
86.7321376
40
0.4700681
50
89.669455
51
99.2313411
0
ARC
8
DEFAULT_255_1_388
10
13.5586744
20
86.8946401
40
0.3052945
50
99.0695987
51
113.7659242
0
ARC
8
DEFAULT_255_1_388
10
13.5278738
20
86.9672772
40
0.226407
50
114.0402885
51
127.9848946
0
ARC
8
DEFAULT_255_1_388
10
13.5008214
20
87.0005884
40
0.1835045
50
127.7287217
51
176.7106493
0
ARC
8
DEFAULT_255_1_388
10
13.577188
20
86.989221
40
0.2604907
50
175.1780759
51
180.0581213
0
ARC
8
DEFAULT_255_1_388
10
13.4823223
20
86.9878411
40
0.1656287
50
179.6140658
51
228.124674
0
ARC
8
DEFAULT_255_1_388
10
13.5320581
20
87.033894
40
0.2332038
50
226.5785315
51
230.8792476
0
ARC
8
DEFAULT_255_1_388
10
13.5850067
20
87.1041908
40
0.3211664
50
231.4636401
51
241.9261664
0
ARC
8
DEFAULT_255_1_388
10
13.7196851
20
87.3520349
40
0.6032345
50
241.7177136
51
248.3259138
0
ARC
8
DEFAULT_255_1_388
10
13.8755445
20
87.7381771
40
1.0196417
50
248.2007377
51
252.4527713
0
ARC
8
DEFAULT_255_1_388
10
14.0108972
20
88.1566092
40
1.4594143
50
252.3388938
51
254.347037
0
ARC
8
DEFAULT_255_1_388
10
13.1624273
20
85.1218095
40
1.6917621
50
71.0197462
51
74.4085467
0
ARC
8
DEFAULT_255_1_388
10
13.353136
20
85.6723144
40
1.1091618
50
66.1845203
51
71.086519
0
ARC
8
DEFAULT_255_1_388
10
13.5281909
20
86.0664439
40
0.6779073
50
59.3537334
51
66.269255
0
ARC
8
DEFAULT_255_1_388
10
13.6281635
20
86.2355777
40
0.4814366
50
49.1021732
51
59.3294421
0
ARC
8
DEFAULT_255_1_388
10
13.7202624
20
86.3405575
40
0.3417875
50
32.7924183
51
49.2503526
0
ARC
8
DEFAULT_255_1_388
10
13.7552238
20
86.3655311
40
0.2988789
50
31.121225
51
32.3977355
0
ARC
8
DEFAULT_255_1_388
10
13.7464416
20
86.3622728
40
0.3080861
50
8.1116803
51
30.7958224
0
ARC
8
DEFAULT_255_1_388
10
13.6552761
20
86.3467437
40
0.4005385
50
359.8390945
51
8.4707348
0
ARC
8
DEFAULT_255_1_388
10
13.7256809
20
86.3412751
40
0.3301608
50
337.4732479
51
0.7538283
0
ARC
8
DEFAULT_255_1_388
10
13.7457834
20
86.3390554
40
0.3107929
50
307.5917028
51
336.4313755
0
ARC
8
DEFAULT_255_1_388
10
13.6946892
20
86.3958509
40
0.3870096
50
307.6560665
51
308.4561779
0
ARC
8
DEFAULT_255_1_388
10
13.6681108
20
86.4366832
40
0.435591
50
284.3733666
51
307.1426212
0
ARC
8
DEFAULT_255_1_388
10
13.6124003
20
86.6416391
40
0.6479685
50
272.4384566
51
284.6464689
0
ARC
8
DEFAULT_255_1_388
10
13.5981387
20
86.8440434
40
0.8508149
50
269.9708517
51
272.8180721
0
ARC
8
DEFAULT_255_1_388
10
13.593307
20
86.6148283
40
0.6216151
50
248.2707343
51
270.4054609
0
ARC
8
DEFAULT_255_1_388
10
13.5871942
20
86.5933673
40
0.5994203
50
246.1380358
51
248.054058
0
ARC
8
DEFAULT_255_1_388
10
13.5401084
20
86.4944705
40
0.4899388
50
233.1671897
51
246.4951656
0
ARC
8
DEFAULT_255_1_388
10
13.4777719
20
86.4103137
40
0.3852115
50
215.3403381
51
233.084328
0
ARC
8
DEFAULT_255_1_388
10
13.4471083
20
86.3880093
40
0.3472969
50
179.2419235
51
215.2648426
0
ARC
8
DEFAULT_255_1_388
10
13.5334634
20
86.3895979
40
0.259251
50
179.3355796
51
199.1045873
0
ARC
8
DEFAULT_255_1_388
10
13.4960776
20
86.3798223
40
0.2207454
50
199.8830064
51
232.7061328
0
ARC
8
DEFAULT_255_1_388
10
13.549205
20
86.4466456
40
0.306101
50
232.3736206
51
255.5136621
0
ARC
8
DEFAULT_255_1_388
10
13.5875556
20
86.5866177
40
0.4512213
50
255.2447928
51
267.5318292
0
ARC
8
DEFAULT_255_1_388
10
13.5974023
20
86.7252709
40
0.5901825
50
267.1564563
51
270.0294721
0
ARC
8
DEFAULT_255_1_388
10
13.6005349
20
86.6753623
40
0.5402814
50
269.6999944
51
278.1662446
0
ARC
8
DEFAULT_255_1_388
10
13.6293376
20
86.4806974
40
0.3435003
50
278.0229022
51
290.6255326
0
ARC
8
DEFAULT_255_1_388
10
13.6684543
20
86.3763547
40
0.2320666
50
290.6616368
51
307.0374127
0
ARC
8
DEFAULT_255_1_388
10
13.7022443
20
86.334904
40
0.1786372
50
306.3942078
51
355.303191
0
ARC
8
DEFAULT_255_1_388
10
13.6446736
20
86.3435186
40
0.2367516
50
354.3662092
51
0.0709489
0
ARC
8
DEFAULT_255_1_388
10
13.6606604
20
86.3460561
40
0.2207761
50
359.4175379
51
16.1975911
0
ARC
8
DEFAULT_255_1_388
10
13.7118722
20
86.3600954
40
0.1676828
50
16.4721294
51
52.6261798
0
ARC
8
DEFAULT_255_1_388
10
13.619523
20
86.2381606
40
0.3206412
50
52.7381828
51
62.4979144
0
ARC
8
DEFAULT_255_1_388
10
13.4636982
20
85.9449236
40
0.6527035
50
62.2517425
51
68.1219454
0
ARC
8
DEFAULT_255_1_388
10
13.270247
20
85.4694951
40
1.1659797
50
68.006043
51
71.8055127
0
ARC
8
DEFAULT_255_1_388
10
13.0682378
20
84.8636723
40
1.8045908
50
71.718361
51
73.9260743
0
LINE
8
DEFAULT_255_1_388
10
14.209419
20
86.4730214
11
14.209419
21
86.5037426
0
LINE
8
DEFAULT_255_1_388
10
15.0388912
20
86.5218139
11
15.0388912
21
86.4522395
0
LINE
8
DEFAULT_255_1_388
10
15.0388912
20
86.4522395
11
14.3765785
21
86.4522395
0
LINE
8
DEFAULT_255_1_388
10
14.9241385
20
86.2615874
11
15.0262413
21
86.1820737
0
LINE
8
DEFAULT_255_1_388
10
14.3819999
20
86.5895813
11
14.8717318
21
86.5895813
0
LINE
8
DEFAULT_255_1_388
10
14.8717318
20
86.5895813
11
14.8717318
21
86.6022312
0
ARC
8
DEFAULT_255_1_388
10
14.6525951
20
86.485521
40
0.4923176
50
252.326534
51
270.5809615
0
ARC
8
DEFAULT_255_1_388
10
14.6295416
20
86.402194
40
0.4059384
50
223.3000488
51
251.8562489
0
ARC
8
DEFAULT_255_1_388
10
14.6533196
20
86.4252898
40
0.4390832
50
190.9374369
51
223.3654369
0
ARC
8
DEFAULT_255_1_388
10
14.8473874
20
86.4691598
40
0.63798
50
179.6531919
51
191.4988561
0
ARC
8
DEFAULT_255_1_388
10
14.8610901
20
86.5073571
40
0.6516811
50
167.4005523
51
180.3177836
0
ARC
8
DEFAULT_255_1_388
10
14.7427572
20
86.5323853
40
0.5307402
50
154.1835149
51
167.2508278
0
ARC
8
DEFAULT_255_1_388
10
14.6717163
20
86.5697925
40
0.4505076
50
134.3150225
51
154.5315008
0
ARC
8
DEFAULT_255_1_388
10
14.6472498
20
86.591255
40
0.4180662
50
122.8617482
51
133.9707159
0
ARC
8
DEFAULT_255_1_388
10
14.6356105
20
86.6162882
40
0.3907416
50
89.8248474
51
123.4199325
0
ARC
8
DEFAULT_255_1_388
10
14.6412403
20
86.5435352
40
0.4635141
50
74.7874349
51
90.5482648
0
ARC
8
DEFAULT_255_1_388
10
14.6742867
20
86.6655987
40
0.3370565
50
39.8178888
51
74.7634383
0
ARC
8
DEFAULT_255_1_388
10
14.6166109
20
86.6206356
40
0.4101553
50
16.8990848
51
39.4830125
0
ARC
8
DEFAULT_255_1_388
10
14.4034724
20
86.5523711
40
0.6339427
50
4.9634768
51
17.2027767
0
ARC
8
DEFAULT_255_1_388
10
14.1314129
20
86.52366
40
0.9074803
50
359.8834402
51
5.2832409
0
ARC
8
DEFAULT_255_1_388
10
14.8106486
20
86.4596981
40
0.4341343
50
180.9844233
51
194.9402766
0
ARC
8
DEFAULT_255_1_388
10
14.6925652
20
86.427417
40
0.3117211
50
194.8030557
51
222.0412897
0
ARC
8
DEFAULT_255_1_388
10
14.6583524
20
86.3934715
40
0.2635903
50
221.541578
51
268.8616004
0
ARC
8
DEFAULT_255_1_388
10
14.6665645
20
86.469528
40
0.3398611
50
267.7321071
51
270.009808
0
ARC
8
DEFAULT_255_1_388
10
14.6685708
20
86.4922178
40
0.3625561
50
269.6921218
51
280.4122297
0
ARC
8
DEFAULT_255_1_388
10
14.688412
20
86.3888767
40
0.2573323
50
280.2257165
51
298.633539
0
ARC
8
DEFAULT_255_1_388
10
14.7009534
20
86.3624578
40
0.2281403
50
299.0485543
51
300.4624141
0
ARC
8
DEFAULT_255_1_388
10
14.6250514
20
86.4889796
40
0.3756797
50
300.6578578
51
322.037749
0
ARC
8
DEFAULT_255_1_388
10
14.5880035
20
86.5213266
40
0.4247956
50
321.671786
51
322.3059078
0
ARC
8
DEFAULT_255_1_388
10
14.6903598
20
86.3919267
40
0.3960488
50
276.9729088
51
328.0035579
0
ARC
8
DEFAULT_255_1_388
10
14.6592069
20
86.5584609
40
0.5652345
50
269.8358003
51
278.0581296
0
ARC
8
DEFAULT_255_1_388
10
14.6336368
20
86.642282
40
0.2274263
50
89.2017936
51
117.2852353
0
ARC
8
DEFAULT_255_1_388
10
14.6396118
20
86.6375637
40
0.2343798
50
118.0546404
51
137.4544511
0
ARC
8
DEFAULT_255_1_388
10
14.6817762
20
86.5992556
40
0.2913471
50
137.5109688
51
158.8516701
0
ARC
8
DEFAULT_255_1_388
10
14.8097863
20
86.5475902
40
0.4293804
50
158.5845496
51
170.1719753
0
ARC
8
DEFAULT_255_1_388
10
14.9414198
20
86.5214519
40
0.5635533
50
169.8378964
51
173.0563877
0
ARC
8
DEFAULT_255_1_388
10
14.4129482
20
86.5789187
40
0.4593755
50
2.9089079
51
12.88469
0
ARC
8
DEFAULT_255_1_388
10
14.5671401
20
86.6152082
40
0.3009753
50
12.6957404
51
28.6405841
0
ARC
8
DEFAULT_255_1_388
10
14.6280898
20
86.6467577
40
0.232366
50
29.016559
51
41.1492981
0
ARC
8
DEFAULT_255_1_388
10
14.6508877
20
86.666608
40
0.2021373
50
41.1646967
51
85.001362
0
ARC
8
DEFAULT_255_1_388
10
14.6372881
20
86.5839775
40
0.2857091
50
83.728216
51
90.0968824
0
LINE
8
DEFAULT_255_1_388
10
15.7048182
20
86.9943781
11
15.7048182
21
86.838965
0
LINE
8
DEFAULT_255_1_388
10
15.3994134
20
86.7052375
11
15.3994134
21
86.0113
0
LINE
8
DEFAULT_255_1_388
10
15.3994134
20
86.0113
11
15.232254
21
86.0113
0
LINE
8
DEFAULT_255_1_388
10
15.232254
20
86.0113
11
15.232254
21
86.9889567
0
LINE
8
DEFAULT_255_1_388
10
15.232254
20
86.9889567
11
15.3948956
21
86.9889567
0
LINE
8
DEFAULT_255_1_388
10
15.3948956
20
86.9889567
11
15.3976063
21
86.8760112
0
ARC
8
DEFAULT_255_1_388
10
15.6298342
20
86.3823068
40
0.4627735
50
80.6751522
51
86.893806
0
ARC
8
DEFAULT_255_1_388
10
15.6230172
20
86.2731103
40
0.5721798
50
86.8046851
51
90.0423898
0
ARC
8
DEFAULT_255_1_388
10
15.6188591
20
86.5498197
40
0.2954939
50
89.2758283
51
106.6212906
0
ARC
8
DEFAULT_255_1_388
10
15.5958616
20
86.6334009
40
0.2088351
50
107.1347109
51
157.6456887
0
ARC
8
DEFAULT_255_1_388
10
15.6726678
20
86.5906908
40
0.296292
50
155.6557383
51
157.256838
0
ARC
8
DEFAULT_255_1_388
10
15.6506292
20
86.7217472
40
0.296341
50
127.8167201
51
148.6300223
0
ARC
8
DEFAULT_255_1_388
10
15.622104
20
86.7510066
40
0.2557782
50
91.3329934
51
126.7875218
0
ARC
8
DEFAULT_255_1_388
10
15.6306427
20
86.6706718
40
0.3363561
50
89.9858247
51
92.4688453
0
ARC
8
DEFAULT_255_1_388
10
15.631592
20
86.7015114
40
0.3055179
50
85.3587643
51
90.1624243
0
ARC
8
DEFAULT_255_1_388
10
15.6410985
20
86.8144458
40
0.1921848
50
78.4019195
51
85.4592653
0
ARC
8
DEFAULT_255_1_388
10
15.6574046
20
86.8922142
40
0.1127267
50
67.7849217
51
78.573798
0
ARC
8
DEFAULT_255_1_388
10
15.669568
20
86.9237374
40
0.0789473
50
63.4805074
51
67.3074739
0
LINE
8
DEFAULT_255_1_388
10
16.0400406
20
86.9889567
11
16.0400406
21
86.0113
0
LINE
8
DEFAULT_255_1_388
10
16.0400406
20
86.0113
11
15.8728812
21
86.0113
0
LINE
8
DEFAULT_255_1_388
10
15.8728812
20
86.0113
11
15.8728812
21
86.9889567
0
LINE
8
DEFAULT_255_1_388
10
15.8728812
20
86.9889567
11
16.0400406
21
86.9889567
0
ARC
8
DEFAULT_255_1_388
10
15.9694174
20
87.2493428
40
0.1100948
50
161.4148232
51
180.5532607
0
ARC
8
DEFAULT_255_1_388
10
15.9554484
20
87.2531875
40
0.0956324
50
138.1830164
51
160.9307633
0
ARC
8
DEFAULT_255_1_388
10
15.9430671
20
87.2639313
40
0.0792417
50
104.6371663
51
138.0036136
0
ARC
8
DEFAULT_255_1_388
10
15.955121
20
87.2226963
40
0.1221906
50
92.0601206
51
105.2198859
0
ARC
8
DEFAULT_255_1_388
10
15.9577574
20
87.1838583
40
0.161103
50
89.9790681
51
92.5006086
0
ARC
8
DEFAULT_255_1_388
10
15.958875
20
87.2094998
40
0.1354654
50
78.0234649
51
90.4478111
0
ARC
8
DEFAULT_255_1_388
10
15.9692334
20
87.2560203
40
0.0878096
50
55.0521508
51
78.336297
0
ARC
8
DEFAULT_255_1_388
10
15.9748869
20
87.2655168
40
0.0767913
50
42.0506198
51
54.4508489
0
ARC
8
DEFAULT_255_1_388
10
15.9596902
20
87.2515821
40
0.0974091
50
1.7493657
51
42.1498724
0
ARC
8
DEFAULT_255_1_388
10
15.9310807
20
87.2483166
40
0.1261276
50
359.9832635
51
2.8353994
0
ARC
8
DEFAULT_255_1_388
10
15.9497217
20
87.2472412
40
0.1074916
50
342.1062453
51
0.5535864
0
ARC
8
DEFAULT_255_1_388
10
15.9657641
20
87.2428197
40
0.0908695
50
316.7110111
51
341.6513114
0
ARC
8
DEFAULT_255_1_388
10
15.9733073
20
87.2360607
40
0.0807447
50
285.4398289
51
316.5320129
0
ARC
8
DEFAULT_255_1_388
10
15.9609244
20
87.2772023
40
0.1237022
50
272.3543902
51
285.8951677
0
ARC
8
DEFAULT_255_1_388
10
15.9578954
20
87.3187742
40
0.1653687
50
269.9725761
51
272.8112722
0
ARC
8
DEFAULT_255_1_388
10
15.9568006
20
87.2936727
40
0.1402709
50
258.8433431
51
270.4148607
0
ARC
8
DEFAULT_255_1_388
10
15.9466786
20
87.2446739
40
0.0902407
50
238.54281
51
259.1289544
0
ARC
8
DEFAULT_255_1_388
10
15.9390108
20
87.2307694
40
0.0743817
50
222.5056676
51
237.9918132
0
ARC
8
DEFAULT_255_1_388
10
15.9533701
20
87.2438295
40
0.0937918
50
184.1070774
51
222.4604165
0
ARC
8
DEFAULT_255_1_388
10
15.9836115
20
87.2481538
40
0.1242838
50
179.9419581
51
185.0970785
0
LINE
8
DEFAULT_255_1_388
10
16.2650282
20
86.4730214
11
16.2650282
21
86.5037426
0
LINE
8
DEFAULT_255_1_388
10
17.0945003
20
86.5218139
11
17.0945003
21
86.4522395
0
LINE
8
DEFAULT_255_1_388
10
17.0945003
20
86.4522395
11
16.4321876
21
86.4522395
0
LINE
8
DEFAULT_255_1_388
10
16.9797477
20
86.2615874
11
17.0818504
21
86.1820737
0
LINE
8
DEFAULT_255_1_388
10
16.437609
20
86.5895813
11
16.9273409
21
86.5895813
0
LINE
8
DEFAULT_255_1_388
10
16.9273409
20
86.5895813
11
16.9273409
21
86.6022312
0
ARC
8
DEFAULT_255_1_388
10
16.7082043
20
86.485521
40
0.4923176
50
252.326534
51
270.5809615
0
ARC
8
DEFAULT_255_1_388
10
16.6851507
20
86.402194
40
0.4059384
50
223.3000488
51
251.8562489
0
ARC
8
DEFAULT_255_1_388
10
16.7089287
20
86.4252898
40
0.4390832
50
190.9374369
51
223.3654369
0
ARC
8
DEFAULT_255_1_388
10
16.9029965
20
86.4691598
40
0.63798
50
179.6531919
51
191.4988561
0
ARC
8
DEFAULT_255_1_388
10
16.9166992
20
86.5073571
40
0.6516811
50
167.4005523
51
180.3177836
0
ARC
8
DEFAULT_255_1_388
10
16.7983663
20
86.5323853
40
0.5307402
50
154.1835149
51
167.2508278
0
ARC
8
DEFAULT_255_1_388
10
16.7273254
20
86.5697925
40
0.4505076
50
134.3150225
51
154.5315008
0
ARC
8
DEFAULT_255_1_388
10
16.7028589
20
86.591255
40
0.4180662
50
122.8617482
51
133.9707159
0
ARC
8
DEFAULT_255_1_388
10
16.6912197
20
86.6162882
40
0.3907416
50
89.8248474
51
123.4199325
0
ARC
8
DEFAULT_255_1_388
10
16.6968495
20
86.5435352
40
0.4635141
50
74.7874349
51
90.5482648
0
ARC
8
DEFAULT_255_1_388
10
16.7298959
20
86.6655987
40
0.3370565
50
39.8178888
51
74.7634383
0
ARC
8
DEFAULT_255_1_388
10
16.6722201
20
86.6206356
40
0.4101553
50
16.8990848
51
39.4830125
0
ARC
8
DEFAULT_255_1_388
10
16.4590815
20
86.5523711
40
0.6339427
50
4.9634768
51
17.2027767
0
ARC
8
DEFAULT_255_1_388
10
16.187022
20
86.52366
40
0.9074803
50
359.8834402
51
5.2832409
0
ARC
8
DEFAULT_255_1_388
10
16.8662578
20
86.4596981
40
0.4341343
50
180.9844233
51
194.9402766
0
ARC
8
DEFAULT_255_1_388
10
16.7481743
20
86.427417
40
0.3117211
50
194.8030557
51
222.0412897
0
ARC
8
DEFAULT_255_1_388
10
16.7139616
20
86.3934715
40
0.2635903
50
221.541578
51
268.8616004
0
ARC
8
DEFAULT_255_1_388
10
16.7221736
20
86.469528
40
0.3398611
50
267.7321071
51
270.009808
0
ARC
8
DEFAULT_255_1_388
10
16.72418
20
86.4922178
40
0.3625561
50
269.6921218
51
280.4122297
0
ARC
8
DEFAULT_255_1_388
10
16.7440211
20
86.3888767
40
0.2573323
50
280.2257165
51
298.633539
0
ARC
8
DEFAULT_255_1_388
10
16.7565625
20
86.3624578
40
0.2281403
50
299.0485543
51
300.4624141
0
ARC
8
DEFAULT_255_1_388
10
16.6806605
20
86.4889796
40
0.3756797
50
300.6578578
51
322.037749
0
ARC
8
DEFAULT_255_1_388
10
16.6436127
20
86.5213266
40
0.4247956
50
321.671786
51
322.3059078
0
ARC
8
DEFAULT_255_1_388
10
16.745969
20
86.3919267
40
0.3960488
50
276.9729088
51
328.0035579
0
ARC
8
DEFAULT_255_1_388
10
16.714816
20
86.5584609
40
0.5652345
50
269.8358003
51
278.0581296
0
ARC
8
DEFAULT_255_1_388
10
16.6892459
20
86.642282
40
0.2274263
50
89.2017936
51
117.2852353
0
ARC
8
DEFAULT_255_1_388
10
16.695221
20
86.6375637
40
0.2343798
50
118.0546404
51
137.4544511
0
ARC
8
DEFAULT_255_1_388
10
16.7373853
20
86.5992556
40
0.2913471
50
137.5109688
51
158.8516701
0
ARC
8
DEFAULT_255_1_388
10
16.8653954
20
86.5475902
40
0.4293804
50
158.5845496
51
170.1719753
0
ARC
8
DEFAULT_255_1_388
10
16.997029
20
86.5214519
40
0.5635533
50
169.8378964
51
173.0563877
0
ARC
8
DEFAULT_255_1_388
10
16.4685573
20
86.5789187
40
0.4593755
50
2.9089079
51
12.88469
0
ARC
8
DEFAULT_255_1_388
10
16.6227493
20
86.6152082
40
0.3009753
50
12.6957404
51
28.6405841
0
ARC
8
DEFAULT_255_1_388
10
16.683699
20
86.6467577
40
0.232366
50
29.016559
51
41.1492981
0
ARC
8
DEFAULT_255_1_388
10
16.7064969
20
86.666608
40
0.2021373
50
41.1646967
51
85.001362
0
ARC
8
DEFAULT_255_1_388
10
16.6928973
20
86.5839775
40
0.2857091
50
83.728216
51
90.0968824
0
LINE
8
DEFAULT_255_1_388
10
18.0152325
20
86.7016232
11
17.8471695
21
86.7016232
0
LINE
8
DEFAULT_255_1_388
10
17.2472027
20
86.312187
11
17.4143622
21
86.312187
0
ARC
8
DEFAULT_255_1_388
10
17.7134986
20
86.2722935
40
0.1436198
50
359.3335374
51
18.5869869
0
ARC
8
DEFAULT_255_1_388
10
17.7369726
20
86.2785015
40
0.1194022
50
19.3538149
51
54.6486387
0
ARC
8
DEFAULT_255_1_388
10
17.6802713
20
86.2003077
40
0.2159877
50
54.3821575
51
65.0627557
0
ARC
8
DEFAULT_255_1_388
10
17.593806
20
86.0184032
40
0.4173927
50
64.8282172
51
71.4204388
0
ARC
8
DEFAULT_255_1_388
10
17.4922956
20
85.7205782
40
0.7320403
50
71.3166092
51
75.8005927
0
ARC
8
DEFAULT_255_1_388
10
17.3976841
20
85.3560881
40
1.108605
50
75.6810806
51
78.0063886
0
ARC
8
DEFAULT_255_1_388
10
17.898143
20
87.716253
40
1.3040363
50
254.69024
51
258.0465557
0
ARC
8
DEFAULT_255_1_388
10
17.7813299
20
87.2932742
40
0.8652254
50
249.9010634
51
254.7555005
0
ARC
8
DEFAULT_255_1_388
10
17.6684351
20
86.986668
40
0.5384962
50
243.3097375
51
249.970939
0
ARC
8
DEFAULT_255_1_388
10
17.5976765
20
86.8455721
40
0.380652
50
234.4047808
51
243.2861752
0
ARC
8
DEFAULT_255_1_388
10
17.5276401
20
86.7488645
40
0.2612502
50
220.8665526
51
234.5497192
0
ARC
8
DEFAULT_255_1_388
10
17.48914
20
86.7138203
40
0.2092097
50
214.3063391
51
220.5075055
0
ARC
8
DEFAULT_255_1_388
10
17.4862514
20
86.7103577
40
0.2048755
50
186.9131438
51
213.9617385
0
ARC
8
DEFAULT_255_1_388
10
17.5460904
20
86.7200431
40
0.2654563
50
179.8802037
51
187.4338578
0
ARC
8
DEFAULT_255_1_388
10
17.5286868
20
86.7223049
40
0.2480581
50
132.0053393
51
180.3942351
0
ARC
8
DEFAULT_255_1_388
10
17.6025781
20
86.6540997
40
0.3483116
50
129.2317021
51
133.5294826
0
ARC
8
DEFAULT_255_1_388
10
17.608575
20
86.6435383
40
0.360291
50
100.440976
51
128.9081567
0
ARC
8
DEFAULT_255_1_388
10
17.6393868
20
86.4989357
40
0.5080996
50
89.6985063
51
100.9029043
0
ARC
8
DEFAULT_255_1_388
10
17.6458022
20
86.4808739
40
0.5261675
50
77.6967144
51
90.4074623
0
ARC
8
DEFAULT_255_1_388
10
17.6830375
20
86.6414503
40
0.3613511
50
50.7278431
51
78.0397473
0
ARC
8
DEFAULT_255_1_388
10
17.7330418
20
86.6997173
40
0.2845966
50
25.754382
51
51.0957456
0
ARC
8
DEFAULT_255_1_388
10
17.7331785
20
86.7053311
40
0.2820785
50
359.2468358
51
24.7393861
0
ARC
8
DEFAULT_255_1_388
10
17.7011672
20
86.7021204
40
0.1460032
50
359.8048924
51
45.1543866
0
ARC
8
DEFAULT_255_1_388
10
17.6553406
20
86.6629291
40
0.2061641
50
43.8053172
51
49.625485
0
ARC
8
DEFAULT_255_1_388
10
17.6562848
20
86.6630849
40
0.2054344
50
49.7979696
51
82.121802
0
ARC
8
DEFAULT_255_1_388
10
17.6428931
20
86.5903473
40
0.2793404
50
81.4458692
51
90.1707936
0
ARC
8
DEFAULT_255_1_388
10
17.6401508
20
86.5311478
40
0.3385438
50
89.6768097
51
99.1267111
0
ARC
8
DEFAULT_255_1_388
10
17.620849
20
86.6474405
40
0.2206627
50
98.9679878
51
113.4573418
0
ARC
8
DEFAULT_255_1_388
10
17.598817
20
86.7001193
40
0.1635691
50
113.7230234
51
127.4758155
0
ARC
8
DEFAULT_255_1_388
10
17.5798752
20
86.7226433
40
0.1341757
50
126.9086647
51
150.3160891
0
ARC
8
DEFAULT_255_1_388
10
17.5745083
20
86.728368
40
0.1266992
50
151.363328
51
180.0701537
0
ARC
8
DEFAULT_255_1_388
10
17.6055304
20
86.726023
40
0.1577364
50
179.2045432
51
180.0012892
0
ARC
8
DEFAULT_255_1_388
10
17.5686415
20
86.7245515
40
0.1208564
50
179.3040542
51
198.4225767
0
ARC
8
DEFAULT_255_1_388
10
17.5470557
20
86.7189337
40
0.0986126
50
199.2893055
51
238.6036855
0
ARC
8
DEFAULT_255_1_388
10
17.614865
20
86.8253752
40
0.2248082
50
237.9844191
51
246.8751643
0
ARC
8
DEFAULT_255_1_388
10
17.711351
20
87.0460861
40
0.4656832
50
246.6226408
51
251.8174794
0
ARC
8
DEFAULT_255_1_388
10
17.8273977
20
87.3945909
40
0.8329993
50
251.7140983
51
255.0775146
0
ARC
8
DEFAULT_255_1_388
10
17.9623502
20
87.8972708
40
1.3534786
50
255.0370864
51
257.4701577
0
ARC
8
DEFAULT_255_1_388
10
17.3876046
20
85.3078535
40
1.298957
50
73.6835762
51
77.5015749
0
ARC
8
DEFAULT_255_1_388
10
17.5100961
20
85.7240699
40
0.8650912
50
68.7042835
51
73.7249997
0
ARC
8
DEFAULT_255_1_388
10
17.6116525
20
85.9857853
40
0.584363
50
63.5907059
51
68.6622978
0
ARC
8
DEFAULT_255_1_388
10
17.6984266
20
86.1588157
40
0.3907955
50
54.7106507
51
63.7018033
0
ARC
8
DEFAULT_255_1_388
10
17.7686653
20
86.2569287
40
0.2701345
50
41.0624597
51
54.8488532
0
ARC
8
DEFAULT_255_1_388
10
17.8070432
20
86.2921439
40
0.2180695
50
34.4952722
51
40.7097584
0
ARC
8
DEFAULT_255_1_388
10
17.8123397
20
86.2976204
40
0.2106083
50
9.3761233
51
34.0834046
0
ARC
8
DEFAULT_255_1_388
10
17.7388526
20
86.2835174
40
0.2854177
50
359.7695264
51
9.7660556
0
ARC
8
DEFAULT_255_1_388
10
17.7610819
20
86.2786841
40
0.2632121
50
335.8653103
51
0.8022272
0
ARC
8
DEFAULT_255_1_388
10
17.7695224
20
86.2801951
40
0.2561728
50
307.7357819
51
334.7849324
0
ARC
8
DEFAULT_255_1_388
10
17.7249865
20
86.3301553
40
0.3229737
50
307.0217048
51
308.5596894
0
ARC
8
DEFAULT_255_1_388
10
17.695445
20
86.3743063
40
0.3760237
50
282.9361285
51
306.5649033
0
ARC
8
DEFAULT_255_1_388
10
17.6547511
20
86.5393871
40
0.5460314
50
271.1026197
51
283.2199962
0
ARC
8
DEFAULT_255_1_388
10
17.64757
20
86.6794744
40
0.6862456
50
269.9926344
51
271.4770056
0
ARC
8
DEFAULT_255_1_388
10
17.644627
20
86.5577633
40
0.5645418
50
259.0723633
51
270.2897324
0
ARC
8
DEFAULT_255_1_388
10
17.6207495
20
86.4320887
40
0.4366198
50
245.4965026
51
259.0225745
0
ARC
8
DEFAULT_255_1_388
10
17.5894711
20
86.3666491
40
0.3641037
50
228.9686619
51
245.7042678
0
ARC
8
DEFAULT_255_1_388
10
17.5595986
20
86.3298573
40
0.3167435
50
214.4015391
51
228.6759028
0
ARC
8
DEFAULT_255_1_388
10
17.5270483
20
86.3120429
40
0.2798456
50
179.9704983
51
215.1574389
0
ARC
8
DEFAULT_255_1_388
10
17.6058696
20
86.3203148
40
0.1916798
50
182.430239
51
203.0329751
0
ARC
8
DEFAULT_255_1_388
10
17.5851292
20
86.3139675
40
0.1701248
50
203.7987464
51
232.5483345
0
ARC
8
DEFAULT_255_1_388
10
17.6162376
20
86.3535049
40
0.2204299
50
232.3784541
51
256.3934343
0
ARC
8
DEFAULT_255_1_388
10
17.6421523
20
86.4536359
40
0.3238512
50
256.1048329
51
268.4627478
0
ARC
8
DEFAULT_255_1_388
10
17.6473943
20
86.5440297
40
0.4143627
50
268.0734924
51
270.0121004
0
ARC
8
DEFAULT_255_1_388
10
17.6494661
20
86.5126191
40
0.3829573
50
269.7031202
51
278.8338867
0
ARC
8
DEFAULT_255_1_388
10
17.6699525
20
86.3854553
40
0.2541568
50
278.6727378
51
292.82331
0
ARC
8
DEFAULT_255_1_388
10
17.6925072
20
86.3290546
40
0.1934264
50
293.1457581
51
303.6656964
0
ARC
8
DEFAULT_255_1_388
10
17.7223145
20
86.2867159
40
0.1416713
50
303.1245849
51
321.7434683
0
ARC
8
DEFAULT_255_1_388
10
17.7432226
20
86.268378
40
0.1139081
50
322.4747616
51
1.1293039
0
LINE
8
DEFAULT_255_2_778
10
9.3932335
20
76.596908
11
10.7161335
21
76.596908
0
LINE
8
DEFAULT_255_2_778
10
10.7161335
20
76.596908
11
10.7161335
21
51.461508
0
LINE
8
DEFAULT_255_2_778
10
19.9765335
20
76.596908
11
18.6536335
21
76.596908
0
LINE
8
DEFAULT_255_2_778
10
18.6536335
20
76.596908
11
18.6536335
21
51.461508
0
LINE
8
DEFAULT_255_2_778
10
17.3307834
20
51.4614333
11
19.9765834
21
51.4614333
0
LINE
8
DEFAULT_255_2_778
10
19.9765834
20
51.4614333
11
19.9765834
21
46.1697333
0
LINE
8
DEFAULT_255_2_778
10
19.9765834
20
46.1697333
11
17.3307834
21
46.1697333
0
LINE
8
DEFAULT_255_2_778
10
17.3307834
20
46.1697333
11
17.3307834
21
51.4614333
0
LINE
8
DEFAULT_255_2_778
10
18.1245
20
46.6989666
11
18.1245
21
50.9322666
0
LINE
8
DEFAULT_255_2_778
10
17.8599167
20
50.138575
11
18.1245167
21
50.932275
0
LINE
8
DEFAULT_255_2_778
10
18.1245167
20
50.932275
11
18.3891167
21
50.138575
0
LINE
8
DEFAULT_255_2_778
10
18.3891167
20
50.138575
11
17.8599167
21
50.138575
0
LINE
8
DEFAULT_255_2_778
10
19.1828
20
50.9322666
11
19.1828
21
46.6989666
0
LINE
8
DEFAULT_255_2_778
10
18.9182167
20
47.492675
11
19.1828167
21
46.698975
0
LINE
8
DEFAULT_255_2_778
10
19.1828167
20
46.698975
11
19.4474167
21
47.492675
0
LINE
8
DEFAULT_255_2_778
10
19.4474167
20
47.492675
11
18.9182167
21
47.492675
0
LINE
8
DEFAULT_255_2_778
10
9.3932834
20
51.4614333
11
12.0390834
21
51.4614333
0
LINE
8
DEFAULT_255_2_778
10
12.0390834
20
51.4614333
11
12.0390834
21
46.1697333
0
LINE
8
DEFAULT_255_2_778
10
12.0390834
20
46.1697333
11
9.3932834
21
46.1697333
0
LINE
8
DEFAULT_255_2_778
10
9.3932834
20
46.1697333
11
9.3932834
21
51.4614333
0
LINE
8
DEFAULT_255_2_778
10
10.187
20
46.6989666
11
10.187
21
50.9322666
0
LINE
8
DEFAULT_255_2_778
10
9.9224167
20
50.138575
11
10.1870167
21
50.932275
0
LINE
8
DEFAULT_255_2_778
10
10.1870167
20
50.932275
11
10.4516167
21
50.138575
0
LINE
8
DEFAULT_255_2_778
10
10.4516167
20
50.138575
11
9.9224167
21
50.138575
0
LINE
8
DEFAULT_255_2_778
10
11.2453
20
50.9322666
11
11.2453
21
46.6989666
0
LINE
8
DEFAULT_255_2_778
10
10.9807167
20
47.492675
11
11.2453167
21
46.698975
0
LINE
8
DEFAULT_255_2_778
10
11.2453167
20
46.698975
11
11.5099167
21
47.492675
0
LINE
8
DEFAULT_255_2_778
10
11.5099167
20
47.492675
11
10.9807167
21
47.492675
0
LINE
8
DEFAULT_255_2_778
10
10.7161335
20
46.169808
11
10.7161335
21
21.034408
0
LINE
8
DEFAULT_255_2_778
10
10.7161335
20
21.034408
11
9.3932335
21
21.034408
0
LINE
8
DEFAULT_255_2_778
10
18.6536335
20
46.169808
11
18.6536335
21
21.034408
0
LINE
8
DEFAULT_255_2_778
10
18.6536335
20
21.034408
11
19.9765335
21
21.034408
0
LINE
8
DEFAULT_255_1_388
10
4.8798318
20
84.1633382
11
4.8798318
21
84.0269
0
LINE
8
DEFAULT_255_1_388
10
4.8798318
20
84.0269
11
4.0178313
21
84.0269
0
LINE
8
DEFAULT_255_1_388
10
4.0178313
20
84.0269
11
4.0178313
21
84.1470741
0
LINE
8
DEFAULT_255_1_388
10
4.0178313
20
84.1470741
11
4.4732278
21
84.6530702
0
LINE
8
DEFAULT_255_1_388
10
4.1596909
20
84.9548607
11
3.9925315
21
84.9548607
0
LINE
8
DEFAULT_255_1_388
10
4.5717163
20
84.545546
11
4.2193262
21
84.1633382
0
LINE
8
DEFAULT_255_1_388
10
4.2193262
20
84.1633382
11
4.8798318
21
84.1633382
0
ARC
8
DEFAULT_255_1_388
10
2.9556337
20
85.9950983
40
2.0258655
50
318.5132526
51
320.7829045
0
ARC
8
DEFAULT_255_1_388
10
3.5504294
20
85.5109929
40
1.2589638
50
320.7372878
51
323.9739031
0
ARC
8
DEFAULT_255_1_388
10
3.9913226
20
85.1915554
40
0.7145141
50
323.8962701
51
328.64194
0
ARC
8
DEFAULT_255_1_388
10
4.2215484
20
85.0495545
40
0.4440242
50
328.8294576
51
331.7891185
0
ARC
8
DEFAULT_255_1_388
10
4.3337804
20
84.9916374
40
0.3177517
50
331.4254512
51
352.9365785
0
ARC
8
DEFAULT_255_1_388
10
4.3490804
20
84.988205
40
0.3021496
50
353.2257659
51
0.0166158
0
ARC
8
DEFAULT_255_1_388
10
4.3727564
20
84.9907894
40
0.2784847
50
359.486299
51
15.9343185
0
ARC
8
DEFAULT_255_1_388
10
4.4297831
20
85.0061269
40
0.2194403
50
16.1712913
51
43.5286088
0
ARC
8
DEFAULT_255_1_388
10
4.4384776
20
85.0148191
40
0.2071504
50
43.4417391
51
83.1661095
0
ARC
8
DEFAULT_255_1_388
10
4.4233937
20
84.9319316
40
0.2912888
50
82.160179
51
90.1505708
0
ARC
8
DEFAULT_255_1_388
10
4.4198418
20
84.8715279
40
0.3517025
50
89.5460741
51
102.5418361
0
ARC
8
DEFAULT_255_1_388
10
4.3925138
20
84.9874933
40
0.2325748
50
102.1738499
51
129.206123
0
ARC
8
DEFAULT_255_1_388
10
4.3836592
20
85.0014664
40
0.2161591
50
129.72865
51
135.753947
0
ARC
8
DEFAULT_255_1_388
10
4.3973074
20
84.9905728
40
0.2335433
50
136.1757367
51
166.3673339
0
ARC
8
DEFAULT_255_1_388
10
4.5105762
20
84.9602148
40
0.3507873
50
165.9090694
51
178.8684636
0
ARC
8
DEFAULT_255_1_388
10
4.6081534
20
84.9549263
40
0.4484624
50
178.4391136
51
180.0083808
0
ARC
8
DEFAULT_255_1_388
10
4.4502235
20
84.9593197
40
0.4577138
50
163.2878482
51
180.5581842
0
ARC
8
DEFAULT_255_1_388
10
4.3600276
20
84.9841393
40
0.3641968
50
133.4540601
51
162.947111
0
ARC
8
DEFAULT_255_1_388
10
4.3801158
20
84.9627789
40
0.3935189
50
100.7869829
51
133.4382499
0
ARC
8
DEFAULT_255_1_388
10
4.4192403
20
84.7885399
40
0.5720313
50
89.660664
51
101.3702276
0
ARC
8
DEFAULT_255_1_388
10
4.4267012
20
84.7954263
40
0.5651495
50
78.2172678
51
90.412935
0
ARC
8
DEFAULT_255_1_388
10
4.4666478
20
84.9781511
40
0.378122
50
55.9269121
51
78.4888449
0
ARC
8
DEFAULT_255_1_388
10
4.4887193
20
85.0162187
40
0.3342379
50
47.929771
51
55.4049217
0
ARC
8
DEFAULT_255_1_388
10
4.5001723
20
85.0278618
40
0.3179217
50
4.334829
51
48.0560205
0
ARC
8
DEFAULT_255_1_388
10
4.3769525
20
85.0087487
40
0.442341
50
359.9251713
51
5.5971671
0
ARC
8
DEFAULT_255_1_388
10
4.425168
20
85.0150728
40
0.3941854
50
337.8914027
51
358.9967534
0
ARC
8
DEFAULT_255_1_388
10
4.119925
20
85.1328295
40
0.7213271
50
326.9132501
51
338.3508308
0
ARC
8
DEFAULT_255_1_388
10
3.6715362
20
85.4202105
40
1.2538973
50
319.6471833
51
327.0959558
0
ARC
8
DEFAULT_255_1_388
10
3.240202
20
85.776005
40
1.8129975
50
317.2588228
51
319.9045804
0
LINE
8
DEFAULT_255_1_388
10
5.7626143
20
85.3424898
11
5.7626143
21
84.468743
0
LINE
8
DEFAULT_255_1_388
10
5.7626143
20
84.468743
11
5.9451343
21
84.468743
0
LINE
8
DEFAULT_255_1_388
10
5.9451343
20
84.468743
11
5.9451343
21
84.3323048
0
LINE
8
DEFAULT_255_1_388
10
5.9451343
20
84.3323048
11
5.7626143
21
84.3323048
0
LINE
8
DEFAULT_255_1_388
10
5.7626143
20
84.3323048
11
5.7626143
21
84.0269
0
LINE
8
DEFAULT_255_1_388
10
5.7626143
20
84.0269
11
5.5945513
21
84.0269
0
LINE
8
DEFAULT_255_1_388
10
5.5945513
20
84.0269
11
5.5945513
21
84.3323048
0
LINE
8
DEFAULT_255_1_388
10
5.5945513
20
84.3323048
11
4.995488
21
84.3323048
0
LINE
8
DEFAULT_255_1_388
10
4.995488
20
84.3323048
11
4.995488
21
84.4307933
0
LINE
8
DEFAULT_255_1_388
10
4.995488
20
84.4307933
11
5.5846121
21
85.3424898
0
LINE
8
DEFAULT_255_1_388
10
5.5846121
20
85.3424898
11
5.7626143
21
85.3424898
0
LINE
8
DEFAULT_255_1_388
10
5.5746729
20
85.0777455
11
5.1852366
21
84.468743
0
LINE
8
DEFAULT_255_1_388
10
5.1852366
20
84.468743
11
5.5945513
21
84.468743
0
LINE
8
DEFAULT_255_1_388
10
5.5945513
20
84.468743
11
5.5945513
21
85.113888
0
LINE
8
DEFAULT_255_1_388
10
5.5945513
20
85.113888
11
5.5746729
21
85.0777455
0
LINE
8
DEFAULT_255_1_388
10
6.200843
20
85.3424898
11
6.5749187
21
84.2573089
0
LINE
8
DEFAULT_255_1_388
10
6.5749187
20
84.2573089
11
6.9508015
21
85.3424898
0
LINE
8
DEFAULT_255_1_388
10
6.9508015
20
85.3424898
11
7.14055
21
85.3424898
0
LINE
8
DEFAULT_255_1_388
10
7.14055
20
85.3424898
11
6.6526252
21
84.0269
0
LINE
8
DEFAULT_255_1_388
10
6.6526252
20
84.0269
11
6.4990193
21
84.0269
0
LINE
8
DEFAULT_255_1_388
10
6.4990193
20
84.0269
11
6.011998
21
85.3424898
0
LINE
8
DEFAULT_255_1_388
10
6.011998
20
85.3424898
11
6.200843
21
85.3424898
0
LINE
8
DEFAULT_255_1_388
10
4.784032
20
5.0693468
11
4.9584199
21
5.0693468
0
LINE
8
DEFAULT_255_1_388
10
3.9455242
20
5.2482525
11
3.9455242
21
5.3747516
0
LINE
8
DEFAULT_255_1_388
10
4.9584199
20
5.5446217
11
4.784032
21
5.5446217
0
LINE
8
DEFAULT_255_1_388
10
4.1199121
20
5.3702337
11
4.1199121
21
5.2428312
0
ARC
8
DEFAULT_255_1_388
10
4.3418433
20
5.1365329
40
0.6202263
50
340.1774904
51
353.7812217
0
ARC
8
DEFAULT_255_1_388
10
4.5186286
20
5.0706893
40
0.4315926
50
311.4560052
51
340.4420756
0
ARC
8
DEFAULT_255_1_388
10
4.5148826
20
5.0831665
40
0.4434573
50
282.4332229
51
310.7514507
0
ARC
8
DEFAULT_255_1_388
10
4.4654644
20
5.2873703
40
0.6535262
50
269.9358869
51
282.8096729
0
ARC
8
DEFAULT_255_1_388
10
4.4596583
20
5.4386329
40
0.8048043
50
269.9995752
51
270.3612856
0
ARC
8
DEFAULT_255_1_388
10
4.4537073
20
5.1587781
40
0.5249831
50
250.7885263
51
270.6488451
0
ARC
8
DEFAULT_255_1_388
10
4.4347898
20
5.0870853
40
0.4510942
50
219.3628377
51
250.0611024
0
ARC
8
DEFAULT_255_1_388
10
4.5280772
20
5.1663653
40
0.5735046
50
193.5480293
51
219.5755675
0
ARC
8
DEFAULT_255_1_388
10
4.7948981
20
5.235652
40
0.849146
50
181.1220183
51
193.8754971
0
ARC
8
DEFAULT_255_1_388
10
5.0272214
20
5.2480914
40
1.0816971
50
179.9914644
51
181.5398227
0
ARC
8
DEFAULT_255_1_388
10
4.8195525
20
5.3789586
40
0.8740384
50
169.5837606
51
180.275782
0
ARC
8
DEFAULT_255_1_388
10
4.6128873
20
5.4171439
40
0.6638751
50
155.0367033
51
169.6002779
0
ARC
8
DEFAULT_255_1_388
10
4.4851331
20
5.4787336
40
0.5220662
50
136.7831557
51
155.2472983
0
ARC
8
DEFAULT_255_1_388
10
4.4413122
20
5.5159577
40
0.4646502
50
121.7633063
51
136.4281161
0
ARC
8
DEFAULT_255_1_388
10
4.4564962
20
5.4879049
40
0.4964979
50
95.6460018
51
121.5489589
0
ARC
8
DEFAULT_255_1_388
10
4.4741936
20
5.3631704
40
0.6223912
50
89.9245727
51
96.1375919
0
ARC
8
DEFAULT_255_1_388
10
4.4798641
20
5.3765721
40
0.6090084
50
76.6779212
51
90.456405
0
ARC
8
DEFAULT_255_1_388
10
4.5241454
20
5.555506
40
0.42469
50
47.4858803
51
76.9287069
0
ARC
8
DEFAULT_255_1_388
10
4.5076068
20
5.5442623
40
0.4441778
50
16.5424081
51
46.8934505
0
ARC
8
DEFAULT_255_1_388
10
4.3267118
20
5.4848265
40
0.6345318
50
5.4072971
51
17.0363711
0
ARC
8
DEFAULT_255_1_388
10
4.1648843
20
5.4588304
40
0.6250632
50
7.8888693
51
15.9242022
0
ARC
8
DEFAULT_255_1_388
10
4.3883828
20
5.5237309
40
0.3923364
50
15.7650676
51
27.9410069
0
ARC
8
DEFAULT_255_1_388
10
4.5125997
20
5.5902317
40
0.2514401
50
27.8167196
51
46.4007942
0
ARC
8
DEFAULT_255_1_388
10
4.5181839
20
5.5895882
40
0.2480958
50
47.4372362
51
75.0695672
0
ARC
8
DEFAULT_255_1_388
10
4.4834675
20
5.4687277
40
0.3738281
50
74.7009379
51
87.8124314
0
ARC
8
DEFAULT_255_1_388
10
4.4752292
20
5.3503659
40
0.4924321
50
87.3802571
51
90.0251599
0
ARC
8
DEFAULT_255_1_388
10
4.4708939
20
5.4823997
40
0.3604218
50
89.3451886
51
108.5744412
0
ARC
8
DEFAULT_255_1_388
10
4.4554931
20
5.5401836
40
0.3007661
50
109.2998307
51
143.3037387
0
ARC
8
DEFAULT_255_1_388
10
4.5412221
20
5.4742584
40
0.4089031
50
143.075267
51
163.1918576
0
ARC
8
DEFAULT_255_1_388
10
4.7608055
20
5.4049652
40
0.6391492
50
162.9375929
51
174.6208776
0
ARC
8
DEFAULT_255_1_388
10
5.0562437
20
5.3725711
40
0.9363344
50
174.342123
51
180.1430283
0
ARC
8
DEFAULT_255_1_388
10
4.9514978
20
5.2382117
40
0.8315986
50
179.6817261
51
189.150555
0
ARC
8
DEFAULT_255_1_388
10
4.6701727
20
5.1913559
40
0.5464044
50
188.9911061
51
203.5772363
0
ARC
8
DEFAULT_255_1_388
10
4.5487019
20
5.1409539
40
0.4149206
50
203.9075402
51
215.1312435
0
ARC
8
DEFAULT_255_1_388
10
4.4448817
20
5.0604907
40
0.2837747
50
213.9071511
51
263.8848919
0
ARC
8
DEFAULT_255_1_388
10
4.458981
20
5.1487519
40
0.3730641
50
263.1757928
51
270.1031044
0
ARC
8
DEFAULT_255_1_388
10
4.462589
20
5.2890511
40
0.5133712
50
269.6722503
51
279.0606936
0
ARC
8
DEFAULT_255_1_388
10
4.4926045
20
5.107615
40
0.3294739
50
278.8749101
51
293.6349581
0
ARC
8
DEFAULT_255_1_388
10
4.5286249
20
5.0230251
40
0.2375405
50
293.8553806
51
310.0518171
0
ARC
8
DEFAULT_255_1_388
10
4.5291758
20
5.0160021
40
0.2318463
50
311.0644687
51
332.0111037
0
ARC
8
DEFAULT_255_1_388
10
4.3950431
20
5.0899702
40
0.3850112
50
331.6586806
51
343.2877423
0
ARC
8
DEFAULT_255_1_388
10
4.1629896
20
5.1612806
40
0.6277712
50
343.1446576
51
351.0103568
0
ARC
8
DEFAULT_255_1_388
10
3.999722
20
5.1912873
40
0.7937327
50
350.71248
51
351.1626997
0
LINE
8
DEFAULT_255_1_388
10
6.207146
20
5.3503553
11
6.207146
21
5.2672274
0
LINE
8
DEFAULT_255_1_388
10
5.149072
20
5.2554811
11
5.149072
21
5.3503553
0
LINE
8
DEFAULT_255_1_388
10
6.0345652
20
5.2545775
11
6.0345652
21
5.3521625
0
LINE
8
DEFAULT_255_1_388
10
5.3216528
20
5.3639088
11
5.3216528
21
5.2672274
0
ARC
8
DEFAULT_255_1_388
10
5.2349198
20
5.2627726
40
0.9722364
50
350.4878118
51
0.2625322
0
ARC
8
DEFAULT_255_1_388
10
5.4929158
20
5.2183994
40
0.7104556
50
336.0277991
51
350.5787241
0
ARC
8
DEFAULT_255_1_388
10
5.6442265
20
5.1500243
40
0.544417
50
319.887443
51
336.1331163
0
ARC
8
DEFAULT_255_1_388
10
5.7120077
20
5.0957733
40
0.4576311
50
302.4806296
51
319.6144102
0
ARC
8
DEFAULT_255_1_388
10
5.6990699
20
5.1207067
40
0.4856183
50
275.8196423
51
302.1885521
0
ARC
8
DEFAULT_255_1_388
10
5.680356
20
5.2492466
40
0.6154183
50
269.9169897
51
276.339506
0
ARC
8
DEFAULT_255_1_388
10
5.6753161
20
5.172068
40
0.5382553
50
252.5221437
51
270.441579
0
ARC
8
DEFAULT_255_1_388
10
5.6591411
20
5.1114046
40
0.4755426
50
237.5349961
51
252.1858334
0
ARC
8
DEFAULT_255_1_388
10
5.6691787
20
5.124212
40
0.4917393
50
209.0632754
51
237.3492577
0
ARC
8
DEFAULT_255_1_388
10
5.7671113
20
5.1857104
40
0.6072464
50
205.118533
51
209.6465345
0
ARC
8
DEFAULT_255_1_388
10
5.8567115
20
5.2237174
40
0.7045164
50
188.7216633
51
204.8239753
0
ARC
8
DEFAULT_255_1_388
10
6.0813891
20
5.2615387
40
0.9323368
50
180.3722704
51
188.9253909
0
ARC
8
DEFAULT_255_1_388
10
6.0783452
20
5.3548416
40
0.929284
50
169.5253055
51
180.2766048
0
ARC
8
DEFAULT_255_1_388
10
5.8643251
20
5.3942024
40
0.7116745
50
155.8314601
51
169.5088611
0
ARC
8
DEFAULT_255_1_388
10
5.7202714
20
5.4610312
40
0.5528904
50
139.6259579
51
156.0379072
0
ARC
8
DEFAULT_255_1_388
10
5.6539248
20
5.5144143
40
0.4677708
50
122.6414784
51
139.3431662
0
ARC
8
DEFAULT_255_1_388
10
5.6652503
20
5.4937787
40
0.4912586
50
93.0224537
51
122.4556091
0
ARC
8
DEFAULT_255_1_388
10
5.6774023
20
5.3851776
40
0.6003837
50
89.9756766
51
93.6340839
0
ARC
8
DEFAULT_255_1_388
10
5.6817621
20
5.4300879
40
0.5554884
50
73.7463329
51
90.4234008
0
ARC
8
DEFAULT_255_1_388
10
5.7015094
20
5.5065772
40
0.4765353
50
57.663051
51
73.4516911
0
ARC
8
DEFAULT_255_1_388
10
5.7006132
20
5.5090108
40
0.4749629
50
29.1441355
51
57.4146687
0
ARC
8
DEFAULT_255_1_388
10
5.5953943
20
5.4433046
40
0.5988917
50
24.0985653
51
29.732054
0
ARC
8
DEFAULT_255_1_388
10
5.4791575
20
5.3951154
40
0.7246823
50
8.6654943
51
23.8241215
0
ARC
8
DEFAULT_255_1_388
10
5.2277994
20
5.3541037
40
0.9793537
50
359.7807044
51
8.8218476
0
ARC
8
DEFAULT_255_1_388
10
5.0987698
20
5.3569731
40
0.9358078
50
359.7054632
51
8.0359751
0
ARC
8
DEFAULT_255_1_388
10
5.4362749
20
5.4061252
40
0.5947474
50
7.8926278
51
20.2962188
0
ARC
8
DEFAULT_255_1_388
10
5.61936
20
5.4736367
40
0.3996117
50
20.3231056
51
36.4990255
0
ARC
8
DEFAULT_255_1_388
10
5.6964897
20
5.5330399
40
0.3022818
50
36.1436715
51
85.6627846
0
ARC
8
DEFAULT_255_1_388
10
5.6782152
20
5.4160881
40
0.4203853
50
84.3845912
51
90.076054
0
ARC
8
DEFAULT_255_1_388
10
5.6734507
20
5.4903416
40
0.346157
50
89.3037228
51
109.9046209
0
ARC
8
DEFAULT_255_1_388
10
5.663034
20
5.5333379
40
0.3022217
50
110.8229774
51
143.917961
0
ARC
8
DEFAULT_255_1_388
10
5.76807
20
5.4531455
40
0.434348
50
143.5289166
51
163.2980252
0
ARC
8
DEFAULT_255_1_388
10
5.9826987
20
5.3856685
40
0.659321
50
163.0418884
51
174.3139873
0
ARC
8
DEFAULT_255_1_388
10
6.2531951
20
5.3544378
40
0.9315905
50
174.050934
51
179.4174954
0
ARC
8
DEFAULT_255_1_388
10
6.1963895
20
5.2625382
40
0.8747493
50
179.6928582
51
188.7908948
0
ARC
8
DEFAULT_255_1_388
10
5.8967695
20
5.2146086
40
0.5713262
50
188.6328449
51
202.5630732
0
ARC
8
DEFAULT_255_1_388
10
5.7556532
20
5.1579142
40
0.4192612
50
202.8078931
51
216.1195888
0
ARC
8
DEFAULT_255_1_388
10
5.6646049
20
5.0846479
40
0.3025752
50
215.0755613
51
264.6379773
0
ARC
8
DEFAULT_255_1_388
10
5.6788887
20
5.1781376
40
0.3970284
50
263.8464302
51
270.0830805
0
ARC
8
DEFAULT_255_1_388
10
5.6835431
20
5.1490808
40
0.3679937
50
269.3649295
51
287.5149684
0
ARC
8
DEFAULT_255_1_388
10
5.7035872
20
5.0762714
40
0.2925408
50
288.0629019
51
323.8115617
0
ARC
8
DEFAULT_255_1_388
10
5.6055848
20
5.1493754
40
0.4148018
50
323.6546541
51
342.6591359
0
ARC
8
DEFAULT_255_1_388
10
5.3770506
20
5.223728
40
0.6551163
50
342.4092446
51
353.6451501
0
ARC
8
DEFAULT_255_1_388
10
5.05853
20
5.2633565
40
0.9760748
50
353.4027553
51
359.4846611
0
LINE
8
DEFAULT_255_1_388
10
6.4673726
20
5.9674898
11
6.6914565
21
5.9674898
0
LINE
8
DEFAULT_255_1_388
10
6.6914565
20
5.9674898
11
7.1215532
21
4.8940553
0
LINE
8
DEFAULT_255_1_388
10
7.1215532
20
4.8940553
11
7.5516499
21
5.9674898
0
LINE
8
DEFAULT_255_1_388
10
7.5516499
20
5.9674898
11
7.7766375
21
5.9674898
0
LINE
8
DEFAULT_255_1_388
10
7.7766375
20
5.9674898
11
7.7766375
21
4.6519
0
LINE
8
DEFAULT_255_1_388
10
7.7766375
20
4.6519
11
7.6031531
21
4.6519
0
LINE
8
DEFAULT_255_1_388
10
7.6031531
20
4.6519
11
7.6031531
21
5.164221
0
LINE
8
DEFAULT_255_1_388
10
7.6031531
20
5.164221
11
7.6194172
21
5.7172025
0
LINE
8
DEFAULT_255_1_388
10
7.6194172
20
5.7172025
11
7.1875134
21
4.6519
0
LINE
8
DEFAULT_255_1_388
10
7.1875134
20
4.6519
11
7.0546895
21
4.6519
0
LINE
8
DEFAULT_255_1_388
10
7.0546895
20
4.6519
11
6.6236892
21
5.7144918
0
LINE
8
DEFAULT_255_1_388
10
6.6236892
20
5.7144918
11
6.6408569
21
5.164221
0
LINE
8
DEFAULT_255_1_388
10
6.6408569
20
5.164221
11
6.6408569
21
4.6519
0
LINE
8
DEFAULT_255_1_388
10
6.6408569
20
4.6519
11
6.4673726
21
4.6519
0
LINE
8
DEFAULT_255_1_388
10
6.4673726
20
4.6519
11
6.4673726
21
5.9674898
0
LINE
8
DEFAULT_255_1_388
10
4.784032
20
13.0068468
11
4.9584199
21
13.0068468
0
LINE
8
DEFAULT_255_1_388
10
3.9455242
20
13.1857525
11
3.9455242
21
13.3122516
0
LINE
8
DEFAULT_255_1_388
10
4.9584199
20
13.4821217
11
4.784032
21
13.4821217
0
LINE
8
DEFAULT_255_1_388
10
4.1199121
20
13.3077337
11
4.1199121
21
13.1803312
0
ARC
8
DEFAULT_255_1_388
10
4.3418433
20
13.0740329
40
0.6202263
50
340.1774904
51
353.7812217
0
ARC
8
DEFAULT_255_1_388
10
4.5186286
20
13.0081893
40
0.4315926
50
311.4560052
51
340.4420756
0
ARC
8
DEFAULT_255_1_388
10
4.5148826
20
13.0206665
40
0.4434573
50
282.4332229
51
310.7514507
0
ARC
8
DEFAULT_255_1_388
10
4.4654644
20
13.2248703
40
0.6535262
50
269.9358869
51
282.8096729
0
ARC
8
DEFAULT_255_1_388
10
4.4596583
20
13.3761329
40
0.8048043
50
269.9995752
51
270.3612856
0
ARC
8
DEFAULT_255_1_388
10
4.4537073
20
13.0962781
40
0.5249831
50
250.7885263
51
270.6488451
0
ARC
8
DEFAULT_255_1_388
10
4.4347898
20
13.0245853
40
0.4510942
50
219.3628377
51
250.0611024
0
ARC
8
DEFAULT_255_1_388
10
4.5280772
20
13.1038653
40
0.5735046
50
193.5480293
51
219.5755675
0
ARC
8
DEFAULT_255_1_388
10
4.7948981
20
13.173152
40
0.849146
50
181.1220183
51
193.8754971
0
ARC
8
DEFAULT_255_1_388
10
5.0272214
20
13.1855914
40
1.0816971
50
179.9914644
51
181.5398227
0
ARC
8
DEFAULT_255_1_388
10
4.8195525
20
13.3164586
40
0.8740384
50
169.5837606
51
180.275782
0
ARC
8
DEFAULT_255_1_388
10
4.6128873
20
13.3546439
40
0.6638751
50
155.0367033
51
169.6002779
0
ARC
8
DEFAULT_255_1_388
10
4.4851331
20
13.4162336
40
0.5220662
50
136.7831557
51
155.2472983
0
ARC
8
DEFAULT_255_1_388
10
4.4413122
20
13.4534577
40
0.4646502
50
121.7633063
51
136.4281161
0
ARC
8
DEFAULT_255_1_388
10
4.4564962
20
13.4254049
40
0.4964979
50
95.6460018
51
121.5489589
0
ARC
8
DEFAULT_255_1_388
10
4.4741936
20
13.3006704
40
0.6223912
50
89.9245727
51
96.1375919
0
ARC
8
DEFAULT_255_1_388
10
4.4798641
20
13.3140721
40
0.6090084
50
76.6779212
51
90.456405
0
ARC
8
DEFAULT_255_1_388
10
4.5241454
20
13.493006
40
0.42469
50
47.4858803
51
76.9287069
0
ARC
8
DEFAULT_255_1_388
10
4.5076068
20
13.4817623
40
0.4441778
50
16.5424081
51
46.8934505
0
ARC
8
DEFAULT_255_1_388
10
4.3267118
20
13.4223265
40
0.6345318
50
5.4072971
51
17.0363711
0
ARC
8
DEFAULT_255_1_388
10
4.1648843
20
13.3963304
40
0.6250632
50
7.8888693
51
15.9242022
0
ARC
8
DEFAULT_255_1_388
10
4.3883828
20
13.4612309
40
0.3923364
50
15.7650676
51
27.9410069
0
ARC
8
DEFAULT_255_1_388
10
4.5125997
20
13.5277317
40
0.2514401
50
27.8167196
51
46.4007942
0
ARC
8
DEFAULT_255_1_388
10
4.5181839
20
13.5270882
40
0.2480958
50
47.4372362
51
75.0695672
0
ARC
8
DEFAULT_255_1_388
10
4.4834675
20
13.4062277
40
0.3738281
50
74.7009379
51
87.8124314
0
ARC
8
DEFAULT_255_1_388
10
4.4752292
20
13.2878659
40
0.4924321
50
87.3802571
51
90.0251599
0
ARC
8
DEFAULT_255_1_388
10
4.4708939
20
13.4198997
40
0.3604218
50
89.3451886
51
108.5744412
0
ARC
8
DEFAULT_255_1_388
10
4.4554931
20
13.4776836
40
0.3007661
50
109.2998307
51
143.3037387
0
ARC
8
DEFAULT_255_1_388
10
4.5412221
20
13.4117584
40
0.4089031
50
143.075267
51
163.1918576
0
ARC
8
DEFAULT_255_1_388
10
4.7608055
20
13.3424652
40
0.6391492
50
162.9375929
51
174.6208776
0
ARC
8
DEFAULT_255_1_388
10
5.0562437
20
13.3100711
40
0.9363344
50
174.342123
51
180.1430283
0
ARC
8
DEFAULT_255_1_388
10
4.9514978
20
13.1757117
40
0.8315986
50
179.6817261
51
189.150555
0
ARC
8
DEFAULT_255_1_388
10
4.6701727
20
13.1288559
40
0.5464044
50
188.9911061
51
203.5772363
0
ARC
8
DEFAULT_255_1_388
10
4.5487019
20
13.0784539
40
0.4149206
50
203.9075402
51
215.1312435
0
ARC
8
DEFAULT_255_1_388
10
4.4448817
20
12.9979907
40
0.2837747
50
213.9071511
51
263.8848919
0
ARC
8
DEFAULT_255_1_388
10
4.458981
20
13.0862519
40
0.3730641
50
263.1757928
51
270.1031044
0
ARC
8
DEFAULT_255_1_388
10
4.462589
20
13.2265511
40
0.5133712
50
269.6722503
51
279.0606936
0
ARC
8
DEFAULT_255_1_388
10
4.4926045
20
13.045115
40
0.3294739
50
278.8749101
51
293.6349581
0
ARC
8
DEFAULT_255_1_388
10
4.5286249
20
12.9605251
40
0.2375405
50
293.8553806
51
310.0518171
0
ARC
8
DEFAULT_255_1_388
10
4.5291758
20
12.9535021
40
0.2318463
50
311.0644687
51
332.0111037
0
ARC
8
DEFAULT_255_1_388
10
4.3950431
20
13.0274702
40
0.3850112
50
331.6586806
51
343.2877423
0
ARC
8
DEFAULT_255_1_388
10
4.1629896
20
13.0987806
40
0.6277712
50
343.1446576
51
351.0103568
0
ARC
8
DEFAULT_255_1_388
10
3.999722
20
13.1287873
40
0.7937327
50
350.71248
51
351.1626997
0
LINE
8
DEFAULT_255_1_388
10
6.207146
20
13.2878553
11
6.207146
21
13.2047274
0
LINE
8
DEFAULT_255_1_388
10
5.149072
20
13.1929811
11
5.149072
21
13.2878553
0
LINE
8
DEFAULT_255_1_388
10
6.0345652
20
13.1920775
11
6.0345652
21
13.2896625
0
LINE
8
DEFAULT_255_1_388
10
5.3216528
20
13.3014088
11
5.3216528
21
13.2047274
0
ARC
8
DEFAULT_255_1_388
10
5.2349198
20
13.2002726
40
0.9722364
50
350.4878118
51
0.2625322
0
ARC
8
DEFAULT_255_1_388
10
5.4929158
20
13.1558994
40
0.7104556
50
336.0277991
51
350.5787241
0
ARC
8
DEFAULT_255_1_388
10
5.6442265
20
13.0875243
40
0.544417
50
319.887443
51
336.1331163
0
ARC
8
DEFAULT_255_1_388
10
5.7120077
20
13.0332733
40
0.4576311
50
302.4806296
51
319.6144102
0
ARC
8
DEFAULT_255_1_388
10
5.6990699
20
13.0582067
40
0.4856183
50
275.8196423
51
302.1885521
0
ARC
8
DEFAULT_255_1_388
10
5.680356
20
13.1867466
40
0.6154183
50
269.9169897
51
276.339506
0
ARC
8
DEFAULT_255_1_388
10
5.6753161
20
13.109568
40
0.5382553
50
252.5221437
51
270.441579
0
ARC
8
DEFAULT_255_1_388
10
5.6591411
20
13.0489046
40
0.4755426
50
237.5349961
51
252.1858334
0
ARC
8
DEFAULT_255_1_388
10
5.6691787
20
13.061712
40
0.4917393
50
209.0632754
51
237.3492577
0
ARC
8
DEFAULT_255_1_388
10
5.7671113
20
13.1232104
40
0.6072464
50
205.118533
51
209.6465345
0
ARC
8
DEFAULT_255_1_388
10
5.8567115
20
13.1612174
40
0.7045164
50
188.7216633
51
204.8239753
0
ARC
8
DEFAULT_255_1_388
10
6.0813891
20
13.1990387
40
0.9323368
50
180.3722704
51
188.9253909
0
ARC
8
DEFAULT_255_1_388
10
6.0783452
20
13.2923416
40
0.929284
50
169.5253055
51
180.2766048
0
ARC
8
DEFAULT_255_1_388
10
5.8643251
20
13.3317024
40
0.7116745
50
155.8314601
51
169.5088611
0
ARC
8
DEFAULT_255_1_388
10
5.7202714
20
13.3985312
40
0.5528904
50
139.6259579
51
156.0379072
0
ARC
8
DEFAULT_255_1_388
10
5.6539248
20
13.4519143
40
0.4677708
50
122.6414784
51
139.3431662
0
ARC
8
DEFAULT_255_1_388
10
5.6652503
20
13.4312787
40
0.4912586
50
93.0224537
51
122.4556091
0
ARC
8
DEFAULT_255_1_388
10
5.6774023
20
13.3226776
40
0.6003837
50
89.9756766
51
93.6340839
0
ARC
8
DEFAULT_255_1_388
10
5.6817621
20
13.3675879
40
0.5554884
50
73.7463329
51
90.4234008
0
ARC
8
DEFAULT_255_1_388
10
5.7015094
20
13.4440772
40
0.4765353
50
57.663051
51
73.4516911
0
ARC
8
DEFAULT_255_1_388
10
5.7006132
20
13.4465108
40
0.4749629
50
29.1441355
51
57.4146687
0
ARC
8
DEFAULT_255_1_388
10
5.5953943
20
13.3808046
40
0.5988917
50
24.0985653
51
29.732054
0
ARC
8
DEFAULT_255_1_388
10
5.4791575
20
13.3326154
40
0.7246823
50
8.6654943
51
23.8241215
0
ARC
8
DEFAULT_255_1_388
10
5.2277994
20
13.2916037
40
0.9793537
50
359.7807044
51
8.8218476
0
ARC
8
DEFAULT_255_1_388
10
5.0987698
20
13.2944731
40
0.9358078
50
359.7054632
51
8.0359751
0
ARC
8
DEFAULT_255_1_388
10
5.4362749
20
13.3436252
40
0.5947474
50
7.8926278
51
20.2962188
0
ARC
8
DEFAULT_255_1_388
10
5.61936
20
13.4111367
40
0.3996117
50
20.3231056
51
36.4990255
0
ARC
8
DEFAULT_255_1_388
10
5.6964897
20
13.4705399
40
0.3022818
50
36.1436715
51
85.6627846
0
ARC
8
DEFAULT_255_1_388
10
5.6782152
20
13.3535881
40
0.4203853
50
84.3845912
51
90.076054
0
ARC
8
DEFAULT_255_1_388
10
5.6734507
20
13.4278416
40
0.346157
50
89.3037228
51
109.9046209
0
ARC
8
DEFAULT_255_1_388
10
5.663034
20
13.4708379
40
0.3022217
50
110.8229774
51
143.917961
0
ARC
8
DEFAULT_255_1_388
10
5.76807
20
13.3906455
40
0.434348
50
143.5289166
51
163.2980252
0
ARC
8
DEFAULT_255_1_388
10
5.9826987
20
13.3231685
40
0.659321
50
163.0418884
51
174.3139873
0
ARC
8
DEFAULT_255_1_388
10
6.2531951
20
13.2919378
40
0.9315905
50
174.050934
51
179.4174954
0
ARC
8
DEFAULT_255_1_388
10
6.1963895
20
13.2000382
40
0.8747493
50
179.6928582
51
188.7908948
0
ARC
8
DEFAULT_255_1_388
10
5.8967695
20
13.1521086
40
0.5713262
50
188.6328449
51
202.5630732
0
ARC
8
DEFAULT_255_1_388
10
5.7556532
20
13.0954142
40
0.4192612
50
202.8078931
51
216.1195888
0
ARC
8
DEFAULT_255_1_388
10
5.6646049
20
13.0221479
40
0.3025752
50
215.0755613
51
264.6379773
0
ARC
8
DEFAULT_255_1_388
10
5.6788887
20
13.1156376
40
0.3970284
50
263.8464302
51
270.0830805
0
ARC
8
DEFAULT_255_1_388
10
5.6835431
20
13.0865808
40
0.3679937
50
269.3649295
51
287.5149684
0
ARC
8
DEFAULT_255_1_388
10
5.7035872
20
13.0137714
40
0.2925408
50
288.0629019
51
323.8115617
0
ARC
8
DEFAULT_255_1_388
10
5.6055848
20
13.0868754
40
0.4148018
50
323.6546541
51
342.6591359
0
ARC
8
DEFAULT_255_1_388
10
5.3770506
20
13.161228
40
0.6551163
50
342.4092446
51
353.6451501
0
ARC
8
DEFAULT_255_1_388
10
5.05853
20
13.2008565
40
0.9760748
50
353.4027553
51
359.4846611
0
LINE
8
DEFAULT_255_1_388
10
6.4673726
20
13.9049898
11
6.6914565
21
13.9049898
0
LINE
8
DEFAULT_255_1_388
10
6.6914565
20
13.9049898
11
7.1215532
21
12.8315553
0
LINE
8
DEFAULT_255_1_388
10
7.1215532
20
12.8315553
11
7.5516499
21
13.9049898
0
LINE
8
DEFAULT_255_1_388
10
7.5516499
20
13.9049898
11
7.7766375
21
13.9049898
0
LINE
8
DEFAULT_255_1_388
10
7.7766375
20
13.9049898
11
7.7766375
21
12.5894
0
LINE
8
DEFAULT_255_1_388
10
7.7766375
20
12.5894
11
7.6031531
21
12.5894
0
LINE
8
DEFAULT_255_1_388
10
7.6031531
20
12.5894
11
7.6031531
21
13.101721
0
LINE
8
DEFAULT_255_1_388
10
7.6031531
20
13.101721
11
7.6194172
21
13.6547025
0
LINE
8
DEFAULT_255_1_388
10
7.6194172
20
13.6547025
11
7.1875134
21
12.5894
0
LINE
8
DEFAULT_255_1_388
10
7.1875134
20
12.5894
11
7.0546895
21
12.5894
0
LINE
8
DEFAULT_255_1_388
10
7.0546895
20
12.5894
11
6.6236892
21
13.6519918
0
LINE
8
DEFAULT_255_1_388
10
6.6236892
20
13.6519918
11
6.6408569
21
13.101721
0
LINE
8
DEFAULT_255_1_388
10
6.6408569
20
13.101721
11
6.6408569
21
12.5894
0
LINE
8
DEFAULT_255_1_388
10
6.6408569
20
12.5894
11
6.4673726
21
12.5894
0
LINE
8
DEFAULT_255_1_388
10
6.4673726
20
12.5894
11
6.4673726
21
13.9049898
0
LINE
8
DEFAULT_255_1_388
10
4.2430444
20
21.8424898
11
4.5601955
21
21.3383009
0
LINE
8
DEFAULT_255_1_388
10
4.5601955
20
21.3383009
11
4.8755395
21
21.8424898
0
LINE
8
DEFAULT_255_1_388
10
4.8755395
20
21.8424898
11
5.0797451
21
21.8424898
0
LINE
8
DEFAULT_255_1_388
10
5.0797451
20
21.8424898
11
4.6641054
21
21.1901163
0
LINE
8
DEFAULT_255_1_388
10
4.6641054
20
21.1901163
11
5.0896843
21
20.5269
0
LINE
8
DEFAULT_255_1_388
10
5.0896843
20
20.5269
11
4.8836716
21
20.5269
0
LINE
8
DEFAULT_255_1_388
10
4.8836716
20
20.5269
11
4.5601955
21
21.0401246
0
LINE
8
DEFAULT_255_1_388
10
4.5601955
20
21.0401246
11
4.2349123
21
20.5269
0
LINE
8
DEFAULT_255_1_388
10
4.2349123
20
20.5269
11
4.0298032
21
20.5269
0
LINE
8
DEFAULT_255_1_388
10
4.0298032
20
20.5269
11
4.4562856
21
21.1901163
0
LINE
8
DEFAULT_255_1_388
10
4.4562856
20
21.1901163
11
4.0397424
21
21.8424898
0
LINE
8
DEFAULT_255_1_388
10
4.0397424
20
21.8424898
11
4.2430444
21
21.8424898
0
LINE
8
DEFAULT_255_1_388
10
6.0971586
20
21.8424898
11
6.0971586
21
21.7485191
0
LINE
8
DEFAULT_255_1_388
10
6.0971586
20
21.7485191
11
5.5523093
21
20.5269
0
LINE
8
DEFAULT_255_1_388
10
5.5523093
20
20.5269
11
5.3770178
21
20.5269
0
LINE
8
DEFAULT_255_1_388
10
5.3770178
20
20.5269
11
5.92006
21
21.705148
0
LINE
8
DEFAULT_255_1_388
10
5.92006
20
21.705148
11
5.2080512
21
21.705148
0
LINE
8
DEFAULT_255_1_388
10
5.2080512
20
21.705148
11
5.2080512
21
21.8424898
0
LINE
8
DEFAULT_255_1_388
10
5.2080512
20
21.8424898
11
6.0971586
21
21.8424898
0
LINE
8
DEFAULT_255_1_388
10
4.2430444
20
29.7799898
11
4.5601955
21
29.2758009
0
LINE
8
DEFAULT_255_1_388
10
4.5601955
20
29.2758009
11
4.8755395
21
29.7799898
0
LINE
8
DEFAULT_255_1_388
10
4.8755395
20
29.7799898
11
5.0797451
21
29.7799898
0
LINE
8
DEFAULT_255_1_388
10
5.0797451
20
29.7799898
11
4.6641054
21
29.1276163
0
LINE
8
DEFAULT_255_1_388
10
4.6641054
20
29.1276163
11
5.0896843
21
28.4644
0
LINE
8
DEFAULT_255_1_388
10
5.0896843
20
28.4644
11
4.8836716
21
28.4644
0
LINE
8
DEFAULT_255_1_388
10
4.8836716
20
28.4644
11
4.5601955
21
28.9776246
0
LINE
8
DEFAULT_255_1_388
10
4.5601955
20
28.9776246
11
4.2349123
21
28.4644
0
LINE
8
DEFAULT_255_1_388
10
4.2349123
20
28.4644
11
4.0298032
21
28.4644
0
LINE
8
DEFAULT_255_1_388
10
4.0298032
20
28.4644
11
4.4562856
21
29.1276163
0
LINE
8
DEFAULT_255_1_388
10
4.4562856
20
29.1276163
11
4.0397424
21
29.7799898
0
LINE
8
DEFAULT_255_1_388
10
4.0397424
20
29.7799898
11
4.2430444
21
29.7799898
0
LINE
8
DEFAULT_255_1_388
10
5.8739782
20
29.7808934
11
5.9037958
21
29.7808934
0
LINE
8
DEFAULT_255_1_388
10
5.9037958
20
29.7808934
11
5.9037958
21
29.6390338
0
LINE
8
DEFAULT_255_1_388
10
5.9037958
20
29.6390338
11
5.8730747
21
29.6390338
0
LINE
8
DEFAULT_255_1_388
10
5.2577473
20
28.9649747
11
5.2577473
21
29.0291278
0
LINE
8
DEFAULT_255_1_388
10
5.4258103
20
29.0074422
11
5.4258103
21
28.9459999
0
ARC
8
DEFAULT_255_1_388
10
5.8789638
20
29.0767826
40
0.562282
50
90.6001079
51
104.5146616
0
ARC
8
DEFAULT_255_1_388
10
5.8352598
20
29.23931
40
0.3939917
50
104.2855758
51
133.8630124
0
ARC
8
DEFAULT_255_1_388
10
5.853685
20
29.2271243
40
0.4155734
50
134.5304124
51
161.6210222
0
ARC
8
DEFAULT_255_1_388
10
6.0396782
20
29.1615421
40
0.6127682
50
161.2850533
51
174.2074364
0
ARC
8
DEFAULT_255_1_388
10
6.1986349
20
29.1396437
40
0.7731446
50
173.7817938
51
174.9251711
0
ARC
8
DEFAULT_255_1_388
10
5.6860543
20
28.984127
40
0.3412588
50
95.8332067
51
138.995412
0
ARC
8
DEFAULT_255_1_388
10
5.7111823
20
28.8402695
40
0.4870358
50
89.8755506
51
97.0540979
0
ARC
8
DEFAULT_255_1_388
10
5.7165212
20
28.9342841
40
0.3930432
50
71.6407016
51
90.6240821
0
ARC
8
DEFAULT_255_1_388
10
5.7334606
20
28.9966433
40
0.3285421
50
39.6368051
51
71.0190743
0
ARC
8
DEFAULT_255_1_388
10
5.6618513
20
28.9347586
40
0.4231706
50
10.6588054
51
39.9044509
0
ARC
8
DEFAULT_255_1_388
10
5.4877059
20
28.8969223
40
0.60133
50
359.6827842
51
11.1326896
0
ARC
8
DEFAULT_255_1_388
10
5.4832395
20
28.8889715
40
0.6058047
50
347.2485908
51
0.4371098
0
ARC
8
DEFAULT_255_1_388
10
5.670818
20
28.8438379
40
0.4128987
50
318.1408565
51
347.6118497
0
ARC
8
DEFAULT_255_1_388
10
5.7073777
20
28.8137903
40
0.3656244
50
275.6342406
51
317.824739
0
ARC
8
DEFAULT_255_1_388
10
5.6825298
20
28.9599827
40
0.513655
50
269.8872513
51
276.7916069
0
ARC
8
DEFAULT_255_1_388
10
5.676349
20
28.8446181
40
0.398323
50
246.9139443
51
270.7436787
0
ARC
8
DEFAULT_255_1_388
10
5.6770686
20
28.8286044
40
0.3839368
50
218.1665534
51
245.8780431
0
ARC
8
DEFAULT_255_1_388
10
5.7760059
20
28.9113903
40
0.5128958
50
191.4115343
51
218.6077624
0
ARC
8
DEFAULT_255_1_388
10
5.9940375
20
28.9602777
40
0.7363054
50
179.6344971
51
191.7836758
0
ARC
8
DEFAULT_255_1_388
10
6.6220249
20
29.0366495
40
1.3642984
50
171.4523743
51
180.3158856
0
ARC
8
DEFAULT_255_1_388
10
6.1275976
20
29.1135895
40
0.8639311
50
157.9802296
51
171.6246761
0
ARC
8
DEFAULT_255_1_388
10
5.8785327
20
29.2129038
40
0.5958004
50
141.4299236
51
157.8541251
0
ARC
8
DEFAULT_255_1_388
10
5.806341
20
29.2639746
40
0.5075416
50
102.871586
51
140.8564533
0
ARC
8
DEFAULT_255_1_388
10
5.8791963
20
28.9894943
40
0.7914163
50
90.377773
51
103.5868422
0
ARC
8
DEFAULT_255_1_388
10
5.6836484
20
28.9214543
40
0.2667015
50
89.8751238
51
126.2072139
0
ARC
8
DEFAULT_255_1_388
10
5.6887955
20
28.9040847
40
0.2838229
50
124.9742447
51
144.8960197
0
ARC
8
DEFAULT_255_1_388
10
5.66902
20
28.9201981
40
0.2583845
50
145.2974778
51
160.2660922
0
ARC
8
DEFAULT_255_1_388
10
6.0146689
20
28.9424151
40
0.5888695
50
179.6512124
51
190.285571
0
ARC
8
DEFAULT_255_1_388
10
5.8241168
20
28.9064968
40
0.3949683
50
190.0944895
51
207.5099647
0
ARC
8
DEFAULT_255_1_388
10
5.760475
20
28.8762177
40
0.3245464
50
207.9585471
51
216.325377
0
ARC
8
DEFAULT_255_1_388
10
5.7222387
20
28.8447712
40
0.2751259
50
215.7661336
51
232.5457193
0
ARC
8
DEFAULT_255_1_388
10
5.6791503
20
28.7900273
40
0.2054668
50
232.8005815
51
270.6605497
0
ARC
8
DEFAULT_255_1_388
10
5.6842927
20
28.8309853
40
0.2464268
50
269.3550767
51
288.474612
0
ARC
8
DEFAULT_255_1_388
10
5.6947434
20
28.7916721
40
0.2058436
50
289.1831976
51
322.9685307
0
ARC
8
DEFAULT_255_1_388
10
5.6259536
20
28.8459279
40
0.2934408
50
322.6007085
51
346.5183319
0
ARC
8
DEFAULT_255_1_388
10
5.4957292
20
28.8791434
40
0.4278249
50
346.2584622
51
358.7739592
0
ARC
8
DEFAULT_255_1_388
10
5.3805867
20
28.8853829
40
0.5430876
50
358.3757628
51
0.0082477
0
ARC
8
DEFAULT_255_1_388
10
5.4662686
20
28.8884856
40
0.4574157
50
359.6211417
51
11.28403
0
ARC
8
DEFAULT_255_1_388
10
5.6099292
20
28.9184535
40
0.3106708
50
11.0483152
51
31.8145585
0
ARC
8
DEFAULT_255_1_388
10
5.6446997
20
28.9373045
40
0.2711963
50
32.3028554
51
38.0820598
0
ARC
8
DEFAULT_255_1_388
10
5.692023
20
28.9801717
40
0.2075566
50
36.8249851
51
85.741667
0
ARC
8
DEFAULT_255_1_388
10
5.6844643
20
28.9238065
40
0.2643487
50
85.0150021
51
90.050843
0
LINE
8
DEFAULT_255_1_388
10
4.2430444
20
37.7174898
11
4.5601955
21
37.2133009
0
LINE
8
DEFAULT_255_1_388
10
4.5601955
20
37.2133009
11
4.8755395
21
37.7174898
0
LINE
8
DEFAULT_255_1_388
10
4.8755395
20
37.7174898
11
5.0797451
21
37.7174898
0
LINE
8
DEFAULT_255_1_388
10
5.0797451
20
37.7174898
11
4.6641054
21
37.0651163
0
LINE
8
DEFAULT_255_1_388
10
4.6641054
20
37.0651163
11
5.0896843
21
36.4019
0
LINE
8
DEFAULT_255_1_388
10
5.0896843
20
36.4019
11
4.8836716
21
36.4019
0
LINE
8
DEFAULT_255_1_388
10
4.8836716
20
36.4019
11
4.5601955
21
36.9151246
0
LINE
8
DEFAULT_255_1_388
10
4.5601955
20
36.9151246
11
4.2349123
21
36.4019
0
LINE
8
DEFAULT_255_1_388
10
4.2349123
20
36.4019
11
4.0298032
21
36.4019
0
LINE
8
DEFAULT_255_1_388
10
4.0298032
20
36.4019
11
4.4562856
21
37.0651163
0
LINE
8
DEFAULT_255_1_388
10
4.4562856
20
37.0651163
11
4.0397424
21
37.7174898
0
LINE
8
DEFAULT_255_1_388
10
4.0397424
20
37.7174898
11
4.2430444
21
37.7174898
0
LINE
8
DEFAULT_255_1_388
10
5.4583386
20
37.0271666
11
5.324611
21
37.0615021
0
LINE
8
DEFAULT_255_1_388
10
5.324611
20
37.0615021
11
5.3914748
21
37.7174898
0
LINE
8
DEFAULT_255_1_388
10
5.3914748
20
37.7174898
11
6.0655339
21
37.7174898
0
LINE
8
DEFAULT_255_1_388
10
6.0655339
20
37.7174898
11
6.0655339
21
37.5629803
0
LINE
8
DEFAULT_255_1_388
10
6.0655339
20
37.5629803
11
5.5333344
21
37.5629803
0
LINE
8
DEFAULT_255_1_388
10
5.5333344
20
37.5629803
11
5.4935776
21
37.2042652
0
LINE
8
DEFAULT_255_1_388
10
5.2776257
20
36.7479652
11
5.4357495
21
36.7479652
0
LINE
8
DEFAULT_255_1_388
10
5.5026132
20
37.0633092
11
5.4583386
21
37.0271666
0
ARC
8
DEFAULT_255_1_388
10
5.7022389
20
36.8465241
40
0.4141476
50
93.7181681
51
120.253934
0
ARC
8
DEFAULT_255_1_388
10
5.7128442
20
36.7556284
40
0.5055616
50
89.9660471
51
94.2495185
0
ARC
8
DEFAULT_255_1_388
10
5.7174263
20
36.8219154
40
0.4392953
50
73.8045384
51
90.5585736
0
ARC
8
DEFAULT_255_1_388
10
5.7438521
20
36.918452
40
0.3392225
50
41.3071072
51
73.543002
0
ARC
8
DEFAULT_255_1_388
10
5.6970341
20
36.8781461
40
0.4009977
50
13.5075837
51
41.2174839
0
ARC
8
DEFAULT_255_1_388
10
5.5123439
20
36.8297907
40
0.5918864
50
1.1330171
51
13.8830737
0
ARC
8
DEFAULT_255_1_388
10
5.3527084
20
36.8212522
40
0.7516787
50
359.9925091
51
1.5431298
0
ARC
8
DEFAULT_255_1_388
10
5.4971699
20
36.8166027
40
0.6072343
50
347.8572712
51
0.4294349
0
ARC
8
DEFAULT_255_1_388
10
5.6940834
20
36.7719898
40
0.4053482
50
323.6727442
51
348.1674594
0
ARC
8
DEFAULT_255_1_388
10
5.7271799
20
36.7518175
40
0.3667495
50
316.8171818
51
323.1486802
0
ARC
8
DEFAULT_255_1_388
10
5.7340922
20
36.7476612
40
0.358869
50
281.839603
51
316.5458142
0
ARC
8
DEFAULT_255_1_388
10
5.691821
20
36.9226363
40
0.5388223
50
269.5770964
51
282.4214641
0
ARC
8
DEFAULT_255_1_388
10
5.6838131
20
36.898593
40
0.5147801
50
256.2425863
51
270.4486481
0
ARC
8
DEFAULT_255_1_388
10
5.6501658
20
36.7636124
40
0.3756708
50
228.9024379
51
256.33135
0
ARC
8
DEFAULT_255_1_388
10
5.6418639
20
36.7505054
40
0.360344
50
193.7536029
51
228.5272638
0
ARC
8
DEFAULT_255_1_388
10
5.7811204
20
36.7913463
40
0.5053599
50
184.9244437
51
194.4976052
0
ARC
8
DEFAULT_255_1_388
10
5.8027845
20
36.7953722
40
0.3700839
50
187.3596909
51
198.6733728
0
ARC
8
DEFAULT_255_1_388
10
5.6847088
20
36.7544373
40
0.2451195
50
198.4453795
51
217.7945479
0
ARC
8
DEFAULT_255_1_388
10
5.6514261
20
36.7308563
40
0.2043754
50
218.2887146
51
228.5613203
0
ARC
8
DEFAULT_255_1_388
10
5.6624268
20
36.7456902
40
0.2227819
50
228.9652423
51
258.1237049
0
ARC
8
DEFAULT_255_1_388
10
5.6855705
20
36.8447964
40
0.3245374
50
257.7260585
51
270.4013717
0
ARC
8
DEFAULT_255_1_388
10
5.6906203
20
36.7947255
40
0.2744726
50
269.4204315
51
286.420998
0
ARC
8
DEFAULT_255_1_388
10
5.7073259
20
36.7340705
40
0.2115721
50
286.7250065
51
320.6004665
0
ARC
8
DEFAULT_255_1_388
10
5.6642174
20
36.7690527
40
0.2670878
50
320.6712228
51
344.5440474
0
ARC
8
DEFAULT_255_1_388
10
5.5340888
20
36.8072394
40
0.4026927
50
344.241448
51
356.735803
0
ARC
8
DEFAULT_255_1_388
10
5.3937195
20
36.8188656
40
0.5435085
50
356.3547471
51
0.0507222
0
ARC
8
DEFAULT_255_1_388
10
5.543946
20
36.8223812
40
0.3932934
50
359.5579289
51
12.9534322
0
ARC
8
DEFAULT_255_1_388
10
5.66263
20
36.8511586
40
0.2711827
50
12.6489751
51
41.608121
0
ARC
8
DEFAULT_255_1_388
10
5.688546
20
36.8731946
40
0.2371737
50
41.7851122
51
85.9892156
0
ARC
8
DEFAULT_255_1_388
10
5.674677
20
36.7816738
40
0.3295244
50
84.6965848
51
90.0672125
0
ARC
8
DEFAULT_255_1_388
10
5.6720338
20
36.7065118
40
0.4046926
50
89.6804991
51
99.161352
0
ARC
8
DEFAULT_255_1_388
10
5.6489347
20
36.8445848
40
0.2647044
50
98.9836248
51
113.8905702
0
ARC
8
DEFAULT_255_1_388
10
5.6231022
20
36.9055118
40
0.1985386
50
114.195234
51
127.3641866
0
LINE
8
DEFAULT_255_1_388
10
4.3753444
20
45.6549898
11
4.6924955
21
45.1508009
0
LINE
8
DEFAULT_255_1_388
10
4.6924955
20
45.1508009
11
5.0078395
21
45.6549898
0
LINE
8
DEFAULT_255_1_388
10
5.0078395
20
45.6549898
11
5.2120451
21
45.6549898
0
LINE
8
DEFAULT_255_1_388
10
5.2120451
20
45.6549898
11
4.7964054
21
45.0026163
0
LINE
8
DEFAULT_255_1_388
10
4.7964054
20
45.0026163
11
5.2219843
21
44.3394
0
LINE
8
DEFAULT_255_1_388
10
5.2219843
20
44.3394
11
5.0159716
21
44.3394
0
LINE
8
DEFAULT_255_1_388
10
5.0159716
20
44.3394
11
4.6924955
21
44.8526246
0
LINE
8
DEFAULT_255_1_388
10
4.6924955
20
44.8526246
11
4.3672123
21
44.3394
0
LINE
8
DEFAULT_255_1_388
10
4.3672123
20
44.3394
11
4.1621032
21
44.3394
0
LINE
8
DEFAULT_255_1_388
10
4.1621032
20
44.3394
11
4.5885856
21
45.0026163
0
LINE
8
DEFAULT_255_1_388
10
4.5885856
20
45.0026163
11
4.1720424
21
45.6549898
0
LINE
8
DEFAULT_255_1_388
10
4.1720424
20
45.6549898
11
4.3753444
21
45.6549898
0
LINE
8
DEFAULT_255_1_388
10
6.0857919
20
45.6549898
11
6.0857919
21
44.781243
0
LINE
8
DEFAULT_255_1_388
10
6.0857919
20
44.781243
11
6.2683119
21
44.781243
0
LINE
8
DEFAULT_255_1_388
10
6.2683119
20
44.781243
11
6.2683119
21
44.6448048
0
LINE
8
DEFAULT_255_1_388
10
6.2683119
20
44.6448048
11
6.0857919
21
44.6448048
0
LINE
8
DEFAULT_255_1_388
10
6.0857919
20
44.6448048
11
6.0857919
21
44.3394
0
LINE
8
DEFAULT_255_1_388
10
6.0857919
20
44.3394
11
5.9177289
21
44.3394
0
LINE
8
DEFAULT_255_1_388
10
5.9177289
20
44.3394
11
5.9177289
21
44.6448048
0
LINE
8
DEFAULT_255_1_388
10
5.9177289
20
44.6448048
11
5.3186657
21
44.6448048
0
LINE
8
DEFAULT_255_1_388
10
5.3186657
20
44.6448048
11
5.3186657
21
44.7432933
0
LINE
8
DEFAULT_255_1_388
10
5.3186657
20
44.7432933
11
5.9077897
21
45.6549898
0
LINE
8
DEFAULT_255_1_388
10
5.9077897
20
45.6549898
11
6.0857919
21
45.6549898
0
LINE
8
DEFAULT_255_1_388
10
5.8978505
20
45.3902455
11
5.5084142
21
44.781243
0
LINE
8
DEFAULT_255_1_388
10
5.5084142
20
44.781243
11
5.9177289
21
44.781243
0
LINE
8
DEFAULT_255_1_388
10
5.9177289
20
44.781243
11
5.9177289
21
45.426388
0
LINE
8
DEFAULT_255_1_388
10
5.9177289
20
45.426388
11
5.8978505
21
45.3902455
0
LINE
8
DEFAULT_255_1_388
10
4.2430444
20
53.5924898
11
4.5601955
21
53.0883009
0
LINE
8
DEFAULT_255_1_388
10
4.5601955
20
53.0883009
11
4.8755395
21
53.5924898
0
LINE
8
DEFAULT_255_1_388
10
4.8755395
20
53.5924898
11
5.0797451
21
53.5924898
0
LINE
8
DEFAULT_255_1_388
10
5.0797451
20
53.5924898
11
4.6641054
21
52.9401163
0
LINE
8
DEFAULT_255_1_388
10
4.6641054
20
52.9401163
11
5.0896843
21
52.2769
0
LINE
8
DEFAULT_255_1_388
10
5.0896843
20
52.2769
11
4.8836716
21
52.2769
0
LINE
8
DEFAULT_255_1_388
10
4.8836716
20
52.2769
11
4.5601955
21
52.7901246
0
LINE
8
DEFAULT_255_1_388
10
4.5601955
20
52.7901246
11
4.2349123
21
52.2769
0
LINE
8
DEFAULT_255_1_388
10
4.2349123
20
52.2769
11
4.0298032
21
52.2769
0
LINE
8
DEFAULT_255_1_388
10
4.0298032
20
52.2769
11
4.4562856
21
52.9401163
0
LINE
8
DEFAULT_255_1_388
10
4.4562856
20
52.9401163
11
4.0397424
21
53.5924898
0
LINE
8
DEFAULT_255_1_388
10
4.0397424
20
53.5924898
11
4.2430444
21
53.5924898
0
LINE
8
DEFAULT_255_1_388
10
5.4908669
20
52.8795775
11
5.4908669
21
53.0160157
0
LINE
8
DEFAULT_255_1_388
10
5.4908669
20
53.0160157
11
5.6164624
21
53.0160157
0
LINE
8
DEFAULT_255_1_388
10
5.4023176
20
53.2473282
11
5.2351582
21
53.2473282
0
LINE
8
DEFAULT_255_1_388
10
5.2234118
20
52.6238688
11
5.3914748
21
52.6238688
0
LINE
8
DEFAULT_255_1_388
10
5.6164624
20
52.8795775
11
5.4908669
21
52.8795775
0
ARC
8
DEFAULT_255_1_388
10
5.613185
20
53.3976922
40
0.3816905
50
270.491971
51
281.8953028
0
ARC
8
DEFAULT_255_1_388
10
5.6403277
20
53.2737199
40
0.2547877
50
281.6690378
51
301.2943765
0
ARC
8
DEFAULT_255_1_388
10
5.6594728
20
53.2386926
40
0.2149197
50
301.7834992
51
311.754567
0
ARC
8
DEFAULT_255_1_388
10
5.669777
20
53.227265
40
0.1995326
50
311.7325027
51
354.2803031
0
ARC
8
DEFAULT_255_1_388
10
5.5880186
20
53.241328
40
0.2823461
50
353.0941646
51
0.1174696
0
ARC
8
DEFAULT_255_1_388
10
5.5361744
20
53.2466874
40
0.3342238
50
359.1804452
51
15.0452323
0
ARC
8
DEFAULT_255_1_388
10
5.6875802
20
53.2908546
40
0.1765747
50
13.957816
51
77.6713812
0
ARC
8
DEFAULT_255_1_388
10
5.6441038
20
53.1350464
40
0.3381982
50
76.111571
51
90.7028736
0
ARC
8
DEFAULT_255_1_388
10
5.637445
20
53.165825
40
0.3074046
50
89.5321574
51
103.5319393
0
ARC
8
DEFAULT_255_1_388
10
5.6148833
20
53.2557443
40
0.2147041
50
103.2930114
51
133.5619756
0
ARC
8
DEFAULT_255_1_388
10
5.6098775
20
53.2624351
40
0.2064084
50
133.8349761
51
173.5343225
0
ARC
8
DEFAULT_255_1_388
10
5.6912432
20
53.2480144
40
0.2889266
50
172.5097183
51
180.1360699
0
ARC
8
DEFAULT_255_1_388
10
5.5842196
20
53.251888
40
0.3490913
50
155.3483706
51
180.7484035
0
ARC
8
DEFAULT_255_1_388
10
5.5787172
20
53.2486519
40
0.3454798
50
131.5745177
51
154.4799474
0
ARC
8
DEFAULT_255_1_388
10
5.6139455
20
53.2130422
40
0.3955058
50
96.9874487
51
131.9690874
0
ARC
8
DEFAULT_255_1_388
10
5.6386347
20
53.0729407
40
0.537622
50
89.8592909
51
97.7827481
0
ARC
8
DEFAULT_255_1_388
10
5.6440456
20
53.043436
40
0.5671399
50
78.3654493
51
90.4132586
0
ARC
8
DEFAULT_255_1_388
10
5.6843097
20
53.2300918
40
0.3762034
50
56.6229818
51
78.6387103
0
ARC
8
DEFAULT_255_1_388
10
5.7084927
20
53.2723846
40
0.3275964
50
47.0254604
51
56.085558
0
ARC
8
DEFAULT_255_1_388
10
5.7107178
20
53.2768189
40
0.3228382
50
10.9207523
51
46.777927
0
ARC
8
DEFAULT_255_1_388
10
5.5572772
20
53.2413401
40
0.4802559
50
359.6364235
51
11.6087615
0
ARC
8
DEFAULT_255_1_388
10
5.7636937
20
53.2396404
40
0.273833
50
332.3549969
51
359.7179765
0
ARC
8
DEFAULT_255_1_388
10
5.6905338
20
53.2743285
40
0.3547505
50
325.2332381
51
332.8746682
0
ARC
8
DEFAULT_255_1_388
10
5.7076921
20
53.2623763
40
0.3338396
50
292.9803892
51
325.2391113
0
ARC
8
DEFAULT_255_1_388
10
5.6766117
20
53.3228679
40
0.4016959
50
292.542178
51
293.6931461
0
ARC
8
DEFAULT_255_1_388
10
5.7209688
20
52.5963036
40
0.372079
50
57.643292
51
72.8626085
0
ARC
8
DEFAULT_255_1_388
10
5.7608523
20
52.6609273
40
0.2961455
50
36.7246661
51
57.4701329
0
ARC
8
DEFAULT_255_1_388
10
5.759568
20
52.662347
40
0.2963321
50
8.054535
51
36.3561529
0
ARC
8
DEFAULT_255_1_388
10
5.6625352
20
52.6449073
40
0.3948682
50
359.8316595
51
8.5873361
0
ARC
8
DEFAULT_255_1_388
10
5.6202827
20
52.639497
40
0.4371398
50
343.9831631
51
0.557075
0
ARC
8
DEFAULT_255_1_388
10
5.7199876
20
52.6121963
40
0.3337749
50
311.6358204
51
343.7652116
0
ARC
8
DEFAULT_255_1_388
10
5.677413
20
52.6601955
40
0.3979351
50
279.7829743
51
311.625622
0
ARC
8
DEFAULT_255_1_388
10
5.6435265
20
52.8218642
40
0.5630417
50
269.7285092
51
280.3857694
0
ARC
8
DEFAULT_255_1_388
10
5.6365578
20
52.8172241
40
0.5584119
50
256.6827433
51
270.4412869
0
ARC
8
DEFAULT_255_1_388
10
5.5984565
20
52.6614698
40
0.3980715
50
229.4223821
51
256.8554507
0
ARC
8
DEFAULT_255_1_388
10
5.5518118
20
52.6089683
40
0.3278564
50
181.8183354
51
229.6455015
0
ARC
8
DEFAULT_255_1_388
10
5.6687727
20
52.6236825
40
0.4453611
50
179.9760419
51
183.2330638
0
ARC
8
DEFAULT_255_1_388
10
5.649428
20
52.6213781
40
0.2579652
50
179.4467996
51
196.2871626
0
ARC
8
DEFAULT_255_1_388
10
5.5945733
20
52.6063709
40
0.2011057
50
196.5661293
51
227.7059371
0
ARC
8
DEFAULT_255_1_388
10
5.6130341
20
52.6270155
40
0.2287994
50
227.7653015
51
257.8763321
0
ARC
8
DEFAULT_255_1_388
10
5.6383424
20
52.7330961
40
0.3378385
50
257.4583525
51
270.4267406
0
ARC
8
DEFAULT_255_1_388
10
5.6434673
20
52.765723
40
0.3704652
50
269.5965319
51
280.8788143
0
ARC
8
DEFAULT_255_1_388
10
5.6692901
20
52.6367529
40
0.2389415
50
280.6347277
51
299.8594068
0
ARC
8
DEFAULT_255_1_388
10
5.6907671
20
52.5959736
40
0.19289
50
300.3575552
51
314.5515667
0
ARC
8
DEFAULT_255_1_388
10
5.6814347
20
52.6028025
40
0.204312
50
315.0730962
51
345.0429362
0
ARC
8
DEFAULT_255_1_388
10
5.5775854
20
52.6330539
40
0.31246
50
344.598526
51
357.9270698
0
ARC
8
DEFAULT_255_1_388
10
5.4766159
20
52.6399705
40
0.4136265
50
357.4755098
51
0.0224936
0
ARC
8
DEFAULT_255_1_388
10
5.5919037
20
52.6427099
40
0.2983498
50
359.5051035
51
13.4236939
0
ARC
8
DEFAULT_255_1_388
10
5.6894127
20
52.6676637
40
0.1977186
50
12.9497905
51
48.7550905
0
ARC
8
DEFAULT_255_1_388
10
5.6689048
20
52.6396373
40
0.2323321
50
49.509109
51
72.1832965
0
ARC
8
DEFAULT_255_1_388
10
5.6286517
20
52.5201632
40
0.358397
50
71.9008458
51
84.3555134
0
ARC
8
DEFAULT_255_1_388
10
5.6104911
20
52.3669712
40
0.512641
50
84.019632
51
89.3326067
0
LINE
8
DEFAULT_255_1_388
10
4.2430444
20
61.5299898
11
4.5601955
21
61.0258009
0
LINE
8
DEFAULT_255_1_388
10
4.5601955
20
61.0258009
11
4.8755395
21
61.5299898
0
LINE
8
DEFAULT_255_1_388
10
4.8755395
20
61.5299898
11
5.0797451
21
61.5299898
0
LINE
8
DEFAULT_255_1_388
10
5.0797451
20
61.5299898
11
4.6641054
21
60.8776163
0
LINE
8
DEFAULT_255_1_388
10
4.6641054
20
60.8776163
11
5.0896843
21
60.2144
0
LINE
8
DEFAULT_255_1_388
10
5.0896843
20
60.2144
11
4.8836716
21
60.2144
0
LINE
8
DEFAULT_255_1_388
10
4.8836716
20
60.2144
11
4.5601955
21
60.7276246
0
LINE
8
DEFAULT_255_1_388
10
4.5601955
20
60.7276246
11
4.2349123
21
60.2144
0
LINE
8
DEFAULT_255_1_388
10
4.2349123
20
60.2144
11
4.0298032
21
60.2144
0
LINE
8
DEFAULT_255_1_388
10
4.0298032
20
60.2144
11
4.4562856
21
60.8776163
0
LINE
8
DEFAULT_255_1_388
10
4.4562856
20
60.8776163
11
4.0397424
21
61.5299898
0
LINE
8
DEFAULT_255_1_388
10
4.0397424
20
61.5299898
11
4.2430444
21
61.5299898
0
LINE
8
DEFAULT_255_1_388
10
6.1098085
20
60.3508382
11
6.1098085
21
60.2144
0
LINE
8
DEFAULT_255_1_388
10
6.1098085
20
60.2144
11
5.2478081
21
60.2144
0
LINE
8
DEFAULT_255_1_388
10
5.2478081
20
60.2144
11
5.2478081
21
60.3345741
0
LINE
8
DEFAULT_255_1_388
10
5.2478081
20
60.3345741
11
5.7032045
21
60.8405702
0
LINE
8
DEFAULT_255_1_388
10
5.3896677
20
61.1423607
11
5.2225083
21
61.1423607
0
LINE
8
DEFAULT_255_1_388
10
5.8016931
20
60.733046
11
5.4493029
21
60.3508382
0
LINE
8
DEFAULT_255_1_388
10
5.4493029
20
60.3508382
11
6.1098085
21
60.3508382
0
ARC
8
DEFAULT_255_1_388
10
4.1856105
20
62.1825983
40
2.0258655
50
318.5132526
51
320.7829045
0
ARC
8
DEFAULT_255_1_388
10
4.7804062
20
61.6984929
40
1.2589638
50
320.7372878
51
323.9739031
0
ARC
8
DEFAULT_255_1_388
10
5.2212994
20
61.3790554
40
0.7145141
50
323.8962701
51
328.64194
0
ARC
8
DEFAULT_255_1_388
10
5.4515251
20
61.2370545
40
0.4440242
50
328.8294576
51
331.7891185
0
ARC
8
DEFAULT_255_1_388
10
5.5637571
20
61.1791374
40
0.3177517
50
331.4254512
51
352.9365785
0
ARC
8
DEFAULT_255_1_388
10
5.5790571
20
61.175705
40
0.3021496
50
353.2257659
51
0.0166158
0
ARC
8
DEFAULT_255_1_388
10
5.6027332
20
61.1782894
40
0.2784847
50
359.486299
51
15.9343185
0
ARC
8
DEFAULT_255_1_388
10
5.6597599
20
61.1936269
40
0.2194403
50
16.1712913
51
43.5286088
0
ARC
8
DEFAULT_255_1_388
10
5.6684543
20
61.2023191
40
0.2071504
50
43.4417391
51
83.1661095
0
ARC
8
DEFAULT_255_1_388
10
5.6533704
20
61.1194316
40
0.2912888
50
82.160179
51
90.1505708
0
ARC
8
DEFAULT_255_1_388
10
5.6498186
20
61.0590279
40
0.3517025
50
89.5460741
51
102.5418361
0
ARC
8
DEFAULT_255_1_388
10
5.6224906
20
61.1749933
40
0.2325748
50
102.1738499
51
129.206123
0
ARC
8
DEFAULT_255_1_388
10
5.6136359
20
61.1889664
40
0.2161591
50
129.72865
51
135.753947
0
ARC
8
DEFAULT_255_1_388
10
5.6272841
20
61.1780728
40
0.2335433
50
136.1757367
51
166.3673339
0
ARC
8
DEFAULT_255_1_388
10
5.740553
20
61.1477148
40
0.3507873
50
165.9090694
51
178.8684636
0
ARC
8
DEFAULT_255_1_388
10
5.8381301
20
61.1424263
40
0.4484624
50
178.4391136
51
180.0083808
0
ARC
8
DEFAULT_255_1_388
10
5.6802003
20
61.1468197
40
0.4577138
50
163.2878482
51
180.5581842
0
ARC
8
DEFAULT_255_1_388
10
5.5900044
20
61.1716393
40
0.3641968
50
133.4540601
51
162.947111
0
ARC
8
DEFAULT_255_1_388
10
5.6100926
20
61.1502789
40
0.3935189
50
100.7869829
51
133.4382499
0
ARC
8
DEFAULT_255_1_388
10
5.6492171
20
60.9760399
40
0.5720313
50
89.660664
51
101.3702276
0
ARC
8
DEFAULT_255_1_388
10
5.656678
20
60.9829263
40
0.5651495
50
78.2172678
51
90.412935
0
ARC
8
DEFAULT_255_1_388
10
5.6966245
20
61.1656511
40
0.378122
50
55.9269121
51
78.4888449
0
ARC
8
DEFAULT_255_1_388
10
5.7186961
20
61.2037187
40
0.3342379
50
47.929771
51
55.4049217
0
ARC
8
DEFAULT_255_1_388
10
5.7301491
20
61.2153618
40
0.3179217
50
4.334829
51
48.0560205
0
ARC
8
DEFAULT_255_1_388
10
5.6069293
20
61.1962487
40
0.442341
50
359.9251713
51
5.5971671
0
ARC
8
DEFAULT_255_1_388
10
5.6551447
20
61.2025728
40
0.3941854
50
337.8914027
51
358.9967534
0
ARC
8
DEFAULT_255_1_388
10
5.3499017
20
61.3203295
40
0.7213271
50
326.9132501
51
338.3508308
0
ARC
8
DEFAULT_255_1_388
10
4.9015129
20
61.6077105
40
1.2538973
50
319.6471833
51
327.0959558
0
ARC
8
DEFAULT_255_1_388
10
4.4701787
20
61.963505
40
1.8129975
50
317.2588228
51
319.9045804
0
LINE
8
DEFAULT_255_1_388
10
4.2350444
20
69.4674898
11
4.5521955
21
68.9633009
0
LINE
8
DEFAULT_255_1_388
10
4.5521955
20
68.9633009
11
4.8675395
21
69.4674898
0
LINE
8
DEFAULT_255_1_388
10
4.8675395
20
69.4674898
11
5.0717451
21
69.4674898
0
LINE
8
DEFAULT_255_1_388
10
5.0717451
20
69.4674898
11
4.6561054
21
68.8151163
0
LINE
8
DEFAULT_255_1_388
10
4.6561054
20
68.8151163
11
5.0816843
21
68.1519
0
LINE
8
DEFAULT_255_1_388
10
5.0816843
20
68.1519
11
4.8756716
21
68.1519
0
LINE
8
DEFAULT_255_1_388
10
4.8756716
20
68.1519
11
4.5521955
21
68.6651246
0
LINE
8
DEFAULT_255_1_388
10
4.5521955
20
68.6651246
11
4.2269123
21
68.1519
0
LINE
8
DEFAULT_255_1_388
10
4.2269123
20
68.1519
11
4.0218032
21
68.1519
0
LINE
8
DEFAULT_255_1_388
10
4.0218032
20
68.1519
11
4.4482856
21
68.8151163
0
LINE
8
DEFAULT_255_1_388
10
4.4482856
20
68.8151163
11
4.0317424
21
69.4674898
0
LINE
8
DEFAULT_255_1_388
10
4.0317424
20
69.4674898
11
4.2350444
21
69.4674898
0
LINE
8
DEFAULT_255_1_388
10
5.7891752
20
69.4738148
11
5.7891752
21
68.1519
0
LINE
8
DEFAULT_255_1_388
10
5.7891752
20
68.1519
11
5.6211123
21
68.1519
0
LINE
8
DEFAULT_255_1_388
10
5.6211123
20
68.1519
11
5.6211123
21
69.265995
0
LINE
8
DEFAULT_255_1_388
10
5.6211123
20
69.265995
11
5.2840827
21
69.1422066
0
LINE
8
DEFAULT_255_1_388
10
5.2840827
20
69.1422066
11
5.2840827
21
69.2940055
0
LINE
8
DEFAULT_255_1_388
10
5.2840827
20
69.2940055
11
5.7629719
21
69.4738148
0
LINE
8
DEFAULT_255_1_388
10
5.7629719
20
69.4738148
11
5.7891752
21
69.4738148
0
LINE
8
DEFAULT_255_1_388
10
4.2430444
20
77.4049898
11
4.5601955
21
76.9008009
0
LINE
8
DEFAULT_255_1_388
10
4.5601955
20
76.9008009
11
4.8755395
21
77.4049898
0
LINE
8
DEFAULT_255_1_388
10
4.8755395
20
77.4049898
11
5.0797451
21
77.4049898
0
LINE
8
DEFAULT_255_1_388
10
5.0797451
20
77.4049898
11
4.6641054
21
76.7526163
0
LINE
8
DEFAULT_255_1_388
10
4.6641054
20
76.7526163
11
5.0896843
21
76.0894
0
LINE
8
DEFAULT_255_1_388
10
5.0896843
20
76.0894
11
4.8836716
21
76.0894
0
LINE
8
DEFAULT_255_1_388
10
4.8836716
20
76.0894
11
4.5601955
21
76.6026246
0
LINE
8
DEFAULT_255_1_388
10
4.5601955
20
76.6026246
11
4.2349123
21
76.0894
0
LINE
8
DEFAULT_255_1_388
10
4.2349123
20
76.0894
11
4.0298032
21
76.0894
0
LINE
8
DEFAULT_255_1_388
10
4.0298032
20
76.0894
11
4.4562856
21
76.7526163
0
LINE
8
DEFAULT_255_1_388
10
4.4562856
20
76.7526163
11
4.0397424
21
77.4049898
0
LINE
8
DEFAULT_255_1_388
10
4.0397424
20
77.4049898
11
4.2430444
21
77.4049898
0
LINE
8
DEFAULT_255_1_388
10
6.0727624
20
76.867369
11
6.0727624
21
76.6505135
0
LINE
8
DEFAULT_255_1_388
10
5.2423867
20
76.6279244
11
5.2423867
21
76.8511048
0
LINE
8
DEFAULT_255_1_388
10
5.905603
20
76.6053353
11
5.905603
21
76.8791153
0
LINE
8
DEFAULT_255_1_388
10
5.4095461
20
76.8917652
11
5.4095461
21
76.6243102
0
ARC
8
DEFAULT_255_1_388
10
4.6949958
20
76.6450118
40
1.3777776
50
353.8440855
51
0.2287917
0
ARC
8
DEFAULT_255_1_388
10
5.2168975
20
76.5867414
40
0.852639
50
344.4934746
51
353.9763743
0
ARC
8
DEFAULT_255_1_388
10
5.5535783
20
76.4910191
40
0.5026273
50
329.2803599
51
344.7473406
0
ARC
8
DEFAULT_255_1_388
10
5.6651278
20
76.4298038
40
0.3754848
50
324.9361395
51
328.6153007
0
ARC
8
DEFAULT_255_1_388
10
5.7076928
20
76.4000586
40
0.3235566
50
280.5801797
51
324.9173226
0
ARC
8
DEFAULT_255_1_388
10
5.6625557
20
76.5880236
40
0.5167077
50
269.5979457
51
281.6732777
0
ARC
8
DEFAULT_255_1_388
10
5.654446
20
76.5745113
40
0.5032026
50
256.6228565
51
270.5105488
0
ARC
8
DEFAULT_255_1_388
10
5.6092203
20
76.4003345
40
0.3233092
50
215.8618351
51
257.2787793
0
ARC
8
DEFAULT_255_1_388
10
5.724091
20
76.4774106
40
0.4615831
50
197.9695203
51
215.2622745
0
ARC
8
DEFAULT_255_1_388
10
6.0036586
20
76.5717641
40
0.7566307
50
187.8816486
51
198.2346584
0
ARC
8
DEFAULT_255_1_388
10
6.4489824
20
76.6360453
40
1.2065653
50
180.8977266
51
188.0054894
0
ARC
8
DEFAULT_255_1_388
10
6.7540038
20
76.64754
40
1.5117443
50
180.7434591
51
181.152202
0
ARC
8
DEFAULT_255_1_388
10
6.5865034
20
76.8565371
40
1.3441277
50
173.7674302
51
180.2315596
0
ARC
8
DEFAULT_255_1_388
10
6.0782902
20
76.9139779
40
0.8326847
50
164.3058537
51
173.9000553
0
ARC
8
DEFAULT_255_1_388
10
5.7506902
20
77.0083652
40
0.4917711
50
148.7922028
51
164.5682288
0
ARC
8
DEFAULT_255_1_388
10
5.643764
20
77.0680457
40
0.3694204
50
144.5883979
51
148.1161588
0
ARC
8
DEFAULT_255_1_388
10
5.6050385
20
77.0950667
40
0.322202
50
101.6440149
51
144.5142619
0
ARC
8
DEFAULT_255_1_388
10
5.6528577
20
76.9050337
40
0.5180451
50
89.528284
51
102.5820197
0
ARC
8
DEFAULT_255_1_388
10
5.6617569
20
76.9006376
40
0.5224441
50
77.0437914
51
90.508231
0
ARC
8
DEFAULT_255_1_388
10
5.7069823
20
77.0854272
40
0.3322297
50
48.2777708
51
77.4996087
0
ARC
8
DEFAULT_255_1_388
10
5.7151563
20
77.0999557
40
0.315966
50
36.3141586
51
47.6307332
0
ARC
8
DEFAULT_255_1_388
10
5.6174285
20
77.0341159
40
0.4337313
50
18.2931065
51
35.6770203
0
ARC
8
DEFAULT_255_1_388
10
5.3313126
20
76.9359107
40
0.7362203
50
8.0246996
51
18.5605636
0
ARC
8
DEFAULT_255_1_388
10
4.8629481
20
76.8667432
40
1.2096583
50
1.127539
51
8.1718423
0
ARC
8
DEFAULT_255_1_388
10
4.4980615
20
76.8524374
40
1.5747719
50
0.5432713
51
1.38669
0
ARC
8
DEFAULT_255_1_388
10
4.7037994
20
76.8831163
40
1.2018103
50
359.8092569
51
4.9408001
0
ARC
8
DEFAULT_255_1_388
10
5.1774575
20
76.92539
40
0.7262727
50
4.8364937
51
12.2906017
0
ARC
8
DEFAULT_255_1_388
10
5.487404
20
76.9944485
40
0.4087324
50
12.0806994
51
23.8171225
0
ARC
8
DEFAULT_255_1_388
10
5.6194436
20
77.0503508
40
0.2653719
50
24.2874621
51
31.3934353
0
ARC
8
DEFAULT_255_1_388
10
5.6784872
20
77.0889822
40
0.1948607
50
30.7407708
51
82.4658033
0
ARC
8
DEFAULT_255_1_388
10
5.6582532
20
76.9896017
40
0.2961198
50
81.1057101
51
90.2187368
0
ARC
8
DEFAULT_255_1_388
10
5.6542344
20
77.0186421
40
0.2670929
50
89.380395
51
105.6763916
0
ARC
8
DEFAULT_255_1_388
10
5.6336066
20
77.093632
40
0.1893189
50
105.7980655
51
149.7387869
0
ARC
8
DEFAULT_255_1_388
10
5.7533206
20
77.0216719
40
0.3289892
50
149.4208441
51
163.628295
0
ARC
8
DEFAULT_255_1_388
10
5.9885436
20
76.9499345
40
0.5749004
50
163.3764549
51
172.141138
0
ARC
8
DEFAULT_255_1_388
10
6.3598157
20
76.8967582
40
0.9499585
50
172.0258462
51
178.0705453
0
ARC
8
DEFAULT_255_1_388
10
6.701971
20
76.8805682
40
1.2924734
50
177.8639301
51
179.5036263
0
ARC
8
DEFAULT_255_1_388
10
6.5800729
20
76.6202151
40
1.170534
50
179.7995545
51
185.246089
0
ARC
8
DEFAULT_255_1_388
10
6.1252322
20
76.5771404
40
0.7136613
50
185.1411911
51
193.0082205
0
ARC
8
DEFAULT_255_1_388
10
5.8278583
20
76.5068441
40
0.4080987
50
192.7897338
51
205.2507384
0
ARC
8
DEFAULT_255_1_388
10
5.7100793
20
76.4542538
40
0.2791522
50
205.8001921
51
211.2545876
0
ARC
8
DEFAULT_255_1_388
10
5.6512332
20
76.4148132
40
0.2084074
50
210.3789935
51
238.4007996
0
ARC
8
DEFAULT_255_1_388
10
5.6490418
20
76.4200786
40
0.2117943
50
239.6521916
51
265.9793852
0
ARC
8
DEFAULT_255_1_388
10
5.6586267
20
76.4957358
40
0.2879689
50
265.1324455
51
270.0603288
0
ARC
8
DEFAULT_255_1_388
10
5.6618644
20
76.4592418
40
0.2514919
50
269.3314378
51
287.2180039
0
ARC
8
DEFAULT_255_1_388
10
5.6773726
20
76.4026291
40
0.1928357
50
287.7957942
51
329.0808983
0
ARC
8
DEFAULT_255_1_388
10
5.5696483
20
76.4698651
40
0.319808
50
328.6635261
51
343.3325043
0
ARC
8
DEFAULT_255_1_388
10
5.3251942
20
76.5460195
40
0.5758408
50
343.0498092
51
351.9392499
0
ARC
8
DEFAULT_255_1_388
10
4.9351263
20
76.6035205
40
0.9701202
50
351.8071632
51
357.7957897
0
ARC
8
DEFAULT_255_1_388
10
4.571674
20
76.6223724
40
1.3340376
50
357.5870923
51
359.2682493
0
LINE
8
DEFAULT_255_1_388
10
22.0752318
20
84.1633382
11
22.0752318
21
84.0269
0
LINE
8
DEFAULT_255_1_388
10
22.0752318
20
84.0269
11
21.2132313
21
84.0269
0
LINE
8
DEFAULT_255_1_388
10
21.2132313
20
84.0269
11
21.2132313
21
84.1470741
0
LINE
8
DEFAULT_255_1_388
10
21.2132313
20
84.1470741
11
21.6686278
21
84.6530702
0
LINE
8
DEFAULT_255_1_388
10
21.3550909
20
84.9548607
11
21.1879315
21
84.9548607
0
LINE
8
DEFAULT_255_1_388
10
21.7671163
20
84.545546
11
21.4147262
21
84.1633382
0
LINE
8
DEFAULT_255_1_388
10
21.4147262
20
84.1633382
11
22.0752318
21
84.1633382
0
ARC
8
DEFAULT_255_1_388
10
20.1510337
20
85.9950983
40
2.0258655
50
318.5132526
51
320.7829045
0
ARC
8
DEFAULT_255_1_388
10
20.7458294
20
85.5109929
40
1.2589638
50
320.7372878
51
323.9739031
0
ARC
8
DEFAULT_255_1_388
10
21.1867226
20
85.1915554
40
0.7145141
50
323.8962701
51
328.64194
0
ARC
8
DEFAULT_255_1_388
10
21.4169484
20
85.0495545
40
0.4440242
50
328.8294576
51
331.7891185
0
ARC
8
DEFAULT_255_1_388
10
21.5291804
20
84.9916374
40
0.3177517
50
331.4254512
51
352.9365785
0
ARC
8
DEFAULT_255_1_388
10
21.5444804
20
84.988205
40
0.3021496
50
353.2257659
51
0.0166158
0
ARC
8
DEFAULT_255_1_388
10
21.5681564
20
84.9907894
40
0.2784847
50
359.486299
51
15.9343185
0
ARC
8
DEFAULT_255_1_388
10
21.6251831
20
85.0061269
40
0.2194403
50
16.1712913
51
43.5286088
0
ARC
8
DEFAULT_255_1_388
10
21.6338776
20
85.0148191
40
0.2071504
50
43.4417391
51
83.1661095
0
ARC
8
DEFAULT_255_1_388
10
21.6187937
20
84.9319316
40
0.2912888
50
82.160179
51
90.1505708
0
ARC
8
DEFAULT_255_1_388
10
21.6152418
20
84.8715279
40
0.3517025
50
89.5460741
51
102.5418361
0
ARC
8
DEFAULT_255_1_388
10
21.5879138
20
84.9874933
40
0.2325748
50
102.1738499
51
129.206123
0
ARC
8
DEFAULT_255_1_388
10
21.5790592
20
85.0014664
40
0.2161591
50
129.72865
51
135.753947
0
ARC
8
DEFAULT_255_1_388
10
21.5927074
20
84.9905728
40
0.2335433
50
136.1757367
51
166.3673339
0
ARC
8
DEFAULT_255_1_388
10
21.7059762
20
84.9602148
40
0.3507873
50
165.9090694
51
178.8684636
0
ARC
8
DEFAULT_255_1_388
10
21.8035534
20
84.9549263
40
0.4484624
50
178.4391136
51
180.0083808
0
ARC
8
DEFAULT_255_1_388
10
21.6456235
20
84.9593197
40
0.4577138
50
163.2878482
51
180.5581842
0
ARC
8
DEFAULT_255_1_388
10
21.5554276
20
84.9841393
40
0.3641968
50
133.4540601
51
162.947111
0
ARC
8
DEFAULT_255_1_388
10
21.5755158
20
84.9627789
40
0.3935189
50
100.7869829
51
133.4382499
0
ARC
8
DEFAULT_255_1_388
10
21.6146403
20
84.7885399
40
0.5720313
50
89.660664
51
101.3702276
0
ARC
8
DEFAULT_255_1_388
10
21.6221012
20
84.7954263
40
0.5651495
50
78.2172678
51
90.412935
0
ARC
8
DEFAULT_255_1_388
10
21.6620478
20
84.9781511
40
0.378122
50
55.9269121
51
78.4888449
0
ARC
8
DEFAULT_255_1_388
10
21.6841193
20
85.0162187
40
0.3342379
50
47.929771
51
55.4049217
0
ARC
8
DEFAULT_255_1_388
10
21.6955723
20
85.0278618
40
0.3179217
50
4.334829
51
48.0560205
0
ARC
8
DEFAULT_255_1_388
10
21.5723525
20
85.0087487
40
0.442341
50
359.9251713
51
5.5971671
0
ARC
8
DEFAULT_255_1_388
10
21.620568
20
85.0150728
40
0.3941854
50
337.8914027
51
358.9967534
0
ARC
8
DEFAULT_255_1_388
10
21.315325
20
85.1328295
40
0.7213271
50
326.9132501
51
338.3508308
0
ARC
8
DEFAULT_255_1_388
10
20.8669362
20
85.4202105
40
1.2538973
50
319.6471833
51
327.0959558
0
ARC
8
DEFAULT_255_1_388
10
20.435602
20
85.776005
40
1.8129975
50
317.2588228
51
319.9045804
0
LINE
8
DEFAULT_255_1_388
10
22.9580143
20
85.3424898
11
22.9580143
21
84.468743
0
LINE
8
DEFAULT_255_1_388
10
22.9580143
20
84.468743
11
23.1405343
21
84.468743
0
LINE
8
DEFAULT_255_1_388
10
23.1405343
20
84.468743
11
23.1405343
21
84.3323048
0
LINE
8
DEFAULT_255_1_388
10
23.1405343
20
84.3323048
11
22.9580143
21
84.3323048
0
LINE
8
DEFAULT_255_1_388
10
22.9580143
20
84.3323048
11
22.9580143
21
84.0269
0
LINE
8
DEFAULT_255_1_388
10
22.9580143
20
84.0269
11
22.7899513
21
84.0269
0
LINE
8
DEFAULT_255_1_388
10
22.7899513
20
84.0269
11
22.7899513
21
84.3323048
0
LINE
8
DEFAULT_255_1_388
10
22.7899513
20
84.3323048
11
22.190888
21
84.3323048
0
LINE
8
DEFAULT_255_1_388
10
22.190888
20
84.3323048
11
22.190888
21
84.4307933
0
LINE
8
DEFAULT_255_1_388
10
22.190888
20
84.4307933
11
22.7800121
21
85.3424898
0
LINE
8
DEFAULT_255_1_388
10
22.7800121
20
85.3424898
11
22.9580143
21
85.3424898
0
LINE
8
DEFAULT_255_1_388
10
22.7700729
20
85.0777455
11
22.3806366
21
84.468743
0
LINE
8
DEFAULT_255_1_388
10
22.3806366
20
84.468743
11
22.7899513
21
84.468743
0
LINE
8
DEFAULT_255_1_388
10
22.7899513
20
84.468743
11
22.7899513
21
85.113888
0
LINE
8
DEFAULT_255_1_388
10
22.7899513
20
85.113888
11
22.7700729
21
85.0777455
0
LINE
8
DEFAULT_255_1_388
10
24.3061324
20
84.6819842
11
24.3061324
21
84.1994808
0
LINE
8
DEFAULT_255_1_388
10
23.2923331
20
84.6214454
11
23.2923331
21
84.7361981
0
LINE
8
DEFAULT_255_1_388
10
24.3061324
20
84.9566678
11
24.132648
21
84.9566678
0
LINE
8
DEFAULT_255_1_388
10
23.466721
20
84.7407159
11
23.466721
21
84.6331917
0
LINE
8
DEFAULT_255_1_388
10
24.1335516
20
84.2455626
11
24.1335516
21
84.5410282
0
LINE
8
DEFAULT_255_1_388
10
24.1335516
20
84.5410282
11
23.8290504
21
84.5410282
0
LINE
8
DEFAULT_255_1_388
10
23.8290504
20
84.5410282
11
23.8290504
21
84.6819842
0
LINE
8
DEFAULT_255_1_388
10
23.8290504
20
84.6819842
11
24.3061324
21
84.6819842
0
ARC
8
DEFAULT_255_1_388
10
23.9875925
20
84.4237284
40
0.3895571
50
295.8437277
51
324.8549962
0
ARC
8
DEFAULT_255_1_388
10
23.9408307
20
84.5083619
40
0.4861381
50
291.5691164
51
296.4556269
0
ARC
8
DEFAULT_255_1_388
10
23.8833309
20
84.6619801
40
0.6501442
50
278.6622213
51
291.3047061
0
ARC
8
DEFAULT_255_1_388
10
23.8451342
20
84.9036557
40
0.8948168
50
270.0200506
51
278.7494673
0
ARC
8
DEFAULT_255_1_388
10
23.8407546
20
85.0882453
40
1.0794166
50
270.0022372
51
270.2490917
0
ARC
8
DEFAULT_255_1_388
10
23.8365438
20
84.5923827
40
0.5835695
50
253.5785313
51
270.4175629
0
ARC
8
DEFAULT_255_1_388
10
23.8170434
20
84.5168625
40
0.5056241
50
238.8203954
51
253.2788387
0
ARC
8
DEFAULT_255_1_388
10
23.814835
20
84.5111224
40
0.4995712
50
206.7883476
51
238.696262
0
ARC
8
DEFAULT_255_1_388
10
23.9023746
20
84.5635847
40
0.6014056
50
206.1137778
51
207.4912776
0
ARC
8
DEFAULT_255_1_388
10
23.9690581
20
84.5919284
40
0.6737692
50
188.6922336
51
205.782076
0
ARC
8
DEFAULT_255_1_388
10
24.1778941
20
84.6274455
40
0.8855812
50
180.3881972
51
188.9218085
0
ARC
8
DEFAULT_255_1_388
10
24.3160098
20
84.7425622
40
1.0236965
50
170.2024645
51
180.3561986
0
ARC
8
DEFAULT_255_1_388
10
23.9601248
20
84.8062101
40
0.6621746
50
154.2856519
51
170.3893388
0
ARC
8
DEFAULT_255_1_388
10
23.8159212
20
84.8722192
40
0.5036209
50
139.8400879
51
153.9334639
0
ARC
8
DEFAULT_255_1_388
10
23.7755116
20
84.9045716
40
0.4518751
50
98.4190017
51
139.6707015
0
ARC
8
DEFAULT_255_1_388
10
23.8182083
20
84.6969755
40
0.6635912
50
89.7660128
51
99.4415389
0
ARC
8
DEFAULT_255_1_388
10
23.825548
20
84.7043517
40
0.6562258
50
78.0552044
51
90.4042252
0
ARC
8
DEFAULT_255_1_388
10
23.8710543
20
84.9089661
40
0.4466287
50
54.6380186
51
78.3338577
0
ARC
8
DEFAULT_255_1_388
10
23.8924842
20
84.9450444
40
0.4048184
50
50.0313964
51
54.1562739
0
ARC
8
DEFAULT_255_1_388
10
23.8803735
20
84.9341798
40
0.4209308
50
18.1092229
51
49.7179911
0
ARC
8
DEFAULT_255_1_388
10
23.7164816
20
84.8741399
40
0.5953982
50
7.967396
51
18.698492
0
ARC
8
DEFAULT_255_1_388
10
23.7334077
20
84.8880236
40
0.4050986
50
9.7558763
51
27.3214087
0
ARC
8
DEFAULT_255_1_388
10
23.8602541
20
84.9514087
40
0.2633168
50
27.736147
51
84.5257861
0
ARC
8
DEFAULT_255_1_388
10
23.8233951
20
84.7664988
40
0.4513019
50
82.1064239
51
90.1997295
0
ARC
8
DEFAULT_255_1_388
10
23.8177967
20
84.8236501
40
0.3941684
50
89.4148952
51
105.5824837
0
ARC
8
DEFAULT_255_1_388
10
23.7888848
20
84.9289043
40
0.2850167
50
105.6678541
51
144.2649156
0
ARC
8
DEFAULT_255_1_388
10
23.889374
20
84.8574024
40
0.4083468
50
144.3560675
51
162.8564185
0
ARC
8
DEFAULT_255_1_388
10
24.1238183
20
84.7821083
40
0.6545749
50
162.6076338
51
173.6779811
0
ARC
8
DEFAULT_255_1_388
10
24.4682298
20
84.7402422
40
1.0015089
50
173.4670996
51
179.9729015
0
ARC
8
DEFAULT_255_1_388
10
24.2535169
20
84.6284636
40
0.78681
50
179.6556955
51
190.007958
0
ARC
8
DEFAULT_255_1_388
10
23.992945
20
84.580666
40
0.5218997
50
189.8117884
51
206.6795375
0
ARC
8
DEFAULT_255_1_388
10
23.8978896
20
84.5363514
40
0.4170788
50
207.1031171
51
217.7074698
0
ARC
8
DEFAULT_255_1_388
10
23.8265327
20
84.4742596
40
0.3226945
50
216.7345117
51
265.6812141
0
ARC
8
DEFAULT_255_1_388
10
23.8412469
20
84.576003
40
0.4253149
50
264.7367524
51
270.0610826
0
ARC
8
DEFAULT_255_1_388
10
23.8438654
20
84.8955173
40
0.7448321
50
269.8334494
51
276.0538364
0
ARC
8
DEFAULT_255_1_388
10
23.8671517
20
84.6815924
40
0.5296446
50
275.9894423
51
284.4615914
0
ARC
8
DEFAULT_255_1_388
10
23.889303
20
84.588357
40
0.4338353
50
284.7038488
51
286.4938196
0
ARC
8
DEFAULT_255_1_388
10
23.9352179
20
84.4404371
40
0.2789738
50
286.0770429
51
304.2629628
0
ARC
8
DEFAULT_255_1_388
10
23.9502337
20
84.415868
40
0.2502188
50
304.5886247
51
317.1074126
0
LINE
8
DEFAULT_255_1_388
10
20.287032
20
5.0693468
11
20.4614199
21
5.0693468
0
LINE
8
DEFAULT_255_1_388
10
19.4485242
20
5.2482525
11
19.4485242
21
5.3747516
0
LINE
8
DEFAULT_255_1_388
10
20.4614199
20
5.5446217
11
20.287032
21
5.5446217
0
LINE
8
DEFAULT_255_1_388
10
19.6229121
20
5.3702337
11
19.6229121
21
5.2428312
0
ARC
8
DEFAULT_255_1_388
10
19.8448433
20
5.1365329
40
0.6202263
50
340.1774904
51
353.7812217
0
ARC
8
DEFAULT_255_1_388
10
20.0216286
20
5.0706893
40
0.4315926
50
311.4560052
51
340.4420756
0
ARC
8
DEFAULT_255_1_388
10
20.0178826
20
5.0831665
40
0.4434573
50
282.4332229
51
310.7514507
0
ARC
8
DEFAULT_255_1_388
10
19.9684644
20
5.2873703
40
0.6535262
50
269.9358869
51
282.8096729
0
ARC
8
DEFAULT_255_1_388
10
19.9626583
20
5.4386329
40
0.8048043
50
269.9995752
51
270.3612856
0
ARC
8
DEFAULT_255_1_388
10
19.9567073
20
5.1587781
40
0.5249831
50
250.7885263
51
270.6488451
0
ARC
8
DEFAULT_255_1_388
10
19.9377898
20
5.0870853
40
0.4510942
50
219.3628377
51
250.0611024
0
ARC
8
DEFAULT_255_1_388
10
20.0310772
20
5.1663653
40
0.5735046
50
193.5480293
51
219.5755675
0
ARC
8
DEFAULT_255_1_388
10
20.2978981
20
5.235652
40
0.849146
50
181.1220183
51
193.8754971
0
ARC
8
DEFAULT_255_1_388
10
20.5302214
20
5.2480914
40
1.0816971
50
179.9914644
51
181.5398227
0
ARC
8
DEFAULT_255_1_388
10
20.3225525
20
5.3789586
40
0.8740384
50
169.5837606
51
180.275782
0
ARC
8
DEFAULT_255_1_388
10
20.1158873
20
5.4171439
40
0.6638751
50
155.0367033
51
169.6002779
0
ARC
8
DEFAULT_255_1_388
10
19.9881331
20
5.4787336
40
0.5220662
50
136.7831557
51
155.2472983
0
ARC
8
DEFAULT_255_1_388
10
19.9443122
20
5.5159577
40
0.4646502
50
121.7633063
51
136.4281161
0
ARC
8
DEFAULT_255_1_388
10
19.9594962
20
5.4879049
40
0.4964979
50
95.6460018
51
121.5489589
0
ARC
8
DEFAULT_255_1_388
10
19.9771936
20
5.3631704
40
0.6223912
50
89.9245727
51
96.1375919
0
ARC
8
DEFAULT_255_1_388
10
19.9828641
20
5.3765721
40
0.6090084
50
76.6779212
51
90.456405
0
ARC
8
DEFAULT_255_1_388
10
20.0271454
20
5.555506
40
0.42469
50
47.4858803
51
76.9287069
0
ARC
8
DEFAULT_255_1_388
10
20.0106068
20
5.5442623
40
0.4441778
50
16.5424081
51
46.8934505
0
ARC
8
DEFAULT_255_1_388
10
19.8297118
20
5.4848265
40
0.6345318
50
5.4072971
51
17.0363711
0
ARC
8
DEFAULT_255_1_388
10
19.6678843
20
5.4588304
40
0.6250632
50
7.8888693
51
15.9242022
0
ARC
8
DEFAULT_255_1_388
10
19.8913828
20
5.5237309
40
0.3923364
50
15.7650676
51
27.9410069
0
ARC
8
DEFAULT_255_1_388
10
20.0155997
20
5.5902317
40
0.2514401
50
27.8167196
51
46.4007942
0
ARC
8
DEFAULT_255_1_388
10
20.0211839
20
5.5895882
40
0.2480958
50
47.4372362
51
75.0695672
0
ARC
8
DEFAULT_255_1_388
10
19.9864675
20
5.4687277
40
0.3738281
50
74.7009379
51
87.8124314
0
ARC
8
DEFAULT_255_1_388
10
19.9782292
20
5.3503659
40
0.4924321
50
87.3802571
51
90.0251599
0
ARC
8
DEFAULT_255_1_388
10
19.9738939
20
5.4823997
40
0.3604218
50
89.3451886
51
108.5744412
0
ARC
8
DEFAULT_255_1_388
10
19.9584931
20
5.5401836
40
0.3007661
50
109.2998307
51
143.3037387
0
ARC
8
DEFAULT_255_1_388
10
20.0442221
20
5.4742584
40
0.4089031
50
143.075267
51
163.1918576
0
ARC
8
DEFAULT_255_1_388
10
20.2638055
20
5.4049652
40
0.6391492
50
162.9375929
51
174.6208776
0
ARC
8
DEFAULT_255_1_388
10
20.5592437
20
5.3725711
40
0.9363344
50
174.342123
51
180.1430283
0
ARC
8
DEFAULT_255_1_388
10
20.4544978
20
5.2382117
40
0.8315986
50
179.6817261
51
189.150555
0
ARC
8
DEFAULT_255_1_388
10
20.1731727
20
5.1913559
40
0.5464044
50
188.9911061
51
203.5772363
0
ARC
8
DEFAULT_255_1_388
10
20.0517019
20
5.1409539
40
0.4149206
50
203.9075402
51
215.1312435
0
ARC
8
DEFAULT_255_1_388
10
19.9478817
20
5.0604907
40
0.2837747
50
213.9071511
51
263.8848919
0
ARC
8
DEFAULT_255_1_388
10
19.961981
20
5.1487519
40
0.3730641
50
263.1757928
51
270.1031044
0
ARC
8
DEFAULT_255_1_388
10
19.965589
20
5.2890511
40
0.5133712
50
269.6722503
51
279.0606936
0
ARC
8
DEFAULT_255_1_388
10
19.9956045
20
5.107615
40
0.3294739
50
278.8749101
51
293.6349581
0
ARC
8
DEFAULT_255_1_388
10
20.0316249
20
5.0230251
40
0.2375405
50
293.8553806
51
310.0518171
0
ARC
8
DEFAULT_255_1_388
10
20.0321758
20
5.0160021
40
0.2318463
50
311.0644687
51
332.0111037
0
ARC
8
DEFAULT_255_1_388
10
19.8980431
20
5.0899702
40
0.3850112
50
331.6586806
51
343.2877423
0
ARC
8
DEFAULT_255_1_388
10
19.6659896
20
5.1612806
40
0.6277712
50
343.1446576
51
351.0103568
0
ARC
8
DEFAULT_255_1_388
10
19.502722
20
5.1912873
40
0.7937327
50
350.71248
51
351.1626997
0
LINE
8
DEFAULT_255_1_388
10
21.710146
20
5.3503553
11
21.710146
21
5.2672274
0
LINE
8
DEFAULT_255_1_388
10
20.652072
20
5.2554811
11
20.652072
21
5.3503553
0
LINE
8
DEFAULT_255_1_388
10
21.5375652
20
5.2545775
11
21.5375652
21
5.3521625
0
LINE
8
DEFAULT_255_1_388
10
20.8246528
20
5.3639088
11
20.8246528
21
5.2672274
0
ARC
8
DEFAULT_255_1_388
10
20.7379198
20
5.2627726
40
0.9722364
50
350.4878118
51
0.2625322
0
ARC
8
DEFAULT_255_1_388
10
20.9959158
20
5.2183994
40
0.7104556
50
336.0277991
51
350.5787241
0
ARC
8
DEFAULT_255_1_388
10
21.1472265
20
5.1500243
40
0.544417
50
319.887443
51
336.1331163
0
ARC
8
DEFAULT_255_1_388
10
21.2150077
20
5.0957733
40
0.4576311
50
302.4806296
51
319.6144102
0
ARC
8
DEFAULT_255_1_388
10
21.2020699
20
5.1207067
40
0.4856183
50
275.8196423
51
302.1885521
0
ARC
8
DEFAULT_255_1_388
10
21.183356
20
5.2492466
40
0.6154183
50
269.9169897
51
276.339506
0
ARC
8
DEFAULT_255_1_388
10
21.1783161
20
5.172068
40
0.5382553
50
252.5221437
51
270.441579
0
ARC
8
DEFAULT_255_1_388
10
21.1621411
20
5.1114046
40
0.4755426
50
237.5349961
51
252.1858334
0
ARC
8
DEFAULT_255_1_388
10
21.1721787
20
5.124212
40
0.4917393
50
209.0632754
51
237.3492577
0
ARC
8
DEFAULT_255_1_388
10
21.2701113
20
5.1857104
40
0.6072464
50
205.118533
51
209.6465345
0
ARC
8
DEFAULT_255_1_388
10
21.3597115
20
5.2237174
40
0.7045164
50
188.7216633
51
204.8239753
0
ARC
8
DEFAULT_255_1_388
10
21.5843891
20
5.2615387
40
0.9323368
50
180.3722704
51
188.9253909
0
ARC
8
DEFAULT_255_1_388
10
21.5813452
20
5.3548416
40
0.929284
50
169.5253055
51
180.2766048
0
ARC
8
DEFAULT_255_1_388
10
21.3673251
20
5.3942024
40
0.7116745
50
155.8314601
51
169.5088611
0
ARC
8
DEFAULT_255_1_388
10
21.2232714
20
5.4610312
40
0.5528904
50
139.6259579
51
156.0379072
0
ARC
8
DEFAULT_255_1_388
10
21.1569248
20
5.5144143
40
0.4677708
50
122.6414784
51
139.3431662
0
ARC
8
DEFAULT_255_1_388
10
21.1682503
20
5.4937787
40
0.4912586
50
93.0224537
51
122.4556091
0
ARC
8
DEFAULT_255_1_388
10
21.1804023
20
5.3851776
40
0.6003837
50
89.9756766
51
93.6340839
0
ARC
8
DEFAULT_255_1_388
10
21.1847621
20
5.4300879
40
0.5554884
50
73.7463329
51
90.4234008
0
ARC
8
DEFAULT_255_1_388
10
21.2045094
20
5.5065772
40
0.4765353
50
57.663051
51
73.4516911
0
ARC
8
DEFAULT_255_1_388
10
21.2036132
20
5.5090108
40
0.4749629
50
29.1441355
51
57.4146687
0
ARC
8
DEFAULT_255_1_388
10
21.0983943
20
5.4433046
40
0.5988917
50
24.0985653
51
29.732054
0
ARC
8
DEFAULT_255_1_388
10
20.9821575
20
5.3951154
40
0.7246823
50
8.6654943
51
23.8241215
0
ARC
8
DEFAULT_255_1_388
10
20.7307994
20
5.3541037
40
0.9793537
50
359.7807044
51
8.8218476
0
ARC
8
DEFAULT_255_1_388
10
20.6017698
20
5.3569731
40
0.9358078
50
359.7054632
51
8.0359751
0
ARC
8
DEFAULT_255_1_388
10
20.9392749
20
5.4061252
40
0.5947474
50
7.8926278
51
20.2962188
0
ARC
8
DEFAULT_255_1_388
10
21.12236
20
5.4736367
40
0.3996117
50
20.3231056
51
36.4990255
0
ARC
8
DEFAULT_255_1_388
10
21.1994897
20
5.5330399
40
0.3022818
50
36.1436715
51
85.6627846
0
ARC
8
DEFAULT_255_1_388
10
21.1812152
20
5.4160881
40
0.4203853
50
84.3845912
51
90.076054
0
ARC
8
DEFAULT_255_1_388
10
21.1764507
20
5.4903416
40
0.346157
50
89.3037228
51
109.9046209
0
ARC
8
DEFAULT_255_1_388
10
21.166034
20
5.5333379
40
0.3022217
50
110.8229774
51
143.917961
0
ARC
8
DEFAULT_255_1_388
10
21.27107
20
5.4531455
40
0.434348
50
143.5289166
51
163.2980252
0
ARC
8
DEFAULT_255_1_388
10
21.4856987
20
5.3856685
40
0.659321
50
163.0418884
51
174.3139873
0
ARC
8
DEFAULT_255_1_388
10
21.7561951
20
5.3544378
40
0.9315905
50
174.050934
51
179.4174954
0
ARC
8
DEFAULT_255_1_388
10
21.6993895
20
5.2625382
40
0.8747493
50
179.6928582
51
188.7908948
0
ARC
8
DEFAULT_255_1_388
10
21.3997695
20
5.2146086
40
0.5713262
50
188.6328449
51
202.5630732
0
ARC
8
DEFAULT_255_1_388
10
21.2586532
20
5.1579142
40
0.4192612
50
202.8078931
51
216.1195888
0
ARC
8
DEFAULT_255_1_388
10
21.1676049
20
5.0846479
40
0.3025752
50
215.0755613
51
264.6379773
0
ARC
8
DEFAULT_255_1_388
10
21.1818887
20
5.1781376
40
0.3970284
50
263.8464302
51
270.0830805
0
ARC
8
DEFAULT_255_1_388
10
21.1865431
20
5.1490808
40
0.3679937
50
269.3649295
51
287.5149684
0
ARC
8
DEFAULT_255_1_388
10
21.2065872
20
5.0762714
40
0.2925408
50
288.0629019
51
323.8115617
0
ARC
8
DEFAULT_255_1_388
10
21.1085848
20
5.1493754
40
0.4148018
50
323.6546541
51
342.6591359
0
ARC
8
DEFAULT_255_1_388
10
20.8800506
20
5.223728
40
0.6551163
50
342.4092446
51
353.6451501
0
ARC
8
DEFAULT_255_1_388
10
20.56153
20
5.2633565
40
0.9760748
50
353.4027553
51
359.4846611
0
LINE
8
DEFAULT_255_1_388
10
21.9703726
20
5.9674898
11
22.1944565
21
5.9674898
0
LINE
8
DEFAULT_255_1_388
10
22.1944565
20
5.9674898
11
22.6245532
21
4.8940553
0
LINE
8
DEFAULT_255_1_388
10
22.6245532
20
4.8940553
11
23.0546499
21
5.9674898
0
LINE
8
DEFAULT_255_1_388
10
23.0546499
20
5.9674898
11
23.2796375
21
5.9674898
0
LINE
8
DEFAULT_255_1_388
10
23.2796375
20
5.9674898
11
23.2796375
21
4.6519
0
LINE
8
DEFAULT_255_1_388
10
23.2796375
20
4.6519
11
23.1061531
21
4.6519
0
LINE
8
DEFAULT_255_1_388
10
23.1061531
20
4.6519
11
23.1061531
21
5.164221
0
LINE
8
DEFAULT_255_1_388
10
23.1061531
20
5.164221
11
23.1224172
21
5.7172025
0
LINE
8
DEFAULT_255_1_388
10
23.1224172
20
5.7172025
11
22.6905134
21
4.6519
0
LINE
8
DEFAULT_255_1_388
10
22.6905134
20
4.6519
11
22.5576895
21
4.6519
0
LINE
8
DEFAULT_255_1_388
10
22.5576895
20
4.6519
11
22.1266892
21
5.7144918
0
LINE
8
DEFAULT_255_1_388
10
22.1266892
20
5.7144918
11
22.1438569
21
5.164221
0
LINE
8
DEFAULT_255_1_388
10
22.1438569
20
5.164221
11
22.1438569
21
4.6519
0
LINE
8
DEFAULT_255_1_388
10
22.1438569
20
4.6519
11
21.9703726
21
4.6519
0
LINE
8
DEFAULT_255_1_388
10
21.9703726
20
4.6519
11
21.9703726
21
5.9674898
0
LINE
8
DEFAULT_255_1_388
10
24.0919419
20
5.9738148
11
24.0919419
21
4.6519
0
LINE
8
DEFAULT_255_1_388
10
24.0919419
20
4.6519
11
23.9238789
21
4.6519
0
LINE
8
DEFAULT_255_1_388
10
23.9238789
20
4.6519
11
23.9238789
21
5.765995
0
LINE
8
DEFAULT_255_1_388
10
23.9238789
20
5.765995
11
23.5868494
21
5.6422066
0
LINE
8
DEFAULT_255_1_388
10
23.5868494
20
5.6422066
11
23.5868494
21
5.7940055
0
LINE
8
DEFAULT_255_1_388
10
23.5868494
20
5.7940055
11
24.0657385
21
5.9738148
0
LINE
8
DEFAULT_255_1_388
10
24.0657385
20
5.9738148
11
24.0919419
21
5.9738148
0
LINE
8
DEFAULT_255_1_388
10
20.287032
20
13.0068468
11
20.4614199
21
13.0068468
0
LINE
8
DEFAULT_255_1_388
10
19.4485242
20
13.1857525
11
19.4485242
21
13.3122516
0
LINE
8
DEFAULT_255_1_388
10
20.4614199
20
13.4821217
11
20.287032
21
13.4821217
0
LINE
8
DEFAULT_255_1_388
10
19.6229121
20
13.3077337
11
19.6229121
21
13.1803312
0
ARC
8
DEFAULT_255_1_388
10
19.8448433
20
13.0740329
40
0.6202263
50
340.1774904
51
353.7812217
0
ARC
8
DEFAULT_255_1_388
10
20.0216286
20
13.0081893
40
0.4315926
50
311.4560052
51
340.4420756
0
ARC
8
DEFAULT_255_1_388
10
20.0178826
20
13.0206665
40
0.4434573
50
282.4332229
51
310.7514507
0
ARC
8
DEFAULT_255_1_388
10
19.9684644
20
13.2248703
40
0.6535262
50
269.9358869
51
282.8096729
0
ARC
8
DEFAULT_255_1_388
10
19.9626583
20
13.3761329
40
0.8048043
50
269.9995752
51
270.3612856
0
ARC
8
DEFAULT_255_1_388
10
19.9567073
20
13.0962781
40
0.5249831
50
250.7885263
51
270.6488451
0
ARC
8
DEFAULT_255_1_388
10
19.9377898
20
13.0245853
40
0.4510942
50
219.3628377
51
250.0611024
0
ARC
8
DEFAULT_255_1_388
10
20.0310772
20
13.1038653
40
0.5735046
50
193.5480293
51
219.5755675
0
ARC
8
DEFAULT_255_1_388
10
20.2978981
20
13.173152
40
0.849146
50
181.1220183
51
193.8754971
0
ARC
8
DEFAULT_255_1_388
10
20.5302214
20
13.1855914
40
1.0816971
50
179.9914644
51
181.5398227
0
ARC
8
DEFAULT_255_1_388
10
20.3225525
20
13.3164586
40
0.8740384
50
169.5837606
51
180.275782
0
ARC
8
DEFAULT_255_1_388
10
20.1158873
20
13.3546439
40
0.6638751
50
155.0367033
51
169.6002779
0
ARC
8
DEFAULT_255_1_388
10
19.9881331
20
13.4162336
40
0.5220662
50
136.7831557
51
155.2472983
0
ARC
8
DEFAULT_255_1_388
10
19.9443122
20
13.4534577
40
0.4646502
50
121.7633063
51
136.4281161
0
ARC
8
DEFAULT_255_1_388
10
19.9594962
20
13.4254049
40
0.4964979
50
95.6460018
51
121.5489589
0
ARC
8
DEFAULT_255_1_388
10
19.9771936
20
13.3006704
40
0.6223912
50
89.9245727
51
96.1375919
0
ARC
8
DEFAULT_255_1_388
10
19.9828641
20
13.3140721
40
0.6090084
50
76.6779212
51
90.456405
0
ARC
8
DEFAULT_255_1_388
10
20.0271454
20
13.493006
40
0.42469
50
47.4858803
51
76.9287069
0
ARC
8
DEFAULT_255_1_388
10
20.0106068
20
13.4817623
40
0.4441778
50
16.5424081
51
46.8934505
0
ARC
8
DEFAULT_255_1_388
10
19.8297118
20
13.4223265
40
0.6345318
50
5.4072971
51
17.0363711
0
ARC
8
DEFAULT_255_1_388
10
19.6678843
20
13.3963304
40
0.6250632
50
7.8888693
51
15.9242022
0
ARC
8
DEFAULT_255_1_388
10
19.8913828
20
13.4612309
40
0.3923364
50
15.7650676
51
27.9410069
0
ARC
8
DEFAULT_255_1_388
10
20.0155997
20
13.5277317
40
0.2514401
50
27.8167196
51
46.4007942
0
ARC
8
DEFAULT_255_1_388
10
20.0211839
20
13.5270882
40
0.2480958
50
47.4372362
51
75.0695672
0
ARC
8
DEFAULT_255_1_388
10
19.9864675
20
13.4062277
40
0.3738281
50
74.7009379
51
87.8124314
0
ARC
8
DEFAULT_255_1_388
10
19.9782292
20
13.2878659
40
0.4924321
50
87.3802571
51
90.0251599
0
ARC
8
DEFAULT_255_1_388
10
19.9738939
20
13.4198997
40
0.3604218
50
89.3451886
51
108.5744412
0
ARC
8
DEFAULT_255_1_388
10
19.9584931
20
13.4776836
40
0.3007661
50
109.2998307
51
143.3037387
0
ARC
8
DEFAULT_255_1_388
10
20.0442221
20
13.4117584
40
0.4089031
50
143.075267
51
163.1918576
0
ARC
8
DEFAULT_255_1_388
10
20.2638055
20
13.3424652
40
0.6391492
50
162.9375929
51
174.6208776
0
ARC
8
DEFAULT_255_1_388
10
20.5592437
20
13.3100711
40
0.9363344
50
174.342123
51
180.1430283
0
ARC
8
DEFAULT_255_1_388
10
20.4544978
20
13.1757117
40
0.8315986
50
179.6817261
51
189.150555
0
ARC
8
DEFAULT_255_1_388
10
20.1731727
20
13.1288559
40
0.5464044
50
188.9911061
51
203.5772363
0
ARC
8
DEFAULT_255_1_388
10
20.0517019
20
13.0784539
40
0.4149206
50
203.9075402
51
215.1312435
0
ARC
8
DEFAULT_255_1_388
10
19.9478817
20
12.9979907
40
0.2837747
50
213.9071511
51
263.8848919
0
ARC
8
DEFAULT_255_1_388
10
19.961981
20
13.0862519
40
0.3730641
50
263.1757928
51
270.1031044
0
ARC
8
DEFAULT_255_1_388
10
19.965589
20
13.2265511
40
0.5133712
50
269.6722503
51
279.0606936
0
ARC
8
DEFAULT_255_1_388
10
19.9956045
20
13.045115
40
0.3294739
50
278.8749101
51
293.6349581
0
ARC
8
DEFAULT_255_1_388
10
20.0316249
20
12.9605251
40
0.2375405
50
293.8553806
51
310.0518171
0
ARC
8
DEFAULT_255_1_388
10
20.0321758
20
12.9535021
40
0.2318463
50
311.0644687
51
332.0111037
0
ARC
8
DEFAULT_255_1_388
10
19.8980431
20
13.0274702
40
0.3850112
50
331.6586806
51
343.2877423
0
ARC
8
DEFAULT_255_1_388
10
19.6659896
20
13.0987806
40
0.6277712
50
343.1446576
51
351.0103568
0
ARC
8
DEFAULT_255_1_388
10
19.502722
20
13.1287873
40
0.7937327
50
350.71248
51
351.1626997
0
LINE
8
DEFAULT_255_1_388
10
21.710146
20
13.2878553
11
21.710146
21
13.2047274
0
LINE
8
DEFAULT_255_1_388
10
20.652072
20
13.1929811
11
20.652072
21
13.2878553
0
LINE
8
DEFAULT_255_1_388
10
21.5375652
20
13.1920775
11
21.5375652
21
13.2896625
0
LINE
8
DEFAULT_255_1_388
10
20.8246528
20
13.3014088
11
20.8246528
21
13.2047274
0
ARC
8
DEFAULT_255_1_388
10
20.7379198
20
13.2002726
40
0.9722364
50
350.4878118
51
0.2625322
0
ARC
8
DEFAULT_255_1_388
10
20.9959158
20
13.1558994
40
0.7104556
50
336.0277991
51
350.5787241
0
ARC
8
DEFAULT_255_1_388
10
21.1472265
20
13.0875243
40
0.544417
50
319.887443
51
336.1331163
0
ARC
8
DEFAULT_255_1_388
10
21.2150077
20
13.0332733
40
0.4576311
50
302.4806296
51
319.6144102
0
ARC
8
DEFAULT_255_1_388
10
21.2020699
20
13.0582067
40
0.4856183
50
275.8196423
51
302.1885521
0
ARC
8
DEFAULT_255_1_388
10
21.183356
20
13.1867466
40
0.6154183
50
269.9169897
51
276.339506
0
ARC
8
DEFAULT_255_1_388
10
21.1783161
20
13.109568
40
0.5382553
50
252.5221437
51
270.441579
0
ARC
8
DEFAULT_255_1_388
10
21.1621411
20
13.0489046
40
0.4755426
50
237.5349961
51
252.1858334
0
ARC
8
DEFAULT_255_1_388
10
21.1721787
20
13.061712
40
0.4917393
50
209.0632754
51
237.3492577
0
ARC
8
DEFAULT_255_1_388
10
21.2701113
20
13.1232104
40
0.6072464
50
205.118533
51
209.6465345
0
ARC
8
DEFAULT_255_1_388
10
21.3597115
20
13.1612174
40
0.7045164
50
188.7216633
51
204.8239753
0
ARC
8
DEFAULT_255_1_388
10
21.5843891
20
13.1990387
40
0.9323368
50
180.3722704
51
188.9253909
0
ARC
8
DEFAULT_255_1_388
10
21.5813452
20
13.2923416
40
0.929284
50
169.5253055
51
180.2766048
0
ARC
8
DEFAULT_255_1_388
10
21.3673251
20
13.3317024
40
0.7116745
50
155.8314601
51
169.5088611
0
ARC
8
DEFAULT_255_1_388
10
21.2232714
20
13.3985312
40
0.5528904
50
139.6259579
51
156.0379072
0
ARC
8
DEFAULT_255_1_388
10
21.1569248
20
13.4519143
40
0.4677708
50
122.6414784
51
139.3431662
0
ARC
8
DEFAULT_255_1_388
10
21.1682503
20
13.4312787
40
0.4912586
50
93.0224537
51
122.4556091
0
ARC
8
DEFAULT_255_1_388
10
21.1804023
20
13.3226776
40
0.6003837
50
89.9756766
51
93.6340839
0
ARC
8
DEFAULT_255_1_388
10
21.1847621
20
13.3675879
40
0.5554884
50
73.7463329
51
90.4234008
0
ARC
8
DEFAULT_255_1_388
10
21.2045094
20
13.4440772
40
0.4765353
50
57.663051
51
73.4516911
0
ARC
8
DEFAULT_255_1_388
10
21.2036132
20
13.4465108
40
0.4749629
50
29.1441355
51
57.4146687
0
ARC
8
DEFAULT_255_1_388
10
21.0983943
20
13.3808046
40
0.5988917
50
24.0985653
51
29.732054
0
ARC
8
DEFAULT_255_1_388
10
20.9821575
20
13.3326154
40
0.7246823
50
8.6654943
51
23.8241215
0
ARC
8
DEFAULT_255_1_388
10
20.7307994
20
13.2916037
40
0.9793537
50
359.7807044
51
8.8218476
0
ARC
8
DEFAULT_255_1_388
10
20.6017698
20
13.2944731
40
0.9358078
50
359.7054632
51
8.0359751
0
ARC
8
DEFAULT_255_1_388
10
20.9392749
20
13.3436252
40
0.5947474
50
7.8926278
51
20.2962188
0
ARC
8
DEFAULT_255_1_388
10
21.12236
20
13.4111367
40
0.3996117
50
20.3231056
51
36.4990255
0
ARC
8
DEFAULT_255_1_388
10
21.1994897
20
13.4705399
40
0.3022818
50
36.1436715
51
85.6627846
0
ARC
8
DEFAULT_255_1_388
10
21.1812152
20
13.3535881
40
0.4203853
50
84.3845912
51
90.076054
0
ARC
8
DEFAULT_255_1_388
10
21.1764507
20
13.4278416
40
0.346157
50
89.3037228
51
109.9046209
0
ARC
8
DEFAULT_255_1_388
10
21.166034
20
13.4708379
40
0.3022217
50
110.8229774
51
143.917961
0
ARC
8
DEFAULT_255_1_388
10
21.27107
20
13.3906455
40
0.434348
50
143.5289166
51
163.2980252
0
ARC
8
DEFAULT_255_1_388
10
21.4856987
20
13.3231685
40
0.659321
50
163.0418884
51
174.3139873
0
ARC
8
DEFAULT_255_1_388
10
21.7561951
20
13.2919378
40
0.9315905
50
174.050934
51
179.4174954
0
ARC
8
DEFAULT_255_1_388
10
21.6993895
20
13.2000382
40
0.8747493
50
179.6928582
51
188.7908948
0
ARC
8
DEFAULT_255_1_388
10
21.3997695
20
13.1521086
40
0.5713262
50
188.6328449
51
202.5630732
0
ARC
8
DEFAULT_255_1_388
10
21.2586532
20
13.0954142
40
0.4192612
50
202.8078931
51
216.1195888
0
ARC
8
DEFAULT_255_1_388
10
21.1676049
20
13.0221479
40
0.3025752
50
215.0755613
51
264.6379773
0
ARC
8
DEFAULT_255_1_388
10
21.1818887
20
13.1156376
40
0.3970284
50
263.8464302
51
270.0830805
0
ARC
8
DEFAULT_255_1_388
10
21.1865431
20
13.0865808
40
0.3679937
50
269.3649295
51
287.5149684
0
ARC
8
DEFAULT_255_1_388
10
21.2065872
20
13.0137714
40
0.2925408
50
288.0629019
51
323.8115617
0
ARC
8
DEFAULT_255_1_388
10
21.1085848
20
13.0868754
40
0.4148018
50
323.6546541
51
342.6591359
0
ARC
8
DEFAULT_255_1_388
10
20.8800506
20
13.161228
40
0.6551163
50
342.4092446
51
353.6451501
0
ARC
8
DEFAULT_255_1_388
10
20.56153
20
13.2008565
40
0.9760748
50
353.4027553
51
359.4846611
0
LINE
8
DEFAULT_255_1_388
10
21.9703726
20
13.9049898
11
22.1944565
21
13.9049898
0
LINE
8
DEFAULT_255_1_388
10
22.1944565
20
13.9049898
11
22.6245532
21
12.8315553
0
LINE
8
DEFAULT_255_1_388
10
22.6245532
20
12.8315553
11
23.0546499
21
13.9049898
0
LINE
8
DEFAULT_255_1_388
10
23.0546499
20
13.9049898
11
23.2796375
21
13.9049898
0
LINE
8
DEFAULT_255_1_388
10
23.2796375
20
13.9049898
11
23.2796375
21
12.5894
0
LINE
8
DEFAULT_255_1_388
10
23.2796375
20
12.5894
11
23.1061531
21
12.5894
0
LINE
8
DEFAULT_255_1_388
10
23.1061531
20
12.5894
11
23.1061531
21
13.101721
0
LINE
8
DEFAULT_255_1_388
10
23.1061531
20
13.101721
11
23.1224172
21
13.6547025
0
LINE
8
DEFAULT_255_1_388
10
23.1224172
20
13.6547025
11
22.6905134
21
12.5894
0
LINE
8
DEFAULT_255_1_388
10
22.6905134
20
12.5894
11
22.5576895
21
12.5894
0
LINE
8
DEFAULT_255_1_388
10
22.5576895
20
12.5894
11
22.1266892
21
13.6519918
0
LINE
8
DEFAULT_255_1_388
10
22.1266892
20
13.6519918
11
22.1438569
21
13.101721
0
LINE
8
DEFAULT_255_1_388
10
22.1438569
20
13.101721
11
22.1438569
21
12.5894
0
LINE
8
DEFAULT_255_1_388
10
22.1438569
20
12.5894
11
21.9703726
21
12.5894
0
LINE
8
DEFAULT_255_1_388
10
21.9703726
20
12.5894
11
21.9703726
21
13.9049898
0
LINE
8
DEFAULT_255_1_388
10
24.0919419
20
13.9113148
11
24.0919419
21
12.5894
0
LINE
8
DEFAULT_255_1_388
10
24.0919419
20
12.5894
11
23.9238789
21
12.5894
0
LINE
8
DEFAULT_255_1_388
10
23.9238789
20
12.5894
11
23.9238789
21
13.703495
0
LINE
8
DEFAULT_255_1_388
10
23.9238789
20
13.703495
11
23.5868494
21
13.5797066
0
LINE
8
DEFAULT_255_1_388
10
23.5868494
20
13.5797066
11
23.5868494
21
13.7315055
0
LINE
8
DEFAULT_255_1_388
10
23.5868494
20
13.7315055
11
24.0657385
21
13.9113148
0
LINE
8
DEFAULT_255_1_388
10
24.0657385
20
13.9113148
11
24.0919419
21
13.9113148
0
LINE
8
DEFAULT_255_1_388
10
22.3954376
20
21.8424898
11
22.736985
21
21.1819842
0
LINE
8
DEFAULT_255_1_388
10
22.736985
20
21.1819842
11
23.0803395
21
21.8424898
0
LINE
8
DEFAULT_255_1_388
10
23.0803395
20
21.8424898
11
23.2773166
21
21.8424898
0
LINE
8
DEFAULT_255_1_388
10
23.2773166
20
21.8424898
11
22.8237272
21
21.0175355
0
LINE
8
DEFAULT_255_1_388
10
22.8237272
20
21.0175355
11
22.8237272
21
20.5269
0
LINE
8
DEFAULT_255_1_388
10
22.8237272
20
20.5269
11
22.6502428
21
20.5269
0
LINE
8
DEFAULT_255_1_388
10
22.6502428
20
20.5269
11
22.6502428
21
21.0175355
0
LINE
8
DEFAULT_255_1_388
10
22.6502428
20
21.0175355
11
22.1966535
21
21.8424898
0
LINE
8
DEFAULT_255_1_388
10
22.1966535
20
21.8424898
11
22.3954376
21
21.8424898
0
LINE
8
DEFAULT_255_1_388
10
24.2531662
20
21.8424898
11
24.2531662
21
21.7485191
0
LINE
8
DEFAULT_255_1_388
10
24.2531662
20
21.7485191
11
23.7083168
21
20.5269
0
LINE
8
DEFAULT_255_1_388
10
23.7083168
20
20.5269
11
23.5330253
21
20.5269
0
LINE
8
DEFAULT_255_1_388
10
23.5330253
20
20.5269
11
24.0760675
21
21.705148
0
LINE
8
DEFAULT_255_1_388
10
24.0760675
20
21.705148
11
23.3640587
21
21.705148
0
LINE
8
DEFAULT_255_1_388
10
23.3640587
20
21.705148
11
23.3640587
21
21.8424898
0
LINE
8
DEFAULT_255_1_388
10
23.3640587
20
21.8424898
11
24.2531662
21
21.8424898
0
LINE
8
DEFAULT_255_1_388
10
22.3954376
20
29.7799898
11
22.736985
21
29.1194842
0
LINE
8
DEFAULT_255_1_388
10
22.736985
20
29.1194842
11
23.0803395
21
29.7799898
0
LINE
8
DEFAULT_255_1_388
10
23.0803395
20
29.7799898
11
23.2773166
21
29.7799898
0
LINE
8
DEFAULT_255_1_388
10
23.2773166
20
29.7799898
11
22.8237272
21
28.9550355
0
LINE
8
DEFAULT_255_1_388
10
22.8237272
20
28.9550355
11
22.8237272
21
28.4644
0
LINE
8
DEFAULT_255_1_388
10
22.8237272
20
28.4644
11
22.6502428
21
28.4644
0
LINE
8
DEFAULT_255_1_388
10
22.6502428
20
28.4644
11
22.6502428
21
28.9550355
0
LINE
8
DEFAULT_255_1_388
10
22.6502428
20
28.9550355
11
22.1966535
21
29.7799898
0
LINE
8
DEFAULT_255_1_388
10
22.1966535
20
29.7799898
11
22.3954376
21
29.7799898
0
LINE
8
DEFAULT_255_1_388
10
24.0299857
20
29.7808934
11
24.0598034
21
29.7808934
0
LINE
8
DEFAULT_255_1_388
10
24.0598034
20
29.7808934
11
24.0598034
21
29.6390338
0
LINE
8
DEFAULT_255_1_388
10
24.0598034
20
29.6390338
11
24.0290822
21
29.6390338
0
LINE
8
DEFAULT_255_1_388
10
23.4137548
20
28.9649747
11
23.4137548
21
29.0291278
0
LINE
8
DEFAULT_255_1_388
10
23.5818178
20
29.0074422
11
23.5818178
21
28.9459999
0
ARC
8
DEFAULT_255_1_388
10
24.0349713
20
29.0767826
40
0.562282
50
90.6001079
51
104.5146616
0
ARC
8
DEFAULT_255_1_388
10
23.9912673
20
29.23931
40
0.3939917
50
104.2855758
51
133.8630124
0
ARC
8
DEFAULT_255_1_388
10
24.0096926
20
29.2271243
40
0.4155734
50
134.5304124
51
161.6210222
0
ARC
8
DEFAULT_255_1_388
10
24.1956858
20
29.1615421
40
0.6127682
50
161.2850533
51
174.2074364
0
ARC
8
DEFAULT_255_1_388
10
24.3546425
20
29.1396437
40
0.7731446
50
173.7817938
51
174.9251711
0
ARC
8
DEFAULT_255_1_388
10
23.8420618
20
28.984127
40
0.3412588
50
95.8332067
51
138.995412
0
ARC
8
DEFAULT_255_1_388
10
23.8671898
20
28.8402695
40
0.4870358
50
89.8755506
51
97.0540979
0
ARC
8
DEFAULT_255_1_388
10
23.8725288
20
28.9342841
40
0.3930432
50
71.6407016
51
90.6240821
0
ARC
8
DEFAULT_255_1_388
10
23.8894681
20
28.9966433
40
0.3285421
50
39.6368051
51
71.0190743
0
ARC
8
DEFAULT_255_1_388
10
23.8178589
20
28.9347586
40
0.4231706
50
10.6588054
51
39.9044509
0
ARC
8
DEFAULT_255_1_388
10
23.6437134
20
28.8969223
40
0.60133
50
359.6827842
51
11.1326896
0
ARC
8
DEFAULT_255_1_388
10
23.639247
20
28.8889715
40
0.6058047
50
347.2485908
51
0.4371098
0
ARC
8
DEFAULT_255_1_388
10
23.8268255
20
28.8438379
40
0.4128987
50
318.1408565
51
347.6118497
0
ARC
8
DEFAULT_255_1_388
10
23.8633852
20
28.8137903
40
0.3656244
50
275.6342406
51
317.824739
0
ARC
8
DEFAULT_255_1_388
10
23.8385373
20
28.9599827
40
0.513655
50
269.8872513
51
276.7916069
0
ARC
8
DEFAULT_255_1_388
10
23.8323566
20
28.8446181
40
0.398323
50
246.9139443
51
270.7436787
0
ARC
8
DEFAULT_255_1_388
10
23.8330762
20
28.8286044
40
0.3839368
50
218.1665534
51
245.8780431
0
ARC
8
DEFAULT_255_1_388
10
23.9320134
20
28.9113903
40
0.5128958
50
191.4115343
51
218.6077624
0
ARC
8
DEFAULT_255_1_388
10
24.150045
20
28.9602777
40
0.7363054
50
179.6344971
51
191.7836758
0
ARC
8
DEFAULT_255_1_388
10
24.7780324
20
29.0366495
40
1.3642984
50
171.4523743
51
180.3158856
0
ARC
8
DEFAULT_255_1_388
10
24.2836052
20
29.1135895
40
0.8639311
50
157.9802296
51
171.6246761
0
ARC
8
DEFAULT_255_1_388
10
24.0345402
20
29.2129038
40
0.5958004
50
141.4299236
51
157.8541251
0
ARC
8
DEFAULT_255_1_388
10
23.9623486
20
29.2639746
40
0.5075416
50
102.871586
51
140.8564533
0
ARC
8
DEFAULT_255_1_388
10
24.0352038
20
28.9894943
40
0.7914163
50
90.377773
51
103.5868422
0
ARC
8
DEFAULT_255_1_388
10
23.8396559
20
28.9214543
40
0.2667015
50
89.8751238
51
126.2072139
0
ARC
8
DEFAULT_255_1_388
10
23.844803
20
28.9040847
40
0.2838229
50
124.9742447
51
144.8960197
0
ARC
8
DEFAULT_255_1_388
10
23.8250275
20
28.9201981
40
0.2583845
50
145.2974778
51
160.2660922
0
ARC
8
DEFAULT_255_1_388
10
24.1706764
20
28.9424151
40
0.5888695
50
179.6512124
51
190.285571
0
ARC
8
DEFAULT_255_1_388
10
23.9801243
20
28.9064968
40
0.3949683
50
190.0944895
51
207.5099647
0
ARC
8
DEFAULT_255_1_388
10
23.9164825
20
28.8762177
40
0.3245464
50
207.9585471
51
216.325377
0
ARC
8
DEFAULT_255_1_388
10
23.8782462
20
28.8447712
40
0.2751259
50
215.7661336
51
232.5457193
0
ARC
8
DEFAULT_255_1_388
10
23.8351578
20
28.7900273
40
0.2054668
50
232.8005815
51
270.6605497
0
ARC
8
DEFAULT_255_1_388
10
23.8403002
20
28.8309853
40
0.2464268
50
269.3550767
51
288.474612
0
ARC
8
DEFAULT_255_1_388
10
23.8507509
20
28.7916721
40
0.2058436
50
289.1831976
51
322.9685307
0
ARC
8
DEFAULT_255_1_388
10
23.7819611
20
28.8459279
40
0.2934408
50
322.6007085
51
346.5183319
0
ARC
8
DEFAULT_255_1_388
10
23.6517367
20
28.8791434
40
0.4278249
50
346.2584622
51
358.7739592
0
ARC
8
DEFAULT_255_1_388
10
23.5365942
20
28.8853829
40
0.5430876
50
358.3757628
51
0.0082477
0
ARC
8
DEFAULT_255_1_388
10
23.6222761
20
28.8884856
40
0.4574157
50
359.6211417
51
11.28403
0
ARC
8
DEFAULT_255_1_388
10
23.7659367
20
28.9184535
40
0.3106708
50
11.0483152
51
31.8145585
0
ARC
8
DEFAULT_255_1_388
10
23.8007072
20
28.9373045
40
0.2711963
50
32.3028554
51
38.0820598
0
ARC
8
DEFAULT_255_1_388
10
23.8480305
20
28.9801717
40
0.2075566
50
36.8249851
51
85.741667
0
ARC
8
DEFAULT_255_1_388
10
23.8404718
20
28.9238065
40
0.2643487
50
85.0150021
51
90.050843
0
LINE
8
DEFAULT_255_1_388
10
22.3954376
20
37.7174898
11
22.736985
21
37.0569842
0
LINE
8
DEFAULT_255_1_388
10
22.736985
20
37.0569842
11
23.0803395
21
37.7174898
0
LINE
8
DEFAULT_255_1_388
10
23.0803395
20
37.7174898
11
23.2773166
21
37.7174898
0
LINE
8
DEFAULT_255_1_388
10
23.2773166
20
37.7174898
11
22.8237272
21
36.8925355
0
LINE
8
DEFAULT_255_1_388
10
22.8237272
20
36.8925355
11
22.8237272
21
36.4019
0
LINE
8
DEFAULT_255_1_388
10
22.8237272
20
36.4019
11
22.6502428
21
36.4019
0
LINE
8
DEFAULT_255_1_388
10
22.6502428
20
36.4019
11
22.6502428
21
36.8925355
0
LINE
8
DEFAULT_255_1_388
10
22.6502428
20
36.8925355
11
22.1966535
21
37.7174898
0
LINE
8
DEFAULT_255_1_388
10
22.1966535
20
37.7174898
11
22.3954376
21
37.7174898
0
LINE
8
DEFAULT_255_1_388
10
23.6143461
20
37.0271666
11
23.4806186
21
37.0615021
0
LINE
8
DEFAULT_255_1_388
10
23.4806186
20
37.0615021
11
23.5474823
21
37.7174898
0
LINE
8
DEFAULT_255_1_388
10
23.5474823
20
37.7174898
11
24.2215414
21
37.7174898
0
LINE
8
DEFAULT_255_1_388
10
24.2215414
20
37.7174898
11
24.2215414
21
37.5629803
0
LINE
8
DEFAULT_255_1_388
10
24.2215414
20
37.5629803
11
23.6893419
21
37.5629803
0
LINE
8
DEFAULT_255_1_388
10
23.6893419
20
37.5629803
11
23.6495851
21
37.2042652
0
LINE
8
DEFAULT_255_1_388
10
23.4336332
20
36.7479652
11
23.591757
21
36.7479652
0
LINE
8
DEFAULT_255_1_388
10
23.6586208
20
37.0633092
11
23.6143461
21
37.0271666
0
ARC
8
DEFAULT_255_1_388
10
23.8582465
20
36.8465241
40
0.4141476
50
93.7181681
51
120.253934
0
ARC
8
DEFAULT_255_1_388
10
23.8688517
20
36.7556284
40
0.5055616
50
89.9660471
51
94.2495185
0
ARC
8
DEFAULT_255_1_388
10
23.8734339
20
36.8219154
40
0.4392953
50
73.8045384
51
90.5585736
0
ARC
8
DEFAULT_255_1_388
10
23.8998596
20
36.918452
40
0.3392225
50
41.3071072
51
73.543002
0
ARC
8
DEFAULT_255_1_388
10
23.8530416
20
36.8781461
40
0.4009977
50
13.5075837
51
41.2174839
0
ARC
8
DEFAULT_255_1_388
10
23.6683514
20
36.8297907
40
0.5918864
50
1.1330171
51
13.8830737
0
ARC
8
DEFAULT_255_1_388
10
23.508716
20
36.8212522
40
0.7516787
50
359.9925091
51
1.5431298
0
ARC
8
DEFAULT_255_1_388
10
23.6531774
20
36.8166027
40
0.6072343
50
347.8572712
51
0.4294349
0
ARC
8
DEFAULT_255_1_388
10
23.8500909
20
36.7719898
40
0.4053482
50
323.6727442
51
348.1674594
0
ARC
8
DEFAULT_255_1_388
10
23.8831874
20
36.7518175
40
0.3667495
50
316.8171818
51
323.1486802
0
ARC
8
DEFAULT_255_1_388
10
23.8900997
20
36.7476612
40
0.358869
50
281.839603
51
316.5458142
0
ARC
8
DEFAULT_255_1_388
10
23.8478285
20
36.9226363
40
0.5388223
50
269.5770964
51
282.4214641
0
ARC
8
DEFAULT_255_1_388
10
23.8398206
20
36.898593
40
0.5147801
50
256.2425863
51
270.4486481
0
ARC
8
DEFAULT_255_1_388
10
23.8061733
20
36.7636124
40
0.3756708
50
228.9024379
51
256.33135
0
ARC
8
DEFAULT_255_1_388
10
23.7978714
20
36.7505054
40
0.360344
50
193.7536029
51
228.5272638
0
ARC
8
DEFAULT_255_1_388
10
23.9371279
20
36.7913463
40
0.5053599
50
184.9244437
51
194.4976052
0
ARC
8
DEFAULT_255_1_388
10
23.958792
20
36.7953722
40
0.3700839
50
187.3596909
51
198.6733728
0
ARC
8
DEFAULT_255_1_388
10
23.8407163
20
36.7544373
40
0.2451195
50
198.4453795
51
217.7945479
0
ARC
8
DEFAULT_255_1_388
10
23.8074336
20
36.7308563
40
0.2043754
50
218.2887146
51
228.5613203
0
ARC
8
DEFAULT_255_1_388
10
23.8184343
20
36.7456902
40
0.2227819
50
228.9652423
51
258.1237049
0
ARC
8
DEFAULT_255_1_388
10
23.841578
20
36.8447964
40
0.3245374
50
257.7260585
51
270.4013717
0
ARC
8
DEFAULT_255_1_388
10
23.8466278
20
36.7947255
40
0.2744726
50
269.4204315
51
286.420998
0
ARC
8
DEFAULT_255_1_388
10
23.8633334
20
36.7340705
40
0.2115721
50
286.7250065
51
320.6004665
0
ARC
8
DEFAULT_255_1_388
10
23.8202249
20
36.7690527
40
0.2670878
50
320.6712228
51
344.5440474
0
ARC
8
DEFAULT_255_1_388
10
23.6900963
20
36.8072394
40
0.4026927
50
344.241448
51
356.735803
0
ARC
8
DEFAULT_255_1_388
10
23.549727
20
36.8188656
40
0.5435085
50
356.3547471
51
0.0507222
0
ARC
8
DEFAULT_255_1_388
10
23.6999536
20
36.8223812
40
0.3932934
50
359.5579289
51
12.9534322
0
ARC
8
DEFAULT_255_1_388
10
23.8186375
20
36.8511586
40
0.2711827
50
12.6489751
51
41.608121
0
ARC
8
DEFAULT_255_1_388
10
23.8445535
20
36.8731946
40
0.2371737
50
41.7851122
51
85.9892156
0
ARC
8
DEFAULT_255_1_388
10
23.8306846
20
36.7816738
40
0.3295244
50
84.6965848
51
90.0672125
0
ARC
8
DEFAULT_255_1_388
10
23.8280413
20
36.7065118
40
0.4046926
50
89.6804991
51
99.161352
0
ARC
8
DEFAULT_255_1_388
10
23.8049422
20
36.8445848
40
0.2647044
50
98.9836248
51
113.8905702
0
ARC
8
DEFAULT_255_1_388
10
23.7791097
20
36.9055118
40
0.1985386
50
114.195234
51
127.3641866
0
LINE
8
DEFAULT_255_1_388
10
22.2631376
20
45.6549898
11
22.604685
21
44.9944842
0
LINE
8
DEFAULT_255_1_388
10
22.604685
20
44.9944842
11
22.9480395
21
45.6549898
0
LINE
8
DEFAULT_255_1_388
10
22.9480395
20
45.6549898
11
23.1450166
21
45.6549898
0
LINE
8
DEFAULT_255_1_388
10
23.1450166
20
45.6549898
11
22.6914272
21
44.8300355
0
LINE
8
DEFAULT_255_1_388
10
22.6914272
20
44.8300355
11
22.6914272
21
44.3394
0
LINE
8
DEFAULT_255_1_388
10
22.6914272
20
44.3394
11
22.5179428
21
44.3394
0
LINE
8
DEFAULT_255_1_388
10
22.5179428
20
44.3394
11
22.5179428
21
44.8300355
0
LINE
8
DEFAULT_255_1_388
10
22.5179428
20
44.8300355
11
22.0643535
21
45.6549898
0
LINE
8
DEFAULT_255_1_388
10
22.0643535
20
45.6549898
11
22.2631376
21
45.6549898
0
LINE
8
DEFAULT_255_1_388
10
23.9771994
20
45.6549898
11
23.9771994
21
44.781243
0
LINE
8
DEFAULT_255_1_388
10
23.9771994
20
44.781243
11
24.1597194
21
44.781243
0
LINE
8
DEFAULT_255_1_388
10
24.1597194
20
44.781243
11
24.1597194
21
44.6448048
0
LINE
8
DEFAULT_255_1_388
10
24.1597194
20
44.6448048
11
23.9771994
21
44.6448048
0
LINE
8
DEFAULT_255_1_388
10
23.9771994
20
44.6448048
11
23.9771994
21
44.3394
0
LINE
8
DEFAULT_255_1_388
10
23.9771994
20
44.3394
11
23.8091364
21
44.3394
0
LINE
8
DEFAULT_255_1_388
10
23.8091364
20
44.3394
11
23.8091364
21
44.6448048
0
LINE
8
DEFAULT_255_1_388
10
23.8091364
20
44.6448048
11
23.2100732
21
44.6448048
0
LINE
8
DEFAULT_255_1_388
10
23.2100732
20
44.6448048
11
23.2100732
21
44.7432933
0
LINE
8
DEFAULT_255_1_388
10
23.2100732
20
44.7432933
11
23.7991972
21
45.6549898
0
LINE
8
DEFAULT_255_1_388
10
23.7991972
20
45.6549898
11
23.9771994
21
45.6549898
0
LINE
8
DEFAULT_255_1_388
10
23.789258
20
45.3902455
11
23.3998217
21
44.781243
0
LINE
8
DEFAULT_255_1_388
10
23.3998217
20
44.781243
11
23.8091364
21
44.781243
0
LINE
8
DEFAULT_255_1_388
10
23.8091364
20
44.781243
11
23.8091364
21
45.426388
0
LINE
8
DEFAULT_255_1_388
10
23.8091364
20
45.426388
11
23.789258
21
45.3902455
0
LINE
8
DEFAULT_255_1_388
10
22.3954376
20
53.5924898
11
22.736985
21
52.9319842
0
LINE
8
DEFAULT_255_1_388
10
22.736985
20
52.9319842
11
23.0803395
21
53.5924898
0
LINE
8
DEFAULT_255_1_388
10
23.0803395
20
53.5924898
11
23.2773166
21
53.5924898
0
LINE
8
DEFAULT_255_1_388
10
23.2773166
20
53.5924898
11
22.8237272
21
52.7675355
0
LINE
8
DEFAULT_255_1_388
10
22.8237272
20
52.7675355
11
22.8237272
21
52.2769
0
LINE
8
DEFAULT_255_1_388
10
22.8237272
20
52.2769
11
22.6502428
21
52.2769
0
LINE
8
DEFAULT_255_1_388
10
22.6502428
20
52.2769
11
22.6502428
21
52.7675355
0
LINE
8
DEFAULT_255_1_388
10
22.6502428
20
52.7675355
11
22.1966535
21
53.5924898
0
LINE
8
DEFAULT_255_1_388
10
22.1966535
20
53.5924898
11
22.3954376
21
53.5924898
0
LINE
8
DEFAULT_255_1_388
10
23.6468744
20
52.8795775
11
23.6468744
21
53.0160157
0
LINE
8
DEFAULT_255_1_388
10
23.6468744
20
53.0160157
11
23.7724699
21
53.0160157
0
LINE
8
DEFAULT_255_1_388
10
23.5583251
20
53.2473282
11
23.3911657
21
53.2473282
0
LINE
8
DEFAULT_255_1_388
10
23.3794193
20
52.6238688
11
23.5474823
21
52.6238688
0
LINE
8
DEFAULT_255_1_388
10
23.7724699
20
52.8795775
11
23.6468744
21
52.8795775
0
ARC
8
DEFAULT_255_1_388
10
23.7691925
20
53.3976922
40
0.3816905
50
270.491971
51
281.8953028
0
ARC
8
DEFAULT_255_1_388
10
23.7963352
20
53.2737199
40
0.2547877
50
281.6690378
51
301.2943765
0
ARC
8
DEFAULT_255_1_388
10
23.8154803
20
53.2386926
40
0.2149197
50
301.7834992
51
311.754567
0
ARC
8
DEFAULT_255_1_388
10
23.8257845
20
53.227265
40
0.1995326
50
311.7325027
51
354.2803031
0
ARC
8
DEFAULT_255_1_388
10
23.7440261
20
53.241328
40
0.2823461
50
353.0941646
51
0.1174696
0
ARC
8
DEFAULT_255_1_388
10
23.6921819
20
53.2466874
40
0.3342238
50
359.1804452
51
15.0452323
0
ARC
8
DEFAULT_255_1_388
10
23.8435877
20
53.2908546
40
0.1765747
50
13.957816
51
77.6713812
0
ARC
8
DEFAULT_255_1_388
10
23.8001113
20
53.1350464
40
0.3381982
50
76.111571
51
90.7028736
0
ARC
8
DEFAULT_255_1_388
10
23.7934525
20
53.165825
40
0.3074046
50
89.5321574
51
103.5319393
0
ARC
8
DEFAULT_255_1_388
10
23.7708909
20
53.2557443
40
0.2147041
50
103.2930114
51
133.5619756
0
ARC
8
DEFAULT_255_1_388
10
23.765885
20
53.2624351
40
0.2064084
50
133.8349761
51
173.5343225
0
ARC
8
DEFAULT_255_1_388
10
23.8472508
20
53.2480144
40
0.2889266
50
172.5097183
51
180.1360699
0
ARC
8
DEFAULT_255_1_388
10
23.7402272
20
53.251888
40
0.3490913
50
155.3483706
51
180.7484035
0
ARC
8
DEFAULT_255_1_388
10
23.7347247
20
53.2486519
40
0.3454798
50
131.5745177
51
154.4799474
0
ARC
8
DEFAULT_255_1_388
10
23.769953
20
53.2130422
40
0.3955058
50
96.9874487
51
131.9690874
0
ARC
8
DEFAULT_255_1_388
10
23.7946422
20
53.0729407
40
0.537622
50
89.8592909
51
97.7827481
0
ARC
8
DEFAULT_255_1_388
10
23.8000531
20
53.043436
40
0.5671399
50
78.3654493
51
90.4132586
0
ARC
8
DEFAULT_255_1_388
10
23.8403173
20
53.2300918
40
0.3762034
50
56.6229818
51
78.6387103
0
ARC
8
DEFAULT_255_1_388
10
23.8645002
20
53.2723846
40
0.3275964
50
47.0254604
51
56.085558
0
ARC
8
DEFAULT_255_1_388
10
23.8667253
20
53.2768189
40
0.3228382
50
10.9207523
51
46.777927
0
ARC
8
DEFAULT_255_1_388
10
23.7132847
20
53.2413401
40
0.4802559
50
359.6364235
51
11.6087615
0
ARC
8
DEFAULT_255_1_388
10
23.9197012
20
53.2396404
40
0.273833
50
332.3549969
51
359.7179765
0
ARC
8
DEFAULT_255_1_388
10
23.8465413
20
53.2743285
40
0.3547505
50
325.2332381
51
332.8746682
0
ARC
8
DEFAULT_255_1_388
10
23.8636996
20
53.2623763
40
0.3338396
50
292.9803892
51
325.2391113
0
ARC
8
DEFAULT_255_1_388
10
23.8326192
20
53.3228679
40
0.4016959
50
292.542178
51
293.6931461
0
ARC
8
DEFAULT_255_1_388
10
23.8769764
20
52.5963036
40
0.372079
50
57.643292
51
72.8626085
0
ARC
8
DEFAULT_255_1_388
10
23.9168598
20
52.6609273
40
0.2961455
50
36.7246661
51
57.4701329
0
ARC
8
DEFAULT_255_1_388
10
23.9155755
20
52.662347
40
0.2963321
50
8.054535
51
36.3561529
0
ARC
8
DEFAULT_255_1_388
10
23.8185428
20
52.6449073
40
0.3948682
50
359.8316595
51
8.5873361
0
ARC
8
DEFAULT_255_1_388
10
23.7762902
20
52.639497
40
0.4371398
50
343.9831631
51
0.557075
0
ARC
8
DEFAULT_255_1_388
10
23.8759951
20
52.6121963
40
0.3337749
50
311.6358204
51
343.7652116
0
ARC
8
DEFAULT_255_1_388
10
23.8334205
20
52.6601955
40
0.3979351
50
279.7829743
51
311.625622
0
ARC
8
DEFAULT_255_1_388
10
23.799534
20
52.8218642
40
0.5630417
50
269.7285092
51
280.3857694
0
ARC
8
DEFAULT_255_1_388
10
23.7925653
20
52.8172241
40
0.5584119
50
256.6827433
51
270.4412869
0
ARC
8
DEFAULT_255_1_388
10
23.754464
20
52.6614698
40
0.3980715
50
229.4223821
51
256.8554507
0
ARC
8
DEFAULT_255_1_388
10
23.7078193
20
52.6089683
40
0.3278564
50
181.8183354
51
229.6455015
0
ARC
8
DEFAULT_255_1_388
10
23.8247803
20
52.6236825
40
0.4453611
50
179.9760419
51
183.2330638
0
ARC
8
DEFAULT_255_1_388
10
23.8054355
20
52.6213781
40
0.2579652
50
179.4467996
51
196.2871626
0
ARC
8
DEFAULT_255_1_388
10
23.7505809
20
52.6063709
40
0.2011057
50
196.5661293
51
227.7059371
0
ARC
8
DEFAULT_255_1_388
10
23.7690416
20
52.6270155
40
0.2287994
50
227.7653015
51
257.8763321
0
ARC
8
DEFAULT_255_1_388
10
23.7943499
20
52.7330961
40
0.3378385
50
257.4583525
51
270.4267406
0
ARC
8
DEFAULT_255_1_388
10
23.7994749
20
52.765723
40
0.3704652
50
269.5965319
51
280.8788143
0
ARC
8
DEFAULT_255_1_388
10
23.8252977
20
52.6367529
40
0.2389415
50
280.6347277
51
299.8594068
0
ARC
8
DEFAULT_255_1_388
10
23.8467746
20
52.5959736
40
0.19289
50
300.3575552
51
314.5515667
0
ARC
8
DEFAULT_255_1_388
10
23.8374422
20
52.6028025
40
0.204312
50
315.0730962
51
345.0429362
0
ARC
8
DEFAULT_255_1_388
10
23.7335929
20
52.6330539
40
0.31246
50
344.598526
51
357.9270698
0
ARC
8
DEFAULT_255_1_388
10
23.6326234
20
52.6399705
40
0.4136265
50
357.4755098
51
0.0224936
0
ARC
8
DEFAULT_255_1_388
10
23.7479112
20
52.6427099
40
0.2983498
50
359.5051035
51
13.4236939
0
ARC
8
DEFAULT_255_1_388
10
23.8454202
20
52.6676637
40
0.1977186
50
12.9497905
51
48.7550905
0
ARC
8
DEFAULT_255_1_388
10
23.8249124
20
52.6396373
40
0.2323321
50
49.509109
51
72.1832965
0
ARC
8
DEFAULT_255_1_388
10
23.7846592
20
52.5201632
40
0.358397
50
71.9008458
51
84.3555134
0
ARC
8
DEFAULT_255_1_388
10
23.7664987
20
52.3669712
40
0.512641
50
84.019632
51
89.3326067
0
LINE
8
DEFAULT_255_1_388
10
22.3954376
20
61.5299898
11
22.736985
21
60.8694842
0
LINE
8
DEFAULT_255_1_388
10
22.736985
20
60.8694842
11
23.0803395
21
61.5299898
0
LINE
8
DEFAULT_255_1_388
10
23.0803395
20
61.5299898
11
23.2773166
21
61.5299898
0
LINE
8
DEFAULT_255_1_388
10
23.2773166
20
61.5299898
11
22.8237272
21
60.7050355
0
LINE
8
DEFAULT_255_1_388
10
22.8237272
20
60.7050355
11
22.8237272
21
60.2144
0
LINE
8
DEFAULT_255_1_388
10
22.8237272
20
60.2144
11
22.6502428
21
60.2144
0
LINE
8
DEFAULT_255_1_388
10
22.6502428
20
60.2144
11
22.6502428
21
60.7050355
0
LINE
8
DEFAULT_255_1_388
10
22.6502428
20
60.7050355
11
22.1966535
21
61.5299898
0
LINE
8
DEFAULT_255_1_388
10
22.1966535
20
61.5299898
11
22.3954376
21
61.5299898
0
LINE
8
DEFAULT_255_1_388
10
24.2658161
20
60.3508382
11
24.2658161
21
60.2144
0
LINE
8
DEFAULT_255_1_388
10
24.2658161
20
60.2144
11
23.4038156
21
60.2144
0
LINE
8
DEFAULT_255_1_388
10
23.4038156
20
60.2144
11
23.4038156
21
60.3345741
0
LINE
8
DEFAULT_255_1_388
10
23.4038156
20
60.3345741
11
23.8592121
21
60.8405702
0
LINE
8
DEFAULT_255_1_388
10
23.5456752
20
61.1423607
11
23.3785158
21
61.1423607
0
LINE
8
DEFAULT_255_1_388
10
23.9577006
20
60.733046
11
23.6053104
21
60.3508382
0
LINE
8
DEFAULT_255_1_388
10
23.6053104
20
60.3508382
11
24.2658161
21
60.3508382
0
ARC
8
DEFAULT_255_1_388
10
22.341618
20
62.1825983
40
2.0258655
50
318.5132526
51
320.7829045
0
ARC
8
DEFAULT_255_1_388
10
22.9364137
20
61.6984929
40
1.2589638
50
320.7372878
51
323.9739031
0
ARC
8
DEFAULT_255_1_388
10
23.3773069
20
61.3790554
40
0.7145141
50
323.8962701
51
328.64194
0
ARC
8
DEFAULT_255_1_388
10
23.6075326
20
61.2370545
40
0.4440242
50
328.8294576
51
331.7891185
0
ARC
8
DEFAULT_255_1_388
10
23.7197646
20
61.1791374
40
0.3177517
50
331.4254512
51
352.9365785
0
ARC
8
DEFAULT_255_1_388
10
23.7350646
20
61.175705
40
0.3021496
50
353.2257659
51
0.0166158
0
ARC
8
DEFAULT_255_1_388
10
23.7587407
20
61.1782894
40
0.2784847
50
359.486299
51
15.9343185
0
ARC
8
DEFAULT_255_1_388
10
23.8157674
20
61.1936269
40
0.2194403
50
16.1712913
51
43.5286088
0
ARC
8
DEFAULT_255_1_388
10
23.8244618
20
61.2023191
40
0.2071504
50
43.4417391
51
83.1661095
0
ARC
8
DEFAULT_255_1_388
10
23.8093779
20
61.1194316
40
0.2912888
50
82.160179
51
90.1505708
0
ARC
8
DEFAULT_255_1_388
10
23.8058261
20
61.0590279
40
0.3517025
50
89.5460741
51
102.5418361
0
ARC
8
DEFAULT_255_1_388
10
23.7784981
20
61.1749933
40
0.2325748
50
102.1738499
51
129.206123
0
ARC
8
DEFAULT_255_1_388
10
23.7696434
20
61.1889664
40
0.2161591
50
129.72865
51
135.753947
0
ARC
8
DEFAULT_255_1_388
10
23.7832917
20
61.1780728
40
0.2335433
50
136.1757367
51
166.3673339
0
ARC
8
DEFAULT_255_1_388
10
23.8965605
20
61.1477148
40
0.3507873
50
165.9090694
51
178.8684636
0
ARC
8
DEFAULT_255_1_388
10
23.9941377
20
61.1424263
40
0.4484624
50
178.4391136
51
180.0083808
0
ARC
8
DEFAULT_255_1_388
10
23.8362078
20
61.1468197
40
0.4577138
50
163.2878482
51
180.5581842
0
ARC
8
DEFAULT_255_1_388
10
23.7460119
20
61.1716393
40
0.3641968
50
133.4540601
51
162.947111
0
ARC
8
DEFAULT_255_1_388
10
23.7661001
20
61.1502789
40
0.3935189
50
100.7869829
51
133.4382499
0
ARC
8
DEFAULT_255_1_388
10
23.8052246
20
60.9760399
40
0.5720313
50
89.660664
51
101.3702276
0
ARC
8
DEFAULT_255_1_388
10
23.8126855
20
60.9829263
40
0.5651495
50
78.2172678
51
90.412935
0
ARC
8
DEFAULT_255_1_388
10
23.8526321
20
61.1656511
40
0.378122
50
55.9269121
51
78.4888449
0
ARC
8
DEFAULT_255_1_388
10
23.8747036
20
61.2037187
40
0.3342379
50
47.929771
51
55.4049217
0
ARC
8
DEFAULT_255_1_388
10
23.8861566
20
61.2153618
40
0.3179217
50
4.334829
51
48.0560205
0
ARC
8
DEFAULT_255_1_388
10
23.7629368
20
61.1962487
40
0.442341
50
359.9251713
51
5.5971671
0
ARC
8
DEFAULT_255_1_388
10
23.8111522
20
61.2025728
40
0.3941854
50
337.8914027
51
358.9967534
0
ARC
8
DEFAULT_255_1_388
10
23.5059093
20
61.3203295
40
0.7213271
50
326.9132501
51
338.3508308
0
ARC
8
DEFAULT_255_1_388
10
23.0575204
20
61.6077105
40
1.2538973
50
319.6471833
51
327.0959558
0
ARC
8
DEFAULT_255_1_388
10
22.6261863
20
61.963505
40
1.8129975
50
317.2588228
51
319.9045804
0
LINE
8
DEFAULT_255_1_388
10
22.4038376
20
69.4674898
11
22.745385
21
68.8069842
0
LINE
8
DEFAULT_255_1_388
10
22.745385
20
68.8069842
11
23.0887395
21
69.4674898
0
LINE
8
DEFAULT_255_1_388
10
23.0887395
20
69.4674898
11
23.2857166
21
69.4674898
0
LINE
8
DEFAULT_255_1_388
10
23.2857166
20
69.4674898
11
22.8321272
21
68.6425355
0
LINE
8
DEFAULT_255_1_388
10
22.8321272
20
68.6425355
11
22.8321272
21
68.1519
0
LINE
8
DEFAULT_255_1_388
10
22.8321272
20
68.1519
11
22.6586428
21
68.1519
0
LINE
8
DEFAULT_255_1_388
10
22.6586428
20
68.1519
11
22.6586428
21
68.6425355
0
LINE
8
DEFAULT_255_1_388
10
22.6586428
20
68.6425355
11
22.2050535
21
69.4674898
0
LINE
8
DEFAULT_255_1_388
10
22.2050535
20
69.4674898
11
22.4038376
21
69.4674898
0
LINE
8
DEFAULT_255_1_388
10
23.9615828
20
69.4738148
11
23.9615828
21
68.1519
0
LINE
8
DEFAULT_255_1_388
10
23.9615828
20
68.1519
11
23.7935198
21
68.1519
0
LINE
8
DEFAULT_255_1_388
10
23.7935198
20
68.1519
11
23.7935198
21
69.265995
0
LINE
8
DEFAULT_255_1_388
10
23.7935198
20
69.265995
11
23.4564902
21
69.1422066
0
LINE
8
DEFAULT_255_1_388
10
23.4564902
20
69.1422066
11
23.4564902
21
69.2940055
0
LINE
8
DEFAULT_255_1_388
10
23.4564902
20
69.2940055
11
23.9353794
21
69.4738148
0
LINE
8
DEFAULT_255_1_388
10
23.9353794
20
69.4738148
11
23.9615828
21
69.4738148
0
LINE
8
DEFAULT_255_1_388
10
22.3954376
20
77.4049898
11
22.736985
21
76.7444842
0
LINE
8
DEFAULT_255_1_388
10
22.736985
20
76.7444842
11
23.0803395
21
77.4049898
0
LINE
8
DEFAULT_255_1_388
10
23.0803395
20
77.4049898
11
23.2773166
21
77.4049898
0
LINE
8
DEFAULT_255_1_388
10
23.2773166
20
77.4049898
11
22.8237272
21
76.5800355
0
LINE
8
DEFAULT_255_1_388
10
22.8237272
20
76.5800355
11
22.8237272
21
76.0894
0
LINE
8
DEFAULT_255_1_388
10
22.8237272
20
76.0894
11
22.6502428
21
76.0894
0
LINE
8
DEFAULT_255_1_388
10
22.6502428
20
76.0894
11
22.6502428
21
76.5800355
0
LINE
8
DEFAULT_255_1_388
10
22.6502428
20
76.5800355
11
22.1966535
21
77.4049898
0
LINE
8
DEFAULT_255_1_388
10
22.1966535
20
77.4049898
11
22.3954376
21
77.4049898
0
LINE
8
DEFAULT_255_1_388
10
24.2287699
20
76.867369
11
24.2287699
21
76.6505135
0
LINE
8
DEFAULT_255_1_388
10
23.3983942
20
76.6279244
11
23.3983942
21
76.8511048
0
LINE
8
DEFAULT_255_1_388
10
24.0616105
20
76.6053353
11
24.0616105
21
76.8791153
0
LINE
8
DEFAULT_255_1_388
10
23.5655536
20
76.8917652
11
23.5655536
21
76.6243102
0
ARC
8
DEFAULT_255_1_388
10
22.8510033
20
76.6450118
40
1.3777776
50
353.8440855
51
0.2287917
0
ARC
8
DEFAULT_255_1_388
10
23.3729051
20
76.5867414
40
0.852639
50
344.4934746
51
353.9763743
0
ARC
8
DEFAULT_255_1_388
10
23.7095858
20
76.4910191
40
0.5026273
50
329.2803599
51
344.7473406
0
ARC
8
DEFAULT_255_1_388
10
23.8211354
20
76.4298038
40
0.3754848
50
324.9361395
51
328.6153007
0
ARC
8
DEFAULT_255_1_388
10
23.8637003
20
76.4000586
40
0.3235566
50
280.5801797
51
324.9173226
0
ARC
8
DEFAULT_255_1_388
10
23.8185632
20
76.5880236
40
0.5167077
50
269.5979457
51
281.6732777
0
ARC
8
DEFAULT_255_1_388
10
23.8104535
20
76.5745113
40
0.5032026
50
256.6228565
51
270.5105488
0
ARC
8
DEFAULT_255_1_388
10
23.7652278
20
76.4003345
40
0.3233092
50
215.8618351
51
257.2787793
0
ARC
8
DEFAULT_255_1_388
10
23.8800985
20
76.4774106
40
0.4615831
50
197.9695203
51
215.2622745
0
ARC
8
DEFAULT_255_1_388
10
24.1596661
20
76.5717641
40
0.7566307
50
187.8816486
51
198.2346584
0
ARC
8
DEFAULT_255_1_388
10
24.6049899
20
76.6360453
40
1.2065653
50
180.8977266
51
188.0054894
0
ARC
8
DEFAULT_255_1_388
10
24.9100113
20
76.64754
40
1.5117443
50
180.7434591
51
181.152202
0
ARC
8
DEFAULT_255_1_388
10
24.7425109
20
76.8565371
40
1.3441277
50
173.7674302
51
180.2315596
0
ARC
8
DEFAULT_255_1_388
10
24.2342978
20
76.9139779
40
0.8326847
50
164.3058537
51
173.9000553
0
ARC
8
DEFAULT_255_1_388
10
23.9066978
20
77.0083652
40
0.4917711
50
148.7922028
51
164.5682288
0
ARC
8
DEFAULT_255_1_388
10
23.7997715
20
77.0680457
40
0.3694204
50
144.5883979
51
148.1161588
0
ARC
8
DEFAULT_255_1_388
10
23.761046
20
77.0950667
40
0.322202
50
101.6440149
51
144.5142619
0
ARC
8
DEFAULT_255_1_388
10
23.8088653
20
76.9050337
40
0.5180451
50
89.528284
51
102.5820197
0
ARC
8
DEFAULT_255_1_388
10
23.8177645
20
76.9006376
40
0.5224441
50
77.0437914
51
90.508231
0
ARC
8
DEFAULT_255_1_388
10
23.8629898
20
77.0854272
40
0.3322297
50
48.2777708
51
77.4996087
0
ARC
8
DEFAULT_255_1_388
10
23.8711638
20
77.0999557
40
0.315966
50
36.3141586
51
47.6307332
0
ARC
8
DEFAULT_255_1_388
10
23.773436
20
77.0341159
40
0.4337313
50
18.2931065
51
35.6770203
0
ARC
8
DEFAULT_255_1_388
10
23.4873201
20
76.9359107
40
0.7362203
50
8.0246996
51
18.5605636
0
ARC
8
DEFAULT_255_1_388
10
23.0189557
20
76.8667432
40
1.2096583
50
1.127539
51
8.1718423
0
ARC
8
DEFAULT_255_1_388
10
22.654069
20
76.8524374
40
1.5747719
50
0.5432713
51
1.38669
0
ARC
8
DEFAULT_255_1_388
10
22.8598069
20
76.8831163
40
1.2018103
50
359.8092569
51
4.9408001
0
ARC
8
DEFAULT_255_1_388
10
23.333465
20
76.92539
40
0.7262727
50
4.8364937
51
12.2906017
0
ARC
8
DEFAULT_255_1_388
10
23.6434115
20
76.9944485
40
0.4087324
50
12.0806994
51
23.8171225
0
ARC
8
DEFAULT_255_1_388
10
23.7754511
20
77.0503508
40
0.2653719
50
24.2874621
51
31.3934353
0
ARC
8
DEFAULT_255_1_388
10
23.8344947
20
77.0889822
40
0.1948607
50
30.7407708
51
82.4658033
0
ARC
8
DEFAULT_255_1_388
10
23.8142608
20
76.9896017
40
0.2961198
50
81.1057101
51
90.2187368
0
ARC
8
DEFAULT_255_1_388
10
23.8102419
20
77.0186421
40
0.2670929
50
89.380395
51
105.6763916
0
ARC
8
DEFAULT_255_1_388
10
23.7896141
20
77.093632
40
0.1893189
50
105.7980655
51
149.7387869
0
ARC
8
DEFAULT_255_1_388
10
23.9093282
20
77.0216719
40
0.3289892
50
149.4208441
51
163.628295
0
ARC
8
DEFAULT_255_1_388
10
24.1445511
20
76.9499345
40
0.5749004
50
163.3764549
51
172.141138
0
ARC
8
DEFAULT_255_1_388
10
24.5158233
20
76.8967582
40
0.9499585
50
172.0258462
51
178.0705453
0
ARC
8
DEFAULT_255_1_388
10
24.8579785
20
76.8805682
40
1.2924734
50
177.8639301
51
179.5036263
0
ARC
8
DEFAULT_255_1_388
10
24.7360804
20
76.6202151
40
1.170534
50
179.7995545
51
185.246089
0
ARC
8
DEFAULT_255_1_388
10
24.2812397
20
76.5771404
40
0.7136613
50
185.1411911
51
193.0082205
0
ARC
8
DEFAULT_255_1_388
10
23.9838658
20
76.5068441
40
0.4080987
50
192.7897338
51
205.2507384
0
ARC
8
DEFAULT_255_1_388
10
23.8660868
20
76.4542538
40
0.2791522
50
205.8001921
51
211.2545876
0
ARC
8
DEFAULT_255_1_388
10
23.8072407
20
76.4148132
40
0.2084074
50
210.3789935
51
238.4007996
0
ARC
8
DEFAULT_255_1_388
10
23.8050493
20
76.4200786
40
0.2117943
50
239.6521916
51
265.9793852
0
ARC
8
DEFAULT_255_1_388
10
23.8146342
20
76.4957358
40
0.2879689
50
265.1324455
51
270.0603288
0
ARC
8
DEFAULT_255_1_388
10
23.8178719
20
76.4592418
40
0.2514919
50
269.3314378
51
287.2180039
0
ARC
8
DEFAULT_255_1_388
10
23.8333801
20
76.4026291
40
0.1928357
50
287.7957942
51
329.0808983
0
ARC
8
DEFAULT_255_1_388
10
23.7256558
20
76.4698651
40
0.319808
50
328.6635261
51
343.3325043
0
ARC
8
DEFAULT_255_1_388
10
23.4812017
20
76.5460195
40
0.5758408
50
343.0498092
51
351.9392499
0
ARC
8
DEFAULT_255_1_388
10
23.0911338
20
76.6035205
40
0.9701202
50
351.8071632
51
357.7957897
0
ARC
8
DEFAULT_255_1_388
10
22.7276815
20
76.6223724
40
1.3340376
50
357.5870923
51
359.2682493
0
ENDSEC
0
EOF