0
SECTION
2
HEADER
9
$MEASUREMENT
70
1
0
ENDSEC
0
SECTION
2
TABLES
0
TABLE
2
LTYPE
0
LTYPE
72
65
70
64
2
CONTINUOUS
3
______
73
0
40
0
0
ENDTAB
0
TABLE
2
LAYER
0
LAYER
2
DEFAULT_255_2_778
70
0
62
255
6
CONTINUOUS
0
LAYER
2
DEFAULT_255_1_234
70
0
62
255
6
CONTINUOUS
0
ENDTAB
0
ENDSEC
0
SECTION
2
ENTITIES
0
ARC
8
DEFAULT_255_2_778
10
3.5700693
20
91.6802028
40
0.7914215
50
129.1312896
51
180.1450914
0
ARC
8
DEFAULT_255_2_778
10
3.5703345
20
91.6806899
40
0.7912112
50
89.854026
51
129.1684493
0
ARC
8
DEFAULT_255_2_778
10
25.7993937
20
91.6803765
40
0.7915249
50
39.4792447
51
90.147911
0
ARC
8
DEFAULT_255_2_778
10
25.7999935
20
91.6802231
40
0.7911595
50
359.8533901
51
39.5154338
0
ARC
8
DEFAULT_255_2_778
10
25.7996693
20
-1.9863495
40
0.7914836
50
309.4761667
51
0.1482649
0
ARC
8
DEFAULT_255_2_778
10
25.799398
20
-1.9867805
40
0.7913235
50
269.8517415
51
309.511178
0
ARC
8
DEFAULT_255_2_778
10
3.570342
20
-1.9867224
40
0.7913815
50
219.1282118
51
270.1454017
0
ARC
8
DEFAULT_255_2_778
10
3.5700247
20
-1.9863399
40
0.7913769
50
179.8524075
51
219.1641908
0
LINE
8
DEFAULT_255_2_778
10
3.5723503
20
92.4718987
11
25.7973503
21
92.4718987
0
LINE
8
DEFAULT_255_2_778
10
26.5911503
20
91.6781987
11
26.5911503
21
-1.9843013
0
LINE
8
DEFAULT_255_2_778
10
25.7973503
20
-2.7781013
11
3.5723503
21
-2.7781013
0
LINE
8
DEFAULT_255_2_778
10
2.7786503
20
-1.9843013
11
2.7786503
21
91.6781987
0
LINE
8
DEFAULT_255_1_234
10
9.328885
20
-0.0087609
11
9.328885
21
-0.1348592
0
LINE
8
DEFAULT_255_1_234
10
9.328885
20
-0.1348592
11
8.8381458
21
-0.1348592
0
LINE
8
DEFAULT_255_1_234
10
8.8381458
20
-0.1348592
11
8.8381458
21
-0.6513
0
LINE
8
DEFAULT_255_1_234
10
8.8381458
20
-0.6513
11
8.6839364
21
-0.6513
0
LINE
8
DEFAULT_255_1_234
10
8.6839364
20
-0.6513
11
8.6839364
21
0.5181211
0
LINE
8
DEFAULT_255_1_234
10
8.6839364
20
0.5181211
11
9.4083992
21
0.5181211
0
LINE
8
DEFAULT_255_1_234
10
9.4083992
20
0.5181211
11
9.4083992
21
0.3912196
0
LINE
8
DEFAULT_255_1_234
10
9.4083992
20
0.3912196
11
8.8381458
21
0.3912196
0
LINE
8
DEFAULT_255_1_234
10
8.8381458
20
0.3912196
11
8.8381458
21
-0.0087609
0
LINE
8
DEFAULT_255_1_234
10
8.8381458
20
-0.0087609
11
9.328885
21
-0.0087609
0
LINE
8
DEFAULT_255_1_234
10
9.6927227
20
0.5181211
11
9.9746367
21
0.0699501
0
LINE
8
DEFAULT_255_1_234
10
9.9746367
20
0.0699501
11
10.2549444
21
0.5181211
0
LINE
8
DEFAULT_255_1_234
10
10.2549444
20
0.5181211
11
10.4364617
21
0.5181211
0
LINE
8
DEFAULT_255_1_234
10
10.4364617
20
0.5181211
11
10.0670017
21
-0.0617704
0
LINE
8
DEFAULT_255_1_234
10
10.0670017
20
-0.0617704
11
10.4452966
21
-0.6513
0
LINE
8
DEFAULT_255_1_234
10
10.4452966
20
-0.6513
11
10.2621729
21
-0.6513
0
LINE
8
DEFAULT_255_1_234
10
10.2621729
20
-0.6513
11
9.9746367
21
-0.1950973
0
LINE
8
DEFAULT_255_1_234
10
9.9746367
20
-0.1950973
11
9.6854941
21
-0.6513
0
LINE
8
DEFAULT_255_1_234
10
9.6854941
20
-0.6513
11
9.5031737
21
-0.6513
0
LINE
8
DEFAULT_255_1_234
10
9.5031737
20
-0.6513
11
9.8822717
21
-0.0617704
0
LINE
8
DEFAULT_255_1_234
10
9.8822717
20
-0.0617704
11
9.5120086
21
0.5181211
0
LINE
8
DEFAULT_255_1_234
10
9.5120086
20
0.5181211
11
9.6927227
21
0.5181211
0
LINE
8
DEFAULT_255_1_234
10
10.8019058
20
-0.1155831
11
10.8019058
21
0.0056962
0
LINE
8
DEFAULT_255_1_234
10
10.8019058
20
0.0056962
11
10.9135469
21
0.0056962
0
LINE
8
DEFAULT_255_1_234
10
10.7231947
20
0.2113087
11
10.5746076
21
0.2113087
0
LINE
8
DEFAULT_255_1_234
10
10.5641663
20
-0.3428813
11
10.7135566
21
-0.3428813
0
LINE
8
DEFAULT_255_1_234
10
10.9135469
20
-0.1155831
11
10.8019058
21
-0.1155831
0
ARC
8
DEFAULT_255_1_234
10
10.9106336
20
0.3449713
40
0.3392876
50
270.4919872
51
281.8951556
0
ARC
8
DEFAULT_255_1_234
10
10.9347597
20
0.2347702
40
0.2264817
50
281.6691735
51
301.2943132
0
ARC
8
DEFAULT_255_1_234
10
10.9517808
20
0.2036304
40
0.1910381
50
301.7833094
51
311.7545298
0
ARC
8
DEFAULT_255_1_234
10
10.9609383
20
0.1934748
40
0.1773635
50
311.7323931
51
354.2802411
0
ARC
8
DEFAULT_255_1_234
10
10.8883009
20
0.2059722
40
0.2509385
50
353.0937916
51
0.1181479
0
ARC
8
DEFAULT_255_1_234
10
10.8421793
20
0.2107386
40
0.2970898
50
359.1805295
51
15.0453146
0
ARC
8
DEFAULT_255_1_234
10
10.976763
20
0.2499992
40
0.1569564
50
13.9577229
51
77.6713066
0
ARC
8
DEFAULT_255_1_234
10
10.938116
20
0.1114949
40
0.3006298
50
76.1116566
51
90.7026153
0
ARC
8
DEFAULT_255_1_234
10
10.9321998
20
0.1388545
40
0.2732568
50
89.5324876
51
103.531937
0
ARC
8
DEFAULT_255_1_234
10
10.9121442
20
0.2187884
40
0.1908508
50
103.2931773
51
133.5619022
0
ARC
8
DEFAULT_255_1_234
10
10.907693
20
0.2247375
40
0.1834746
50
133.8349307
51
173.5344437
0
ARC
8
DEFAULT_255_1_234
10
10.9799973
20
0.2119213
40
0.2568033
50
172.5096846
51
180.1366907
0
ARC
8
DEFAULT_255_1_234
10
10.8848867
20
0.2153622
40
0.3103056
50
155.3484492
51
180.7484736
0
ARC
8
DEFAULT_255_1_234
10
10.8799956
20
0.2124846
40
0.3070957
50
131.5744599
51
154.4798489
0
ARC
8
DEFAULT_255_1_234
10
10.9113104
20
0.180831
40
0.3515643
50
96.9875458
51
131.9690667
0
ARC
8
DEFAULT_255_1_234
10
10.9332584
20
0.0562636
40
0.4779224
50
89.8596053
51
97.7825159
0
ARC
8
DEFAULT_255_1_234
10
10.9380647
20
0.0300616
40
0.5041361
50
78.3655447
51
90.4131539
0
ARC
8
DEFAULT_255_1_234
10
10.9738565
20
0.1959887
40
0.3344039
50
56.6229102
51
78.638727
0
ARC
8
DEFAULT_255_1_234
10
10.9953508
20
0.2335805
40
0.2912001
50
47.0253525
51
56.0854072
0
ARC
8
DEFAULT_255_1_234
10
10.9973288
20
0.2375223
40
0.2869704
50
10.9208013
51
46.7778124
0
ARC
8
DEFAULT_255_1_234
10
10.8609355
20
0.2059857
40
0.426899
50
359.6364486
51
11.6087304
0
ARC
8
DEFAULT_255_1_234
10
11.0444199
20
0.2044752
40
0.243409
50
332.3549906
51
359.7179418
0
ARC
8
DEFAULT_255_1_234
10
10.97938
20
0.2353142
40
0.3153459
50
325.2333722
51
332.8745602
0
ARC
8
DEFAULT_255_1_234
10
10.9946424
20
0.2246828
40
0.2967456
50
292.9802137
51
325.2392345
0
ARC
8
DEFAULT_255_1_234
10
10.9671798
20
0.2780863
40
0.3566604
50
292.5402179
51
293.6924929
0
ARC
8
DEFAULT_255_1_234
10
11.0064394
20
-0.3673909
40
0.3307468
50
57.6435486
51
72.8625112
0
ARC
8
DEFAULT_255_1_234
10
11.0418894
20
-0.3099451
40
0.2632492
50
36.7248896
51
57.4697979
0
ARC
8
DEFAULT_255_1_234
10
11.0407526
20
-0.308678
40
0.2634081
50
8.0545065
51
36.356114
0
ARC
8
DEFAULT_255_1_234
10
10.9544712
20
-0.3241826
40
0.3510261
50
359.8320645
51
8.5869982
0
ARC
8
DEFAULT_255_1_234
10
10.9169488
20
-0.3289899
40
0.3885653
50
343.9829931
51
0.5571613
0
ARC
8
DEFAULT_255_1_234
10
11.0055685
20
-0.3532562
40
0.2966924
50
311.6359546
51
343.7651759
0
ARC
8
DEFAULT_255_1_234
10
10.9677254
20
-0.3105898
40
0.3537231
50
279.7829875
51
311.6255694
0
ARC
8
DEFAULT_255_1_234
10
10.937603
20
-0.166872
40
0.5004971
50
269.7286406
51
280.3856417
0
ARC
8
DEFAULT_255_1_234
10
10.9314103
20
-0.1710004
40
0.4963778
50
256.6828919
51
270.4412052
0
ARC
8
DEFAULT_255_1_234
10
10.8975399
20
-0.3094606
40
0.3538406
50
229.4223008
51
256.8556159
0
ARC
8
DEFAULT_255_1_234
10
10.8560792
20
-0.3561264
40
0.2914296
50
181.818294
51
229.6455059
0
ARC
8
DEFAULT_255_1_234
10
10.9600748
20
-0.3430504
40
0.3959084
50
179.9755256
51
183.2323064
0
ARC
8
DEFAULT_255_1_234
10
10.9428494
20
-0.3450963
40
0.2293034
50
179.4465117
51
196.2869258
0
ARC
8
DEFAULT_255_1_234
10
10.8940902
20
-0.3584349
40
0.1787621
50
196.5661473
51
227.705904
0
ARC
8
DEFAULT_255_1_234
10
10.9104996
20
-0.3400845
40
0.2033784
50
227.7652068
51
257.8762805
0
ARC
8
DEFAULT_255_1_234
10
10.9329967
20
-0.2457844
40
0.3003081
50
257.4584385
51
270.426602
0
ARC
8
DEFAULT_255_1_234
10
10.9375533
20
-0.2168004
40
0.329292
50
269.5962073
51
280.8789248
0
ARC
8
DEFAULT_255_1_234
10
10.9605062
20
-0.3314315
40
0.2123908
50
280.6346389
51
299.8595945
0
ARC
8
DEFAULT_255_1_234
10
10.9795968
20
-0.3676788
40
0.171457
50
300.3576302
51
314.5517981
0
ARC
8
DEFAULT_255_1_234
10
10.9713028
20
-0.3616081
40
0.1816095
50
315.0728369
51
345.0431014
0
ARC
8
DEFAULT_255_1_234
10
10.8789843
20
-0.3347159
40
0.2777492
50
344.5986631
51
357.9269593
0
ARC
8
DEFAULT_255_1_234
10
10.7894169
20
-0.3285724
40
0.3674917
50
357.4748886
51
0.0231117
0
ARC
8
DEFAULT_255_1_234
10
10.8917278
20
-0.3261321
40
0.2651907
50
359.5047933
51
13.4239635
0
ARC
8
DEFAULT_255_1_234
10
10.9783922
20
-0.3039522
40
0.1757509
50
12.9498199
51
48.7551375
0
ARC
8
DEFAULT_255_1_234
10
10.9601656
20
-0.32886
40
0.2065134
50
49.5088623
51
72.1836453
0
ARC
8
DEFAULT_255_1_234
10
10.9243808
20
-0.4350709
40
0.3185836
50
71.9010081
51
84.3554254
0
ARC
8
DEFAULT_255_1_234
10
10.908244
20
-0.5711674
40
0.4556151
50
84.0193428
51
89.333121
0
LINE
8
DEFAULT_255_1_234
10
12.2162949
20
0.5181211
11
12.3713074
21
0.5181211
0
LINE
8
DEFAULT_255_1_234
10
12.3713074
20
0.5181211
11
12.3713074
21
-0.277021
0
LINE
8
DEFAULT_255_1_234
10
11.9873903
20
-0.6657571
11
11.9464285
21
-0.6673635
0
LINE
8
DEFAULT_255_1_234
10
11.5247622
20
-0.2786273
11
11.5247622
21
0.5181211
0
LINE
8
DEFAULT_255_1_234
10
11.5247622
20
0.5181211
11
11.6773652
21
0.5181211
0
LINE
8
DEFAULT_255_1_234
10
11.6773652
20
0.5181211
11
11.6773652
21
-0.2738083
0
LINE
8
DEFAULT_255_1_234
10
12.2162949
20
-0.2746115
11
12.2162949
21
0.5181211
0
ARC
8
DEFAULT_255_1_234
10
11.9359973
20
-0.2790072
40
0.4353147
50
343.0898354
51
0.2614217
0
ARC
8
DEFAULT_255_1_234
10
12.0188374
20
-0.3021163
40
0.3493402
50
315.3345598
51
342.7641223
0
ARC
8
DEFAULT_255_1_234
10
11.9964823
20
-0.2789318
40
0.3815385
50
284.6606969
51
315.2182466
0
ARC
8
DEFAULT_255_1_234
10
11.9509536
20
-0.1243245
40
0.5426573
50
273.8500273
51
285.1797701
0
ARC
8
DEFAULT_255_1_234
10
11.9421586
20
-0.0901525
40
0.5772268
50
257.6317484
51
270.4238298
0
ARC
8
DEFAULT_255_1_234
10
11.8996784
20
-0.2722802
40
0.3902347
50
230.6087562
51
257.9964012
0
ARC
8
DEFAULT_255_1_234
10
11.8864786
20
-0.2929198
40
0.3659186
50
227.7440991
51
230.1551448
0
ARC
8
DEFAULT_255_1_234
10
11.8730618
20
-0.3090529
40
0.3449568
50
189.2524587
51
227.5916061
0
ARC
8
DEFAULT_255_1_234
10
12.0252304
20
-0.2762987
40
0.5004737
50
180.2665968
51
190.1525252
0
ARC
8
DEFAULT_255_1_234
10
12.0474324
20
-0.2766082
40
0.3700778
50
179.5665184
51
191.9952995
0
ARC
8
DEFAULT_255_1_234
10
11.9246431
20
-0.3039957
40
0.2442808
50
191.6974072
51
215.1404042
0
ARC
8
DEFAULT_255_1_234
10
11.9008345
20
-0.3181892
40
0.2166522
50
215.6950207
51
224.8513522
0
ARC
8
DEFAULT_255_1_234
10
11.9064089
20
-0.3102303
40
0.2262237
50
225.2846858
51
255.0111758
0
ARC
8
DEFAULT_255_1_234
10
11.9388049
20
-0.1988545
40
0.3421979
50
254.5944985
51
267.9129803
0
ARC
8
DEFAULT_255_1_234
10
11.946253
20
-0.0904097
40
0.4508556
50
267.4689655
51
270.0223026
0
ARC
8
DEFAULT_255_1_234
10
11.9492675
20
-0.1493151
40
0.3919604
50
269.5849941
51
281.1843768
0
ARC
8
DEFAULT_255_1_234
10
11.977144
20
-0.2845941
40
0.2538457
50
280.9344262
51
300.9743589
0
ARC
8
DEFAULT_255_1_234
10
11.9984045
20
-0.3237312
40
0.2093566
50
301.4980046
51
315.1466847
0
ARC
8
DEFAULT_255_1_234
10
11.9839584
20
-0.3118764
40
0.2279656
50
315.5952539
51
345.6678731
0
ARC
8
DEFAULT_255_1_234
10
11.87201
20
-0.2806991
40
0.3441564
50
345.2524969
51
358.6304371
0
ARC
8
DEFAULT_255_1_234
10
11.7702454
20
-0.2747084
40
0.4460494
50
358.1735671
51
0.0124524
0
LINE
8
DEFAULT_255_1_234
10
12.900599
20
-0.0938974
11
12.900599
21
-0.2151766
0
LINE
8
DEFAULT_255_1_234
10
12.900599
20
-0.2151766
11
12.5086501
21
-0.2151766
0
LINE
8
DEFAULT_255_1_234
10
12.5086501
20
-0.2151766
11
12.5086501
21
-0.0938974
0
LINE
8
DEFAULT_255_1_234
10
12.5086501
20
-0.0938974
11
12.900599
21
-0.0938974
0
LINE
8
DEFAULT_255_1_234
10
13.5182396
20
0.5237433
11
13.5182396
21
-0.6513
0
LINE
8
DEFAULT_255_1_234
10
13.5182396
20
-0.6513
11
13.3688493
21
-0.6513
0
LINE
8
DEFAULT_255_1_234
10
13.3688493
20
-0.6513
11
13.3688493
21
0.3390133
0
LINE
8
DEFAULT_255_1_234
10
13.3688493
20
0.3390133
11
13.0692655
21
0.2289785
0
LINE
8
DEFAULT_255_1_234
10
13.0692655
20
0.2289785
11
13.0692655
21
0.3639117
0
LINE
8
DEFAULT_255_1_234
10
13.0692655
20
0.3639117
11
13.4949476
21
0.5237433
0
LINE
8
DEFAULT_255_1_234
10
13.4949476
20
0.5237433
11
13.5182396
21
0.5237433
0
LINE
8
DEFAULT_255_1_234
10
14.5101593
20
0.5189243
11
14.5366641
21
0.5189243
0
LINE
8
DEFAULT_255_1_234
10
14.5366641
20
0.5189243
11
14.5366641
21
0.392826
0
LINE
8
DEFAULT_255_1_234
10
14.5366641
20
0.392826
11
14.5093562
21
0.392826
0
LINE
8
DEFAULT_255_1_234
10
13.9623948
20
-0.2063417
11
13.9623948
21
-0.1493164
0
LINE
8
DEFAULT_255_1_234
10
14.1117851
20
-0.1685925
11
14.1117851
21
-0.2232083
0
ARC
8
DEFAULT_255_1_234
10
14.5145909
20
-0.1069545
40
0.4998079
50
90.6001036
51
104.514704
0
ARC
8
DEFAULT_255_1_234
10
14.4757425
20
0.0375131
40
0.3502176
50
104.2855254
51
133.862935
0
ARC
8
DEFAULT_255_1_234
10
14.4921182
20
0.026683
40
0.3693984
50
134.5302688
51
161.6210873
0
ARC
8
DEFAULT_255_1_234
10
14.6574371
20
-0.0316105
40
0.5446739
50
161.2849839
51
174.2076652
0
ARC
8
DEFAULT_255_1_234
10
14.7981308
20
-0.0510213
40
0.6866274
50
173.7810589
51
174.9254635
0
ARC
8
DEFAULT_255_1_234
10
14.343114
20
-0.1893161
40
0.3033419
50
95.8330959
51
138.9954921
0
ARC
8
DEFAULT_255_1_234
10
14.3654496
20
-0.3171625
40
0.4328947
50
89.8753725
51
97.0544009
0
ARC
8
DEFAULT_255_1_234
10
14.3701962
20
-0.2336252
40
0.3493769
50
71.6407809
51
90.6240094
0
ARC
8
DEFAULT_255_1_234
10
14.3852536
20
-0.1781918
40
0.2920396
50
39.6367836
51
71.019018
0
ARC
8
DEFAULT_255_1_234
10
14.3216009
20
-0.2332002
40
0.3761538
50
10.658731
51
39.9043955
0
ARC
8
DEFAULT_255_1_234
10
14.1668091
20
-0.2668314
40
0.5345136
50
359.682601
51
11.132623
0
ARC
8
DEFAULT_255_1_234
10
14.1628222
20
-0.273899
40
0.5385081
50
347.2486944
51
0.4369317
0
ARC
8
DEFAULT_255_1_234
10
14.3295699
20
-0.3140193
40
0.3670249
50
318.1409698
51
347.6118597
0
ARC
8
DEFAULT_255_1_234
10
14.3620692
20
-0.3407298
40
0.3250007
50
275.6342139
51
317.8248465
0
ARC
8
DEFAULT_255_1_234
10
14.3399804
20
-0.2107781
40
0.4565864
50
269.8874292
51
276.7917694
0
ARC
8
DEFAULT_255_1_234
10
14.3344874
20
-0.3133257
40
0.3540676
50
246.9140195
51
270.7437342
0
ARC
8
DEFAULT_255_1_234
10
14.3351265
20
-0.3275616
40
0.3412781
50
218.1665114
51
245.878116
0
ARC
8
DEFAULT_255_1_234
10
14.4230725
20
-0.2539721
40
0.455911
50
191.4115814
51
218.6077802
0
ARC
8
DEFAULT_255_1_234
10
14.6168815
20
-0.2105167
40
0.6545001
50
179.6345085
51
191.7836486
0
ARC
8
DEFAULT_255_1_234
10
15.1751151
20
-0.1426303
40
1.2127388
50
171.4525249
51
180.3158839
0
ARC
8
DEFAULT_255_1_234
10
14.7356027
20
-0.0742392
40
0.7679464
50
157.9802646
51
171.6246686
0
ARC
8
DEFAULT_255_1_234
10
14.5142048
20
0.0140421
40
0.5296008
50
141.4298019
51
157.854097
0
ARC
8
DEFAULT_255_1_234
10
14.4500369
20
0.0594381
40
0.4511509
50
102.8715806
51
140.8564722
0
ARC
8
DEFAULT_255_1_234
10
14.5147984
20
-0.1845448
40
0.7034845
50
90.3778349
51
103.5869322
0
ARC
8
DEFAULT_255_1_234
10
14.340976
20
-0.245027
40
0.2370698
50
89.8751008
51
126.2071704
0
ARC
8
DEFAULT_255_1_234
10
14.345555
20
-0.2604697
40
0.2522934
50
124.9745049
51
144.895901
0
ARC
8
DEFAULT_255_1_234
10
14.3279741
20
-0.246144
40
0.2296779
50
145.2974905
51
160.2660252
0
ARC
8
DEFAULT_255_1_234
10
14.6352279
20
-0.2263929
40
0.5234525
50
179.6514266
51
190.2855912
0
ARC
8
DEFAULT_255_1_234
10
14.4658417
20
-0.2583214
40
0.3510893
50
190.0945431
51
207.5098196
0
ARC
8
DEFAULT_255_1_234
10
14.4092686
20
-0.2852377
40
0.288489
50
207.9583163
51
216.3251085
0
ARC
8
DEFAULT_255_1_234
10
14.3752794
20
-0.3131895
40
0.2445587
50
215.7661442
51
232.5456785
0
ARC
8
DEFAULT_255_1_234
10
14.3369777
20
-0.3618518
40
0.1826382
50
232.8005391
51
270.6605633
0
ARC
8
DEFAULT_255_1_234
10
14.3415478
20
-0.3254388
40
0.2190529
50
269.35537
51
288.4744281
0
ARC
8
DEFAULT_255_1_234
10
14.3508375
20
-0.3603882
40
0.1829749
50
289.1833337
51
322.9683818
0
ARC
8
DEFAULT_255_1_234
10
14.2896898
20
-0.3121609
40
0.2608399
50
322.6007884
51
346.5182367
0
ARC
8
DEFAULT_255_1_234
10
14.1739493
20
-0.2826384
40
0.3802777
50
346.2582162
51
358.7741648
0
ARC
8
DEFAULT_255_1_234
10
14.0721162
20
-0.2771035
40
0.4822176
50
358.3755224
51
0.0098023
0
ARC
8
DEFAULT_255_1_234
10
14.147735
20
-0.2743343
40
0.4066078
50
359.6214041
51
11.2839074
0
ARC
8
DEFAULT_255_1_234
10
14.2754496
20
-0.2476934
40
0.2761514
50
11.0482309
51
31.8146458
0
ARC
8
DEFAULT_255_1_234
10
14.3063539
20
-0.2309416
40
0.2410679
50
32.3035391
51
38.082671
0
ARC
8
DEFAULT_255_1_234
10
14.3484199
20
-0.1928338
40
0.1844966
50
36.825067
51
85.7415724
0
ARC
8
DEFAULT_255_1_234
10
14.3417033
20
-0.2428699
40
0.2349122
50
85.0140713
51
90.0513278
0
LINE
8
DEFAULT_255_1_234
10
14.9157621
20
0.5181211
11
15.1149492
21
0.5181211
0
LINE
8
DEFAULT_255_1_234
10
15.1149492
20
0.5181211
11
15.49726
21
-0.4360494
0
LINE
8
DEFAULT_255_1_234
10
15.49726
20
-0.4360494
11
15.8795707
21
0.5181211
0
LINE
8
DEFAULT_255_1_234
10
15.8795707
20
0.5181211
11
16.079561
21
0.5181211
0
LINE
8
DEFAULT_255_1_234
10
16.079561
20
0.5181211
11
16.079561
21
-0.6513
0
LINE
8
DEFAULT_255_1_234
10
16.079561
20
-0.6513
11
15.9253516
21
-0.6513
0
LINE
8
DEFAULT_255_1_234
10
15.9253516
20
-0.6513
11
15.9253516
21
-0.1959004
0
LINE
8
DEFAULT_255_1_234
10
15.9253516
20
-0.1959004
11
15.9398087
21
0.2956419
0
LINE
8
DEFAULT_255_1_234
10
15.9398087
20
0.2956419
11
15.5558917
21
-0.6513
0
LINE
8
DEFAULT_255_1_234
10
15.5558917
20
-0.6513
11
15.4378251
21
-0.6513
0
LINE
8
DEFAULT_255_1_234
10
15.4378251
20
-0.6513
11
15.0547112
21
0.2932324
0
LINE
8
DEFAULT_255_1_234
10
15.0547112
20
0.2932324
11
15.0699715
21
-0.1959004
0
LINE
8
DEFAULT_255_1_234
10
15.0699715
20
-0.1959004
11
15.0699715
21
-0.6513
0
LINE
8
DEFAULT_255_1_234
10
15.0699715
20
-0.6513
11
14.9157621
21
-0.6513
0
LINE
8
DEFAULT_255_1_234
10
14.9157621
20
-0.6513
11
14.9157621
21
0.5181211
0
LINE
8
DEFAULT_255_1_234
10
17.1365377
20
0.5181211
11
17.1365377
21
0.3912196
0
LINE
8
DEFAULT_255_1_234
10
17.1365377
20
0.3912196
11
16.7606524
21
0.3912196
0
LINE
8
DEFAULT_255_1_234
10
16.7606524
20
0.3912196
11
16.7606524
21
-0.6513
0
LINE
8
DEFAULT_255_1_234
10
16.7606524
20
-0.6513
11
16.6072462
21
-0.6513
0
LINE
8
DEFAULT_255_1_234
10
16.6072462
20
-0.6513
11
16.6072462
21
0.3912196
0
LINE
8
DEFAULT_255_1_234
10
16.6072462
20
0.3912196
11
16.232164
21
0.3912196
0
LINE
8
DEFAULT_255_1_234
10
16.232164
20
0.3912196
11
16.232164
21
0.5181211
0
LINE
8
DEFAULT_255_1_234
10
16.232164
20
0.5181211
11
17.1365377
21
0.5181211
0
LINE
8
DEFAULT_255_1_234
10
17.8039752
20
0.5181211
11
17.3164487
21
-0.7516967
0
LINE
8
DEFAULT_255_1_234
10
17.3164487
20
-0.7516967
11
17.188744
21
-0.7516967
0
LINE
8
DEFAULT_255_1_234
10
17.188744
20
-0.7516967
11
17.6770737
21
0.5181211
0
LINE
8
DEFAULT_255_1_234
10
17.6770737
20
0.5181211
11
17.8039752
21
0.5181211
0
LINE
8
DEFAULT_255_1_234
10
18.6489141
20
0.0153343
11
18.6489141
21
-0.110764
0
LINE
8
DEFAULT_255_1_234
10
18.6489141
20
-0.110764
11
18.1421114
21
-0.110764
0
LINE
8
DEFAULT_255_1_234
10
18.1421114
20
-0.110764
11
18.1421114
21
-0.5252017
0
LINE
8
DEFAULT_255_1_234
10
18.1421114
20
-0.5252017
11
18.7308378
21
-0.5252017
0
LINE
8
DEFAULT_255_1_234
10
18.7308378
20
-0.5252017
11
18.7308378
21
-0.6513
0
LINE
8
DEFAULT_255_1_234
10
18.7308378
20
-0.6513
11
17.987902
21
-0.6513
0
LINE
8
DEFAULT_255_1_234
10
17.987902
20
-0.6513
11
17.987902
21
0.5181211
0
LINE
8
DEFAULT_255_1_234
10
17.987902
20
0.5181211
11
18.7228061
21
0.5181211
0
LINE
8
DEFAULT_255_1_234
10
18.7228061
20
0.5181211
11
18.7228061
21
0.3912196
0
LINE
8
DEFAULT_255_1_234
10
18.7228061
20
0.3912196
11
18.1421114
21
0.3912196
0
LINE
8
DEFAULT_255_1_234
10
18.1421114
20
0.3912196
11
18.1421114
21
0.0153343
0
LINE
8
DEFAULT_255_1_234
10
18.1421114
20
0.0153343
11
18.6489141
21
0.0153343
0
LINE
8
DEFAULT_255_1_234
10
19.6986623
20
0.1799849
11
19.5436497
21
0.1799849
0
LINE
8
DEFAULT_255_1_234
10
18.8513139
20
-0.3123606
11
19.0063264
21
-0.3123606
0
ARC
8
DEFAULT_255_1_234
10
19.609531
20
1.0746768
40
1.252368
50
248.9199003
51
254.1439814
0
ARC
8
DEFAULT_255_1_234
10
19.4414805
20
0.6420234
40
0.788226
50
241.633709
51
249.0064503
0
ARC
8
DEFAULT_255_1_234
10
19.2886199
20
0.3619317
40
0.4691427
50
230.498225
51
241.8087113
0
ARC
8
DEFAULT_255_1_234
10
19.2101773
20
0.2619906
40
0.3421437
50
227.4064532
51
229.9881192
0
ARC
8
DEFAULT_255_1_234
10
19.1614294
20
0.2144088
40
0.2741476
50
200.6781896
51
228.1763934
0
ARC
8
DEFAULT_255_1_234
10
19.1686605
20
0.2129077
40
0.2804109
50
179.5061581
51
199.8694617
0
ARC
8
DEFAULT_255_1_234
10
19.1677356
20
0.220321
40
0.2795204
50
132.4834203
51
181.0242172
0
ARC
8
DEFAULT_255_1_234
10
19.2272939
20
0.1640704
40
0.3612768
50
129.2532479
51
133.4242687
0
ARC
8
DEFAULT_255_1_234
10
19.2419388
20
0.1420965
40
0.3875675
50
101.98776
51
128.8742646
0
ARC
8
DEFAULT_255_1_234
10
19.2817999
20
-0.0300259
40
0.5642249
50
89.5906553
51
102.3169264
0
ARC
8
DEFAULT_255_1_234
10
19.2888491
20
0.0018148
40
0.5323783
50
77.2360837
51
90.3248275
0
ARC
8
DEFAULT_255_1_234
10
19.309557
20
0.09854
40
0.4334697
50
63.837784
51
77.0809408
0
ARC
8
DEFAULT_255_1_234
10
19.3373332
20
0.1502911
40
0.3747796
50
45.9864267
51
64.1607727
0
ARC
8
DEFAULT_255_1_234
10
19.3634213
20
0.1800866
40
0.3352302
50
32.2747395
51
45.6547121
0
ARC
8
DEFAULT_255_1_234
10
19.3700654
20
0.181988
40
0.328603
50
359.6507365
51
32.6130309
0
ARC
8
DEFAULT_255_1_234
10
19.2757749
20
0.182466
40
0.2678863
50
359.469343
51
14.9832209
0
ARC
8
DEFAULT_255_1_234
10
19.3462812
20
0.2013539
40
0.1948938
50
14.9781179
51
48.2004265
0
ARC
8
DEFAULT_255_1_234
10
19.3298456
20
0.1806983
40
0.2212521
50
48.5927837
51
74.1241538
0
ARC
8
DEFAULT_255_1_234
10
19.2964945
20
0.0706248
40
0.3362561
50
73.7888341
51
86.6652678
0
ARC
8
DEFAULT_255_1_234
10
19.2862511
20
-0.0501119
40
0.4573953
50
86.2640471
51
90.0526343
0
ARC
8
DEFAULT_255_1_234
10
19.2834224
20
-0.0105808
40
0.4178709
50
89.6697524
51
99.2309573
0
ARC
8
DEFAULT_255_1_234
10
19.2591674
20
0.1338964
40
0.2713749
50
99.069534
51
113.7658566
0
ARC
8
DEFAULT_255_1_234
10
19.2317866
20
0.1984677
40
0.2012469
50
114.0401004
51
127.9850673
0
ARC
8
DEFAULT_255_1_234
10
19.2077429
20
0.228073
40
0.1631167
50
127.7287463
51
176.7105154
0
ARC
8
DEFAULT_255_1_234
10
19.2756147
20
0.2179693
40
0.2315392
50
175.1779447
51
180.0581938
0
ARC
8
DEFAULT_255_1_234
10
19.1912994
20
0.2167428
40
0.1472271
50
179.6142195
51
228.1246017
0
ARC
8
DEFAULT_255_1_234
10
19.2354662
20
0.2576308
40
0.2072299
50
226.5779593
51
230.8800004
0
ARC
8
DEFAULT_255_1_234
10
19.2825741
20
0.3201636
40
0.2854818
50
231.4635071
51
241.9260842
0
ARC
8
DEFAULT_255_1_234
10
19.4022919
20
0.54048
40
0.53622
50
241.7178533
51
248.3259551
0
ARC
8
DEFAULT_255_1_234
10
19.5408291
20
0.8837064
40
0.9063478
50
248.2007737
51
252.4528373
0
ARC
8
DEFAULT_255_1_234
10
19.6612016
20
1.2558441
40
1.2974635
50
252.3391078
51
254.3469452
0
ARC
8
DEFAULT_255_1_234
10
18.9069718
20
-1.4418852
40
1.5037162
50
71.0197183
51
74.4087047
0
ARC
8
DEFAULT_255_1_234
10
19.0764404
20
-0.9526889
40
0.9859993
50
66.1847285
51
71.086374
0
ARC
8
DEFAULT_255_1_234
10
19.2320716
20
-0.60228
40
0.6025855
50
59.3536294
51
66.2691831
0
ARC
8
DEFAULT_255_1_234
10
19.3209368
20
-0.4519391
40
0.4279449
50
49.1020879
51
59.3293958
0
ARC
8
DEFAULT_255_1_234
10
19.4028108
20
-0.3586166
40
0.3038015
50
32.7919921
51
49.2505539
0
ARC
8
DEFAULT_255_1_234
10
19.4349198
20
-0.3357809
40
0.264448
50
31.1181161
51
32.4005348
0
ARC
8
DEFAULT_255_1_234
10
19.4260736
20
-0.3393221
40
0.2738556
50
8.1116974
51
30.7958831
0
ARC
8
DEFAULT_255_1_234
10
19.3450404
20
-0.3531247
40
0.3560327
50
359.8389159
51
8.4706516
0
ARC
8
DEFAULT_255_1_234
10
19.4076195
20
-0.3579863
40
0.2934776
50
337.4731098
51
0.7537279
0
ARC
8
DEFAULT_255_1_234
10
19.425489
20
-0.3599613
40
0.2762607
50
307.5917067
51
336.4315538
0
ARC
8
DEFAULT_255_1_234
10
19.3794718
20
-0.3086898
40
0.3449979
50
307.6551545
51
308.4529766
0
ARC
8
DEFAULT_255_1_234
10
19.3564437
20
-0.273175
40
0.3871988
50
284.3734338
51
307.1424381
0
ARC
8
DEFAULT_255_1_234
10
19.3069267
20
-0.0910068
40
0.5759636
50
272.4382747
51
284.646547
0
ARC
8
DEFAULT_255_1_234
10
19.2942476
20
0.0889893
40
0.7563528
50
269.9708387
51
272.8178037
0
ARC
8
DEFAULT_255_1_234
10
19.2899516
20
-0.1148284
40
0.5525489
50
248.2707594
51
270.4055579
0
ARC
8
DEFAULT_255_1_234
10
19.2845257
20
-0.1338808
40
0.5328452
50
246.1383403
51
248.0542782
0
ARC
8
DEFAULT_255_1_234
10
19.2426636
20
-0.2218157
40
0.4355005
50
233.1670131
51
246.4950969
0
ARC
8
DEFAULT_255_1_234
10
19.1872541
20
-0.2966188
40
0.3424126
50
215.3403242
51
233.0843104
0
ARC
8
DEFAULT_255_1_234
10
19.1599972
20
-0.3164451
40
0.3087104
50
179.2419209
51
215.2648451
0
ARC
8
DEFAULT_255_1_234
10
19.2367566
20
-0.3150334
40
0.2304457
50
179.335461
51
199.1045811
0
ARC
8
DEFAULT_255_1_234
10
19.2035242
20
-0.3237234
40
0.1962176
50
199.8828939
51
232.7063202
0
ARC
8
DEFAULT_255_1_234
10
19.2507511
20
-0.2643212
40
0.2720938
50
232.3738199
51
255.5136649
0
ARC
8
DEFAULT_255_1_234
10
19.2848377
20
-0.1399165
40
0.4010747
50
255.2446292
51
267.5320849
0
ARC
8
DEFAULT_255_1_234
10
19.2936001
20
-0.0166298
40
0.5246356
50
267.1557994
51
270.0286766
0
ARC
8
DEFAULT_255_1_234
10
19.2963773
20
-0.061005
40
0.4802668
50
269.7000017
51
278.1660162
0
ARC
8
DEFAULT_255_1_234
10
19.3219778
20
-0.2340485
40
0.3053425
50
278.0231263
51
290.625471
0
ARC
8
DEFAULT_255_1_234
10
19.3567465
20
-0.3267975
40
0.206291
50
290.6619762
51
307.0370976
0
ARC
8
DEFAULT_255_1_234
10
19.3867854
20
-0.3636496
40
0.1587906
50
306.3943566
51
355.3030547
0
ARC
8
DEFAULT_255_1_234
10
19.3355786
20
-0.3559887
40
0.2104809
50
354.3660432
51
0.0698737
0
ARC
8
DEFAULT_255_1_234
10
19.3498131
20
-0.3537383
40
0.1962563
50
359.417946
51
16.1971788
0
ARC
8
DEFAULT_255_1_234
10
19.3953441
20
-0.3412582
40
0.149053
50
16.4723299
51
52.6262157
0
ARC
8
DEFAULT_255_1_234
10
19.3132495
20
-0.4496567
40
0.2850296
50
52.7386432
51
62.4979148
0
ARC
8
DEFAULT_255_1_234
10
19.1747572
20
-0.7102717
40
0.5801521
50
62.2515216
51
68.1220564
0
ARC
8
DEFAULT_255_1_234
10
19.0027483
20
-1.1330128
40
1.0365451
50
68.0062803
51
71.8053402
0
ARC
8
DEFAULT_255_1_234
10
18.8231854
20
-1.6715242
40
1.6042013
50
71.7183119
51
73.9258742
0
LINE
8
DEFAULT_255_2_778
10
10.5738396
20
88.5243073
11
9.3932396
21
88.5243073
0
LINE
8
DEFAULT_255_2_778
10
9.3932396
20
88.5243073
11
9.9837396
21
89.5469073
0
LINE
8
DEFAULT_255_2_778
10
9.9837396
20
89.5469073
11
11.1643396
21
89.5469073
0
LINE
8
DEFAULT_255_2_778
10
11.1643396
20
89.5469073
11
10.5738396
21
88.5243073
0
LINE
8
DEFAULT_255_2_778
10
10.5738396
20
88.5243073
11
10.5738396
21
88.5243073
0
LINE
8
DEFAULT_255_2_778
10
11.7546396
20
88.5243073
11
12.9354396
21
88.5243073
0
LINE
8
DEFAULT_255_2_778
10
12.9354396
20
88.5243073
11
12.3451396
21
89.5469073
0
LINE
8
DEFAULT_255_2_778
10
12.3451396
20
89.5469073
11
11.1643396
21
89.5469073
0
LINE
8
DEFAULT_255_2_778
10
11.1643396
20
89.5469073
11
11.7546396
21
88.5243073
0
LINE
8
DEFAULT_255_2_778
10
11.7546396
20
88.5243073
11
11.7546396
21
88.5243073
0
LINE
8
DEFAULT_255_2_778
10
11.7545823
20
90.5695146
11
11.1642823
21
91.5921146
0
LINE
8
DEFAULT_255_2_778
10
11.1642823
20
91.5921146
11
10.5737823
21
90.5695146
0
LINE
8
DEFAULT_255_2_778
10
10.5737823
20
90.5695146
11
11.1642823
21
89.5469146
0
LINE
8
DEFAULT_255_2_778
10
11.1642823
20
89.5469146
11
11.7545823
21
90.5695146
0
LINE
8
DEFAULT_255_2_778
10
11.7545823
20
90.5695146
11
11.7545823
21
90.5695146
0
ARC
8
DEFAULT_255_2_778
10
16.5183731
20
90.2157426
40
0.5650491
50
268.7543645
51
289.1417717
0
ARC
8
DEFAULT_255_2_778
10
16.606208
20
89.9605531
40
0.2951681
50
289.2776255
51
3.7648372
0
ARC
8
DEFAULT_255_2_778
10
16.3901618
20
89.9871085
40
0.5106278
50
359.1949826
51
0.0020862
0
ARC
8
DEFAULT_255_2_778
10
16.547449
20
89.9730832
40
0.1541914
50
280.2616216
51
358.5297855
0
ARC
8
DEFAULT_255_2_778
10
16.5080075
20
90.085655
40
0.2726346
50
269.5969454
51
284.2065679
0
ARC
8
DEFAULT_255_2_778
10
16.4981967
20
90.0700316
40
0.2571258
50
246.5290903
51
271.7590909
0
ARC
8
DEFAULT_255_2_778
10
16.4527148
20
89.9620009
40
0.1399248
50
188.1071678
51
245.9934684
0
ARC
8
DEFAULT_255_2_778
10
16.4829007
20
89.9689617
40
0.1708111
50
179.9445314
51
188.990814
0
ARC
8
DEFAULT_255_2_778
10
16.4924507
20
89.9757849
40
0.3763411
50
178.2272621
51
205.8283807
0
ARC
8
DEFAULT_255_2_778
10
16.4132476
20
89.9580833
40
0.2979176
50
209.4028057
51
263.0375728
0
ARC
8
DEFAULT_255_2_778
10
16.5005111
20
90.3327629
40
0.6816586
50
259.5722942
51
270.4689037
0
ARC
8
DEFAULT_255_2_778
10
17.411252
20
90.3889767
40
0.1217154
50
2.0482843
51
87.015299
0
ARC
8
DEFAULT_255_2_778
10
17.4060617
20
90.3933852
40
0.126828
50
353.0600847
51
359.9737428
0
ARC
8
DEFAULT_255_2_778
10
17.4110442
20
90.3902555
40
0.1215295
50
270.5739762
51
354.2410513
0
ARC
8
DEFAULT_255_2_778
10
17.4065059
20
90.4264297
40
0.1578027
50
269.9941256
51
272.0902921
0
ARC
8
DEFAULT_255_2_778
10
17.414084
20
89.9755295
40
0.1400686
50
358.2807293
51
95.6106825
0
ARC
8
DEFAULT_255_2_778
10
17.4103233
20
89.9716963
40
0.1437669
50
266.9962473
51
359.8528392
0
ARC
8
DEFAULT_255_2_778
10
17.4725249
20
90.0119988
40
0.3335288
50
268.2414507
51
302.0223478
0
ARC
8
DEFAULT_255_2_778
10
17.5091261
20
89.936683
40
0.2504234
50
304.0600275
51
2.0468005
0
ARC
8
DEFAULT_255_2_778
10
17.4832788
20
89.9433521
40
0.2761203
50
0.4720601
51
65.8403529
0
ARC
8
DEFAULT_255_2_778
10
17.5191655
20
90.0081061
40
0.2024466
50
67.606893
51
75.8693222
0
ARC
8
DEFAULT_255_2_778
10
17.5042026
20
90.415722
40
0.2208874
50
286.9473417
51
358.0074963
0
ARC
8
DEFAULT_255_2_778
10
17.4710866
20
90.4245045
40
0.2544031
50
356.2897886
51
0.0050857
0
ARC
8
DEFAULT_255_2_778
10
17.497262
20
90.4295946
40
0.2282839
50
358.7280137
51
81.8073164
0
ARC
8
DEFAULT_255_2_778
10
17.4216369
20
90.1781283
40
0.4895182
50
77.2355086
51
90.5088275
0
ARC
8
DEFAULT_255_2_778
10
17.5842742
20
89.2136263
40
0.130243
50
89.9974494
51
92.6776592
0
ARC
8
DEFAULT_255_2_778
10
17.5843316
20
89.2141872
40
0.129682
50
45.0880141
51
90.022782
0
ARC
8
DEFAULT_255_2_778
10
17.5844118
20
89.214219
40
0.1296029
50
0.001866
51
45.1031959
0
ARC
8
DEFAULT_255_2_778
10
17.5845123
20
89.2142202
40
0.1295026
50
357.4803735
51
0.0013544
0
ARC
8
DEFAULT_255_2_778
10
17.5901979
20
89.2103512
40
0.1237052
50
339.8672523
51
359.1550732
0
ARC
8
DEFAULT_255_2_778
10
17.5794513
20
89.2075079
40
0.1329691
50
272.0853006
51
342.6124646
0
ARC
8
DEFAULT_255_2_778
10
17.6596145
20
89.2457661
40
0.2575135
50
286.787355
51
290.6121696
0
ARC
8
DEFAULT_255_2_778
10
17.6689461
20
89.2314533
40
0.24086
50
289.7330405
51
342.3216972
0
ARC
8
DEFAULT_255_2_778
10
17.641261
20
89.2362954
40
0.268735
50
343.130572
51
0.3905272
0
ARC
8
DEFAULT_255_2_778
10
17.6578783
20
89.2536767
40
0.2525904
50
356.4706028
51
80.1788963
0
ARC
8
DEFAULT_255_2_778
10
17.5921649
20
89.0267163
40
0.4881286
50
77.1212301
51
90.4900821
0
ARC
8
DEFAULT_255_2_778
10
17.5166337
20
88.729036
40
0.1865405
50
50.1507009
51
92.9634648
0
ARC
8
DEFAULT_255_2_778
10
17.5301354
20
88.7573678
40
0.1563319
50
12.621233
51
47.2950617
0
ARC
8
DEFAULT_255_2_778
10
16.8485884
20
88.6244726
40
0.8506657
50
2.8173892
51
11.3253986
0
ARC
8
DEFAULT_255_2_778
10
-29.2295733
20
85.1281175
40
47.060992
50
4.3048394
51
4.3117143
0
ARC
8
DEFAULT_255_2_778
10
18.5500859
20
88.700584
40
0.8523717
50
182.6850102
51
191.2954256
0
ARC
8
DEFAULT_255_2_778
10
17.9656837
20
88.5942399
40
0.2586603
50
193.5512904
51
195.3825538
0
ARC
8
DEFAULT_255_2_778
10
19.3415679
20
88.8518916
40
1.4608773
50
182.5958701
51
192.9049706
0
ARC
8
DEFAULT_255_2_778
10
17.6207606
20
88.7802215
40
0.261487
50
1.2064311
51
30.4123358
0
ARC
8
DEFAULT_255_2_778
10
17.6663626
20
88.795276
40
0.2147766
50
33.1081154
51
71.7312197
0
LINE
8
DEFAULT_255_2_778
10
13.4657897
20
88.9598271
11
13.9385897
21
88.9598271
0
LINE
8
DEFAULT_255_2_778
10
13.9385897
20
88.9598271
11
13.9385897
21
89.1312271
0
LINE
8
DEFAULT_255_2_778
10
13.9385897
20
89.1312271
11
13.4657897
21
89.1312271
0
LINE
8
DEFAULT_255_2_778
10
13.4657897
20
89.1312271
11
13.4657897
21
89.3421271
0
LINE
8
DEFAULT_255_2_778
10
13.4657897
20
89.3421271
11
13.9977897
21
89.3421271
0
LINE
8
DEFAULT_255_2_778
10
13.9977897
20
89.3421271
11
13.9977897
21
89.5135271
0
LINE
8
DEFAULT_255_2_778
10
13.9977897
20
89.5135271
11
13.4657897
21
89.5135271
0
LINE
8
DEFAULT_255_2_778
10
13.4657897
20
89.5135271
11
13.2651897
21
89.5135271
0
LINE
8
DEFAULT_255_2_778
10
13.2651897
20
89.5135271
11
13.2651897
21
89.3421271
0
LINE
8
DEFAULT_255_2_778
10
13.2651897
20
89.3421271
11
13.2651897
21
88.6957271
0
LINE
8
DEFAULT_255_2_778
10
13.2651897
20
88.6957271
11
13.2651897
21
88.5242271
0
LINE
8
DEFAULT_255_2_778
10
13.2651897
20
88.5242271
11
13.4657897
21
88.5242271
0
LINE
8
DEFAULT_255_2_778
10
13.4657897
20
88.5242271
11
14.0118897
21
88.5242271
0
LINE
8
DEFAULT_255_2_778
10
14.0118897
20
88.5242271
11
14.0118897
21
88.6957271
0
LINE
8
DEFAULT_255_2_778
10
14.0118897
20
88.6957271
11
13.4657897
21
88.6957271
0
LINE
8
DEFAULT_255_2_778
10
13.4657897
20
88.6957271
11
13.4657897
21
88.9595271
0
LINE
8
DEFAULT_255_2_778
10
13.4657897
20
88.9595271
11
13.4657897
21
88.9598271
0
LINE
8
DEFAULT_255_2_778
10
13.4519897
20
90.4139271
11
13.6620897
21
89.6786271
0
LINE
8
DEFAULT_255_2_778
10
13.6620897
20
89.6786271
11
13.6704897
21
89.6786271
0
LINE
8
DEFAULT_255_2_778
10
13.6704897
20
89.6786271
11
13.8464897
21
89.6786271
0
LINE
8
DEFAULT_255_2_778
10
13.8464897
20
89.6786271
11
13.8546897
21
89.6786271
0
LINE
8
DEFAULT_255_2_778
10
13.8546897
20
89.6786271
11
14.0647897
21
90.4139271
0
LINE
8
DEFAULT_255_2_778
10
14.0647897
20
90.4139271
11
14.0647897
21
89.6786271
0
LINE
8
DEFAULT_255_2_778
10
14.0647897
20
89.6786271
11
14.2515897
21
89.6786271
0
LINE
8
DEFAULT_255_2_778
10
14.2515897
20
89.6786271
11
14.2515897
21
90.6679271
0
LINE
8
DEFAULT_255_2_778
10
14.2515897
20
90.6679271
11
14.1496897
21
90.6679271
0
LINE
8
DEFAULT_255_2_778
10
14.1496897
20
90.6679271
11
14.0615897
21
90.6679271
0
LINE
8
DEFAULT_255_2_778
10
14.0615897
20
90.6679271
11
13.9655897
21
90.6679271
0
LINE
8
DEFAULT_255_2_778
10
13.9655897
20
90.6679271
11
13.7583897
21
89.9736271
0
LINE
8
DEFAULT_255_2_778
10
13.7583897
20
89.9736271
11
13.5511897
21
90.6679271
0
LINE
8
DEFAULT_255_2_778
10
13.5511897
20
90.6679271
11
13.4551897
21
90.6679271
0
LINE
8
DEFAULT_255_2_778
10
13.4551897
20
90.6679271
11
13.3669897
21
90.6679271
0
LINE
8
DEFAULT_255_2_778
10
13.3669897
20
90.6679271
11
13.2651897
21
90.6679271
0
LINE
8
DEFAULT_255_2_778
10
13.2651897
20
90.6679271
11
13.2651897
21
89.6786271
0
LINE
8
DEFAULT_255_2_778
10
13.2651897
20
89.6786271
11
13.4519897
21
89.6786271
0
LINE
8
DEFAULT_255_2_778
10
13.4519897
20
89.6786271
11
13.4519897
21
90.4139271
0
LINE
8
DEFAULT_255_2_778
10
13.4519897
20
90.4139271
11
13.4519897
21
90.4139271
0
LINE
8
DEFAULT_255_2_778
10
18.0056897
20
90.6679271
11
17.8064897
21
90.6679271
0
LINE
8
DEFAULT_255_2_778
10
17.8064897
20
90.6679271
11
17.8064897
21
89.6786271
0
LINE
8
DEFAULT_255_2_778
10
17.8064897
20
89.6786271
11
18.0056897
21
89.6786271
0
LINE
8
DEFAULT_255_2_778
10
18.0056897
20
89.6786271
11
18.0056897
21
90.6679271
0
LINE
8
DEFAULT_255_2_778
10
18.0056897
20
90.6679271
11
18.0056897
21
90.6679271
0
LINE
8
DEFAULT_255_2_778
10
18.1681897
20
89.5138271
11
17.9689897
21
89.5138271
0
LINE
8
DEFAULT_255_2_778
10
17.9689897
20
89.5138271
11
17.9689897
21
88.5245271
0
LINE
8
DEFAULT_255_2_778
10
17.9689897
20
88.5245271
11
18.1681897
21
88.5245271
0
LINE
8
DEFAULT_255_2_778
10
18.1681897
20
88.5245271
11
18.1681897
21
89.5138271
0
LINE
8
DEFAULT_255_2_778
10
18.1681897
20
89.5138271
11
18.1681897
21
89.5138271
0
LINE
8
DEFAULT_255_2_778
10
19.9765897
20
90.6679271
11
19.7773897
21
90.6679271
0
LINE
8
DEFAULT_255_2_778
10
19.7773897
20
90.6679271
11
19.7773897
21
89.6786271
0
LINE
8
DEFAULT_255_2_778
10
19.7773897
20
89.6786271
11
19.9765897
21
89.6786271
0
LINE
8
DEFAULT_255_2_778
10
19.9765897
20
89.6786271
11
19.9765897
21
90.6679271
0
LINE
8
DEFAULT_255_2_778
10
19.9765897
20
90.6679271
11
19.9765897
21
90.6679271
0
LINE
8
DEFAULT_255_2_778
10
14.5298897
20
90.6679271
11
14.3306897
21
90.6679271
0
LINE
8
DEFAULT_255_2_778
10
14.3306897
20
90.6679271
11
14.3306897
21
89.6786271
0
LINE
8
DEFAULT_255_2_778
10
14.3306897
20
89.6786271
11
14.5298897
21
89.6786271
0
LINE
8
DEFAULT_255_2_778
10
14.5298897
20
89.6786271
11
14.5298897
21
90.6679271
0
LINE
8
DEFAULT_255_2_778
10
14.5298897
20
90.6679271
11
14.5298897
21
90.6679271
0
LINE
8
DEFAULT_255_2_778
10
19.4989897
20
90.2819271
11
19.1029897
21
90.2819271
0
LINE
8
DEFAULT_255_2_778
10
19.1029897
20
90.2819271
11
19.1029897
21
90.6676271
0
LINE
8
DEFAULT_255_2_778
10
19.1029897
20
90.6676271
11
18.9068897
21
90.6676271
0
LINE
8
DEFAULT_255_2_778
10
18.9068897
20
90.6676271
11
18.9068897
21
89.6786271
0
LINE
8
DEFAULT_255_2_778
10
18.9068897
20
89.6786271
11
19.1029897
21
89.6786271
0
LINE
8
DEFAULT_255_2_778
10
19.1029897
20
89.6786271
11
19.1029897
21
90.1104271
0
LINE
8
DEFAULT_255_2_778
10
19.1029897
20
90.1104271
11
19.4989897
21
90.1104271
0
LINE
8
DEFAULT_255_2_778
10
19.4989897
20
90.1104271
11
19.4989897
21
89.6786271
0
LINE
8
DEFAULT_255_2_778
10
19.4989897
20
89.6786271
11
19.6950897
21
89.6786271
0
LINE
8
DEFAULT_255_2_778
10
19.6950897
20
89.6786271
11
19.6950897
21
90.6676271
0
LINE
8
DEFAULT_255_2_778
10
19.6950897
20
90.6676271
11
19.4989897
21
90.6676271
0
LINE
8
DEFAULT_255_2_778
10
19.4989897
20
90.6676271
11
19.4989897
21
90.2819271
0
LINE
8
DEFAULT_255_2_778
10
19.4989897
20
90.2819271
11
19.4989897
21
90.2819271
0
LINE
8
DEFAULT_255_2_778
10
14.8246897
20
89.6786271
11
15.0280897
21
89.6786271
0
LINE
8
DEFAULT_255_2_778
10
15.0280897
20
89.6786271
11
15.0280897
21
90.4965271
0
LINE
8
DEFAULT_255_2_778
10
15.0280897
20
90.4965271
11
15.2696897
21
90.4965271
0
LINE
8
DEFAULT_255_2_778
10
15.2696897
20
90.4965271
11
15.2696897
21
90.6679271
0
LINE
8
DEFAULT_255_2_778
10
15.2696897
20
90.6679271
11
15.0280897
21
90.6679271
0
LINE
8
DEFAULT_255_2_778
10
15.0280897
20
90.6679271
11
14.8246897
21
90.6679271
0
LINE
8
DEFAULT_255_2_778
10
14.8246897
20
90.6679271
11
14.5830897
21
90.6679271
0
LINE
8
DEFAULT_255_2_778
10
14.5830897
20
90.6679271
11
14.5830897
21
90.4965271
0
LINE
8
DEFAULT_255_2_778
10
14.5830897
20
90.4965271
11
14.8246897
21
90.4965271
0
LINE
8
DEFAULT_255_2_778
10
14.8246897
20
90.4965271
11
14.8246897
21
89.6786271
0
LINE
8
DEFAULT_255_2_778
10
14.8246897
20
89.6786271
11
14.8246897
21
89.6786271
0
LINE
8
DEFAULT_255_2_778
10
16.6422897
20
88.5245271
11
16.8454897
21
88.5245271
0
LINE
8
DEFAULT_255_2_778
10
16.8454897
20
88.5245271
11
16.8454897
21
89.3423271
0
LINE
8
DEFAULT_255_2_778
10
16.8454897
20
89.3423271
11
17.0873897
21
89.3423271
0
LINE
8
DEFAULT_255_2_778
10
17.0873897
20
89.3423271
11
17.0873897
21
89.5141271
0
LINE
8
DEFAULT_255_2_778
10
17.0873897
20
89.5141271
11
16.8454897
21
89.5141271
0
LINE
8
DEFAULT_255_2_778
10
16.8454897
20
89.5141271
11
16.6422897
21
89.5141271
0
LINE
8
DEFAULT_255_2_778
10
16.6422897
20
89.5141271
11
16.4004897
21
89.5141271
0
LINE
8
DEFAULT_255_2_778
10
16.4004897
20
89.5141271
11
16.4004897
21
89.3423271
0
LINE
8
DEFAULT_255_2_778
10
16.4004897
20
89.3423271
11
16.6422897
21
89.3423271
0
LINE
8
DEFAULT_255_2_778
10
16.6422897
20
89.3423271
11
16.6422897
21
88.5245271
0
LINE
8
DEFAULT_255_2_778
10
16.6422897
20
88.5245271
11
16.6422897
21
88.5245271
0
LINE
8
DEFAULT_255_2_778
10
16.9007897
20
89.9871271
11
16.9007897
21
90.6676271
0
LINE
8
DEFAULT_255_2_778
10
16.9007897
20
90.6676271
11
16.7015897
21
90.6676271
0
LINE
8
DEFAULT_255_2_778
10
16.7015897
20
90.6676271
11
16.7015897
21
89.9691271
0
LINE
8
DEFAULT_255_2_778
10
16.3120897
20
89.9691271
11
16.3120897
21
90.6676271
0
LINE
8
DEFAULT_255_2_778
10
16.3120897
20
90.6676271
11
16.1162897
21
90.6676271
0
LINE
8
DEFAULT_255_2_778
10
16.1162897
20
90.6676271
11
16.1162897
21
89.9874271
0
LINE
8
DEFAULT_255_2_778
10
15.0000897
20
88.9598271
11
15.4730897
21
88.9598271
0
LINE
8
DEFAULT_255_2_778
10
15.4730897
20
88.9598271
11
15.4730897
21
89.1312271
0
LINE
8
DEFAULT_255_2_778
10
15.4730897
20
89.1312271
11
15.0000897
21
89.1312271
0
LINE
8
DEFAULT_255_2_778
10
15.0000897
20
89.1312271
11
15.0000897
21
89.3421271
0
LINE
8
DEFAULT_255_2_778
10
15.0000897
20
89.3421271
11
15.5320897
21
89.3421271
0
LINE
8
DEFAULT_255_2_778
10
15.5320897
20
89.3421271
11
15.5320897
21
89.5135271
0
LINE
8
DEFAULT_255_2_778
10
15.5320897
20
89.5135271
11
15.0000897
21
89.5135271
0
LINE
8
DEFAULT_255_2_778
10
15.0000897
20
89.5135271
11
14.7997897
21
89.5135271
0
LINE
8
DEFAULT_255_2_778
10
14.7997897
20
89.5135271
11
14.7997897
21
89.3421271
0
LINE
8
DEFAULT_255_2_778
10
14.7997897
20
89.3421271
11
14.7997897
21
88.6957271
0
LINE
8
DEFAULT_255_2_778
10
14.7997897
20
88.6957271
11
14.7997897
21
88.5242271
0
LINE
8
DEFAULT_255_2_778
10
14.7997897
20
88.5242271
11
15.0000897
21
88.5242271
0
LINE
8
DEFAULT_255_2_778
10
15.0000897
20
88.5242271
11
15.5461897
21
88.5242271
0
LINE
8
DEFAULT_255_2_778
10
15.5461897
20
88.5242271
11
15.5461897
21
88.6957271
0
LINE
8
DEFAULT_255_2_778
10
15.5461897
20
88.6957271
11
15.0000897
21
88.6957271
0
LINE
8
DEFAULT_255_2_778
10
15.0000897
20
88.6957271
11
15.0000897
21
88.9595271
0
LINE
8
DEFAULT_255_2_778
10
15.0000897
20
88.9595271
11
15.0000897
21
88.9598271
0
LINE
8
DEFAULT_255_2_778
10
17.4064897
20
90.2686271
11
17.1690897
21
90.2686271
0
LINE
8
DEFAULT_255_2_778
10
17.1690897
20
90.2686271
11
17.1690897
21
90.5102271
0
LINE
8
DEFAULT_255_2_778
10
17.1690897
20
90.5102271
11
17.4175897
21
90.5102271
0
LINE
8
DEFAULT_255_2_778
10
17.4175897
20
90.5102271
11
17.4175897
21
90.5105271
0
LINE
8
DEFAULT_255_2_778
10
17.4027897
20
89.8278271
11
17.1690897
21
89.8278271
0
LINE
8
DEFAULT_255_2_778
10
17.1690897
20
89.8278271
11
17.1690897
21
90.1149271
0
LINE
8
DEFAULT_255_2_778
10
17.1690897
20
90.1149271
11
17.4003897
21
90.1149271
0
LINE
8
DEFAULT_255_2_778
10
17.1767897
20
89.6786271
11
17.4622897
21
89.6786271
0
LINE
8
DEFAULT_255_2_778
10
17.4172897
20
90.6676271
11
17.1770897
21
90.6676271
0
LINE
8
DEFAULT_255_2_778
10
17.1770897
20
90.6676271
11
16.9722897
21
90.6676271
0
LINE
8
DEFAULT_255_2_778
10
16.9722897
20
90.6676271
11
16.9711897
21
90.6676271
0
LINE
8
DEFAULT_255_2_778
10
16.9711897
20
90.6676271
11
16.9711897
21
89.6786271
0
LINE
8
DEFAULT_255_2_778
10
16.9711897
20
89.6786271
11
16.9722897
21
89.6786271
0
LINE
8
DEFAULT_255_2_778
10
16.9722897
20
89.6786271
11
17.1770897
21
89.6786271
0
LINE
8
DEFAULT_255_2_778
10
17.1770897
20
89.6786271
11
17.1767897
21
89.6786271
0
LINE
8
DEFAULT_255_2_778
10
17.3368897
20
89.0743271
11
17.3368897
21
89.3437271
0
LINE
8
DEFAULT_255_2_778
10
17.3368897
20
89.3437271
11
17.5781897
21
89.3437271
0
LINE
8
DEFAULT_255_2_778
10
17.5842897
20
89.0746271
11
17.3370897
21
89.0746271
0
LINE
8
DEFAULT_255_2_778
10
17.3370897
20
89.0746271
11
17.3368897
21
89.0743271
0
LINE
8
DEFAULT_255_2_778
10
17.5879897
20
89.5148271
11
17.3368897
21
89.5148271
0
LINE
8
DEFAULT_255_2_778
10
17.3368897
20
89.5148271
11
17.1383897
21
89.5148271
0
LINE
8
DEFAULT_255_2_778
10
17.1383897
20
89.5148271
11
17.1362897
21
89.5148271
0
LINE
8
DEFAULT_255_2_778
10
17.1362897
20
89.5148271
11
17.1362897
21
88.5256271
0
LINE
8
DEFAULT_255_2_778
10
17.1362897
20
88.5256271
11
17.3368897
21
88.5256271
0
LINE
8
DEFAULT_255_2_778
10
17.3368897
20
88.5256271
11
17.3368897
21
88.9153271
0
LINE
8
DEFAULT_255_2_778
10
17.3368897
20
88.9153271
11
17.5069897
21
88.9153271
0
LINE
8
DEFAULT_255_2_778
10
17.7162897
20
88.5256271
11
17.9175897
21
88.5256271
0
LINE
8
DEFAULT_255_2_778
10
14.2763897
20
89.5138271
11
14.0760897
21
89.5138271
0
LINE
8
DEFAULT_255_2_778
10
14.0760897
20
89.5138271
11
14.0760897
21
88.6960271
0
LINE
8
DEFAULT_255_2_778
10
14.0760897
20
88.6960271
11
14.0760897
21
88.5245271
0
LINE
8
DEFAULT_255_2_778
10
14.0760897
20
88.5245271
11
14.2763897
21
88.5245271
0
LINE
8
DEFAULT_255_2_778
10
14.2763897
20
88.5245271
11
14.7428897
21
88.5245271
0
LINE
8
DEFAULT_255_2_778
10
14.7428897
20
88.5245271
11
14.7428897
21
88.6960271
0
LINE
8
DEFAULT_255_2_778
10
14.7428897
20
88.6960271
11
14.2763897
21
88.6960271
0
LINE
8
DEFAULT_255_2_778
10
14.2763897
20
88.6960271
11
14.2763897
21
89.5138271
0
LINE
8
DEFAULT_255_2_778
10
14.2763897
20
89.5138271
11
14.2763897
21
89.5138271
0
ARC
8
DEFAULT_255_2_778
10
15.4584271
20
89.1396969
40
0.9681224
50
72.4822103
51
81.3184214
0
ARC
8
DEFAULT_255_2_778
10
15.7160297
20
89.9163918
40
0.1503783
50
28.8883513
51
77.0092434
0
ARC
8
DEFAULT_255_2_778
10
15.7432379
20
89.9453196
40
0.113238
50
358.9917455
51
22.7117017
0
ARC
8
DEFAULT_255_2_778
10
15.7394861
20
89.9494918
40
0.1171346
50
289.2958104
51
356.9831562
0
ARC
8
DEFAULT_255_2_778
10
15.6668261
20
90.1069882
40
0.2902651
50
268.4665462
51
292.5613311
0
ARC
8
DEFAULT_255_2_778
10
15.6496856
20
90.0479179
40
0.2312808
50
236.4956947
51
272.3225735
0
ARC
8
DEFAULT_255_2_778
10
15.6106646
20
89.9796839
40
0.1529307
50
178.9722202
51
234.5742435
0
ARC
8
DEFAULT_255_2_778
10
15.5656113
20
89.9701079
40
0.3002058
50
177.6481608
51
245.5596397
0
ARC
8
DEFAULT_255_2_778
10
15.6409971
20
90.1423561
40
0.488217
50
245.8690375
51
267.169035
0
ARC
8
DEFAULT_255_2_778
10
15.6671503
20
90.3933916
40
0.7403648
50
266.1069867
51
270.0547972
0
ARC
8
DEFAULT_255_2_778
10
15.6772894
20
90.2246135
40
0.5716642
50
269.0547216
51
287.7147747
0
ARC
8
DEFAULT_255_2_778
10
15.7598889
20
89.9789091
40
0.3125017
50
286.995984
51
325.1221533
0
ARC
8
DEFAULT_255_2_778
10
15.7678294
20
89.962361
40
0.2966627
50
326.8673922
51
0.8625726
0
ARC
8
DEFAULT_255_2_778
10
15.7898286
20
89.9709409
40
0.2746606
50
359.1417932
51
76.9739731
0
ARC
8
DEFAULT_255_2_778
10
15.6705461
20
89.6900719
40
0.577616
50
71.7185727
51
79.1315439
0
ARC
8
DEFAULT_255_2_778
10
14.2492968
20
82.336467
40
8.0673056
50
79.0662148
51
79.6216572
0
ARC
8
DEFAULT_255_2_778
10
16.4356585
20
94.2141581
40
4.0099443
50
259.1227669
51
259.4665204
0
ARC
8
DEFAULT_255_2_778
10
15.7836732
20
90.9191142
40
0.6513291
50
249.9945768
51
260.7485895
0
ARC
8
DEFAULT_255_2_778
10
15.5880401
20
90.4080999
40
0.1046098
50
178.6705173
51
254.9333545
0
ARC
8
DEFAULT_255_2_778
10
15.6049957
20
90.4046688
40
0.1216785
50
93.288632
51
177.2403935
0
ARC
8
DEFAULT_255_2_778
10
15.6585677
20
90.2176752
40
0.3143588
50
89.6189463
51
101.1057977
0
ARC
8
DEFAULT_255_2_778
10
15.6722733
20
90.329516
40
0.2028439
50
53.5634072
51
93.2825843
0
ARC
8
DEFAULT_255_2_778
10
15.7018505
20
90.3877144
40
0.1388739
50
357.1985816
51
49.1152298
0
ARC
8
DEFAULT_255_2_778
10
15.7254907
20
90.3809274
40
0.3087677
50
359.9999335
51
2.3703878
0
ARC
8
DEFAULT_255_2_778
10
15.7353555
20
90.3824337
40
0.298851
50
2.1600756
51
60.1092229
0
ARC
8
DEFAULT_255_2_778
10
15.6766212
20
90.2758133
40
0.4205645
50
60.4106856
51
86.1444419
0
ARC
8
DEFAULT_255_2_778
10
15.6536151
20
90.0991228
40
0.5985046
50
85.0843314
51
90.0628677
0
ARC
8
DEFAULT_255_2_778
10
15.6529718
20
90.2225466
40
0.4750804
50
90.001616
51
92.2300394
0
ARC
8
DEFAULT_255_2_778
10
15.6281193
20
90.327687
40
0.3696351
50
89.0131319
51
149.6364996
0
ARC
8
DEFAULT_255_2_778
10
15.5505461
20
90.3999055
40
0.2671974
50
154.5962367
51
180.4885883
0
ARC
8
DEFAULT_255_2_778
10
15.5651524
20
90.398384
40
0.281795
50
180.1539064
51
255.1120325
0
ARC
8
DEFAULT_255_2_778
10
15.7094242
20
90.721232
40
0.6333958
50
249.9962237
51
260.4976723
0
ARC
8
DEFAULT_255_2_778
10
18.2470963
20
89.1408351
40
0.967002
50
72.4685023
51
81.3064395
0
ARC
8
DEFAULT_255_2_778
10
18.5045397
20
89.916427
40
0.1503535
50
28.8782248
51
76.9904304
0
ARC
8
DEFAULT_255_2_778
10
18.5317197
20
89.9453189
40
0.1132561
50
358.9922779
51
22.7082666
0
ARC
8
DEFAULT_255_2_778
10
18.5280402
20
89.9494088
40
0.1170763
50
289.2761556
51
357.0223042
0
ARC
8
DEFAULT_255_2_778
10
18.4553612
20
90.1072836
40
0.2905613
50
268.4611814
51
292.5289055
0
ARC
8
DEFAULT_255_2_778
10
18.4381801
20
90.0488175
40
0.2321799
50
236.6698634
51
272.3149402
0
ARC
8
DEFAULT_255_2_778
10
18.39878
20
89.9796762
40
0.1528464
50
178.9687581
51
234.7686008
0
ARC
8
DEFAULT_255_2_778
10
18.3540113
20
89.9701079
40
0.3002058
50
177.6481608
51
245.5596397
0
ARC
8
DEFAULT_255_2_778
10
18.4293971
20
90.1423561
40
0.488217
50
245.8690375
51
267.169035
0
ARC
8
DEFAULT_255_2_778
10
18.4555503
20
90.3933916
40
0.7403648
50
266.1069867
51
270.0547972
0
ARC
8
DEFAULT_255_2_778
10
18.4656836
20
90.2252451
40
0.5722957
50
269.0563423
51
287.7048702
0
ARC
8
DEFAULT_255_2_778
10
18.548344
20
89.9792682
40
0.312856
50
286.9832601
51
325.0871916
0
ARC
8
DEFAULT_255_2_778
10
18.5567708
20
89.9623856
40
0.2964208
50
326.8311942
51
0.8585267
0
ARC
8
DEFAULT_255_2_778
10
18.5785756
20
89.9710282
40
0.2746149
50
359.1234265
51
76.9343785
0
ARC
8
DEFAULT_255_2_778
10
18.4596421
20
89.6911965
40
0.5764934
50
71.6999697
51
79.1198353
0
ARC
8
DEFAULT_255_2_778
10
17.0173657
20
82.2144392
40
8.1910887
50
79.0843627
51
79.6321368
0
ARC
8
DEFAULT_255_2_778
10
19.2200266
20
94.1939177
40
3.9892176
50
259.1314419
51
259.4772924
0
ARC
8
DEFAULT_255_2_778
10
18.5723251
20
90.9185131
40
0.6507003
50
249.9919323
51
260.7592458
0
ARC
8
DEFAULT_255_2_778
10
18.376901
20
90.4080546
40
0.1045718
50
178.6452075
51
254.9151907
0
ARC
8
DEFAULT_255_2_778
10
18.3939581
20
90.4046016
40
0.121744
50
93.2745253
51
177.21023
0
ARC
8
DEFAULT_255_2_778
10
18.4475726
20
90.2175052
40
0.3145287
50
89.6200387
51
101.1027534
0
ARC
8
DEFAULT_255_2_778
10
18.4613489
20
90.3308453
40
0.2015212
50
53.1490002
51
93.3256649
0
ARC
8
DEFAULT_255_2_778
10
18.4902753
20
90.3876519
40
0.1391457
50
357.2298288
51
48.6469881
0
ARC
8
DEFAULT_255_2_778
10
18.5137232
20
90.3809226
40
0.3092351
50
0.0008291
51
2.3676985
0
ARC
8
DEFAULT_255_2_778
10
18.5240744
20
90.3824868
40
0.2988304
50
2.1500394
51
60.0956838
0
ARC
8
DEFAULT_255_2_778
10
18.4654399
20
90.2759909
40
0.4203859
50
60.40452
51
86.1455285
0
ARC
8
DEFAULT_255_2_778
10
18.4424157
20
90.0991686
40
0.5984588
50
85.0841409
51
90.0629301
0
ARC
8
DEFAULT_255_2_778
10
18.4417778
20
90.2221392
40
0.4754878
50
90.0023409
51
92.3231329
0
ARC
8
DEFAULT_255_2_778
10
18.4167555
20
90.3274604
40
0.3698206
50
89.1093915
51
149.6400816
0
ARC
8
DEFAULT_255_2_778
10
18.338761
20
90.3998917
40
0.2669122
50
154.6001925
51
180.486137
0
ARC
8
DEFAULT_255_2_778
10
18.3537607
20
90.3985152
40
0.2819037
50
180.1805176
51
255.132702
0
ARC
8
DEFAULT_255_2_778
10
18.4982264
20
90.7217784
40
0.6339516
50
250.0026216
51
260.4967164
0
ARC
8
DEFAULT_255_2_778
10
16.008917
20
88.9289283
40
0.2519711
50
190.2626864
51
267.3480013
0
ARC
8
DEFAULT_255_2_778
10
16.2443543
20
89.0202548
40
0.5022041
50
179.6723028
51
195.7380858
0
ARC
8
DEFAULT_255_2_778
10
16.1790511
20
89.0357671
40
0.4370755
50
148.7005643
51
181.6572045
0
ARC
8
DEFAULT_255_2_778
10
15.9957576
20
89.1458723
40
0.2232598
50
89.6148479
51
148.4074796
0
ARC
8
DEFAULT_255_2_778
10
16.0060936
20
89.167949
40
0.201372
50
41.9769772
51
92.5146611
0
ARC
8
DEFAULT_255_2_778
10
15.9522078
20
89.1302523
40
0.2667646
50
15.1848537
51
40.2549591
0
ARC
8
DEFAULT_255_2_778
10
16.028123
20
89.1405326
40
0.3935735
50
8.7091682
51
82.0550801
0
ARC
8
DEFAULT_255_2_778
10
15.9931241
20
88.9940871
40
0.543642
50
80.5350289
51
90.1544743
0
ARC
8
DEFAULT_255_2_778
10
15.9818804
20
89.0827192
40
0.4551129
50
88.7689246
51
119.6437418
0
ARC
8
DEFAULT_255_2_778
10
16.0077717
20
89.0864647
40
0.4653013
50
122.644121
51
173.3997839
0
ARC
8
DEFAULT_255_2_778
10
16.2711934
20
89.0221568
40
0.7351371
50
170.7798304
51
180.1348114
0
ARC
8
DEFAULT_255_2_778
10
16.1377257
20
89.0067615
40
0.6018225
50
178.6988735
51
210.5289552
0
ARC
8
DEFAULT_255_2_778
10
15.970325
20
88.9159953
40
0.4115783
50
211.4828222
51
265.8686737
0
ARC
8
DEFAULT_255_2_778
10
15.9909864
20
89.0407011
40
0.5375742
50
264.6297133
51
270.0503073
0
ARC
8
DEFAULT_255_2_778
10
16.0020995
20
88.9725749
40
0.4695684
50
268.7014824
51
300.1403067
0
ARC
8
DEFAULT_255_2_778
10
16.0350333
20
88.8941852
40
0.385394
50
301.7580058
51
353.77968
0
ARC
8
DEFAULT_255_2_778
10
16.0012256
20
88.8885219
40
0.2113379
50
268.8430278
51
350.1661143
0
ARC
8
DEFAULT_255_2_778
10
18.6896799
20
88.9288824
40
0.2519281
50
190.2538303
51
267.3332171
0
ARC
8
DEFAULT_255_2_778
10
18.9252249
20
89.0202581
40
0.5022746
50
179.672724
51
195.7362088
0
ARC
8
DEFAULT_255_2_778
10
18.8600432
20
89.0357917
40
0.4372682
50
148.7196987
51
181.6596982
0
ARC
8
DEFAULT_255_2_778
10
18.676443
20
89.1459906
40
0.2231415
50
89.6108896
51
148.4244661
0
ARC
8
DEFAULT_255_2_778
10
18.686876
20
89.167967
40
0.2013576
50
42.5913083
51
92.5383066
0
ARC
8
DEFAULT_255_2_778
10
18.6345542
20
89.1315973
40
0.2646316
50
15.0085433
51
40.7215892
0
ARC
8
DEFAULT_255_2_778
10
18.708623
20
89.1405326
40
0.3935735
50
8.7091682
51
82.0550801
0
ARC
8
DEFAULT_255_2_778
10
18.6736241
20
88.9940871
40
0.543642
50
80.5350289
51
90.1544743
0
ARC
8
DEFAULT_255_2_778
10
18.6623804
20
89.0827192
40
0.4551129
50
88.7689246
51
119.6437418
0
ARC
8
DEFAULT_255_2_778
10
18.6882717
20
89.0864647
40
0.4653013
50
122.644121
51
173.3997839
0
ARC
8
DEFAULT_255_2_778
10
18.9516934
20
89.0221568
40
0.7351371
50
170.7798304
51
180.1348114
0
ARC
8
DEFAULT_255_2_778
10
18.8177822
20
89.00682
40
0.6013778
50
178.7034849
51
210.5604279
0
ARC
8
DEFAULT_255_2_778
10
18.6511312
20
88.9163377
40
0.4119265
50
211.5090145
51
265.8592607
0
ARC
8
DEFAULT_255_2_778
10
18.6716883
20
89.0404521
40
0.5373252
50
264.628472
51
270.0501277
0
ARC
8
DEFAULT_255_2_778
10
18.682837
20
88.9723685
40
0.4693629
50
268.6963312
51
300.2191972
0
ARC
8
DEFAULT_255_2_778
10
18.7155684
20
88.8944124
40
0.3856821
50
301.8465101
51
353.7503927
0
ARC
8
DEFAULT_255_2_778
10
18.6820648
20
88.8883604
40
0.2111733
50
268.8857714
51
350.2028431
0
LINE
8
DEFAULT_255_2_778
10
15.4577584
20
89.9824271
11
15.2656584
21
89.9824271
0
LINE
8
DEFAULT_255_2_778
10
15.8405584
20
90.3809271
11
16.0342584
21
90.3809271
0
LINE
8
DEFAULT_255_2_778
10
18.2459584
20
89.9824271
11
18.0540584
21
89.9824271
0
LINE
8
DEFAULT_255_2_778
10
18.6292584
20
90.3809271
11
18.8229584
21
90.3809271
0
LINE
8
DEFAULT_255_2_778
10
16.2096584
20
89.2001271
11
16.4171584
21
89.2001271
0
LINE
8
DEFAULT_255_2_778
10
16.4181584
20
88.8524271
11
16.2094584
21
88.8524271
0
LINE
8
DEFAULT_255_2_778
10
18.8901584
20
89.2001271
11
19.0976584
21
89.2001271
0
LINE
8
DEFAULT_255_2_778
10
19.0989584
20
88.8524271
11
18.8901584
21
88.8524271
0
LINE
8
DEFAULT_255_1_234
10
11.6656657
20
86.6213565
11
11.6656657
21
86.5466614
0
LINE
8
DEFAULT_255_1_234
10
11.4608563
20
86.0631507
11
11.6696815
21
85.8993033
0
LINE
8
DEFAULT_255_1_234
10
11.6696815
20
85.8993033
11
11.5644658
21
85.8021192
0
LINE
8
DEFAULT_255_1_234
10
11.5644658
20
85.8021192
11
11.3178914
21
85.9980937
0
LINE
8
DEFAULT_255_1_234
10
10.7243459
20
86.5362201
11
10.7243459
21
86.6205534
0
LINE
8
DEFAULT_255_1_234
10
11.5114563
20
86.5354169
11
11.5114563
21
86.6221597
0
LINE
8
DEFAULT_255_1_234
10
10.8785553
20
86.632601
11
10.8785553
21
86.5466614
0
ARC
8
DEFAULT_255_1_234
10
10.7702909
20
86.5427707
40
0.8953833
50
351.453011
51
0.2489685
0
ARC
8
DEFAULT_255_1_234
10
11.0287709
20
86.5027933
40
0.6338333
50
338.6861641
51
351.5540711
0
ARC
8
DEFAULT_255_1_234
10
11.1221593
20
86.4697828
40
0.5348431
50
336.2887631
51
338.3442418
0
ARC
8
DEFAULT_255_1_234
10
11.1561215
20
86.4511698
40
0.4962747
50
321.1170344
51
336.6795229
0
ARC
8
DEFAULT_255_1_234
10
11.2193044
20
86.4025206
40
0.4165565
50
305.4419708
51
320.8705636
0
ARC
8
DEFAULT_255_1_234
10
11.1996514
20
86.4772707
40
0.4935497
50
271.6373023
51
283.8611969
0
ARC
8
DEFAULT_255_1_234
10
11.1958767
20
86.5428572
40
0.5592206
50
269.9930596
51
271.8318864
0
ARC
8
DEFAULT_255_1_234
10
11.192121
20
86.4620681
40
0.4784458
50
252.5219675
51
270.4416499
0
ARC
8
DEFAULT_255_1_234
10
11.1777469
20
86.4081592
40
0.422716
50
237.5352116
51
252.1857531
0
ARC
8
DEFAULT_255_1_234
10
11.1866665
20
86.4195363
40
0.4371052
50
209.063312
51
237.3492538
0
ARC
8
DEFAULT_255_1_234
10
11.2736513
20
86.4741685
40
0.5397041
50
205.1183774
51
209.6470015
0
ARC
8
DEFAULT_255_1_234
10
11.353355
20
86.507983
40
0.6262326
50
188.7215458
51
204.8240747
0
ARC
8
DEFAULT_255_1_234
10
11.5531078
20
86.5416067
40
0.8287794
50
180.3723947
51
188.9252049
0
ARC
8
DEFAULT_255_1_234
10
11.550383
20
86.6245402
40
0.8260467
50
169.5253763
51
180.2765336
0
ARC
8
DEFAULT_255_1_234
10
11.3601279
20
86.6595309
40
0.6326007
50
155.8315255
51
169.5089989
0
ARC
8
DEFAULT_255_1_234
10
11.232078
20
86.7189348
40
0.4914567
50
139.6258461
51
156.0379525
0
ARC
8
DEFAULT_255_1_234
10
11.1731113
20
86.7663799
40
0.4158054
50
122.6416387
51
139.3430715
0
ARC
8
DEFAULT_255_1_234
10
11.1831733
20
86.7480451
40
0.4366739
50
93.0223692
51
122.455762
0
ARC
8
DEFAULT_255_1_234
10
11.193973
20
86.6515709
40
0.5336137
50
89.975342
51
93.6341897
0
ARC
8
DEFAULT_255_1_234
10
11.1978616
20
86.6895375
40
0.4956606
50
73.9665422
51
90.4229648
0
ARC
8
DEFAULT_255_1_234
10
11.2162263
20
86.7610451
40
0.4218674
50
57.5178019
51
73.6813337
0
ARC
8
DEFAULT_255_1_234
10
11.2118046
20
86.7574462
40
0.4272816
50
28.7261108
51
57.2767933
0
ARC
8
DEFAULT_255_1_234
10
11.1207378
20
86.7011688
40
0.534218
50
24.2448911
51
29.3248482
0
ARC
8
DEFAULT_255_1_234
10
11.0281479
20
86.6628819
40
0.6343711
50
9.064382
51
23.9639114
0
ARC
8
DEFAULT_255_1_234
10
10.8025807
20
86.6249925
40
0.8630926
50
359.7586264
51
9.1891435
0
ARC
8
DEFAULT_255_1_234
10
10.6771287
20
86.6263343
40
0.834338
50
359.7133237
51
7.96545
0
ARC
8
DEFAULT_255_1_234
10
10.9733504
20
86.6690681
40
0.5350538
50
7.8291991
51
20.0421623
0
ARC
8
DEFAULT_255_1_234
10
11.1358067
20
86.7281606
40
0.3621841
50
20.0677553
51
35.9161685
0
ARC
8
DEFAULT_255_1_234
10
11.2133105
20
86.785767
40
0.2656263
50
35.6594382
51
85.1578074
0
ARC
8
DEFAULT_255_1_234
10
11.1948361
20
86.6742378
40
0.3784238
50
83.7959068
51
90.095906
0
ARC
8
DEFAULT_255_1_234
10
11.1905295
20
86.7475601
40
0.3051229
50
89.3102392
51
109.9889877
0
ARC
8
DEFAULT_255_1_234
10
11.1822778
20
86.7831433
40
0.2688988
50
110.9285147
51
143.9411762
0
ARC
8
DEFAULT_255_1_234
10
11.2753724
20
86.7119236
40
0.3860887
50
143.5289163
51
163.2980757
0
ARC
8
DEFAULT_255_1_234
10
11.4661545
20
86.6519433
40
0.5860659
50
163.0418846
51
174.3140048
0
ARC
8
DEFAULT_255_1_234
10
11.7065657
20
86.6241854
40
0.8280531
50
174.0509143
51
179.4176892
0
ARC
8
DEFAULT_255_1_234
10
11.6551992
20
86.5423634
40
0.7766558
50
179.6829237
51
188.9631324
0
ARC
8
DEFAULT_255_1_234
10
11.3881553
20
86.4988752
40
0.5060992
50
188.8100743
51
202.9300012
0
ARC
8
DEFAULT_255_1_234
10
11.2665182
20
86.4493855
40
0.3747967
50
203.2069261
51
215.7876482
0
ARC
8
DEFAULT_255_1_234
10
11.1816579
20
86.3822671
40
0.2667526
50
214.7521006
51
264.2834488
0
ARC
8
DEFAULT_255_1_234
10
11.1952234
20
86.467778
40
0.3532247
50
263.4755397
51
270.0949833
0
ARC
8
DEFAULT_255_1_234
10
11.1994345
20
86.4416374
40
0.3271036
50
269.3649385
51
287.5152008
0
ARC
8
DEFAULT_255_1_234
10
11.2172503
20
86.3769238
40
0.2600406
50
288.0630309
51
323.8113348
0
ARC
8
DEFAULT_255_1_234
10
11.1301345
20
86.4419049
40
0.3687189
50
323.6547608
51
342.6590488
0
ARC
8
DEFAULT_255_1_234
10
10.926996
20
86.5079952
40
0.5823286
50
342.4091907
51
353.6451149
0
ARC
8
DEFAULT_255_1_234
10
10.6438471
20
86.543219
40
0.8676442
50
353.4029884
51
359.4847795
0
LINE
8
DEFAULT_255_1_234
10
12.679271
20
86.8309849
11
12.5242585
21
86.8309849
0
LINE
8
DEFAULT_255_1_234
10
11.8319227
20
86.3386394
11
11.9869352
21
86.3386394
0
ARC
8
DEFAULT_255_1_234
10
12.5901398
20
87.7256768
40
1.252368
50
248.9199003
51
254.1439814
0
ARC
8
DEFAULT_255_1_234
10
12.4220893
20
87.2930234
40
0.788226
50
241.633709
51
249.0064503
0
ARC
8
DEFAULT_255_1_234
10
12.2692287
20
87.0129317
40
0.4691427
50
230.498225
51
241.8087113
0
ARC
8
DEFAULT_255_1_234
10
12.1907861
20
86.9129906
40
0.3421437
50
227.4064532
51
229.9881192
0
ARC
8
DEFAULT_255_1_234
10
12.1420382
20
86.8654088
40
0.2741476
50
200.6781896
51
228.1763934
0
ARC
8
DEFAULT_255_1_234
10
12.1492693
20
86.8639077
40
0.2804109
50
179.5061581
51
199.8694617
0
ARC
8
DEFAULT_255_1_234
10
12.1483444
20
86.871321
40
0.2795204
50
132.4834203
51
181.0242172
0
ARC
8
DEFAULT_255_1_234
10
12.2079027
20
86.8150704
40
0.3612768
50
129.2532479
51
133.4242687
0
ARC
8
DEFAULT_255_1_234
10
12.2225476
20
86.7930965
40
0.3875675
50
101.98776
51
128.8742646
0
ARC
8
DEFAULT_255_1_234
10
12.2624087
20
86.6209741
40
0.5642249
50
89.5906553
51
102.3169264
0
ARC
8
DEFAULT_255_1_234
10
12.2694579
20
86.6528148
40
0.5323783
50
77.2360837
51
90.3248275
0
ARC
8
DEFAULT_255_1_234
10
12.2901658
20
86.74954
40
0.4334697
50
63.837784
51
77.0809408
0
ARC
8
DEFAULT_255_1_234
10
12.317942
20
86.8012911
40
0.3747796
50
45.9864267
51
64.1607727
0
ARC
8
DEFAULT_255_1_234
10
12.3440301
20
86.8310866
40
0.3352302
50
32.2747395
51
45.6547121
0
ARC
8
DEFAULT_255_1_234
10
12.3506742
20
86.832988
40
0.328603
50
359.6507365
51
32.6130309
0
ARC
8
DEFAULT_255_1_234
10
12.2563837
20
86.833466
40
0.2678863
50
359.469343
51
14.9832209
0
ARC
8
DEFAULT_255_1_234
10
12.32689
20
86.8523539
40
0.1948938
50
14.9781179
51
48.2004265
0
ARC
8
DEFAULT_255_1_234
10
12.3104544
20
86.8316983
40
0.2212521
50
48.5927837
51
74.1241538
0
ARC
8
DEFAULT_255_1_234
10
12.2771033
20
86.7216248
40
0.3362561
50
73.7888341
51
86.6652678
0
ARC
8
DEFAULT_255_1_234
10
12.2668599
20
86.6008881
40
0.4573953
50
86.2640471
51
90.0526343
0
ARC
8
DEFAULT_255_1_234
10
12.2640311
20
86.6404192
40
0.4178709
50
89.6697524
51
99.2309573
0
ARC
8
DEFAULT_255_1_234
10
12.2397762
20
86.7848964
40
0.2713749
50
99.069534
51
113.7658566
0
ARC
8
DEFAULT_255_1_234
10
12.2123953
20
86.8494677
40
0.2012469
50
114.0401004
51
127.9850673
0
ARC
8
DEFAULT_255_1_234
10
12.1883517
20
86.879073
40
0.1631167
50
127.7287463
51
176.7105154
0
ARC
8
DEFAULT_255_1_234
10
12.2562235
20
86.8689693
40
0.2315392
50
175.1779447
51
180.0581938
0
ARC
8
DEFAULT_255_1_234
10
12.1719082
20
86.8677428
40
0.1472271
50
179.6142195
51
228.1246017
0
ARC
8
DEFAULT_255_1_234
10
12.216075
20
86.9086308
40
0.2072299
50
226.5779593
51
230.8800004
0
ARC
8
DEFAULT_255_1_234
10
12.2631829
20
86.9711636
40
0.2854818
50
231.4635071
51
241.9260842
0
ARC
8
DEFAULT_255_1_234
10
12.3829007
20
87.19148
40
0.53622
50
241.7178533
51
248.3259551
0
ARC
8
DEFAULT_255_1_234
10
12.5214379
20
87.5347064
40
0.9063478
50
248.2007737
51
252.4528373
0
ARC
8
DEFAULT_255_1_234
10
12.6418104
20
87.9068441
40
1.2974635
50
252.3391078
51
254.3469452
0
ARC
8
DEFAULT_255_1_234
10
11.8875806
20
85.2091148
40
1.5037162
50
71.0197183
51
74.4087047
0
ARC
8
DEFAULT_255_1_234
10
12.0570491
20
85.6983111
40
0.9859993
50
66.1847285
51
71.086374
0
ARC
8
DEFAULT_255_1_234
10
12.2126804
20
86.04872
40
0.6025855
50
59.3536294
51
66.2691831
0
ARC
8
DEFAULT_255_1_234
10
12.3015456
20
86.1990609
40
0.4279449
50
49.1020879
51
59.3293958
0
ARC
8
DEFAULT_255_1_234
10
12.3834196
20
86.2923834
40
0.3038015
50
32.7919921
51
49.2505539
0
ARC
8
DEFAULT_255_1_234
10
12.4155286
20
86.3152191
40
0.264448
50
31.1181161
51
32.4005348
0
ARC
8
DEFAULT_255_1_234
10
12.4066824
20
86.3116779
40
0.2738556
50
8.1116974
51
30.7958831
0
ARC
8
DEFAULT_255_1_234
10
12.3256492
20
86.2978753
40
0.3560327
50
359.8389159
51
8.4706516
0
ARC
8
DEFAULT_255_1_234
10
12.3882283
20
86.2930137
40
0.2934776
50
337.4731098
51
0.7537279
0
ARC
8
DEFAULT_255_1_234
10
12.4060978
20
86.2910387
40
0.2762607
50
307.5917067
51
336.4315538
0
ARC
8
DEFAULT_255_1_234
10
12.3600806
20
86.3423102
40
0.3449979
50
307.6551545
51
308.4529766
0
ARC
8
DEFAULT_255_1_234
10
12.3370525
20
86.377825
40
0.3871988
50
284.3734338
51
307.1424381
0
ARC
8
DEFAULT_255_1_234
10
12.2875355
20
86.5599932
40
0.5759636
50
272.4382747
51
284.646547
0
ARC
8
DEFAULT_255_1_234
10
12.2748564
20
86.7399893
40
0.7563528
50
269.9708387
51
272.8178037
0
ARC
8
DEFAULT_255_1_234
10
12.2705604
20
86.5361716
40
0.5525489
50
248.2707594
51
270.4055579
0
ARC
8
DEFAULT_255_1_234
10
12.2651345
20
86.5171192
40
0.5328452
50
246.1383403
51
248.0542782
0
ARC
8
DEFAULT_255_1_234
10
12.2232724
20
86.4291843
40
0.4355005
50
233.1670131
51
246.4950969
0
ARC
8
DEFAULT_255_1_234
10
12.1678629
20
86.3543812
40
0.3424126
50
215.3403242
51
233.0843104
0
ARC
8
DEFAULT_255_1_234
10
12.140606
20
86.3345549
40
0.3087104
50
179.2419209
51
215.2648451
0
ARC
8
DEFAULT_255_1_234
10
12.2173654
20
86.3359666
40
0.2304457
50
179.335461
51
199.1045811
0
ARC
8
DEFAULT_255_1_234
10
12.184133
20
86.3272766
40
0.1962176
50
199.8828939
51
232.7063202
0
ARC
8
DEFAULT_255_1_234
10
12.2313599
20
86.3866788
40
0.2720938
50
232.3738199
51
255.5136649
0
ARC
8
DEFAULT_255_1_234
10
12.2654465
20
86.5110835
40
0.4010747
50
255.2446292
51
267.5320849
0
ARC
8
DEFAULT_255_1_234
10
12.2742089
20
86.6343702
40
0.5246356
50
267.1557994
51
270.0286766
0
ARC
8
DEFAULT_255_1_234
10
12.2769861
20
86.589995
40
0.4802668
50
269.7000017
51
278.1660162
0
ARC
8
DEFAULT_255_1_234
10
12.3025866
20
86.4169515
40
0.3053425
50
278.0231263
51
290.625471
0
ARC
8
DEFAULT_255_1_234
10
12.3373553
20
86.3242025
40
0.206291
50
290.6619762
51
307.0370976
0
ARC
8
DEFAULT_255_1_234
10
12.3673942
20
86.2873504
40
0.1587906
50
306.3943566
51
355.3030547
0
ARC
8
DEFAULT_255_1_234
10
12.3161873
20
86.2950113
40
0.2104809
50
354.3660432
51
0.0698737
0
ARC
8
DEFAULT_255_1_234
10
12.3304219
20
86.2972617
40
0.1962563
50
359.417946
51
16.1971788
0
ARC
8
DEFAULT_255_1_234
10
12.3759529
20
86.3097418
40
0.149053
50
16.4723299
51
52.6262157
0
ARC
8
DEFAULT_255_1_234
10
12.2938583
20
86.2013433
40
0.2850296
50
52.7386432
51
62.4979148
0
ARC
8
DEFAULT_255_1_234
10
12.155366
20
85.9407283
40
0.5801521
50
62.2515216
51
68.1220564
0
ARC
8
DEFAULT_255_1_234
10
11.9833571
20
85.5179872
40
1.0365451
50
68.0062803
51
71.8053402
0
ARC
8
DEFAULT_255_1_234
10
11.8037942
20
84.9794758
40
1.6042013
50
71.7183119
51
73.9258742
0
LINE
8
DEFAULT_255_1_234
10
14.0623364
20
86.8309849
11
13.9073238
21
86.8309849
0
LINE
8
DEFAULT_255_1_234
10
13.214988
20
86.3386394
11
13.3700005
21
86.3386394
0
ARC
8
DEFAULT_255_1_234
10
13.9732051
20
87.7256768
40
1.252368
50
248.9199003
51
254.1439814
0
ARC
8
DEFAULT_255_1_234
10
13.8051546
20
87.2930234
40
0.788226
50
241.633709
51
249.0064503
0
ARC
8
DEFAULT_255_1_234
10
13.652294
20
87.0129317
40
0.4691427
50
230.498225
51
241.8087113
0
ARC
8
DEFAULT_255_1_234
10
13.5738515
20
86.9129906
40
0.3421437
50
227.4064532
51
229.9881192
0
ARC
8
DEFAULT_255_1_234
10
13.5251035
20
86.8654088
40
0.2741476
50
200.6781896
51
228.1763934
0
ARC
8
DEFAULT_255_1_234
10
13.5323346
20
86.8639077
40
0.2804109
50
179.5061581
51
199.8694617
0
ARC
8
DEFAULT_255_1_234
10
13.5314098
20
86.871321
40
0.2795204
50
132.4834203
51
181.0242172
0
ARC
8
DEFAULT_255_1_234
10
13.590968
20
86.8150704
40
0.3612768
50
129.2532479
51
133.4242687
0
ARC
8
DEFAULT_255_1_234
10
13.605613
20
86.7930965
40
0.3875675
50
101.98776
51
128.8742646
0
ARC
8
DEFAULT_255_1_234
10
13.645474
20
86.6209741
40
0.5642249
50
89.5906553
51
102.3169264
0
ARC
8
DEFAULT_255_1_234
10
13.6525232
20
86.6528148
40
0.5323783
50
77.2360837
51
90.3248275
0
ARC
8
DEFAULT_255_1_234
10
13.6732311
20
86.74954
40
0.4334697
50
63.837784
51
77.0809408
0
ARC
8
DEFAULT_255_1_234
10
13.7010073
20
86.8012911
40
0.3747796
50
45.9864267
51
64.1607727
0
ARC
8
DEFAULT_255_1_234
10
13.7270954
20
86.8310866
40
0.3352302
50
32.2747395
51
45.6547121
0
ARC
8
DEFAULT_255_1_234
10
13.7337395
20
86.832988
40
0.328603
50
359.6507365
51
32.6130309
0
ARC
8
DEFAULT_255_1_234
10
13.639449
20
86.833466
40
0.2678863
50
359.469343
51
14.9832209
0
ARC
8
DEFAULT_255_1_234
10
13.7099553
20
86.8523539
40
0.1948938
50
14.9781179
51
48.2004265
0
ARC
8
DEFAULT_255_1_234
10
13.6935197
20
86.8316983
40
0.2212521
50
48.5927837
51
74.1241538
0
ARC
8
DEFAULT_255_1_234
10
13.6601687
20
86.7216248
40
0.3362561
50
73.7888341
51
86.6652678
0
ARC
8
DEFAULT_255_1_234
10
13.6499252
20
86.6008881
40
0.4573953
50
86.2640471
51
90.0526343
0
ARC
8
DEFAULT_255_1_234
10
13.6470965
20
86.6404192
40
0.4178709
50
89.6697524
51
99.2309573
0
ARC
8
DEFAULT_255_1_234
10
13.6228416
20
86.7848964
40
0.2713749
50
99.069534
51
113.7658566
0
ARC
8
DEFAULT_255_1_234
10
13.5954607
20
86.8494677
40
0.2012469
50
114.0401004
51
127.9850673
0
ARC
8
DEFAULT_255_1_234
10
13.5714171
20
86.879073
40
0.1631167
50
127.7287463
51
176.7105154
0
ARC
8
DEFAULT_255_1_234
10
13.6392888
20
86.8689693
40
0.2315392
50
175.1779447
51
180.0581938
0
ARC
8
DEFAULT_255_1_234
10
13.5549735
20
86.8677428
40
0.1472271
50
179.6142195
51
228.1246017
0
ARC
8
DEFAULT_255_1_234
10
13.5991404
20
86.9086308
40
0.2072299
50
226.5779593
51
230.8800004
0
ARC
8
DEFAULT_255_1_234
10
13.6462482
20
86.9711636
40
0.2854818
50
231.4635071
51
241.9260842
0
ARC
8
DEFAULT_255_1_234
10
13.765966
20
87.19148
40
0.53622
50
241.7178533
51
248.3259551
0
ARC
8
DEFAULT_255_1_234
10
13.9045032
20
87.5347064
40
0.9063478
50
248.2007737
51
252.4528373
0
ARC
8
DEFAULT_255_1_234
10
14.0248757
20
87.9068441
40
1.2974635
50
252.3391078
51
254.3469452
0
ARC
8
DEFAULT_255_1_234
10
13.270646
20
85.2091148
40
1.5037162
50
71.0197183
51
74.4087047
0
ARC
8
DEFAULT_255_1_234
10
13.4401145
20
85.6983111
40
0.9859993
50
66.1847285
51
71.086374
0
ARC
8
DEFAULT_255_1_234
10
13.5957457
20
86.04872
40
0.6025855
50
59.3536294
51
66.2691831
0
ARC
8
DEFAULT_255_1_234
10
13.684611
20
86.1990609
40
0.4279449
50
49.1020879
51
59.3293958
0
ARC
8
DEFAULT_255_1_234
10
13.7664849
20
86.2923834
40
0.3038015
50
32.7919921
51
49.2505539
0
ARC
8
DEFAULT_255_1_234
10
13.7985939
20
86.3152191
40
0.264448
50
31.1181161
51
32.4005348
0
ARC
8
DEFAULT_255_1_234
10
13.7897477
20
86.3116779
40
0.2738556
50
8.1116974
51
30.7958831
0
ARC
8
DEFAULT_255_1_234
10
13.7087145
20
86.2978753
40
0.3560327
50
359.8389159
51
8.4706516
0
ARC
8
DEFAULT_255_1_234
10
13.7712937
20
86.2930137
40
0.2934776
50
337.4731098
51
0.7537279
0
ARC
8
DEFAULT_255_1_234
10
13.7891632
20
86.2910387
40
0.2762607
50
307.5917067
51
336.4315538
0
ARC
8
DEFAULT_255_1_234
10
13.7431459
20
86.3423102
40
0.3449979
50
307.6551545
51
308.4529766
0
ARC
8
DEFAULT_255_1_234
10
13.7201178
20
86.377825
40
0.3871988
50
284.3734338
51
307.1424381
0
ARC
8
DEFAULT_255_1_234
10
13.6706009
20
86.5599932
40
0.5759636
50
272.4382747
51
284.646547
0
ARC
8
DEFAULT_255_1_234
10
13.6579217
20
86.7399893
40
0.7563528
50
269.9708387
51
272.8178037
0
ARC
8
DEFAULT_255_1_234
10
13.6536257
20
86.5361716
40
0.5525489
50
248.2707594
51
270.4055579
0
ARC
8
DEFAULT_255_1_234
10
13.6481998
20
86.5171192
40
0.5328452
50
246.1383403
51
248.0542782
0
ARC
8
DEFAULT_255_1_234
10
13.6063377
20
86.4291843
40
0.4355005
50
233.1670131
51
246.4950969
0
ARC
8
DEFAULT_255_1_234
10
13.5509282
20
86.3543812
40
0.3424126
50
215.3403242
51
233.0843104
0
ARC
8
DEFAULT_255_1_234
10
13.5236713
20
86.3345549
40
0.3087104
50
179.2419209
51
215.2648451
0
ARC
8
DEFAULT_255_1_234
10
13.6004307
20
86.3359666
40
0.2304457
50
179.335461
51
199.1045811
0
ARC
8
DEFAULT_255_1_234
10
13.5671984
20
86.3272766
40
0.1962176
50
199.8828939
51
232.7063202
0
ARC
8
DEFAULT_255_1_234
10
13.6144252
20
86.3866788
40
0.2720938
50
232.3738199
51
255.5136649
0
ARC
8
DEFAULT_255_1_234
10
13.6485119
20
86.5110835
40
0.4010747
50
255.2446292
51
267.5320849
0
ARC
8
DEFAULT_255_1_234
10
13.6572742
20
86.6343702
40
0.5246356
50
267.1557994
51
270.0286766
0
ARC
8
DEFAULT_255_1_234
10
13.6600514
20
86.589995
40
0.4802668
50
269.7000017
51
278.1660162
0
ARC
8
DEFAULT_255_1_234
10
13.6856519
20
86.4169515
40
0.3053425
50
278.0231263
51
290.625471
0
ARC
8
DEFAULT_255_1_234
10
13.7204206
20
86.3242025
40
0.206291
50
290.6619762
51
307.0370976
0
ARC
8
DEFAULT_255_1_234
10
13.7504595
20
86.2873504
40
0.1587906
50
306.3943566
51
355.3030547
0
ARC
8
DEFAULT_255_1_234
10
13.6992527
20
86.2950113
40
0.2104809
50
354.3660432
51
0.0698737
0
ARC
8
DEFAULT_255_1_234
10
13.7134872
20
86.2972617
40
0.1962563
50
359.417946
51
16.1971788
0
ARC
8
DEFAULT_255_1_234
10
13.7590182
20
86.3097418
40
0.149053
50
16.4723299
51
52.6262157
0
ARC
8
DEFAULT_255_1_234
10
13.6769236
20
86.2013433
40
0.2850296
50
52.7386432
51
62.4979148
0
ARC
8
DEFAULT_255_1_234
10
13.5384313
20
85.9407283
40
0.5801521
50
62.2515216
51
68.1220564
0
ARC
8
DEFAULT_255_1_234
10
13.3664224
20
85.5179872
40
1.0365451
50
68.0062803
51
71.8053402
0
ARC
8
DEFAULT_255_1_234
10
13.1868596
20
84.9794758
40
1.6042013
50
71.7183119
51
73.9258742
0
LINE
8
DEFAULT_255_1_234
10
14.2012854
20
86.4101218
11
14.2012854
21
86.4374297
0
LINE
8
DEFAULT_255_1_234
10
14.938599
20
86.4534932
11
14.938599
21
86.3916488
0
LINE
8
DEFAULT_255_1_234
10
14.938599
20
86.3916488
11
14.3498726
21
86.3916488
0
LINE
8
DEFAULT_255_1_234
10
14.8365959
20
86.2221792
11
14.9273546
21
86.1514999
0
LINE
8
DEFAULT_255_1_234
10
14.3546917
20
86.5137313
11
14.7900119
21
86.5137313
0
LINE
8
DEFAULT_255_1_234
10
14.7900119
20
86.5137313
11
14.7900119
21
86.5249757
0
ARC
8
DEFAULT_255_1_234
10
14.595222
20
86.4212332
40
0.4376191
50
252.3266134
51
270.5810217
0
ARC
8
DEFAULT_255_1_234
10
14.5747309
20
86.3471644
40
0.3608374
50
223.3000567
51
251.8561855
0
ARC
8
DEFAULT_255_1_234
10
14.5958669
20
86.3676937
40
0.3902993
50
190.9374509
51
223.3654032
0
ARC
8
DEFAULT_255_1_234
10
14.7683642
20
86.4066885
40
0.5670891
50
179.6531105
51
191.4989439
0
ARC
8
DEFAULT_255_1_234
10
14.7805654
20
86.4406417
40
0.5792888
50
167.4007466
51
180.3176909
0
ARC
8
DEFAULT_255_1_234
10
14.6753715
20
86.4628885
40
0.471777
50
154.1835823
51
167.250763
0
ARC
8
DEFAULT_255_1_234
10
14.6122183
20
86.4961417
40
0.4004528
50
134.3149965
51
154.5315275
0
ARC
8
DEFAULT_255_1_234
10
14.5904678
20
86.5152228
40
0.371612
50
122.8616532
51
133.9707695
0
ARC
8
DEFAULT_255_1_234
10
14.5801252
20
86.5374703
40
0.3473289
50
89.8249009
51
123.4199222
0
ARC
8
DEFAULT_255_1_234
10
14.5851293
20
86.4727967
40
0.4120197
50
74.7876118
51
90.5482747
0
ARC
8
DEFAULT_255_1_234
10
14.6145036
20
86.581303
40
0.2996077
50
39.8178249
51
74.7633718
0
ARC
8
DEFAULT_255_1_234
10
14.5632357
20
86.5413351
40
0.3645855
50
16.8990863
51
39.4829761
0
ARC
8
DEFAULT_255_1_234
10
14.3737653
20
86.4806526
40
0.5635218
50
4.9636328
51
17.2026414
0
ARC
8
DEFAULT_255_1_234
10
14.1319723
20
86.455134
40
0.8066286
50
359.8834553
51
5.2834307
0
ARC
8
DEFAULT_255_1_234
10
14.7357248
20
86.3982803
40
0.3859091
50
180.9846213
51
194.9401313
0
ARC
8
DEFAULT_255_1_234
10
14.6307525
20
86.3695849
40
0.2770883
50
194.80314
51
222.0412631
0
ARC
8
DEFAULT_255_1_234
10
14.6003407
20
86.3394116
40
0.2343055
50
221.5417084
51
268.8614402
0
ARC
8
DEFAULT_255_1_234
10
14.6076402
20
86.4070686
40
0.3021528
50
267.732405
51
270.0097136
0
ARC
8
DEFAULT_255_1_234
10
14.6094212
20
86.4272105
40
0.3222994
50
269.6924892
51
280.4117579
0
ARC
8
DEFAULT_255_1_234
10
14.6270619
20
86.3353193
40
0.2287344
50
280.2255091
51
298.6338936
0
ARC
8
DEFAULT_255_1_234
10
14.6387411
20
86.3109223
40
0.2017294
50
299.0430333
51
300.4643464
0
ARC
8
DEFAULT_255_1_234
10
14.5707416
20
86.4243038
40
0.3339357
50
300.6577328
51
322.0378878
0
ARC
8
DEFAULT_255_1_234
10
14.5356955
20
86.4547021
40
0.3802736
50
321.6750233
51
322.3046845
0
ARC
8
DEFAULT_255_1_234
10
14.6287917
20
86.338037
40
0.3520454
50
276.9728461
51
328.0035423
0
ARC
8
DEFAULT_255_1_234
10
14.6010969
20
86.4860841
40
0.5024498
50
269.8361028
51
278.0581756
0
ARC
8
DEFAULT_255_1_234
10
14.5783707
20
86.5605757
40
0.202159
50
89.2018686
51
117.2851756
0
ARC
8
DEFAULT_255_1_234
10
14.5836876
20
86.5563752
40
0.2083484
50
118.0551165
51
137.4540413
0
ARC
8
DEFAULT_255_1_234
10
14.6211616
20
86.5223304
40
0.2589774
50
137.5109581
51
158.8516286
0
ARC
8
DEFAULT_255_1_234
10
14.7349451
20
86.4764074
40
0.38167
50
158.5845963
51
170.1721436
0
ARC
8
DEFAULT_255_1_234
10
14.8518841
20
86.4531823
40
0.5008657
50
169.8376422
51
173.0566086
0
ARC
8
DEFAULT_255_1_234
10
14.3821914
20
86.5042509
40
0.4083467
50
2.9091802
51
12.8847116
0
ARC
8
DEFAULT_255_1_234
10
14.5192591
20
86.5365101
40
0.2675383
50
12.6957781
51
28.6404489
0
ARC
8
DEFAULT_255_1_234
10
14.5734262
20
86.5645458
40
0.2065654
50
29.0169854
51
41.1487595
0
ARC
8
DEFAULT_255_1_234
10
14.5937047
20
86.5822003
40
0.1796786
50
41.1646065
51
85.0013516
0
ARC
8
DEFAULT_255_1_234
10
14.5816144
20
86.5087431
40
0.2539726
50
83.7280015
51
90.0964893
0
LINE
8
DEFAULT_255_1_234
10
15.5305381
20
86.8735531
11
15.5305381
21
86.7354072
0
LINE
8
DEFAULT_255_1_234
10
15.2590654
20
86.6165375
11
15.2590654
21
85.9997
0
LINE
8
DEFAULT_255_1_234
10
15.2590654
20
85.9997
11
15.1104782
21
85.9997
0
LINE
8
DEFAULT_255_1_234
10
15.1104782
20
85.9997
11
15.1104782
21
86.8687341
0
LINE
8
DEFAULT_255_1_234
10
15.1104782
20
86.8687341
11
15.2550495
21
86.8687341
0
LINE
8
DEFAULT_255_1_234
10
15.2550495
20
86.8687341
11
15.257459
21
86.7683374
0
ARC
8
DEFAULT_255_1_234
10
15.4638787
20
86.3294342
40
0.4114092
50
80.6754243
51
86.8932892
0
ARC
8
DEFAULT_255_1_234
10
15.4578321
20
86.23267
40
0.5083596
50
86.8038578
51
90.0431435
0
ARC
8
DEFAULT_255_1_234
10
15.4541302
20
86.4783866
40
0.2626638
50
89.2759698
51
106.6213787
0
ARC
8
DEFAULT_255_1_234
10
15.4336866
20
86.552683
40
0.1856317
50
107.1346045
51
157.6458115
0
ARC
8
DEFAULT_255_1_234
10
15.5028467
20
86.5143311
40
0.2643398
50
155.6586782
51
157.2539184
0
ARC
8
DEFAULT_255_1_234
10
15.482367
20
86.6312157
40
0.2634121
50
127.8165941
51
148.6302098
0
ARC
8
DEFAULT_255_1_234
10
15.4570139
20
86.6572218
40
0.2273596
50
91.3329982
51
126.7875809
0
ARC
8
DEFAULT_255_1_234
10
15.4646079
20
86.5857195
40
0.299078
50
89.986594
51
92.4688449
0
ARC
8
DEFAULT_255_1_234
10
15.4654474
20
86.6132078
40
0.2715908
50
85.3589899
51
90.1623399
0
ARC
8
DEFAULT_255_1_234
10
15.473899
20
86.7136164
40
0.1708278
50
78.401942
51
85.4594656
0
ARC
8
DEFAULT_255_1_234
10
15.4883874
20
86.7827236
40
0.1002194
50
67.7858312
51
78.5728455
0
ARC
8
DEFAULT_255_1_234
10
15.4991726
20
86.8106887
40
0.0702548
50
63.4835954
51
67.3062642
0
LINE
8
DEFAULT_255_1_234
10
15.8285156
20
86.8687341
11
15.8285156
21
85.9997
0
LINE
8
DEFAULT_255_1_234
10
15.8285156
20
85.9997
11
15.6799285
21
85.9997
0
LINE
8
DEFAULT_255_1_234
10
15.6799285
20
85.9997
11
15.6799285
21
86.8687341
0
LINE
8
DEFAULT_255_1_234
10
15.6799285
20
86.8687341
11
15.8285156
21
86.8687341
0
ARC
8
DEFAULT_255_1_234
10
15.7657433
20
87.1001889
40
0.097867
50
161.415052
51
180.5526306
0
ARC
8
DEFAULT_255_1_234
10
15.7533212
20
87.1036077
40
0.0850062
50
138.1827368
51
160.9307106
0
ARC
8
DEFAULT_255_1_234
10
15.7423157
20
87.1131588
40
0.0704362
50
104.6368899
51
138.0039868
0
ARC
8
DEFAULT_255_1_234
10
15.7530312
20
87.0764963
40
0.1086221
50
92.0600725
51
105.2189128
0
ARC
8
DEFAULT_255_1_234
10
15.755366
20
87.0422117
40
0.1429728
50
89.9756393
51
92.5012496
0
ARC
8
DEFAULT_255_1_234
10
15.7563679
20
87.0647731
40
0.1204151
50
78.0235316
51
90.4478182
0
ARC
8
DEFAULT_255_1_234
10
15.7655771
20
87.1061295
40
0.0780493
50
55.051506
51
78.3369085
0
ARC
8
DEFAULT_255_1_234
10
15.7706046
20
87.1145711
40
0.0682538
50
42.0501187
51
54.4513741
0
ARC
8
DEFAULT_255_1_234
10
15.7570913
20
87.1021798
40
0.0865878
50
1.7497075
51
42.1496013
0
ARC
8
DEFAULT_255_1_234
10
15.7316246
20
87.0992738
40
0.1121515
50
359.9852656
51
2.8364544
0
ARC
8
DEFAULT_255_1_234
10
15.7482238
20
87.0983229
40
0.0955566
50
342.1070653
51
0.552888
0
ARC
8
DEFAULT_255_1_234
10
15.7624935
20
87.0943904
40
0.0807713
50
316.7107116
51
341.6516965
0
ARC
8
DEFAULT_255_1_234
10
15.7691972
20
87.0883823
40
0.0717724
50
285.4397031
51
316.5324284
0
ARC
8
DEFAULT_255_1_234
10
15.758189
20
87.1249554
40
0.1099597
50
272.3547054
51
285.8953117
0
ARC
8
DEFAULT_255_1_234
10
15.7555047
20
87.1615048
40
0.1465932
50
269.9695369
51
272.8160237
0
ARC
8
DEFAULT_255_1_234
10
15.7545229
20
87.1395863
40
0.1246779
50
258.8431134
51
270.4153935
0
ARC
8
DEFAULT_255_1_234
10
15.7455271
20
87.0960414
40
0.0802162
50
238.5431189
51
259.1288175
0
ARC
8
DEFAULT_255_1_234
10
15.7387156
20
87.0836856
40
0.0661247
50
222.5062634
51
237.9906969
0
ARC
8
DEFAULT_255_1_234
10
15.7514744
20
87.0952889
40
0.0833707
50
184.1069131
51
222.460413
0
ARC
8
DEFAULT_255_1_234
10
15.7783984
20
87.0991349
40
0.1105176
50
179.9429482
51
185.0960898
0
LINE
8
DEFAULT_255_1_234
10
16.0285059
20
86.4101218
11
16.0285059
21
86.4374297
0
LINE
8
DEFAULT_255_1_234
10
16.7658195
20
86.4534932
11
16.7658195
21
86.3916488
0
LINE
8
DEFAULT_255_1_234
10
16.7658195
20
86.3916488
11
16.1770931
21
86.3916488
0
LINE
8
DEFAULT_255_1_234
10
16.6638164
20
86.2221792
11
16.754575
21
86.1514999
0
LINE
8
DEFAULT_255_1_234
10
16.1819121
20
86.5137313
11
16.6172323
21
86.5137313
0
LINE
8
DEFAULT_255_1_234
10
16.6172323
20
86.5137313
11
16.6172323
21
86.5249757
0
ARC
8
DEFAULT_255_1_234
10
16.4224424
20
86.4212332
40
0.4376191
50
252.3266134
51
270.5810217
0
ARC
8
DEFAULT_255_1_234
10
16.4019513
20
86.3471644
40
0.3608374
50
223.3000567
51
251.8561855
0
ARC
8
DEFAULT_255_1_234
10
16.4230874
20
86.3676937
40
0.3902993
50
190.9374509
51
223.3654032
0
ARC
8
DEFAULT_255_1_234
10
16.5955846
20
86.4066885
40
0.5670891
50
179.6531105
51
191.4989439
0
ARC
8
DEFAULT_255_1_234
10
16.6077858
20
86.4406417
40
0.5792888
50
167.4007466
51
180.3176909
0
ARC
8
DEFAULT_255_1_234
10
16.502592
20
86.4628885
40
0.471777
50
154.1835823
51
167.250763
0
ARC
8
DEFAULT_255_1_234
10
16.4394387
20
86.4961417
40
0.4004528
50
134.3149965
51
154.5315275
0
ARC
8
DEFAULT_255_1_234
10
16.4176882
20
86.5152228
40
0.371612
50
122.8616532
51
133.9707695
0
ARC
8
DEFAULT_255_1_234
10
16.4073457
20
86.5374703
40
0.3473289
50
89.8249009
51
123.4199222
0
ARC
8
DEFAULT_255_1_234
10
16.4123498
20
86.4727967
40
0.4120197
50
74.7876118
51
90.5482747
0
ARC
8
DEFAULT_255_1_234
10
16.4417241
20
86.581303
40
0.2996077
50
39.8178249
51
74.7633718
0
ARC
8
DEFAULT_255_1_234
10
16.3904561
20
86.5413351
40
0.3645855
50
16.8990863
51
39.4829761
0
ARC
8
DEFAULT_255_1_234
10
16.2009858
20
86.4806526
40
0.5635218
50
4.9636328
51
17.2026414
0
ARC
8
DEFAULT_255_1_234
10
15.9591928
20
86.455134
40
0.8066286
50
359.8834553
51
5.2834307
0
ARC
8
DEFAULT_255_1_234
10
16.5629452
20
86.3982803
40
0.3859091
50
180.9846213
51
194.9401313
0
ARC
8
DEFAULT_255_1_234
10
16.457973
20
86.3695849
40
0.2770883
50
194.80314
51
222.0412631
0
ARC
8
DEFAULT_255_1_234
10
16.4275612
20
86.3394116
40
0.2343055
50
221.5417084
51
268.8614402
0
ARC
8
DEFAULT_255_1_234
10
16.4348606
20
86.4070686
40
0.3021528
50
267.732405
51
270.0097136
0
ARC
8
DEFAULT_255_1_234
10
16.4366417
20
86.4272105
40
0.3222994
50
269.6924892
51
280.4117579
0
ARC
8
DEFAULT_255_1_234
10
16.4542823
20
86.3353193
40
0.2287344
50
280.2255091
51
298.6338936
0
ARC
8
DEFAULT_255_1_234
10
16.4659615
20
86.3109223
40
0.2017294
50
299.0430333
51
300.4643464
0
ARC
8
DEFAULT_255_1_234
10
16.3979621
20
86.4243038
40
0.3339357
50
300.6577328
51
322.0378878
0
ARC
8
DEFAULT_255_1_234
10
16.362916
20
86.4547021
40
0.3802736
50
321.6750233
51
322.3046845
0
ARC
8
DEFAULT_255_1_234
10
16.4560121
20
86.338037
40
0.3520454
50
276.9728461
51
328.0035423
0
ARC
8
DEFAULT_255_1_234
10
16.4283174
20
86.4860841
40
0.5024498
50
269.8361028
51
278.0581756
0
ARC
8
DEFAULT_255_1_234
10
16.4055911
20
86.5605757
40
0.202159
50
89.2018686
51
117.2851756
0
ARC
8
DEFAULT_255_1_234
10
16.410908
20
86.5563752
40
0.2083484
50
118.0551165
51
137.4540413
0
ARC
8
DEFAULT_255_1_234
10
16.448382
20
86.5223304
40
0.2589774
50
137.5109581
51
158.8516286
0
ARC
8
DEFAULT_255_1_234
10
16.5621656
20
86.4764074
40
0.38167
50
158.5845963
51
170.1721436
0
ARC
8
DEFAULT_255_1_234
10
16.6791045
20
86.4531823
40
0.5008657
50
169.8376422
51
173.0566086
0
ARC
8
DEFAULT_255_1_234
10
16.2094119
20
86.5042509
40
0.4083467
50
2.9091802
51
12.8847116
0
ARC
8
DEFAULT_255_1_234
10
16.3464796
20
86.5365101
40
0.2675383
50
12.6957781
51
28.6404489
0
ARC
8
DEFAULT_255_1_234
10
16.4006466
20
86.5645458
40
0.2065654
50
29.0169854
51
41.1487595
0
ARC
8
DEFAULT_255_1_234
10
16.4209252
20
86.5822003
40
0.1796786
50
41.1646065
51
85.0013516
0
ARC
8
DEFAULT_255_1_234
10
16.4088348
20
86.5087431
40
0.2539726
50
83.7280015
51
90.0964893
0
LINE
8
DEFAULT_255_1_234
10
17.5842536
20
86.6133248
11
17.4348633
21
86.6133248
0
LINE
8
DEFAULT_255_1_234
10
16.9015559
20
86.2671569
11
17.050143
21
86.2671569
0
ARC
8
DEFAULT_255_1_234
10
17.3160451
20
86.2316959
40
0.1276617
50
359.3334982
51
18.5871358
0
ARC
8
DEFAULT_255_1_234
10
17.3369089
20
86.2372133
40
0.1061371
50
19.3540742
51
54.6485071
0
ARC
8
DEFAULT_255_1_234
10
17.2864991
20
86.1676919
40
0.1920087
50
54.3827097
51
65.0622807
0
ARC
8
DEFAULT_255_1_234
10
17.2096387
20
86.00599
40
0.3710447
50
64.8282493
51
71.4200025
0
ARC
8
DEFAULT_255_1_234
10
17.1194262
20
85.7413107
40
0.6506741
50
71.3164301
51
75.8006402
0
ARC
8
DEFAULT_255_1_234
10
17.0353082
20
85.4172561
40
0.9854641
50
75.6809531
51
78.0061883
0
ARC
8
DEFAULT_255_1_234
10
17.4801616
20
87.515177
40
1.1591028
50
254.6901892
51
258.0466452
0
ARC
8
DEFAULT_255_1_234
10
17.3763524
20
87.1392781
40
0.7691345
50
249.9010773
51
254.755261
0
ARC
8
DEFAULT_255_1_234
10
17.2759866
20
86.8666982
40
0.478665
50
243.3097214
51
249.9709442
0
ARC
8
DEFAULT_255_1_234
10
17.2130887
20
86.7412778
40
0.3383568
50
234.4047477
51
243.2862168
0
ARC
8
DEFAULT_255_1_234
10
17.1508411
20
86.6553232
40
0.2322322
50
220.8667099
51
234.5493881
0
ARC
8
DEFAULT_255_1_234
10
17.1166351
20
86.6241817
40
0.1859923
50
214.3062465
51
220.5065136
0
ARC
8
DEFAULT_255_1_234
10
17.1140431
20
86.621088
40
0.1821108
50
186.912965
51
213.9618616
0
ARC
8
DEFAULT_255_1_234
10
17.1672526
20
86.6297009
40
0.2359799
50
179.8808832
51
187.4339886
0
ARC
8
DEFAULT_255_1_234
10
17.1517659
20
86.6317088
40
0.2204978
50
132.005434
51
180.3942919
0
ARC
8
DEFAULT_255_1_234
10
17.2174272
20
86.5711083
40
0.3095791
50
129.2319861
51
133.5302299
0
ARC
8
DEFAULT_255_1_234
10
17.2227781
20
86.5616928
40
0.3202615
50
100.4410011
51
128.9081242
0
ARC
8
DEFAULT_255_1_234
10
17.2501664
20
86.4331455
40
0.4516583
50
89.6985377
51
100.9026564
0
ARC
8
DEFAULT_255_1_234
10
17.2558706
20
86.4171166
40
0.4676928
50
77.6965325
51
90.4076836
0
ARC
8
DEFAULT_255_1_234
10
17.2889691
20
86.5598413
40
0.3211988
50
50.7276602
51
78.0399361
0
ARC
8
DEFAULT_255_1_234
10
17.3334149
20
86.6116296
40
0.2529778
50
25.7545084
51
51.0957453
0
ARC
8
DEFAULT_255_1_234
10
17.3335374
20
86.6166206
40
0.250738
50
359.2468627
51
24.7394243
0
ARC
8
DEFAULT_255_1_234
10
17.3050826
20
86.6137664
40
0.1297815
50
359.8050318
51
45.1544908
0
ARC
8
DEFAULT_255_1_234
10
17.2643967
20
86.5789794
40
0.1831883
50
43.8047702
51
49.6271585
0
ARC
8
DEFAULT_255_1_234
10
17.2651869
20
86.5790678
40
0.18261
50
49.7980766
51
82.1218353
0
ARC
8
DEFAULT_255_1_234
10
17.2532841
20
86.5143998
40
0.2483163
50
81.4465357
51
90.1710293
0
ARC
8
DEFAULT_255_1_234
10
17.2508444
20
86.461788
40
0.300932
50
89.6766211
51
99.1264602
0
ARC
8
DEFAULT_255_1_234
10
17.2336905
20
86.5651537
40
0.1961547
50
98.968313
51
113.4570237
0
ARC
8
DEFAULT_255_1_234
10
17.214099
20
86.6119965
40
0.1453859
50
113.722589
51
127.4763106
0
ARC
8
DEFAULT_255_1_234
10
17.1972637
20
86.6320124
40
0.1192639
50
126.9083309
51
150.3165862
0
ARC
8
DEFAULT_255_1_234
10
17.1924969
20
86.6370981
40
0.112623
50
151.3635175
51
180.0701457
0
ARC
8
DEFAULT_255_1_234
10
17.2233754
20
86.634999
40
0.1435149
50
179.2169974
51
179.9954013
0
ARC
8
DEFAULT_255_1_234
10
17.1872811
20
86.6337056
40
0.1074286
50
179.3040112
51
198.4225446
0
ARC
8
DEFAULT_255_1_234
10
17.1680945
20
86.6287127
40
0.0876573
50
199.2895851
51
238.6034594
0
ARC
8
DEFAULT_255_1_234
10
17.2283791
20
86.723345
40
0.1998512
50
237.9846301
51
246.8744712
0
ARC
8
DEFAULT_255_1_234
10
17.3141736
20
86.9196205
40
0.4140547
50
246.6234531
51
251.8168941
0
ARC
8
DEFAULT_255_1_234
10
17.417228
20
87.2290905
40
0.7402308
50
251.713434
51
255.0778414
0
ARC
8
DEFAULT_255_1_234
10
17.5371542
20
87.6757563
40
1.2027155
50
255.0367487
51
257.4705983
0
ARC
8
DEFAULT_255_1_234
10
17.0263552
20
85.3743863
40
1.1546601
50
73.6837552
51
77.5016755
0
ARC
8
DEFAULT_255_1_234
10
17.1352327
20
85.7443581
40
0.7690009
50
68.7044154
51
73.7249639
0
ARC
8
DEFAULT_255_1_234
10
17.2255348
20
85.9770654
40
0.5193873
50
63.590599
51
68.6626804
0
ARC
8
DEFAULT_255_1_234
10
17.3026367
20
86.1308123
40
0.3473927
50
54.7106439
51
63.7013633
0
ARC
8
DEFAULT_255_1_234
10
17.3650821
20
86.21804
40
0.2401192
50
41.0622434
51
54.8487496
0
ARC
8
DEFAULT_255_1_234
10
17.3992208
20
86.2493592
40
0.1938094
50
34.4950568
51
40.7105546
0
ARC
8
DEFAULT_255_1_234
10
17.4039015
20
86.2542078
40
0.1872106
50
9.3763373
51
34.0833615
0
ARC
8
DEFAULT_255_1_234
10
17.3385886
20
86.2416728
40
0.2536988
50
359.7694872
51
9.7663171
0
ARC
8
DEFAULT_255_1_234
10
17.3583386
20
86.2373764
40
0.2339696
50
335.8654732
51
0.8022045
0
ARC
8
DEFAULT_255_1_234
10
17.3658431
20
86.2387197
40
0.2277108
50
307.7357725
51
334.7849066
0
ARC
8
DEFAULT_255_1_234
10
17.3257607
20
86.2837645
40
0.2878951
50
307.0241536
51
308.5578354
0
ARC
8
DEFAULT_255_1_234
10
17.2999938
20
86.3223801
40
0.3342515
50
282.9362969
51
306.5646424
0
ARC
8
DEFAULT_255_1_234
10
17.2638235
20
86.4691108
40
0.4853615
50
271.1026298
51
283.2200835
0
ARC
8
DEFAULT_255_1_234
10
17.2574479
20
86.5932418
40
0.6096052
50
269.9919117
51
271.4772449
0
ARC
8
DEFAULT_255_1_234
10
17.2548234
20
86.4854436
40
0.5018135
50
259.0723564
51
270.289833
0
ARC
8
DEFAULT_255_1_234
10
17.2335966
20
86.3737271
40
0.388099
50
245.4963068
51
259.0227342
0
ARC
8
DEFAULT_255_1_234
10
17.2057923
20
86.3155615
40
0.3236422
50
228.9684658
51
245.7044727
0
ARC
8
DEFAULT_255_1_234
10
17.1792367
20
86.2828575
40
0.2815426
50
214.4011705
51
228.6759915
0
ARC
8
DEFAULT_255_1_234
10
17.1503107
20
86.267029
40
0.2487548
50
179.9705531
51
215.1572795
0
ARC
8
DEFAULT_255_1_234
10
17.2203707
20
86.2743806
40
0.1703809
50
182.4299387
51
203.0329699
0
ARC
8
DEFAULT_255_1_234
10
17.2019365
20
86.2687396
40
0.1512226
50
203.798802
51
232.548466
0
ARC
8
DEFAULT_255_1_234
10
17.2295886
20
86.3038826
40
0.1959374
50
232.3782728
51
256.3934612
0
ARC
8
DEFAULT_255_1_234
10
17.2526248
20
86.3928842
40
0.2878639
50
256.104506
51
268.4626716
0
ARC
8
DEFAULT_255_1_234
10
17.2572732
20
86.4725487
40
0.3676329
50
268.0715632
51
270.0138206
0
ARC
8
DEFAULT_255_1_234
10
17.2591257
20
86.4453083
40
0.3403971
50
269.7031147
51
278.8341955
0
ARC
8
DEFAULT_255_1_234
10
17.277335
20
86.3322876
40
0.2259217
50
278.6728789
51
292.8232582
0
ARC
8
DEFAULT_255_1_234
10
17.2973888
20
86.2821449
40
0.171929
50
293.1452328
51
303.6655899
0
ARC
8
DEFAULT_255_1_234
10
17.3238767
20
86.2445204
40
0.1259367
50
303.1248165
51
321.742847
0
ARC
8
DEFAULT_255_1_234
10
17.3424647
20
86.2282156
40
0.1012531
50
322.4748573
51
1.1291126
0
LINE
8
DEFAULT_255_2_778
10
9.3932335
20
77.919808
11
10.7161335
21
77.919808
0
LINE
8
DEFAULT_255_2_778
10
10.7161335
20
77.919808
11
10.7161335
21
52.784408
0
LINE
8
DEFAULT_255_2_778
10
19.9765335
20
77.919808
11
18.6536335
21
77.919808
0
LINE
8
DEFAULT_255_2_778
10
18.6536335
20
77.919808
11
18.6536335
21
52.784408
0
LINE
8
DEFAULT_255_2_778
10
17.3307834
20
52.7843333
11
19.9765834
21
52.7843333
0
LINE
8
DEFAULT_255_2_778
10
19.9765834
20
52.7843333
11
19.9765834
21
47.4926333
0
LINE
8
DEFAULT_255_2_778
10
19.9765834
20
47.4926333
11
17.3307834
21
47.4926333
0
LINE
8
DEFAULT_255_2_778
10
17.3307834
20
47.4926333
11
17.3307834
21
52.7843333
0
LINE
8
DEFAULT_255_2_778
10
18.1245
20
48.0218666
11
18.1245
21
52.2551666
0
LINE
8
DEFAULT_255_2_778
10
17.8599167
20
51.461475
11
18.1245167
21
52.255175
0
LINE
8
DEFAULT_255_2_778
10
18.1245167
20
52.255175
11
18.3891167
21
51.461475
0
LINE
8
DEFAULT_255_2_778
10
18.3891167
20
51.461475
11
17.8599167
21
51.461475
0
LINE
8
DEFAULT_255_2_778
10
19.1828
20
52.2551666
11
19.1828
21
48.0218666
0
LINE
8
DEFAULT_255_2_778
10
18.9182167
20
48.815675
11
19.1828167
21
48.021975
0
LINE
8
DEFAULT_255_2_778
10
19.1828167
20
48.021975
11
19.4474167
21
48.815675
0
LINE
8
DEFAULT_255_2_778
10
19.4474167
20
48.815675
11
18.9182167
21
48.815675
0
LINE
8
DEFAULT_255_2_778
10
9.3932834
20
52.7843333
11
12.0390834
21
52.7843333
0
LINE
8
DEFAULT_255_2_778
10
12.0390834
20
52.7843333
11
12.0390834
21
47.4926333
0
LINE
8
DEFAULT_255_2_778
10
12.0390834
20
47.4926333
11
9.3932834
21
47.4926333
0
LINE
8
DEFAULT_255_2_778
10
9.3932834
20
47.4926333
11
9.3932834
21
52.7843333
0
LINE
8
DEFAULT_255_2_778
10
10.187
20
48.0218666
11
10.187
21
52.2551666
0
LINE
8
DEFAULT_255_2_778
10
9.9224167
20
51.461475
11
10.1870167
21
52.255175
0
LINE
8
DEFAULT_255_2_778
10
10.1870167
20
52.255175
11
10.4516167
21
51.461475
0
LINE
8
DEFAULT_255_2_778
10
10.4516167
20
51.461475
11
9.9224167
21
51.461475
0
LINE
8
DEFAULT_255_2_778
10
11.2453
20
52.2551666
11
11.2453
21
48.0218666
0
LINE
8
DEFAULT_255_2_778
10
10.9807167
20
48.815675
11
11.2453167
21
48.021975
0
LINE
8
DEFAULT_255_2_778
10
11.2453167
20
48.021975
11
11.5099167
21
48.815675
0
LINE
8
DEFAULT_255_2_778
10
11.5099167
20
48.815675
11
10.9807167
21
48.815675
0
LINE
8
DEFAULT_255_2_778
10
10.7161335
20
47.492708
11
10.7161335
21
22.357308
0
LINE
8
DEFAULT_255_2_778
10
10.7161335
20
22.357308
11
9.3932335
21
22.357308
0
LINE
8
DEFAULT_255_2_778
10
18.6536335
20
47.492708
11
18.6536335
21
22.357308
0
LINE
8
DEFAULT_255_2_778
10
18.6536335
20
22.357308
11
19.9765335
21
22.357308
0
LINE
8
DEFAULT_255_1_234
10
4.9274119
20
84.1366792
11
4.9274119
21
84.0154
0
LINE
8
DEFAULT_255_1_234
10
4.9274119
20
84.0154
11
4.161184
21
84.0154
0
LINE
8
DEFAULT_255_1_234
10
4.161184
20
84.0154
11
4.161184
21
84.1222221
0
LINE
8
DEFAULT_255_1_234
10
4.161184
20
84.1222221
11
4.5659836
21
84.5719995
0
LINE
8
DEFAULT_255_1_234
10
4.2872823
20
84.8402595
11
4.1386952
21
84.8402595
0
LINE
8
DEFAULT_255_1_234
10
4.6535296
20
84.4764218
11
4.3402918
21
84.1366792
0
LINE
8
DEFAULT_255_1_234
10
4.3402918
20
84.1366792
11
4.9274119
21
84.1366792
0
ARC
8
DEFAULT_255_1_234
10
3.216967
20
85.7649527
40
1.8008286
50
318.5132453
51
320.7828378
0
ARC
8
DEFAULT_255_1_234
10
3.7456644
20
85.3346426
40
1.1191493
50
320.7372736
51
323.9737074
0
ARC
8
DEFAULT_255_1_234
10
4.1376501
20
85.0506361
40
0.6350923
50
323.8961724
51
328.6421089
0
ARC
8
DEFAULT_255_1_234
10
4.3423096
20
84.9244031
40
0.3946393
50
328.8299013
51
331.789948
0
ARC
8
DEFAULT_255_1_234
10
4.4420274
20
84.8729509
40
0.2824501
50
331.4255242
51
352.9364833
0
ARC
8
DEFAULT_255_1_234
10
4.4556775
20
84.8698976
40
0.2685315
50
353.2248685
51
0.0169286
0
ARC
8
DEFAULT_255_1_234
10
4.4766652
20
84.872195
40
0.2475536
50
359.4866256
51
15.9339782
0
ARC
8
DEFAULT_255_1_234
10
4.5273637
20
84.8858286
40
0.1950618
50
16.1714718
51
43.5284424
0
ARC
8
DEFAULT_255_1_234
10
4.5350946
20
84.8935573
40
0.184134
50
43.4415429
51
83.1661404
0
ARC
8
DEFAULT_255_1_234
10
4.5216864
20
84.8198771
40
0.258926
50
82.160215
51
90.1505798
0
ARC
8
DEFAULT_255_1_234
10
4.5185291
20
84.7661865
40
0.3126255
50
89.5460705
51
102.5418777
0
ARC
8
DEFAULT_255_1_234
10
4.4942377
20
84.8692665
40
0.2067346
50
102.1739365
51
129.2061916
0
ARC
8
DEFAULT_255_1_234
10
4.4863449
20
84.8817094
40
0.1921118
50
129.7279328
51
135.7542026
0
ARC
8
DEFAULT_255_1_234
10
4.4984977
20
84.8720045
40
0.2075944
50
136.175737
51
166.3674722
0
ARC
8
DEFAULT_255_1_234
10
4.5991896
20
84.8450182
40
0.3118201
50
165.9092917
51
178.8683903
0
ARC
8
DEFAULT_255_1_234
10
4.6856757
20
84.8403179
40
0.3983935
50
178.438168
51
180.0083905
0
ARC
8
DEFAULT_255_1_234
10
4.5455359
20
84.8442231
40
0.4068601
50
163.2878735
51
180.5581814
0
ARC
8
DEFAULT_255_1_234
10
4.4653621
20
84.866284
40
0.3237344
50
133.454115
51
162.9470031
0
ARC
8
DEFAULT_255_1_234
10
4.4832162
20
84.8473
40
0.349795
50
100.7869394
51
133.4384016
0
ARC
8
DEFAULT_255_1_234
10
4.5179934
20
84.6924319
40
0.5084616
50
89.6605301
51
101.3704185
0
ARC
8
DEFAULT_255_1_234
10
4.5246273
20
84.6985496
40
0.502348
50
78.2171172
51
90.4130393
0
ARC
8
DEFAULT_255_1_234
10
4.5601351
20
84.8609637
40
0.3361092
50
55.9268222
51
78.4888551
0
ARC
8
DEFAULT_255_1_234
10
4.5797791
20
84.8948324
40
0.2970617
50
47.9292255
51
55.4054003
0
ARC
8
DEFAULT_255_1_234
10
4.5899352
20
84.9051502
40
0.2825983
50
4.3347696
51
48.0560701
0
ARC
8
DEFAULT_255_1_234
10
4.4803745
20
84.8881601
40
0.393225
50
359.925209
51
5.5967654
0
ARC
8
DEFAULT_255_1_234
10
4.5232637
20
84.8937816
40
0.3503892
50
337.8914096
51
358.9967724
0
ARC
8
DEFAULT_255_1_234
10
4.2519049
20
84.9984706
40
0.6412172
50
326.9135351
51
338.3505194
0
ARC
8
DEFAULT_255_1_234
10
3.8533353
20
85.2539284
40
1.1146189
50
319.6472867
51
327.095818
0
ARC
8
DEFAULT_255_1_234
10
3.4700356
20
85.5701
40
1.6114559
50
317.2586784
51
319.9046139
0
LINE
8
DEFAULT_255_1_234
10
5.7121127
20
85.1848211
11
5.7121127
21
84.408152
0
LINE
8
DEFAULT_255_1_234
10
5.7121127
20
84.408152
11
5.8743538
21
84.408152
0
LINE
8
DEFAULT_255_1_234
10
5.8743538
20
84.408152
11
5.8743538
21
84.2868728
0
LINE
8
DEFAULT_255_1_234
10
5.8743538
20
84.2868728
11
5.7121127
21
84.2868728
0
LINE
8
DEFAULT_255_1_234
10
5.7121127
20
84.2868728
11
5.7121127
21
84.0154
0
LINE
8
DEFAULT_255_1_234
10
5.7121127
20
84.0154
11
5.5627224
21
84.0154
0
LINE
8
DEFAULT_255_1_234
10
5.5627224
20
84.0154
11
5.5627224
21
84.2868728
0
LINE
8
DEFAULT_255_1_234
10
5.5627224
20
84.2868728
11
5.0302181
21
84.2868728
0
LINE
8
DEFAULT_255_1_234
10
5.0302181
20
84.2868728
11
5.0302181
21
84.3744187
0
LINE
8
DEFAULT_255_1_234
10
5.0302181
20
84.3744187
11
5.5538875
21
85.1848211
0
LINE
8
DEFAULT_255_1_234
10
5.5538875
20
85.1848211
11
5.7121127
21
85.1848211
0
LINE
8
DEFAULT_255_1_234
10
5.5450525
20
84.9494912
11
5.1988846
21
84.408152
0
LINE
8
DEFAULT_255_1_234
10
5.1988846
20
84.408152
11
5.5627224
21
84.408152
0
LINE
8
DEFAULT_255_1_234
10
5.5627224
20
84.408152
11
5.5627224
21
84.9816181
0
LINE
8
DEFAULT_255_1_234
10
5.5627224
20
84.9816181
11
5.5450525
21
84.9494912
0
LINE
8
DEFAULT_255_1_234
10
6.101652
20
85.1848211
11
6.434166
21
84.2202093
0
LINE
8
DEFAULT_255_1_234
10
6.434166
20
84.2202093
11
6.7682863
21
85.1848211
0
LINE
8
DEFAULT_255_1_234
10
6.7682863
20
85.1848211
11
6.9369528
21
85.1848211
0
LINE
8
DEFAULT_255_1_234
10
6.9369528
20
85.1848211
11
6.5032389
21
84.0154
0
LINE
8
DEFAULT_255_1_234
10
6.5032389
20
84.0154
11
6.3666994
21
84.0154
0
LINE
8
DEFAULT_255_1_234
10
6.3666994
20
84.0154
11
5.9337887
21
85.1848211
0
LINE
8
DEFAULT_255_1_234
10
5.9337887
20
85.1848211
11
6.101652
21
85.1848211
0
LINE
8
DEFAULT_255_1_234
10
4.943923
20
5.0114663
11
5.0989355
21
5.0114663
0
LINE
8
DEFAULT_255_1_234
10
4.1985777
20
5.1704947
11
4.1985777
21
5.2829391
0
LINE
8
DEFAULT_255_1_234
10
5.0989355
20
5.4339357
11
4.943923
21
5.4339357
0
LINE
8
DEFAULT_255_1_234
10
4.3535902
20
5.2789232
11
4.3535902
21
5.1656757
0
ARC
8
DEFAULT_255_1_234
10
4.5508742
20
5.0711846
40
0.5513052
50
340.1774281
51
353.7814284
0
ARC
8
DEFAULT_255_1_234
10
4.7080095
20
5.0126582
40
0.3836379
50
311.4558989
51
340.4421614
0
ARC
8
DEFAULT_255_1_234
10
4.7046763
20
5.0237528
40
0.3941894
50
282.4333181
51
310.7513653
0
ARC
8
DEFAULT_255_1_234
10
4.6607502
20
5.2052679
40
0.5809175
50
269.9358511
51
282.809604
0
ARC
8
DEFAULT_255_1_234
10
4.6555568
20
5.3510212
40
0.7266847
50
270.0021091
51
270.3581957
0
ARC
8
DEFAULT_255_1_234
10
4.6502985
20
5.0909585
40
0.4666519
50
250.7884749
51
270.6489167
0
ARC
8
DEFAULT_255_1_234
10
4.633482
20
5.0272319
40
0.4009729
50
219.3627325
51
250.0611886
0
ARC
8
DEFAULT_255_1_234
10
4.7164031
20
5.0977042
40
0.5097822
50
193.5479632
51
219.5756669
0
ARC
8
DEFAULT_255_1_234
10
4.9535652
20
5.1592919
40
0.7547848
50
181.1218675
51
193.87563
0
ARC
8
DEFAULT_255_1_234
10
5.1605833
20
5.170358
40
0.9620055
50
179.9918545
51
181.5394234
0
ARC
8
DEFAULT_255_1_234
10
4.9754935
20
5.2866788
40
0.7769248
50
169.5837241
51
180.2757934
0
ARC
8
DEFAULT_255_1_234
10
4.7917873
20
5.3206229
40
0.590109
50
155.0365899
51
169.6003176
0
ARC
8
DEFAULT_255_1_234
10
4.6782337
20
5.3753677
40
0.4640625
50
136.783148
51
155.2472683
0
ARC
8
DEFAULT_255_1_234
10
4.6392814
20
5.4084562
40
0.4130255
50
121.7633186
51
136.428115
0
ARC
8
DEFAULT_255_1_234
10
4.6527776
20
5.3835227
40
0.4413323
50
95.6459699
51
121.5490577
0
ARC
8
DEFAULT_255_1_234
10
4.6685058
20
5.2726949
40
0.55319
50
89.924208
51
96.1377933
0
ARC
8
DEFAULT_255_1_234
10
4.6735491
20
5.2845542
40
0.5413475
50
76.6779277
51
90.4563316
0
ARC
8
DEFAULT_255_1_234
10
4.7129114
20
5.4436114
40
0.3775041
50
47.485847
51
76.9287264
0
ARC
8
DEFAULT_255_1_234
10
4.6982087
20
5.4336159
40
0.3948286
50
16.5424086
51
46.8933463
0
ARC
8
DEFAULT_255_1_234
10
4.5374244
20
5.3807861
40
0.564021
50
5.4072051
51
17.0365086
0
ARC
8
DEFAULT_255_1_234
10
4.3935261
20
5.3576679
40
0.5556559
50
7.8891745
51
15.9239216
0
ARC
8
DEFAULT_255_1_234
10
4.5922274
20
5.4153631
40
0.3487515
50
15.7653144
51
27.9410532
0
ARC
8
DEFAULT_255_1_234
10
4.7026492
20
5.474479
40
0.2235026
50
27.8166557
51
46.4008329
0
ARC
8
DEFAULT_255_1_234
10
4.7076135
20
5.4739082
40
0.2205286
50
47.4371857
51
75.0698205
0
ARC
8
DEFAULT_255_1_234
10
4.6767529
20
5.3664765
40
0.3322915
50
74.7008593
51
87.8124495
0
ARC
8
DEFAULT_255_1_234
10
4.6694217
20
5.2608844
40
0.4380987
50
87.3814673
51
90.0240855
0
ARC
8
DEFAULT_255_1_234
10
4.665576
20
5.3786291
40
0.3203749
50
89.3451631
51
108.5745436
0
ARC
8
DEFAULT_255_1_234
10
4.6518865
20
5.4299908
40
0.2673494
50
109.2998449
51
143.3037509
0
ARC
8
DEFAULT_255_1_234
10
4.7280938
20
5.3713881
40
0.3634757
50
143.0753173
51
163.1916937
0
ARC
8
DEFAULT_255_1_234
10
4.9232666
20
5.3097967
40
0.5681262
50
162.9373603
51
174.6208611
0
ARC
8
DEFAULT_255_1_234
10
5.1858708
20
5.281001
40
0.8322832
50
174.3419979
51
180.1430411
0
ARC
8
DEFAULT_255_1_234
10
5.0927864
20
5.1615698
40
0.7392076
50
179.6817502
51
189.150529
0
ARC
8
DEFAULT_255_1_234
10
4.8427112
20
5.119919
40
0.4856932
50
188.9910863
51
203.5773039
0
ARC
8
DEFAULT_255_1_234
10
4.7347445
20
5.0751211
40
0.3688271
50
203.9077269
51
215.1312379
0
ARC
8
DEFAULT_255_1_234
10
4.6424539
20
5.0035941
40
0.2522457
50
213.9071664
51
263.8849284
0
ARC
8
DEFAULT_255_1_234
10
4.6549868
20
5.0820518
40
0.3316174
50
263.1758525
51
270.1031083
0
ARC
8
DEFAULT_255_1_234
10
4.658196
20
5.2067365
40
0.4563091
50
269.6719807
51
279.0609165
0
ARC
8
DEFAULT_255_1_234
10
4.6848728
20
5.0454907
40
0.2928759
50
278.8750225
51
293.6346586
0
ARC
8
DEFAULT_255_1_234
10
4.7168936
20
4.97029
40
0.2111472
50
293.8553404
51
310.0518804
0
ARC
8
DEFAULT_255_1_234
10
4.717379
20
4.9640516
40
0.2060917
50
311.0646779
51
332.0108348
0
ARC
8
DEFAULT_255_1_234
10
4.5981517
20
5.0297978
40
0.3422352
50
331.6588543
51
343.2878891
0
ARC
8
DEFAULT_255_1_234
10
4.3919032
20
5.0931798
40
0.5580003
50
343.1446044
51
351.010618
0
ARC
8
DEFAULT_255_1_234
10
4.2377678
20
5.1212871
40
0.7146438
50
350.7157277
51
351.1602153
0
LINE
8
DEFAULT_255_1_234
10
6.2089218
20
5.2612534
11
6.2089218
21
5.1873614
0
LINE
8
DEFAULT_255_1_234
10
5.2684052
20
5.1769201
11
5.2684052
21
5.2612534
0
LINE
8
DEFAULT_255_1_234
10
6.0555156
20
5.1761169
11
6.0555156
21
5.2628597
0
LINE
8
DEFAULT_255_1_234
10
5.4218114
20
5.273301
11
5.4218114
21
5.1873614
0
ARC
8
DEFAULT_255_1_234
10
5.3447244
20
5.1834015
40
0.8642064
50
350.487711
51
0.2625388
0
ARC
8
DEFAULT_255_1_234
10
5.5740486
20
5.1439578
40
0.631518
50
336.0277639
51
350.5787438
0
ARC
8
DEFAULT_255_1_234
10
5.7085309
20
5.0831892
40
0.4839466
50
319.8877444
51
336.1328423
0
ARC
8
DEFAULT_255_1_234
10
5.768795
20
5.034958
40
0.4067874
50
302.4806467
51
319.6143626
0
ARC
8
DEFAULT_255_1_234
10
5.757296
20
5.0571202
40
0.4316636
50
275.8195682
51
302.1884709
0
ARC
8
DEFAULT_255_1_234
10
5.7406593
20
5.1713665
40
0.5470306
50
269.9171439
51
276.3397983
0
ARC
8
DEFAULT_255_1_234
10
5.7361803
20
5.1027681
40
0.4784458
50
252.5219675
51
270.4416499
0
ARC
8
DEFAULT_255_1_234
10
5.7218062
20
5.0488592
40
0.422716
50
237.5352116
51
252.1857531
0
ARC
8
DEFAULT_255_1_234
10
5.7307258
20
5.0602363
40
0.4371052
50
209.063312
51
237.3492538
0
ARC
8
DEFAULT_255_1_234
10
5.8177106
20
5.1148685
40
0.5397041
50
205.1183774
51
209.6470015
0
ARC
8
DEFAULT_255_1_234
10
5.8974143
20
5.148683
40
0.6262326
50
188.7215458
51
204.8240747
0
ARC
8
DEFAULT_255_1_234
10
6.0971671
20
5.1823067
40
0.8287794
50
180.3723947
51
188.9252049
0
ARC
8
DEFAULT_255_1_234
10
6.0944423
20
5.2652402
40
0.8260467
50
169.5253763
51
180.2765336
0
ARC
8
DEFAULT_255_1_234
10
5.9041871
20
5.3002309
40
0.6326007
50
155.8315255
51
169.5089989
0
ARC
8
DEFAULT_255_1_234
10
5.7761373
20
5.3596348
40
0.4914567
50
139.6258461
51
156.0379525
0
ARC
8
DEFAULT_255_1_234
10
5.7171706
20
5.4070799
40
0.4158054
50
122.6416387
51
139.3430715
0
ARC
8
DEFAULT_255_1_234
10
5.7272326
20
5.3887451
40
0.4366739
50
93.0223692
51
122.455762
0
ARC
8
DEFAULT_255_1_234
10
5.7380323
20
5.2922709
40
0.5336137
50
89.975342
51
93.6341897
0
ARC
8
DEFAULT_255_1_234
10
5.7419102
20
5.3321242
40
0.4937738
50
73.746375
51
90.4233405
0
ARC
8
DEFAULT_255_1_234
10
5.7594681
20
5.4001287
40
0.4235786
50
57.662753
51
73.4518111
0
ARC
8
DEFAULT_255_1_234
10
5.7586687
20
5.4022832
40
0.4221899
50
29.1440151
51
57.414694
0
ARC
8
DEFAULT_255_1_234
10
5.6651882
20
5.3439005
40
0.5322966
50
24.0982783
51
29.7323517
0
ARC
8
DEFAULT_255_1_234
10
5.5618157
20
5.3010399
40
0.6441673
50
8.6655297
51
23.8241346
0
ARC
8
DEFAULT_255_1_234
10
5.3383895
20
5.2645854
40
0.8705386
50
359.7806941
51
8.8218784
0
ARC
8
DEFAULT_255_1_234
10
5.2236893
20
5.2671345
40
0.8318373
50
359.7055579
51
8.036044
0
ARC
8
DEFAULT_255_1_234
10
5.5236899
20
5.3108239
40
0.5286768
50
7.8928306
51
20.2962107
0
ARC
8
DEFAULT_255_1_234
10
5.686447
20
5.3708395
40
0.3552073
50
20.3231126
51
36.4992797
0
ARC
8
DEFAULT_255_1_234
10
5.7550016
20
5.4236402
40
0.2686974
50
36.1437156
51
85.6627023
0
ARC
8
DEFAULT_255_1_234
10
5.7387562
20
5.3196221
40
0.373739
50
84.3852322
51
90.0757696
0
ARC
8
DEFAULT_255_1_234
10
5.7345234
20
5.3856839
40
0.3076997
50
89.3038458
51
109.9045693
0
ARC
8
DEFAULT_255_1_234
10
5.7252625
20
5.4239062
40
0.2686424
50
110.8228367
51
143.9179474
0
ARC
8
DEFAULT_255_1_234
10
5.8186285
20
5.3526236
40
0.3860887
50
143.5289163
51
163.2980757
0
ARC
8
DEFAULT_255_1_234
10
6.0094106
20
5.2926433
40
0.5860659
50
163.0418846
51
174.3140048
0
ARC
8
DEFAULT_255_1_234
10
6.2498218
20
5.2648854
40
0.8280531
50
174.0509143
51
179.4176892
0
ARC
8
DEFAULT_255_1_234
10
6.1993957
20
5.1831954
40
0.7775954
50
179.6930361
51
188.7906598
0
ARC
8
DEFAULT_255_1_234
10
5.9330436
20
5.1405935
40
0.5078633
50
188.6331305
51
202.5629587
0
ARC
8
DEFAULT_255_1_234
10
5.8076028
20
5.0901996
40
0.3726913
50
202.8081362
51
216.1193925
0
ARC
8
DEFAULT_255_1_234
10
5.7266598
20
5.0250676
40
0.2689577
50
215.0755913
51
264.6379694
0
ARC
8
DEFAULT_255_1_234
10
5.7393548
20
5.1081513
40
0.3528978
50
263.846392
51
270.0833719
0
ARC
8
DEFAULT_255_1_234
10
5.7434938
20
5.0823374
40
0.3271036
50
269.3649385
51
287.5152008
0
ARC
8
DEFAULT_255_1_234
10
5.7613096
20
5.0176238
40
0.2600406
50
288.0630309
51
323.8113348
0
ARC
8
DEFAULT_255_1_234
10
5.6741937
20
5.0826049
40
0.3687189
50
323.6547608
51
342.6590488
0
ARC
8
DEFAULT_255_1_234
10
5.4710552
20
5.1486952
40
0.5823286
50
342.4091907
51
353.6451149
0
ARC
8
DEFAULT_255_1_234
10
5.1879063
20
5.183919
40
0.8676442
50
353.4029884
51
359.4847795
0
LINE
8
DEFAULT_255_1_234
10
6.4402358
20
5.8098211
11
6.6394229
21
5.8098211
0
LINE
8
DEFAULT_255_1_234
10
6.6394229
20
5.8098211
11
7.0217337
21
4.8556506
0
LINE
8
DEFAULT_255_1_234
10
7.0217337
20
4.8556506
11
7.4040444
21
5.8098211
0
LINE
8
DEFAULT_255_1_234
10
7.4040444
20
5.8098211
11
7.6040347
21
5.8098211
0
LINE
8
DEFAULT_255_1_234
10
7.6040347
20
5.8098211
11
7.6040347
21
4.6404
0
LINE
8
DEFAULT_255_1_234
10
7.6040347
20
4.6404
11
7.4498253
21
4.6404
0
LINE
8
DEFAULT_255_1_234
10
7.4498253
20
4.6404
11
7.4498253
21
5.0957996
0
LINE
8
DEFAULT_255_1_234
10
7.4498253
20
5.0957996
11
7.4642825
21
5.5873419
0
LINE
8
DEFAULT_255_1_234
10
7.4642825
20
5.5873419
11
7.0803654
21
4.6404
0
LINE
8
DEFAULT_255_1_234
10
7.0803654
20
4.6404
11
6.9622988
21
4.6404
0
LINE
8
DEFAULT_255_1_234
10
6.9622988
20
4.6404
11
6.5791849
21
5.5849324
0
LINE
8
DEFAULT_255_1_234
10
6.5791849
20
5.5849324
11
6.5944452
21
5.0957996
0
LINE
8
DEFAULT_255_1_234
10
6.5944452
20
5.0957996
11
6.5944452
21
4.6404
0
LINE
8
DEFAULT_255_1_234
10
6.5944452
20
4.6404
11
6.4402358
21
4.6404
0
LINE
8
DEFAULT_255_1_234
10
6.4402358
20
4.6404
11
6.4402358
21
5.8098211
0
LINE
8
DEFAULT_255_1_234
10
4.943923
20
12.9489663
11
5.0989355
21
12.9489663
0
LINE
8
DEFAULT_255_1_234
10
4.1985777
20
13.1079947
11
4.1985777
21
13.2204391
0
LINE
8
DEFAULT_255_1_234
10
5.0989355
20
13.3714357
11
4.943923
21
13.3714357
0
LINE
8
DEFAULT_255_1_234
10
4.3535902
20
13.2164232
11
4.3535902
21
13.1031757
0
ARC
8
DEFAULT_255_1_234
10
4.5508742
20
13.0086846
40
0.5513052
50
340.1774281
51
353.7814284
0
ARC
8
DEFAULT_255_1_234
10
4.7080095
20
12.9501582
40
0.3836379
50
311.4558989
51
340.4421614
0
ARC
8
DEFAULT_255_1_234
10
4.7046763
20
12.9612528
40
0.3941894
50
282.4333181
51
310.7513653
0
ARC
8
DEFAULT_255_1_234
10
4.6607502
20
13.1427679
40
0.5809175
50
269.9358511
51
282.809604
0
ARC
8
DEFAULT_255_1_234
10
4.6555568
20
13.2885212
40
0.7266847
50
270.0021091
51
270.3581957
0
ARC
8
DEFAULT_255_1_234
10
4.6502985
20
13.0284585
40
0.4666519
50
250.7884749
51
270.6489167
0
ARC
8
DEFAULT_255_1_234
10
4.633482
20
12.9647319
40
0.4009729
50
219.3627325
51
250.0611886
0
ARC
8
DEFAULT_255_1_234
10
4.7164031
20
13.0352042
40
0.5097822
50
193.5479632
51
219.5756669
0
ARC
8
DEFAULT_255_1_234
10
4.9535652
20
13.0967919
40
0.7547848
50
181.1218675
51
193.87563
0
ARC
8
DEFAULT_255_1_234
10
5.1605833
20
13.107858
40
0.9620055
50
179.9918545
51
181.5394234
0
ARC
8
DEFAULT_255_1_234
10
4.9754935
20
13.2241788
40
0.7769248
50
169.5837241
51
180.2757934
0
ARC
8
DEFAULT_255_1_234
10
4.7917873
20
13.2581229
40
0.590109
50
155.0365899
51
169.6003176
0
ARC
8
DEFAULT_255_1_234
10
4.6782337
20
13.3128677
40
0.4640625
50
136.783148
51
155.2472683
0
ARC
8
DEFAULT_255_1_234
10
4.6392814
20
13.3459562
40
0.4130255
50
121.7633186
51
136.428115
0
ARC
8
DEFAULT_255_1_234
10
4.6527776
20
13.3210227
40
0.4413323
50
95.6459699
51
121.5490577
0
ARC
8
DEFAULT_255_1_234
10
4.6685058
20
13.2101949
40
0.55319
50
89.924208
51
96.1377933
0
ARC
8
DEFAULT_255_1_234
10
4.6735491
20
13.2220542
40
0.5413475
50
76.6779277
51
90.4563316
0
ARC
8
DEFAULT_255_1_234
10
4.7129114
20
13.3811114
40
0.3775041
50
47.485847
51
76.9287264
0
ARC
8
DEFAULT_255_1_234
10
4.6982087
20
13.3711159
40
0.3948286
50
16.5424086
51
46.8933463
0
ARC
8
DEFAULT_255_1_234
10
4.5374244
20
13.3182861
40
0.564021
50
5.4072051
51
17.0365086
0
ARC
8
DEFAULT_255_1_234
10
4.3935261
20
13.2951679
40
0.5556559
50
7.8891745
51
15.9239216
0
ARC
8
DEFAULT_255_1_234
10
4.5922274
20
13.3528631
40
0.3487515
50
15.7653144
51
27.9410532
0
ARC
8
DEFAULT_255_1_234
10
4.7026492
20
13.411979
40
0.2235026
50
27.8166557
51
46.4008329
0
ARC
8
DEFAULT_255_1_234
10
4.7076135
20
13.4114082
40
0.2205286
50
47.4371857
51
75.0698205
0
ARC
8
DEFAULT_255_1_234
10
4.6767529
20
13.3039765
40
0.3322915
50
74.7008593
51
87.8124495
0
ARC
8
DEFAULT_255_1_234
10
4.6694217
20
13.1983844
40
0.4380987
50
87.3814673
51
90.0240855
0
ARC
8
DEFAULT_255_1_234
10
4.665576
20
13.3161291
40
0.3203749
50
89.3451631
51
108.5745436
0
ARC
8
DEFAULT_255_1_234
10
4.6518865
20
13.3674908
40
0.2673494
50
109.2998449
51
143.3037509
0
ARC
8
DEFAULT_255_1_234
10
4.7280938
20
13.3088881
40
0.3634757
50
143.0753173
51
163.1916937
0
ARC
8
DEFAULT_255_1_234
10
4.9232666
20
13.2472967
40
0.5681262
50
162.9373603
51
174.6208611
0
ARC
8
DEFAULT_255_1_234
10
5.1858708
20
13.218501
40
0.8322832
50
174.3419979
51
180.1430411
0
ARC
8
DEFAULT_255_1_234
10
5.0927864
20
13.0990698
40
0.7392076
50
179.6817502
51
189.150529
0
ARC
8
DEFAULT_255_1_234
10
4.8427112
20
13.057419
40
0.4856932
50
188.9910863
51
203.5773039
0
ARC
8
DEFAULT_255_1_234
10
4.7347445
20
13.0126211
40
0.3688271
50
203.9077269
51
215.1312379
0
ARC
8
DEFAULT_255_1_234
10
4.6424539
20
12.9410941
40
0.2522457
50
213.9071664
51
263.8849284
0
ARC
8
DEFAULT_255_1_234
10
4.6549868
20
13.0195518
40
0.3316174
50
263.1758525
51
270.1031083
0
ARC
8
DEFAULT_255_1_234
10
4.658196
20
13.1442365
40
0.4563091
50
269.6719807
51
279.0609165
0
ARC
8
DEFAULT_255_1_234
10
4.6848728
20
12.9829907
40
0.2928759
50
278.8750225
51
293.6346586
0
ARC
8
DEFAULT_255_1_234
10
4.7168936
20
12.90779
40
0.2111472
50
293.8553404
51
310.0518804
0
ARC
8
DEFAULT_255_1_234
10
4.717379
20
12.9015516
40
0.2060917
50
311.0646779
51
332.0108348
0
ARC
8
DEFAULT_255_1_234
10
4.5981517
20
12.9672978
40
0.3422352
50
331.6588543
51
343.2878891
0
ARC
8
DEFAULT_255_1_234
10
4.3919032
20
13.0306798
40
0.5580003
50
343.1446044
51
351.010618
0
ARC
8
DEFAULT_255_1_234
10
4.2377678
20
13.0587871
40
0.7146438
50
350.7157277
51
351.1602153
0
LINE
8
DEFAULT_255_1_234
10
6.2089218
20
13.1987534
11
6.2089218
21
13.1248614
0
LINE
8
DEFAULT_255_1_234
10
5.2684052
20
13.1144201
11
5.2684052
21
13.1987534
0
LINE
8
DEFAULT_255_1_234
10
6.0555156
20
13.1136169
11
6.0555156
21
13.2003597
0
LINE
8
DEFAULT_255_1_234
10
5.4218114
20
13.210801
11
5.4218114
21
13.1248614
0
ARC
8
DEFAULT_255_1_234
10
5.3447244
20
13.1209015
40
0.8642064
50
350.487711
51
0.2625388
0
ARC
8
DEFAULT_255_1_234
10
5.5740486
20
13.0814578
40
0.631518
50
336.0277639
51
350.5787438
0
ARC
8
DEFAULT_255_1_234
10
5.7085309
20
13.0206892
40
0.4839466
50
319.8877444
51
336.1328423
0
ARC
8
DEFAULT_255_1_234
10
5.768795
20
12.972458
40
0.4067874
50
302.4806467
51
319.6143626
0
ARC
8
DEFAULT_255_1_234
10
5.757296
20
12.9946202
40
0.4316636
50
275.8195682
51
302.1884709
0
ARC
8
DEFAULT_255_1_234
10
5.7406593
20
13.1088665
40
0.5470306
50
269.9171439
51
276.3397983
0
ARC
8
DEFAULT_255_1_234
10
5.7361803
20
13.0402681
40
0.4784458
50
252.5219675
51
270.4416499
0
ARC
8
DEFAULT_255_1_234
10
5.7218062
20
12.9863592
40
0.422716
50
237.5352116
51
252.1857531
0
ARC
8
DEFAULT_255_1_234
10
5.7307258
20
12.9977363
40
0.4371052
50
209.063312
51
237.3492538
0
ARC
8
DEFAULT_255_1_234
10
5.8177106
20
13.0523685
40
0.5397041
50
205.1183774
51
209.6470015
0
ARC
8
DEFAULT_255_1_234
10
5.8974143
20
13.086183
40
0.6262326
50
188.7215458
51
204.8240747
0
ARC
8
DEFAULT_255_1_234
10
6.0971671
20
13.1198067
40
0.8287794
50
180.3723947
51
188.9252049
0
ARC
8
DEFAULT_255_1_234
10
6.0944423
20
13.2027402
40
0.8260467
50
169.5253763
51
180.2765336
0
ARC
8
DEFAULT_255_1_234
10
5.9041871
20
13.2377309
40
0.6326007
50
155.8315255
51
169.5089989
0
ARC
8
DEFAULT_255_1_234
10
5.7761373
20
13.2971348
40
0.4914567
50
139.6258461
51
156.0379525
0
ARC
8
DEFAULT_255_1_234
10
5.7171706
20
13.3445799
40
0.4158054
50
122.6416387
51
139.3430715
0
ARC
8
DEFAULT_255_1_234
10
5.7272326
20
13.3262451
40
0.4366739
50
93.0223692
51
122.455762
0
ARC
8
DEFAULT_255_1_234
10
5.7380323
20
13.2297709
40
0.5336137
50
89.975342
51
93.6341897
0
ARC
8
DEFAULT_255_1_234
10
5.7419102
20
13.2696242
40
0.4937738
50
73.746375
51
90.4233405
0
ARC
8
DEFAULT_255_1_234
10
5.7594681
20
13.3376287
40
0.4235786
50
57.662753
51
73.4518111
0
ARC
8
DEFAULT_255_1_234
10
5.7586687
20
13.3397832
40
0.4221899
50
29.1440151
51
57.414694
0
ARC
8
DEFAULT_255_1_234
10
5.6651882
20
13.2814005
40
0.5322966
50
24.0982783
51
29.7323517
0
ARC
8
DEFAULT_255_1_234
10
5.5618157
20
13.2385399
40
0.6441673
50
8.6655297
51
23.8241346
0
ARC
8
DEFAULT_255_1_234
10
5.3383895
20
13.2020854
40
0.8705386
50
359.7806941
51
8.8218784
0
ARC
8
DEFAULT_255_1_234
10
5.2236893
20
13.2046345
40
0.8318373
50
359.7055579
51
8.036044
0
ARC
8
DEFAULT_255_1_234
10
5.5236899
20
13.2483239
40
0.5286768
50
7.8928306
51
20.2962107
0
ARC
8
DEFAULT_255_1_234
10
5.686447
20
13.3083395
40
0.3552073
50
20.3231126
51
36.4992797
0
ARC
8
DEFAULT_255_1_234
10
5.7550016
20
13.3611402
40
0.2686974
50
36.1437156
51
85.6627023
0
ARC
8
DEFAULT_255_1_234
10
5.7387562
20
13.2571221
40
0.373739
50
84.3852322
51
90.0757696
0
ARC
8
DEFAULT_255_1_234
10
5.7345234
20
13.3231839
40
0.3076997
50
89.3038458
51
109.9045693
0
ARC
8
DEFAULT_255_1_234
10
5.7252625
20
13.3614062
40
0.2686424
50
110.8228367
51
143.9179474
0
ARC
8
DEFAULT_255_1_234
10
5.8186285
20
13.2901236
40
0.3860887
50
143.5289163
51
163.2980757
0
ARC
8
DEFAULT_255_1_234
10
6.0094106
20
13.2301433
40
0.5860659
50
163.0418846
51
174.3140048
0
ARC
8
DEFAULT_255_1_234
10
6.2498218
20
13.2023854
40
0.8280531
50
174.0509143
51
179.4176892
0
ARC
8
DEFAULT_255_1_234
10
6.1993957
20
13.1206954
40
0.7775954
50
179.6930361
51
188.7906598
0
ARC
8
DEFAULT_255_1_234
10
5.9330436
20
13.0780935
40
0.5078633
50
188.6331305
51
202.5629587
0
ARC
8
DEFAULT_255_1_234
10
5.8076028
20
13.0276996
40
0.3726913
50
202.8081362
51
216.1193925
0
ARC
8
DEFAULT_255_1_234
10
5.7266598
20
12.9625676
40
0.2689577
50
215.0755913
51
264.6379694
0
ARC
8
DEFAULT_255_1_234
10
5.7393548
20
13.0456513
40
0.3528978
50
263.846392
51
270.0833719
0
ARC
8
DEFAULT_255_1_234
10
5.7434938
20
13.0198374
40
0.3271036
50
269.3649385
51
287.5152008
0
ARC
8
DEFAULT_255_1_234
10
5.7613096
20
12.9551238
40
0.2600406
50
288.0630309
51
323.8113348
0
ARC
8
DEFAULT_255_1_234
10
5.6741937
20
13.0201049
40
0.3687189
50
323.6547608
51
342.6590488
0
ARC
8
DEFAULT_255_1_234
10
5.4710552
20
13.0861952
40
0.5823286
50
342.4091907
51
353.6451149
0
ARC
8
DEFAULT_255_1_234
10
5.1879063
20
13.121419
40
0.8676442
50
353.4029884
51
359.4847795
0
LINE
8
DEFAULT_255_1_234
10
6.4402358
20
13.7473211
11
6.6394229
21
13.7473211
0
LINE
8
DEFAULT_255_1_234
10
6.6394229
20
13.7473211
11
7.0217337
21
12.7931506
0
LINE
8
DEFAULT_255_1_234
10
7.0217337
20
12.7931506
11
7.4040444
21
13.7473211
0
LINE
8
DEFAULT_255_1_234
10
7.4040444
20
13.7473211
11
7.6040347
21
13.7473211
0
LINE
8
DEFAULT_255_1_234
10
7.6040347
20
13.7473211
11
7.6040347
21
12.5779
0
LINE
8
DEFAULT_255_1_234
10
7.6040347
20
12.5779
11
7.4498253
21
12.5779
0
LINE
8
DEFAULT_255_1_234
10
7.4498253
20
12.5779
11
7.4498253
21
13.0332996
0
LINE
8
DEFAULT_255_1_234
10
7.4498253
20
13.0332996
11
7.4642825
21
13.5248419
0
LINE
8
DEFAULT_255_1_234
10
7.4642825
20
13.5248419
11
7.0803654
21
12.5779
0
LINE
8
DEFAULT_255_1_234
10
7.0803654
20
12.5779
11
6.9622988
21
12.5779
0
LINE
8
DEFAULT_255_1_234
10
6.9622988
20
12.5779
11
6.5791849
21
13.5224324
0
LINE
8
DEFAULT_255_1_234
10
6.5791849
20
13.5224324
11
6.5944452
21
13.0332996
0
LINE
8
DEFAULT_255_1_234
10
6.5944452
20
13.0332996
11
6.5944452
21
12.5779
0
LINE
8
DEFAULT_255_1_234
10
6.5944452
20
12.5779
11
6.4402358
21
12.5779
0
LINE
8
DEFAULT_255_1_234
10
6.4402358
20
12.5779
11
6.4402358
21
13.7473211
0
LINE
8
DEFAULT_255_1_234
10
4.3078299
20
21.6848211
11
4.5897439
21
21.2366501
0
LINE
8
DEFAULT_255_1_234
10
4.5897439
20
21.2366501
11
4.8700516
21
21.6848211
0
LINE
8
DEFAULT_255_1_234
10
4.8700516
20
21.6848211
11
5.0515689
21
21.6848211
0
LINE
8
DEFAULT_255_1_234
10
5.0515689
20
21.6848211
11
4.6821089
21
21.1049296
0
LINE
8
DEFAULT_255_1_234
10
4.6821089
20
21.1049296
11
5.0604038
21
20.5154
0
LINE
8
DEFAULT_255_1_234
10
5.0604038
20
20.5154
11
4.8772802
21
20.5154
0
LINE
8
DEFAULT_255_1_234
10
4.8772802
20
20.5154
11
4.5897439
21
20.9716027
0
LINE
8
DEFAULT_255_1_234
10
4.5897439
20
20.9716027
11
4.3006014
21
20.5154
0
LINE
8
DEFAULT_255_1_234
10
4.3006014
20
20.5154
11
4.1182809
21
20.5154
0
LINE
8
DEFAULT_255_1_234
10
4.1182809
20
20.5154
11
4.497379
21
21.1049296
0
LINE
8
DEFAULT_255_1_234
10
4.497379
20
21.1049296
11
4.1271158
21
21.6848211
0
LINE
8
DEFAULT_255_1_234
10
4.1271158
20
21.6848211
11
4.3078299
21
21.6848211
0
LINE
8
DEFAULT_255_1_234
10
5.9559426
20
21.6848211
11
5.9559426
21
21.601291
0
LINE
8
DEFAULT_255_1_234
10
5.9559426
20
21.601291
11
5.4716288
21
20.5154
0
LINE
8
DEFAULT_255_1_234
10
5.4716288
20
20.5154
11
5.3158131
21
20.5154
0
LINE
8
DEFAULT_255_1_234
10
5.3158131
20
20.5154
11
5.7985206
21
21.5627387
0
LINE
8
DEFAULT_255_1_234
10
5.7985206
20
21.5627387
11
5.1656196
21
21.5627387
0
LINE
8
DEFAULT_255_1_234
10
5.1656196
20
21.5627387
11
5.1656196
21
21.6848211
0
LINE
8
DEFAULT_255_1_234
10
5.1656196
20
21.6848211
11
5.9559426
21
21.6848211
0
LINE
8
DEFAULT_255_1_234
10
4.3078299
20
29.6223211
11
4.5897439
21
29.1741501
0
LINE
8
DEFAULT_255_1_234
10
4.5897439
20
29.1741501
11
4.8700516
21
29.6223211
0
LINE
8
DEFAULT_255_1_234
10
4.8700516
20
29.6223211
11
5.0515689
21
29.6223211
0
LINE
8
DEFAULT_255_1_234
10
5.0515689
20
29.6223211
11
4.6821089
21
29.0424296
0
LINE
8
DEFAULT_255_1_234
10
4.6821089
20
29.0424296
11
5.0604038
21
28.4529
0
LINE
8
DEFAULT_255_1_234
10
5.0604038
20
28.4529
11
4.8772802
21
28.4529
0
LINE
8
DEFAULT_255_1_234
10
4.8772802
20
28.4529
11
4.5897439
21
28.9091027
0
LINE
8
DEFAULT_255_1_234
10
4.5897439
20
28.9091027
11
4.3006014
21
28.4529
0
LINE
8
DEFAULT_255_1_234
10
4.3006014
20
28.4529
11
4.1182809
21
28.4529
0
LINE
8
DEFAULT_255_1_234
10
4.1182809
20
28.4529
11
4.497379
21
29.0424296
0
LINE
8
DEFAULT_255_1_234
10
4.497379
20
29.0424296
11
4.1271158
21
29.6223211
0
LINE
8
DEFAULT_255_1_234
10
4.1271158
20
29.6223211
11
4.3078299
21
29.6223211
0
LINE
8
DEFAULT_255_1_234
10
5.7575587
20
29.6231243
11
5.7840634
21
29.6231243
0
LINE
8
DEFAULT_255_1_234
10
5.7840634
20
29.6231243
11
5.7840634
21
29.497026
0
LINE
8
DEFAULT_255_1_234
10
5.7840634
20
29.497026
11
5.7567555
21
29.497026
0
LINE
8
DEFAULT_255_1_234
10
5.2097941
20
28.8978583
11
5.2097941
21
28.9548836
0
LINE
8
DEFAULT_255_1_234
10
5.3591845
20
28.9356075
11
5.3591845
21
28.8809917
0
ARC
8
DEFAULT_255_1_234
10
5.7619903
20
28.9972455
40
0.4998079
50
90.6001036
51
104.514704
0
ARC
8
DEFAULT_255_1_234
10
5.7231419
20
29.1417131
40
0.3502176
50
104.2855254
51
133.862935
0
ARC
8
DEFAULT_255_1_234
10
5.7395176
20
29.130883
40
0.3693984
50
134.5302688
51
161.6210873
0
ARC
8
DEFAULT_255_1_234
10
5.9048365
20
29.0725895
40
0.5446739
50
161.2849839
51
174.2076652
0
ARC
8
DEFAULT_255_1_234
10
6.0455302
20
29.0531787
40
0.6866274
50
173.7810589
51
174.9254635
0
ARC
8
DEFAULT_255_1_234
10
5.5905134
20
28.9148839
40
0.3033419
50
95.8330959
51
138.9954921
0
ARC
8
DEFAULT_255_1_234
10
5.612849
20
28.7870375
40
0.4328947
50
89.8753725
51
97.0544009
0
ARC
8
DEFAULT_255_1_234
10
5.6175956
20
28.8705748
40
0.3493769
50
71.6407809
51
90.6240094
0
ARC
8
DEFAULT_255_1_234
10
5.6326529
20
28.9260082
40
0.2920396
50
39.6367836
51
71.019018
0
ARC
8
DEFAULT_255_1_234
10
5.5690002
20
28.8709998
40
0.3761538
50
10.658731
51
39.9043955
0
ARC
8
DEFAULT_255_1_234
10
5.4142085
20
28.8373686
40
0.5345136
50
359.682601
51
11.132623
0
ARC
8
DEFAULT_255_1_234
10
5.4102216
20
28.830301
40
0.5385081
50
347.2486944
51
0.4369317
0
ARC
8
DEFAULT_255_1_234
10
5.5769693
20
28.7901807
40
0.3670249
50
318.1409698
51
347.6118597
0
ARC
8
DEFAULT_255_1_234
10
5.6094686
20
28.7634702
40
0.3250007
50
275.6342139
51
317.8248465
0
ARC
8
DEFAULT_255_1_234
10
5.5873797
20
28.8934219
40
0.4565864
50
269.8874292
51
276.7917694
0
ARC
8
DEFAULT_255_1_234
10
5.5818868
20
28.7908743
40
0.3540676
50
246.9140195
51
270.7437342
0
ARC
8
DEFAULT_255_1_234
10
5.5825258
20
28.7766384
40
0.3412781
50
218.1665114
51
245.878116
0
ARC
8
DEFAULT_255_1_234
10
5.6704719
20
28.8502279
40
0.455911
50
191.4115814
51
218.6077802
0
ARC
8
DEFAULT_255_1_234
10
5.8642808
20
28.8936833
40
0.6545001
50
179.6345085
51
191.7836486
0
ARC
8
DEFAULT_255_1_234
10
6.4225145
20
28.9615697
40
1.2127388
50
171.4525249
51
180.3158839
0
ARC
8
DEFAULT_255_1_234
10
5.9830021
20
29.0299608
40
0.7679464
50
157.9802646
51
171.6246686
0
ARC
8
DEFAULT_255_1_234
10
5.7616042
20
29.1182421
40
0.5296008
50
141.4298019
51
157.854097
0
ARC
8
DEFAULT_255_1_234
10
5.6974362
20
29.1636381
40
0.4511509
50
102.8715806
51
140.8564722
0
ARC
8
DEFAULT_255_1_234
10
5.7621978
20
28.9196552
40
0.7034845
50
90.3778349
51
103.5869322
0
ARC
8
DEFAULT_255_1_234
10
5.5883754
20
28.859173
40
0.2370698
50
89.8751008
51
126.2071704
0
ARC
8
DEFAULT_255_1_234
10
5.5929544
20
28.8437303
40
0.2522934
50
124.9745049
51
144.895901
0
ARC
8
DEFAULT_255_1_234
10
5.5753734
20
28.858056
40
0.2296779
50
145.2974905
51
160.2660252
0
ARC
8
DEFAULT_255_1_234
10
5.8826273
20
28.8778071
40
0.5234525
50
179.6514266
51
190.2855912
0
ARC
8
DEFAULT_255_1_234
10
5.713241
20
28.8458786
40
0.3510893
50
190.0945431
51
207.5098196
0
ARC
8
DEFAULT_255_1_234
10
5.656668
20
28.8189623
40
0.288489
50
207.9583163
51
216.3251085
0
ARC
8
DEFAULT_255_1_234
10
5.6226788
20
28.7910105
40
0.2445587
50
215.7661442
51
232.5456785
0
ARC
8
DEFAULT_255_1_234
10
5.5843771
20
28.7423482
40
0.1826382
50
232.8005391
51
270.6605633
0
ARC
8
DEFAULT_255_1_234
10
5.5889472
20
28.7787612
40
0.2190529
50
269.35537
51
288.4744281
0
ARC
8
DEFAULT_255_1_234
10
5.5982369
20
28.7438118
40
0.1829749
50
289.1833337
51
322.9683818
0
ARC
8
DEFAULT_255_1_234
10
5.5370891
20
28.7920391
40
0.2608399
50
322.6007884
51
346.5182367
0
ARC
8
DEFAULT_255_1_234
10
5.4213487
20
28.8215616
40
0.3802777
50
346.2582162
51
358.7741648
0
ARC
8
DEFAULT_255_1_234
10
5.3195156
20
28.8270965
40
0.4822176
50
358.3755224
51
0.0098023
0
ARC
8
DEFAULT_255_1_234
10
5.3951343
20
28.8298657
40
0.4066078
50
359.6214041
51
11.2839074
0
ARC
8
DEFAULT_255_1_234
10
5.522849
20
28.8565066
40
0.2761514
50
11.0482309
51
31.8146458
0
ARC
8
DEFAULT_255_1_234
10
5.5537533
20
28.8732584
40
0.2410679
50
32.3035391
51
38.082671
0
ARC
8
DEFAULT_255_1_234
10
5.5958193
20
28.9113662
40
0.1844966
50
36.825067
51
85.7415724
0
ARC
8
DEFAULT_255_1_234
10
5.5891026
20
28.8613301
40
0.2349122
50
85.0140713
51
90.0513278
0
LINE
8
DEFAULT_255_1_234
10
4.3078299
20
37.5598211
11
4.5897439
21
37.1116501
0
LINE
8
DEFAULT_255_1_234
10
4.5897439
20
37.1116501
11
4.8700516
21
37.5598211
0
LINE
8
DEFAULT_255_1_234
10
4.8700516
20
37.5598211
11
5.0515689
21
37.5598211
0
LINE
8
DEFAULT_255_1_234
10
5.0515689
20
37.5598211
11
4.6821089
21
36.9799296
0
LINE
8
DEFAULT_255_1_234
10
4.6821089
20
36.9799296
11
5.0604038
21
36.3904
0
LINE
8
DEFAULT_255_1_234
10
5.0604038
20
36.3904
11
4.8772802
21
36.3904
0
LINE
8
DEFAULT_255_1_234
10
4.8772802
20
36.3904
11
4.5897439
21
36.8466027
0
LINE
8
DEFAULT_255_1_234
10
4.5897439
20
36.8466027
11
4.3006014
21
36.3904
0
LINE
8
DEFAULT_255_1_234
10
4.3006014
20
36.3904
11
4.1182809
21
36.3904
0
LINE
8
DEFAULT_255_1_234
10
4.1182809
20
36.3904
11
4.497379
21
36.9799296
0
LINE
8
DEFAULT_255_1_234
10
4.497379
20
36.9799296
11
4.1271158
21
37.5598211
0
LINE
8
DEFAULT_255_1_234
10
4.1271158
20
37.5598211
11
4.3078299
21
37.5598211
0
LINE
8
DEFAULT_255_1_234
10
5.3880987
20
36.9461963
11
5.269229
21
36.9767169
0
LINE
8
DEFAULT_255_1_234
10
5.269229
20
36.9767169
11
5.3286639
21
37.5598211
0
LINE
8
DEFAULT_255_1_234
10
5.3286639
20
37.5598211
11
5.9278315
21
37.5598211
0
LINE
8
DEFAULT_255_1_234
10
5.9278315
20
37.5598211
11
5.9278315
21
37.4224784
0
LINE
8
DEFAULT_255_1_234
10
5.9278315
20
37.4224784
11
5.4547622
21
37.4224784
0
LINE
8
DEFAULT_255_1_234
10
5.4547622
20
37.4224784
11
5.4194225
21
37.1036184
0
LINE
8
DEFAULT_255_1_234
10
5.227464
20
36.6980156
11
5.3680194
21
36.6980156
0
LINE
8
DEFAULT_255_1_234
10
5.4274542
20
36.9783232
11
5.3880987
21
36.9461963
0
ARC
8
DEFAULT_255_1_234
10
5.6049009
20
36.785623
40
0.3681349
50
93.7182161
51
120.2538958
0
ARC
8
DEFAULT_255_1_234
10
5.6143272
20
36.7048394
40
0.449379
50
89.9660152
51
94.2496022
0
ARC
8
DEFAULT_255_1_234
10
5.6184006
20
36.7637549
40
0.390482
50
73.8043271
51
90.5585896
0
ARC
8
DEFAULT_255_1_234
10
5.6418903
20
36.8495602
40
0.3015334
50
41.3071453
51
73.5430202
0
ARC
8
DEFAULT_255_1_234
10
5.600273
20
36.8137324
40
0.3564457
50
13.5075983
51
41.2174222
0
ARC
8
DEFAULT_255_1_234
10
5.4360934
20
36.7707486
40
0.5261351
50
1.1331335
51
13.8829381
0
ARC
8
DEFAULT_255_1_234
10
5.2949303
20
36.7631665
40
0.6674378
50
359.9919444
51
1.544251
0
ARC
8
DEFAULT_255_1_234
10
5.4226129
20
36.759028
40
0.5397702
50
347.8572367
51
0.4293338
0
ARC
8
DEFAULT_255_1_234
10
5.5976447
20
36.7193736
40
0.3603188
50
323.673004
51
348.1672506
0
ARC
8
DEFAULT_255_1_234
10
5.6270955
20
36.7014168
40
0.3259678
50
316.8171152
51
323.1492751
0
ARC
8
DEFAULT_255_1_234
10
5.6332144
20
36.697746
40
0.3189975
50
281.8396411
51
316.5457803
0
ARC
8
DEFAULT_255_1_234
10
5.5956408
20
36.8532762
40
0.4789527
50
269.5770101
51
282.4214771
0
ARC
8
DEFAULT_255_1_234
10
5.5885219
20
36.8319125
40
0.45759
50
256.2427136
51
270.4486331
0
ARC
8
DEFAULT_255_1_234
10
5.5586121
20
36.7119229
40
0.3339303
50
228.9023911
51
256.3314342
0
ARC
8
DEFAULT_255_1_234
10
5.5512354
20
36.7002746
40
0.32031
50
193.753695
51
228.5271154
0
ARC
8
DEFAULT_255_1_234
10
5.6750308
20
36.73658
40
0.4492253
50
184.924711
51
194.497588
0
ARC
8
DEFAULT_255_1_234
10
5.6942875
20
36.7401591
40
0.3289787
50
187.3600538
51
198.6732863
0
ARC
8
DEFAULT_255_1_234
10
5.5893169
20
36.7037674
40
0.217884
50
198.4451669
51
217.794479
0
ARC
8
DEFAULT_255_1_234
10
5.5597344
20
36.6828085
40
0.1816698
50
218.2887171
51
228.5612368
0
ARC
8
DEFAULT_255_1_234
10
5.5695131
20
36.6959963
40
0.1980329
50
228.9654866
51
258.1234728
0
ARC
8
DEFAULT_255_1_234
10
5.5900841
20
36.7840833
40
0.2884748
50
257.7258293
51
270.401361
0
ARC
8
DEFAULT_255_1_234
10
5.5945727
20
36.7395821
40
0.2439788
50
269.4204404
51
286.4209037
0
ARC
8
DEFAULT_255_1_234
10
5.6094215
20
36.6856657
40
0.1880666
50
286.7251356
51
320.600362
0
ARC
8
DEFAULT_255_1_234
10
5.571104
20
36.7167595
40
0.2374121
50
320.6712579
51
344.5441685
0
ARC
8
DEFAULT_255_1_234
10
5.4554366
20
36.7507045
40
0.3579479
50
344.2412205
51
356.7357071
0
ARC
8
DEFAULT_255_1_234
10
5.3305515
20
36.7610444
40
0.4832297
50
356.3548756
51
0.0500261
0
ARC
8
DEFAULT_255_1_234
10
5.4642024
20
36.764165
40
0.3495889
50
359.5576869
51
12.953486
0
ARC
8
DEFAULT_255_1_234
10
5.5696921
20
36.7897434
40
0.2410532
50
12.6490276
51
41.6081334
0
ARC
8
DEFAULT_255_1_234
10
5.5927292
20
36.8093321
40
0.2108218
50
41.7850273
51
85.9892764
0
ARC
8
DEFAULT_255_1_234
10
5.5804029
20
36.7280462
40
0.2928454
50
84.6957577
51
90.0676183
0
ARC
8
DEFAULT_255_1_234
10
5.5780513
20
36.6611716
40
0.3597255
50
89.6804936
51
99.1614436
0
ARC
8
DEFAULT_255_1_234
10
5.5575144
20
36.7839131
40
0.235281
50
98.9830931
51
113.8908934
0
ARC
8
DEFAULT_255_1_234
10
5.5345554
20
36.8380587
40
0.176479
50
114.1950727
51
127.3641004
0
LINE
8
DEFAULT_255_1_234
10
4.4137299
20
45.4973211
11
4.6956439
21
45.0491501
0
LINE
8
DEFAULT_255_1_234
10
4.6956439
20
45.0491501
11
4.9759516
21
45.4973211
0
LINE
8
DEFAULT_255_1_234
10
4.9759516
20
45.4973211
11
5.1574689
21
45.4973211
0
LINE
8
DEFAULT_255_1_234
10
5.1574689
20
45.4973211
11
4.7880089
21
44.9174296
0
LINE
8
DEFAULT_255_1_234
10
4.7880089
20
44.9174296
11
5.1663038
21
44.3279
0
LINE
8
DEFAULT_255_1_234
10
5.1663038
20
44.3279
11
4.9831802
21
44.3279
0
LINE
8
DEFAULT_255_1_234
10
4.9831802
20
44.3279
11
4.6956439
21
44.7841027
0
LINE
8
DEFAULT_255_1_234
10
4.6956439
20
44.7841027
11
4.4065014
21
44.3279
0
LINE
8
DEFAULT_255_1_234
10
4.4065014
20
44.3279
11
4.2241809
21
44.3279
0
LINE
8
DEFAULT_255_1_234
10
4.2241809
20
44.3279
11
4.603279
21
44.9174296
0
LINE
8
DEFAULT_255_1_234
10
4.603279
20
44.9174296
11
4.2330158
21
45.4973211
0
LINE
8
DEFAULT_255_1_234
10
4.2330158
20
45.4973211
11
4.4137299
21
45.4973211
0
LINE
8
DEFAULT_255_1_234
10
5.934138
20
45.4973211
11
5.934138
21
44.720652
0
LINE
8
DEFAULT_255_1_234
10
5.934138
20
44.720652
11
6.0963791
21
44.720652
0
LINE
8
DEFAULT_255_1_234
10
6.0963791
20
44.720652
11
6.0963791
21
44.5993728
0
LINE
8
DEFAULT_255_1_234
10
6.0963791
20
44.5993728
11
5.934138
21
44.5993728
0
LINE
8
DEFAULT_255_1_234
10
5.934138
20
44.5993728
11
5.934138
21
44.3279
0
LINE
8
DEFAULT_255_1_234
10
5.934138
20
44.3279
11
5.7847477
21
44.3279
0
LINE
8
DEFAULT_255_1_234
10
5.7847477
20
44.3279
11
5.7847477
21
44.5993728
0
LINE
8
DEFAULT_255_1_234
10
5.7847477
20
44.5993728
11
5.2522434
21
44.5993728
0
LINE
8
DEFAULT_255_1_234
10
5.2522434
20
44.5993728
11
5.2522434
21
44.6869187
0
LINE
8
DEFAULT_255_1_234
10
5.2522434
20
44.6869187
11
5.7759127
21
45.4973211
0
LINE
8
DEFAULT_255_1_234
10
5.7759127
20
45.4973211
11
5.934138
21
45.4973211
0
LINE
8
DEFAULT_255_1_234
10
5.7670778
20
45.2619912
11
5.4209099
21
44.720652
0
LINE
8
DEFAULT_255_1_234
10
5.4209099
20
44.720652
11
5.7847477
21
44.720652
0
LINE
8
DEFAULT_255_1_234
10
5.7847477
20
44.720652
11
5.7847477
21
45.2941181
0
LINE
8
DEFAULT_255_1_234
10
5.7847477
20
45.2941181
11
5.7670778
21
45.2619912
0
LINE
8
DEFAULT_255_1_234
10
4.3078299
20
53.4348211
11
4.5897439
21
52.9866501
0
LINE
8
DEFAULT_255_1_234
10
4.5897439
20
52.9866501
11
4.8700516
21
53.4348211
0
LINE
8
DEFAULT_255_1_234
10
4.8700516
20
53.4348211
11
5.0515689
21
53.4348211
0
LINE
8
DEFAULT_255_1_234
10
5.0515689
20
53.4348211
11
4.6821089
21
52.8549296
0
LINE
8
DEFAULT_255_1_234
10
4.6821089
20
52.8549296
11
5.0604038
21
52.2654
0
LINE
8
DEFAULT_255_1_234
10
5.0604038
20
52.2654
11
4.8772802
21
52.2654
0
LINE
8
DEFAULT_255_1_234
10
4.8772802
20
52.2654
11
4.5897439
21
52.7216027
0
LINE
8
DEFAULT_255_1_234
10
4.5897439
20
52.7216027
11
4.3006014
21
52.2654
0
LINE
8
DEFAULT_255_1_234
10
4.3006014
20
52.2654
11
4.1182809
21
52.2654
0
LINE
8
DEFAULT_255_1_234
10
4.1182809
20
52.2654
11
4.497379
21
52.8549296
0
LINE
8
DEFAULT_255_1_234
10
4.497379
20
52.8549296
11
4.1271158
21
53.4348211
0
LINE
8
DEFAULT_255_1_234
10
4.1271158
20
53.4348211
11
4.3078299
21
53.4348211
0
LINE
8
DEFAULT_255_1_234
10
5.417013
20
52.8011169
11
5.417013
21
52.9223962
0
LINE
8
DEFAULT_255_1_234
10
5.417013
20
52.9223962
11
5.5286542
21
52.9223962
0
LINE
8
DEFAULT_255_1_234
10
5.338302
20
53.1280087
11
5.1897148
21
53.1280087
0
LINE
8
DEFAULT_255_1_234
10
5.1792735
20
52.5738188
11
5.3286639
21
52.5738188
0
LINE
8
DEFAULT_255_1_234
10
5.5286542
20
52.8011169
11
5.417013
21
52.8011169
0
ARC
8
DEFAULT_255_1_234
10
5.5257408
20
53.2616713
40
0.3392876
50
270.4919872
51
281.8951556
0
ARC
8
DEFAULT_255_1_234
10
5.549867
20
53.1514702
40
0.2264817
50
281.6691735
51
301.2943132
0
ARC
8
DEFAULT_255_1_234
10
5.566888
20
53.1203304
40
0.1910381
50
301.7833094
51
311.7545298
0
ARC
8
DEFAULT_255_1_234
10
5.5760456
20
53.1101748
40
0.1773635
50
311.7323931
51
354.2802411
0
ARC
8
DEFAULT_255_1_234
10
5.5034081
20
53.1226722
40
0.2509385
50
353.0937916
51
0.1181479
0
ARC
8
DEFAULT_255_1_234
10
5.4572866
20
53.1274386
40
0.2970898
50
359.1805295
51
15.0453146
0
ARC
8
DEFAULT_255_1_234
10
5.5918703
20
53.1666992
40
0.1569564
50
13.9577229
51
77.6713066
0
ARC
8
DEFAULT_255_1_234
10
5.5532232
20
53.0281949
40
0.3006298
50
76.1116566
51
90.7026153
0
ARC
8
DEFAULT_255_1_234
10
5.547307
20
53.0555545
40
0.2732568
50
89.5324876
51
103.531937
0
ARC
8
DEFAULT_255_1_234
10
5.5272514
20
53.1354884
40
0.1908508
50
103.2931773
51
133.5619022
0
ARC
8
DEFAULT_255_1_234
10
5.5228003
20
53.1414375
40
0.1834746
50
133.8349307
51
173.5344437
0
ARC
8
DEFAULT_255_1_234
10
5.5951046
20
53.1286213
40
0.2568033
50
172.5096846
51
180.1366907
0
ARC
8
DEFAULT_255_1_234
10
5.499994
20
53.1320622
40
0.3103056
50
155.3484492
51
180.7484736
0
ARC
8
DEFAULT_255_1_234
10
5.4951029
20
53.1291846
40
0.3070957
50
131.5744599
51
154.4798489
0
ARC
8
DEFAULT_255_1_234
10
5.5264176
20
53.097531
40
0.3515643
50
96.9875458
51
131.9690667
0
ARC
8
DEFAULT_255_1_234
10
5.5483656
20
52.9729636
40
0.4779224
50
89.8596053
51
97.7825159
0
ARC
8
DEFAULT_255_1_234
10
5.5531719
20
52.9467616
40
0.5041361
50
78.3655447
51
90.4131539
0
ARC
8
DEFAULT_255_1_234
10
5.5889637
20
53.1126887
40
0.3344039
50
56.6229102
51
78.638727
0
ARC
8
DEFAULT_255_1_234
10
5.6104581
20
53.1502805
40
0.2912001
50
47.0253525
51
56.0854072
0
ARC
8
DEFAULT_255_1_234
10
5.6124361
20
53.1542223
40
0.2869704
50
10.9208013
51
46.7778124
0
ARC
8
DEFAULT_255_1_234
10
5.4760427
20
53.1226857
40
0.426899
50
359.6364486
51
11.6087304
0
ARC
8
DEFAULT_255_1_234
10
5.6595271
20
53.1211752
40
0.243409
50
332.3549906
51
359.7179418
0
ARC
8
DEFAULT_255_1_234
10
5.5944873
20
53.1520142
40
0.3153459
50
325.2333722
51
332.8745602
0
ARC
8
DEFAULT_255_1_234
10
5.6097496
20
53.1413828
40
0.2967456
50
292.9802137
51
325.2392345
0
ARC
8
DEFAULT_255_1_234
10
5.582287
20
53.1947863
40
0.3566604
50
292.5402179
51
293.6924929
0
ARC
8
DEFAULT_255_1_234
10
5.6215466
20
52.5493091
40
0.3307468
50
57.6435486
51
72.8625112
0
ARC
8
DEFAULT_255_1_234
10
5.6569966
20
52.6067549
40
0.2632492
50
36.7248896
51
57.4697979
0
ARC
8
DEFAULT_255_1_234
10
5.6558598
20
52.608022
40
0.2634081
50
8.0545065
51
36.356114
0
ARC
8
DEFAULT_255_1_234
10
5.5695784
20
52.5925174
40
0.3510261
50
359.8320645
51
8.5869982
0
ARC
8
DEFAULT_255_1_234
10
5.532056
20
52.5877101
40
0.3885653
50
343.9829931
51
0.5571613
0
ARC
8
DEFAULT_255_1_234
10
5.6206757
20
52.5634438
40
0.2966924
50
311.6359546
51
343.7651759
0
ARC
8
DEFAULT_255_1_234
10
5.5828326
20
52.6061102
40
0.3537231
50
279.7829875
51
311.6255694
0
ARC
8
DEFAULT_255_1_234
10
5.5527102
20
52.749828
40
0.5004971
50
269.7286406
51
280.3856417
0
ARC
8
DEFAULT_255_1_234
10
5.5465175
20
52.7456996
40
0.4963778
50
256.6828919
51
270.4412052
0
ARC
8
DEFAULT_255_1_234
10
5.5126471
20
52.6072394
40
0.3538406
50
229.4223008
51
256.8556159
0
ARC
8
DEFAULT_255_1_234
10
5.4711864
20
52.5605736
40
0.2914296
50
181.818294
51
229.6455059
0
ARC
8
DEFAULT_255_1_234
10
5.575182
20
52.5736496
40
0.3959084
50
179.9755256
51
183.2323064
0
ARC
8
DEFAULT_255_1_234
10
5.5579566
20
52.5716037
40
0.2293034
50
179.4465117
51
196.2869258
0
ARC
8
DEFAULT_255_1_234
10
5.5091974
20
52.5582651
40
0.1787621
50
196.5661473
51
227.705904
0
ARC
8
DEFAULT_255_1_234
10
5.5256069
20
52.5766155
40
0.2033784
50
227.7652068
51
257.8762805
0
ARC
8
DEFAULT_255_1_234
10
5.5481039
20
52.6709156
40
0.3003081
50
257.4584385
51
270.426602
0
ARC
8
DEFAULT_255_1_234
10
5.5526605
20
52.6998996
40
0.329292
50
269.5962073
51
280.8789248
0
ARC
8
DEFAULT_255_1_234
10
5.5756134
20
52.5852685
40
0.2123908
50
280.6346389
51
299.8595945
0
ARC
8
DEFAULT_255_1_234
10
5.594704
20
52.5490212
40
0.171457
50
300.3576302
51
314.5517981
0
ARC
8
DEFAULT_255_1_234
10
5.5864101
20
52.5550919
40
0.1816095
50
315.0728369
51
345.0431014
0
ARC
8
DEFAULT_255_1_234
10
5.4940915
20
52.5819841
40
0.2777492
50
344.5986631
51
357.9269593
0
ARC
8
DEFAULT_255_1_234
10
5.4045241
20
52.5881276
40
0.3674917
50
357.4748886
51
0.0231117
0
ARC
8
DEFAULT_255_1_234
10
5.5068351
20
52.5905679
40
0.2651907
50
359.5047933
51
13.4239635
0
ARC
8
DEFAULT_255_1_234
10
5.5934994
20
52.6127478
40
0.1757509
50
12.9498199
51
48.7551375
0
ARC
8
DEFAULT_255_1_234
10
5.5752728
20
52.58784
40
0.2065134
50
49.5088623
51
72.1836453
0
ARC
8
DEFAULT_255_1_234
10
5.5394881
20
52.4816291
40
0.3185836
50
71.9010081
51
84.3554254
0
ARC
8
DEFAULT_255_1_234
10
5.5233513
20
52.3455326
40
0.4556151
50
84.0193428
51
89.333121
0
LINE
8
DEFAULT_255_1_234
10
4.3078299
20
61.3723211
11
4.5897439
21
60.9241501
0
LINE
8
DEFAULT_255_1_234
10
4.5897439
20
60.9241501
11
4.8700516
21
61.3723211
0
LINE
8
DEFAULT_255_1_234
10
4.8700516
20
61.3723211
11
5.0515689
21
61.3723211
0
LINE
8
DEFAULT_255_1_234
10
5.0515689
20
61.3723211
11
4.6821089
21
60.7924296
0
LINE
8
DEFAULT_255_1_234
10
4.6821089
20
60.7924296
11
5.0604038
21
60.2029
0
LINE
8
DEFAULT_255_1_234
10
5.0604038
20
60.2029
11
4.8772802
21
60.2029
0
LINE
8
DEFAULT_255_1_234
10
4.8772802
20
60.2029
11
4.5897439
21
60.6591027
0
LINE
8
DEFAULT_255_1_234
10
4.5897439
20
60.6591027
11
4.3006014
21
60.2029
0
LINE
8
DEFAULT_255_1_234
10
4.3006014
20
60.2029
11
4.1182809
21
60.2029
0
LINE
8
DEFAULT_255_1_234
10
4.1182809
20
60.2029
11
4.497379
21
60.7924296
0
LINE
8
DEFAULT_255_1_234
10
4.497379
20
60.7924296
11
4.1271158
21
61.3723211
0
LINE
8
DEFAULT_255_1_234
10
4.1271158
20
61.3723211
11
4.3078299
21
61.3723211
0
LINE
8
DEFAULT_255_1_234
10
5.9671871
20
60.3241792
11
5.9671871
21
60.2029
0
LINE
8
DEFAULT_255_1_234
10
5.9671871
20
60.2029
11
5.2009592
21
60.2029
0
LINE
8
DEFAULT_255_1_234
10
5.2009592
20
60.2029
11
5.2009592
21
60.3097221
0
LINE
8
DEFAULT_255_1_234
10
5.2009592
20
60.3097221
11
5.6057588
21
60.7594995
0
LINE
8
DEFAULT_255_1_234
10
5.3270575
20
61.0277595
11
5.1784704
21
61.0277595
0
LINE
8
DEFAULT_255_1_234
10
5.6933048
20
60.6639218
11
5.380067
21
60.3241792
0
LINE
8
DEFAULT_255_1_234
10
5.380067
20
60.3241792
11
5.9671871
21
60.3241792
0
ARC
8
DEFAULT_255_1_234
10
4.2567422
20
61.9524527
40
1.8008286
50
318.5132453
51
320.7828378
0
ARC
8
DEFAULT_255_1_234
10
4.7854396
20
61.5221426
40
1.1191493
50
320.7372736
51
323.9737074
0
ARC
8
DEFAULT_255_1_234
10
5.1774252
20
61.2381361
40
0.6350923
50
323.8961724
51
328.6421089
0
ARC
8
DEFAULT_255_1_234
10
5.3820848
20
61.1119031
40
0.3946393
50
328.8299013
51
331.789948
0
ARC
8
DEFAULT_255_1_234
10
5.4818026
20
61.0604509
40
0.2824501
50
331.4255242
51
352.9364833
0
ARC
8
DEFAULT_255_1_234
10
5.4954527
20
61.0573976
40
0.2685315
50
353.2248685
51
0.0169286
0
ARC
8
DEFAULT_255_1_234
10
5.5164404
20
61.059695
40
0.2475536
50
359.4866256
51
15.9339782
0
ARC
8
DEFAULT_255_1_234
10
5.5671389
20
61.0733286
40
0.1950618
50
16.1714718
51
43.5284424
0
ARC
8
DEFAULT_255_1_234
10
5.5748698
20
61.0810573
40
0.184134
50
43.4415429
51
83.1661404
0
ARC
8
DEFAULT_255_1_234
10
5.5614616
20
61.0073771
40
0.258926
50
82.160215
51
90.1505798
0
ARC
8
DEFAULT_255_1_234
10
5.5583043
20
60.9536865
40
0.3126255
50
89.5460705
51
102.5418777
0
ARC
8
DEFAULT_255_1_234
10
5.5340129
20
61.0567665
40
0.2067346
50
102.1739365
51
129.2061916
0
ARC
8
DEFAULT_255_1_234
10
5.5261201
20
61.0692094
40
0.1921118
50
129.7279328
51
135.7542026
0
ARC
8
DEFAULT_255_1_234
10
5.5382729
20
61.0595045
40
0.2075944
50
136.175737
51
166.3674722
0
ARC
8
DEFAULT_255_1_234
10
5.6389648
20
61.0325182
40
0.3118201
50
165.9092917
51
178.8683903
0
ARC
8
DEFAULT_255_1_234
10
5.7254509
20
61.0278179
40
0.3983935
50
178.438168
51
180.0083905
0
ARC
8
DEFAULT_255_1_234
10
5.5853111
20
61.0317231
40
0.4068601
50
163.2878735
51
180.5581814
0
ARC
8
DEFAULT_255_1_234
10
5.5051373
20
61.053784
40
0.3237344
50
133.454115
51
162.9470031
0
ARC
8
DEFAULT_255_1_234
10
5.5229914
20
61.0348
40
0.349795
50
100.7869394
51
133.4384016
0
ARC
8
DEFAULT_255_1_234
10
5.5577686
20
60.8799319
40
0.5084616
50
89.6605301
51
101.3704185
0
ARC
8
DEFAULT_255_1_234
10
5.5644024
20
60.8860496
40
0.502348
50
78.2171172
51
90.4130393
0
ARC
8
DEFAULT_255_1_234
10
5.5999103
20
61.0484637
40
0.3361092
50
55.9268222
51
78.4888551
0
ARC
8
DEFAULT_255_1_234
10
5.6195543
20
61.0823324
40
0.2970617
50
47.9292255
51
55.4054003
0
ARC
8
DEFAULT_255_1_234
10
5.6297103
20
61.0926502
40
0.2825983
50
4.3347696
51
48.0560701
0
ARC
8
DEFAULT_255_1_234
10
5.5201497
20
61.0756601
40
0.393225
50
359.925209
51
5.5967654
0
ARC
8
DEFAULT_255_1_234
10
5.5630389
20
61.0812816
40
0.3503892
50
337.8914096
51
358.9967724
0
ARC
8
DEFAULT_255_1_234
10
5.2916801
20
61.1859706
40
0.6412172
50
326.9135351
51
338.3505194
0
ARC
8
DEFAULT_255_1_234
10
4.8931105
20
61.4414284
40
1.1146189
50
319.6472867
51
327.095818
0
ARC
8
DEFAULT_255_1_234
10
4.5098108
20
61.7576
40
1.6114559
50
317.2586784
51
319.9046139
0
LINE
8
DEFAULT_255_1_234
10
4.2994299
20
69.3098211
11
4.5813439
21
68.8616501
0
LINE
8
DEFAULT_255_1_234
10
4.5813439
20
68.8616501
11
4.8616516
21
69.3098211
0
LINE
8
DEFAULT_255_1_234
10
4.8616516
20
69.3098211
11
5.0431689
21
69.3098211
0
LINE
8
DEFAULT_255_1_234
10
5.0431689
20
69.3098211
11
4.6737089
21
68.7299296
0
LINE
8
DEFAULT_255_1_234
10
4.6737089
20
68.7299296
11
5.0520038
21
68.1404
0
LINE
8
DEFAULT_255_1_234
10
5.0520038
20
68.1404
11
4.8688802
21
68.1404
0
LINE
8
DEFAULT_255_1_234
10
4.8688802
20
68.1404
11
4.5813439
21
68.5966027
0
LINE
8
DEFAULT_255_1_234
10
4.5813439
20
68.5966027
11
4.2922014
21
68.1404
0
LINE
8
DEFAULT_255_1_234
10
4.2922014
20
68.1404
11
4.1098809
21
68.1404
0
LINE
8
DEFAULT_255_1_234
10
4.1098809
20
68.1404
11
4.488979
21
68.7299296
0
LINE
8
DEFAULT_255_1_234
10
4.488979
20
68.7299296
11
4.1187158
21
69.3098211
0
LINE
8
DEFAULT_255_1_234
10
4.1187158
20
69.3098211
11
4.2994299
21
69.3098211
0
LINE
8
DEFAULT_255_1_234
10
5.6808889
20
69.3154433
11
5.6808889
21
68.1404
0
LINE
8
DEFAULT_255_1_234
10
5.6808889
20
68.1404
11
5.5314986
21
68.1404
0
LINE
8
DEFAULT_255_1_234
10
5.5314986
20
68.1404
11
5.5314986
21
69.1307133
0
LINE
8
DEFAULT_255_1_234
10
5.5314986
20
69.1307133
11
5.2319147
21
69.0206785
0
LINE
8
DEFAULT_255_1_234
10
5.2319147
20
69.0206785
11
5.2319147
21
69.1556117
0
LINE
8
DEFAULT_255_1_234
10
5.2319147
20
69.1556117
11
5.6575969
21
69.3154433
0
LINE
8
DEFAULT_255_1_234
10
5.6575969
20
69.3154433
11
5.6808889
21
69.3154433
0
LINE
8
DEFAULT_255_1_234
10
4.3078299
20
77.2473211
11
4.5897439
21
76.7991501
0
LINE
8
DEFAULT_255_1_234
10
4.5897439
20
76.7991501
11
4.8700516
21
77.2473211
0
LINE
8
DEFAULT_255_1_234
10
4.8700516
20
77.2473211
11
5.0515689
21
77.2473211
0
LINE
8
DEFAULT_255_1_234
10
5.0515689
20
77.2473211
11
4.6821089
21
76.6674296
0
LINE
8
DEFAULT_255_1_234
10
4.6821089
20
76.6674296
11
5.0604038
21
76.0779
0
LINE
8
DEFAULT_255_1_234
10
5.0604038
20
76.0779
11
4.8772802
21
76.0779
0
LINE
8
DEFAULT_255_1_234
10
4.8772802
20
76.0779
11
4.5897439
21
76.5341027
0
LINE
8
DEFAULT_255_1_234
10
4.5897439
20
76.5341027
11
4.3006014
21
76.0779
0
LINE
8
DEFAULT_255_1_234
10
4.3006014
20
76.0779
11
4.1182809
21
76.0779
0
LINE
8
DEFAULT_255_1_234
10
4.1182809
20
76.0779
11
4.497379
21
76.6674296
0
LINE
8
DEFAULT_255_1_234
10
4.497379
20
76.6674296
11
4.1271158
21
77.2473211
0
LINE
8
DEFAULT_255_1_234
10
4.1271158
20
77.2473211
11
4.3078299
21
77.2473211
0
LINE
8
DEFAULT_255_1_234
10
5.9342569
20
76.7694327
11
5.9342569
21
76.5766709
0
LINE
8
DEFAULT_255_1_234
10
5.1961402
20
76.5565916
11
5.1961402
21
76.7549755
0
LINE
8
DEFAULT_255_1_234
10
5.7856698
20
76.5365123
11
5.7856698
21
76.7798739
0
LINE
8
DEFAULT_255_1_234
10
5.3447273
20
76.7911184
11
5.3447273
21
76.5533789
0
ARC
8
DEFAULT_255_1_234
10
4.7095459
20
76.5717805
40
1.2247208
50
353.8441951
51
0.2287902
0
ARC
8
DEFAULT_255_1_234
10
5.1734963
20
76.5199806
40
0.7578929
50
344.4934747
51
353.9765454
0
ARC
8
DEFAULT_255_1_234
10
5.4727553
20
76.4348981
40
0.4467846
50
329.2803592
51
344.7472793
0
ARC
8
DEFAULT_255_1_234
10
5.5720378
20
76.3804018
40
0.3336173
50
324.9352394
51
328.6160465
0
ARC
8
DEFAULT_255_1_234
10
5.6097486
20
76.3540427
40
0.2876076
50
280.580143
51
324.9173126
0
ARC
8
DEFAULT_255_1_234
10
5.5696279
20
76.5211099
40
0.4592847
50
269.5977311
51
281.6734359
0
ARC
8
DEFAULT_255_1_234
10
5.5624185
20
76.5091173
40
0.4472986
50
256.6228859
51
270.51044
0
ARC
8
DEFAULT_255_1_234
10
5.5222162
20
76.3542877
40
0.2873874
50
215.8618325
51
257.2788573
0
ARC
8
DEFAULT_255_1_234
10
5.6243194
20
76.4227977
40
0.4102928
50
197.9693508
51
215.2623606
0
ARC
8
DEFAULT_255_1_234
10
5.872831
20
76.5066709
40
0.6725652
50
187.8816417
51
198.2346507
0
ARC
8
DEFAULT_255_1_234
10
6.2686518
20
76.5638079
40
1.0724845
50
180.8976217
51
188.0055519
0
ARC
8
DEFAULT_255_1_234
10
6.5486706
20
76.5741777
40
1.3526448
50
180.7449369
51
181.1510016
0
ARC
8
DEFAULT_255_1_234
10
6.3909435
20
76.7598042
40
1.1948131
50
173.7675579
51
180.231553
0
ARC
8
DEFAULT_255_1_234
10
5.9391582
20
76.8108666
40
0.7401564
50
164.3058563
51
173.9002247
0
ARC
8
DEFAULT_255_1_234
10
5.647965
20
76.8947656
40
0.4371288
50
148.7922025
51
164.568378
0
ARC
8
DEFAULT_255_1_234
10
5.5528103
20
76.9478929
40
0.3282386
50
144.5883898
51
148.1176286
0
ARC
8
DEFAULT_255_1_234
10
5.5185001
20
76.9718315
40
0.2864044
50
101.6440918
51
144.514236
0
ARC
8
DEFAULT_255_1_234
10
5.5610067
20
76.8029069
40
0.4604934
50
89.5284041
51
102.5819763
0
ARC
8
DEFAULT_255_1_234
10
5.5689155
20
76.7990018
40
0.464401
50
77.0437873
51
90.5081339
0
ARC
8
DEFAULT_255_1_234
10
5.6091157
20
76.9632615
40
0.2953195
50
48.2778575
51
77.4994676
0
ARC
8
DEFAULT_255_1_234
10
5.6163788
20
76.9761746
40
0.2808655
50
36.3142134
51
47.6305865
0
ARC
8
DEFAULT_255_1_234
10
5.5295095
20
76.9176515
40
0.3855453
50
18.2931786
51
35.6769206
0
ARC
8
DEFAULT_255_1_234
10
5.2751854
20
76.8303593
40
0.654423
50
8.024666
51
18.5605216
0
ARC
8
DEFAULT_255_1_234
10
4.8588774
20
76.7688792
40
1.0752407
50
1.1274072
51
8.1718305
0
ARC
8
DEFAULT_255_1_234
10
4.5352964
20
76.7561885
40
1.3990231
50
0.5424119
51
1.3863029
0
ARC
8
DEFAULT_255_1_234
10
4.7174342
20
76.7834342
40
1.0682415
50
359.8090433
51
4.9407866
0
ARC
8
DEFAULT_255_1_234
10
5.1384356
20
76.8210113
40
0.6455691
50
4.8362157
51
12.2904523
0
ARC
8
DEFAULT_255_1_234
10
5.4139471
20
76.8823965
40
0.3633074
50
12.0805627
51
23.8173984
0
ARC
8
DEFAULT_255_1_234
10
5.5313176
20
76.9320919
40
0.2358723
50
24.2871213
51
31.3935614
0
ARC
8
DEFAULT_255_1_234
10
5.5837874
20
76.9664233
40
0.1732111
50
30.7407893
51
82.4657128
0
ARC
8
DEFAULT_255_1_234
10
5.5658008
20
76.8780691
40
0.263235
50
81.1060089
51
90.2184952
0
ARC
8
DEFAULT_255_1_234
10
5.5622307
20
76.9038924
40
0.2374236
50
89.3806855
51
105.6762551
0
ARC
8
DEFAULT_255_1_234
10
5.5438938
20
76.9705567
40
0.1682847
50
105.7981136
51
149.7388061
0
ARC
8
DEFAULT_255_1_234
10
5.6503016
20
76.906595
40
0.2924306
50
149.4208916
51
163.6286378
0
ARC
8
DEFAULT_255_1_234
10
5.8593904
20
76.842825
40
0.5110213
50
163.3763315
51
172.1410975
0
ARC
8
DEFAULT_255_1_234
10
6.1894623
20
76.7955518
40
0.8444586
50
172.0259487
51
178.0703232
0
ARC
8
DEFAULT_255_1_234
10
6.4924712
20
76.7811906
40
1.1477868
50
177.8631668
51
179.5044149
0
ARC
8
DEFAULT_255_1_234
10
6.3852117
20
76.5497389
40
1.0404907
50
179.7995573
51
185.2460446
0
ARC
8
DEFAULT_255_1_234
10
5.9809156
20
76.5114513
40
0.6343885
50
185.1411642
51
193.0079639
0
ARC
8
DEFAULT_255_1_234
10
5.7165629
20
76.4489641
40
0.3627568
50
192.7897626
51
205.2507664
0
ARC
8
DEFAULT_255_1_234
10
5.6119176
20
76.4022415
40
0.2481908
50
205.8005384
51
211.2537509
0
ARC
8
DEFAULT_255_1_234
10
5.5595616
20
76.367158
40
0.1852521
50
210.3789793
51
238.4008143
0
ARC
8
DEFAULT_255_1_234
10
5.5576138
20
76.3718376
40
0.1882621
50
239.6520629
51
265.9793761
0
ARC
8
DEFAULT_255_1_234
10
5.5661338
20
76.4390427
40
0.2559272
50
265.1315437
51
270.060332
0
ARC
8
DEFAULT_255_1_234
10
5.5690117
20
76.4066534
40
0.2235528
50
269.3314664
51
287.2178029
0
ARC
8
DEFAULT_255_1_234
10
5.5827969
20
76.3563279
40
0.1714108
50
287.7958004
51
329.080874
0
ARC
8
DEFAULT_255_1_234
10
5.4870426
20
76.416093
40
0.2842745
50
328.6634704
51
343.3325132
0
ARC
8
DEFAULT_255_1_234
10
5.2697446
20
76.4837863
40
0.5118644
50
343.0499468
51
351.9393422
0
ARC
8
DEFAULT_255_1_234
10
4.9230746
20
76.5348949
40
0.8622784
50
351.8069023
51
357.7959224
0
ARC
8
DEFAULT_255_1_234
10
4.5995302
20
76.5516721
40
1.1862365
50
357.5871873
51
359.2677531
0
LINE
8
DEFAULT_255_1_234
10
22.1790119
20
84.1366792
11
22.1790119
21
84.0154
0
LINE
8
DEFAULT_255_1_234
10
22.1790119
20
84.0154
11
21.412784
21
84.0154
0
LINE
8
DEFAULT_255_1_234
10
21.412784
20
84.0154
11
21.412784
21
84.1222221
0
LINE
8
DEFAULT_255_1_234
10
21.412784
20
84.1222221
11
21.8175836
21
84.5719995
0
LINE
8
DEFAULT_255_1_234
10
21.5388823
20
84.8402595
11
21.3902952
21
84.8402595
0
LINE
8
DEFAULT_255_1_234
10
21.9051296
20
84.4764218
11
21.5918918
21
84.1366792
0
LINE
8
DEFAULT_255_1_234
10
21.5918918
20
84.1366792
11
22.1790119
21
84.1366792
0
ARC
8
DEFAULT_255_1_234
10
20.468567
20
85.7649527
40
1.8008286
50
318.5132453
51
320.7828378
0
ARC
8
DEFAULT_255_1_234
10
20.9972644
20
85.3346426
40
1.1191493
50
320.7372736
51
323.9737074
0
ARC
8
DEFAULT_255_1_234
10
21.3892501
20
85.0506361
40
0.6350923
50
323.8961724
51
328.6421089
0
ARC
8
DEFAULT_255_1_234
10
21.5939096
20
84.9244031
40
0.3946393
50
328.8299013
51
331.789948
0
ARC
8
DEFAULT_255_1_234
10
21.6936274
20
84.8729509
40
0.2824501
50
331.4255242
51
352.9364833
0
ARC
8
DEFAULT_255_1_234
10
21.7072775
20
84.8698976
40
0.2685315
50
353.2248685
51
0.0169286
0
ARC
8
DEFAULT_255_1_234
10
21.7282652
20
84.872195
40
0.2475536
50
359.4866256
51
15.9339782
0
ARC
8
DEFAULT_255_1_234
10
21.7789637
20
84.8858286
40
0.1950618
50
16.1714718
51
43.5284424
0
ARC
8
DEFAULT_255_1_234
10
21.7866946
20
84.8935573
40
0.184134
50
43.4415429
51
83.1661404
0
ARC
8
DEFAULT_255_1_234
10
21.7732864
20
84.8198771
40
0.258926
50
82.160215
51
90.1505798
0
ARC
8
DEFAULT_255_1_234
10
21.7701291
20
84.7661865
40
0.3126255
50
89.5460705
51
102.5418777
0
ARC
8
DEFAULT_255_1_234
10
21.7458377
20
84.8692665
40
0.2067346
50
102.1739365
51
129.2061916
0
ARC
8
DEFAULT_255_1_234
10
21.7379449
20
84.8817094
40
0.1921118
50
129.7279328
51
135.7542026
0
ARC
8
DEFAULT_255_1_234
10
21.7500977
20
84.8720045
40
0.2075944
50
136.175737
51
166.3674722
0
ARC
8
DEFAULT_255_1_234
10
21.8507896
20
84.8450182
40
0.3118201
50
165.9092917
51
178.8683903
0
ARC
8
DEFAULT_255_1_234
10
21.9372757
20
84.8403179
40
0.3983935
50
178.438168
51
180.0083905
0
ARC
8
DEFAULT_255_1_234
10
21.7971359
20
84.8442231
40
0.4068601
50
163.2878735
51
180.5581814
0
ARC
8
DEFAULT_255_1_234
10
21.7169621
20
84.866284
40
0.3237344
50
133.454115
51
162.9470031
0
ARC
8
DEFAULT_255_1_234
10
21.7348162
20
84.8473
40
0.349795
50
100.7869394
51
133.4384016
0
ARC
8
DEFAULT_255_1_234
10
21.7695934
20
84.6924319
40
0.5084616
50
89.6605301
51
101.3704185
0
ARC
8
DEFAULT_255_1_234
10
21.7762273
20
84.6985496
40
0.502348
50
78.2171172
51
90.4130393
0
ARC
8
DEFAULT_255_1_234
10
21.8117351
20
84.8609637
40
0.3361092
50
55.9268222
51
78.4888551
0
ARC
8
DEFAULT_255_1_234
10
21.8313791
20
84.8948324
40
0.2970617
50
47.9292255
51
55.4054003
0
ARC
8
DEFAULT_255_1_234
10
21.8415352
20
84.9051502
40
0.2825983
50
4.3347696
51
48.0560701
0
ARC
8
DEFAULT_255_1_234
10
21.7319745
20
84.8881601
40
0.393225
50
359.925209
51
5.5967654
0
ARC
8
DEFAULT_255_1_234
10
21.7748637
20
84.8937816
40
0.3503892
50
337.8914096
51
358.9967724
0
ARC
8
DEFAULT_255_1_234
10
21.5035049
20
84.9984706
40
0.6412172
50
326.9135351
51
338.3505194
0
ARC
8
DEFAULT_255_1_234
10
21.1049353
20
85.2539284
40
1.1146189
50
319.6472867
51
327.095818
0
ARC
8
DEFAULT_255_1_234
10
20.7216356
20
85.5701
40
1.6114559
50
317.2586784
51
319.9046139
0
LINE
8
DEFAULT_255_1_234
10
22.9637127
20
85.1848211
11
22.9637127
21
84.408152
0
LINE
8
DEFAULT_255_1_234
10
22.9637127
20
84.408152
11
23.1259538
21
84.408152
0
LINE
8
DEFAULT_255_1_234
10
23.1259538
20
84.408152
11
23.1259538
21
84.2868728
0
LINE
8
DEFAULT_255_1_234
10
23.1259538
20
84.2868728
11
22.9637127
21
84.2868728
0
LINE
8
DEFAULT_255_1_234
10
22.9637127
20
84.2868728
11
22.9637127
21
84.0154
0
LINE
8
DEFAULT_255_1_234
10
22.9637127
20
84.0154
11
22.8143224
21
84.0154
0
LINE
8
DEFAULT_255_1_234
10
22.8143224
20
84.0154
11
22.8143224
21
84.2868728
0
LINE
8
DEFAULT_255_1_234
10
22.8143224
20
84.2868728
11
22.2818181
21
84.2868728
0
LINE
8
DEFAULT_255_1_234
10
22.2818181
20
84.2868728
11
22.2818181
21
84.3744187
0
LINE
8
DEFAULT_255_1_234
10
22.2818181
20
84.3744187
11
22.8054875
21
85.1848211
0
LINE
8
DEFAULT_255_1_234
10
22.8054875
20
85.1848211
11
22.9637127
21
85.1848211
0
LINE
8
DEFAULT_255_1_234
10
22.7966525
20
84.9494912
11
22.4504846
21
84.408152
0
LINE
8
DEFAULT_255_1_234
10
22.4504846
20
84.408152
11
22.8143224
21
84.408152
0
LINE
8
DEFAULT_255_1_234
10
22.8143224
20
84.408152
11
22.8143224
21
84.9816181
0
LINE
8
DEFAULT_255_1_234
10
22.8143224
20
84.9816181
11
22.7966525
21
84.9494912
0
LINE
8
DEFAULT_255_1_234
10
24.162048
20
84.597701
11
24.162048
21
84.1688062
0
LINE
8
DEFAULT_255_1_234
10
23.260887
20
84.5438884
11
23.260887
21
84.6458915
0
LINE
8
DEFAULT_255_1_234
10
24.162048
20
84.8418659
11
24.0078387
21
84.8418659
0
LINE
8
DEFAULT_255_1_234
10
23.4158996
20
84.6499073
11
23.4158996
21
84.5543296
0
LINE
8
DEFAULT_255_1_234
10
24.0086418
20
84.2097681
11
24.0086418
21
84.4724059
0
LINE
8
DEFAULT_255_1_234
10
24.0086418
20
84.4724059
11
23.7379723
21
84.4724059
0
LINE
8
DEFAULT_255_1_234
10
23.7379723
20
84.4724059
11
23.7379723
21
84.597701
0
LINE
8
DEFAULT_255_1_234
10
23.7379723
20
84.597701
11
24.162048
21
84.597701
0
ARC
8
DEFAULT_255_1_234
10
23.8788987
20
84.3681396
40
0.3462765
50
295.8437914
51
324.8549609
0
ARC
8
DEFAULT_255_1_234
10
23.8372954
20
84.4434567
40
0.4322211
50
291.5695085
51
296.4549398
0
ARC
8
DEFAULT_255_1_234
10
23.7862205
20
84.5799275
40
0.5779178
50
278.6622409
51
291.3045483
0
ARC
8
DEFAULT_255_1_234
10
23.7522697
20
84.7947408
40
0.7953952
50
270.020006
51
278.7494541
0
ARC
8
DEFAULT_255_1_234
10
23.7484621
20
84.9264036
40
0.927067
50
269.9969998
51
270.2524872
0
ARC
8
DEFAULT_255_1_234
10
23.7446334
20
84.5180589
40
0.5187361
50
253.5786322
51
270.4175299
0
ARC
8
DEFAULT_255_1_234
10
23.727299
20
84.4509236
40
0.4494451
50
238.8203306
51
253.2788235
0
ARC
8
DEFAULT_255_1_234
10
23.7253363
20
84.4458231
40
0.4440665
50
206.7883783
51
238.6962764
0
ARC
8
DEFAULT_255_1_234
10
23.8027273
20
84.4922405
40
0.5341121
50
206.1129412
51
207.4916643
0
ARC
8
DEFAULT_255_1_234
10
23.8624188
20
84.5176488
40
0.5989041
50
188.6921119
51
205.7821245
0
ARC
8
DEFAULT_255_1_234
10
24.048055
20
84.549223
40
0.7871862
50
180.3882829
51
188.9219216
0
ARC
8
DEFAULT_255_1_234
10
24.1708364
20
84.6515464
40
0.909967
50
170.2024264
51
180.3560651
0
ARC
8
DEFAULT_255_1_234
10
23.8544882
20
84.7081237
40
0.5886083
50
154.2857445
51
170.3893044
0
ARC
8
DEFAULT_255_1_234
10
23.7263085
20
84.766795
40
0.4476743
50
139.8401567
51
153.9332699
0
ARC
8
DEFAULT_255_1_234
10
23.6903821
20
84.7955577
40
0.4016697
50
98.4190291
51
139.6707122
0
ARC
8
DEFAULT_255_1_234
10
23.7283339
20
84.6110328
40
0.5898566
50
89.7659205
51
99.4415478
0
ARC
8
DEFAULT_255_1_234
10
23.7348588
20
84.6175844
40
0.5833147
50
78.0551672
51
90.4042112
0
ARC
8
DEFAULT_255_1_234
10
23.7753098
20
84.7994644
40
0.3970055
50
54.6380464
51
78.3339173
0
ARC
8
DEFAULT_255_1_234
10
23.7943154
20
84.8314795
40
0.3599102
50
50.031736
51
54.1558201
0
ARC
8
DEFAULT_255_1_234
10
23.7835942
20
84.8218766
40
0.3741624
50
18.1092409
51
49.7180913
0
ARC
8
DEFAULT_255_1_234
10
23.6379142
20
84.7685089
40
0.5292424
50
7.9672797
51
18.6984571
0
ARC
8
DEFAULT_255_1_234
10
23.652962
20
84.7808504
40
0.3600838
50
9.7557294
51
27.3215714
0
ARC
8
DEFAULT_255_1_234
10
23.7657092
20
84.8371912
40
0.2340608
50
27.7361077
51
84.5257964
0
ARC
8
DEFAULT_255_1_234
10
23.7329479
20
84.672864
40
0.4011215
50
82.106034
51
90.2001166
0
ARC
8
DEFAULT_255_1_234
10
23.7279696
20
84.7236215
40
0.3503799
50
89.4150119
51
105.5823402
0
ARC
8
DEFAULT_255_1_234
10
23.7022694
20
84.8171867
40
0.2533503
50
105.6678618
51
144.2648758
0
ARC
8
DEFAULT_255_1_234
10
23.7915949
20
84.7536289
40
0.3629787
50
144.3561283
51
162.8564086
0
ARC
8
DEFAULT_255_1_234
10
23.9999858
20
84.6867017
40
0.5818441
50
162.6076014
51
173.6780284
0
ARC
8
DEFAULT_255_1_234
10
24.3061002
20
84.649489
40
0.8902007
50
173.4670142
51
179.9730753
0
ARC
8
DEFAULT_255_1_234
10
24.1152673
20
84.550126
40
0.6993804
50
179.6556203
51
190.0080463
0
ARC
8
DEFAULT_255_1_234
10
23.8836502
20
84.5076375
40
0.4639066
50
189.8116607
51
206.6796816
0
ARC
8
DEFAULT_255_1_234
10
23.7991654
20
84.4682503
40
0.3707421
50
207.1031645
51
217.7074368
0
ARC
8
DEFAULT_255_1_234
10
23.7357343
20
84.4130559
40
0.2868417
50
216.7345547
51
265.6812148
0
ARC
8
DEFAULT_255_1_234
10
23.7488134
20
84.5034855
40
0.3780509
50
264.7366618
51
270.0611241
0
ARC
8
DEFAULT_255_1_234
10
23.7511397
20
84.7875111
40
0.662079
50
269.8335834
51
276.0539546
0
ARC
8
DEFAULT_255_1_234
10
23.7718402
20
84.597356
40
0.4708016
50
275.9894168
51
284.4615085
0
ARC
8
DEFAULT_255_1_234
10
23.7916409
20
84.5140663
40
0.3852094
50
284.7034461
51
286.4953897
0
ARC
8
DEFAULT_255_1_234
10
23.8323422
20
84.3829965
40
0.2479842
50
286.0770838
51
304.2625829
0
ARC
8
DEFAULT_255_1_234
10
23.8456836
20
84.3611594
40
0.2224291
50
304.5891602
51
317.1073298
0
LINE
8
DEFAULT_255_1_234
10
20.467923
20
5.0114663
11
20.6229355
21
5.0114663
0
LINE
8
DEFAULT_255_1_234
10
19.7225777
20
5.1704947
11
19.7225777
21
5.2829391
0
LINE
8
DEFAULT_255_1_234
10
20.6229355
20
5.4339357
11
20.467923
21
5.4339357
0
LINE
8
DEFAULT_255_1_234
10
19.8775902
20
5.2789232
11
19.8775902
21
5.1656757
0
ARC
8
DEFAULT_255_1_234
10
20.0748742
20
5.0711846
40
0.5513052
50
340.1774281
51
353.7814284
0
ARC
8
DEFAULT_255_1_234
10
20.2320095
20
5.0126582
40
0.3836379
50
311.4558989
51
340.4421614
0
ARC
8
DEFAULT_255_1_234
10
20.2286763
20
5.0237528
40
0.3941894
50
282.4333181
51
310.7513653
0
ARC
8
DEFAULT_255_1_234
10
20.1847502
20
5.2052679
40
0.5809175
50
269.9358511
51
282.809604
0
ARC
8
DEFAULT_255_1_234
10
20.1795568
20
5.3510212
40
0.7266847
50
270.0021091
51
270.3581957
0
ARC
8
DEFAULT_255_1_234
10
20.1742985
20
5.0909585
40
0.4666519
50
250.7884749
51
270.6489167
0
ARC
8
DEFAULT_255_1_234
10
20.157482
20
5.0272319
40
0.4009729
50
219.3627325
51
250.0611886
0
ARC
8
DEFAULT_255_1_234
10
20.2404031
20
5.0977042
40
0.5097822
50
193.5479632
51
219.5756669
0
ARC
8
DEFAULT_255_1_234
10
20.4775652
20
5.1592919
40
0.7547848
50
181.1218675
51
193.87563
0
ARC
8
DEFAULT_255_1_234
10
20.6845833
20
5.170358
40
0.9620055
50
179.9918545
51
181.5394234
0
ARC
8
DEFAULT_255_1_234
10
20.4994935
20
5.2866788
40
0.7769248
50
169.5837241
51
180.2757934
0
ARC
8
DEFAULT_255_1_234
10
20.3157873
20
5.3206229
40
0.590109
50
155.0365899
51
169.6003176
0
ARC
8
DEFAULT_255_1_234
10
20.2022337
20
5.3753677
40
0.4640625
50
136.783148
51
155.2472683
0
ARC
8
DEFAULT_255_1_234
10
20.1632814
20
5.4084562
40
0.4130255
50
121.7633186
51
136.428115
0
ARC
8
DEFAULT_255_1_234
10
20.1767776
20
5.3835227
40
0.4413323
50
95.6459699
51
121.5490577
0
ARC
8
DEFAULT_255_1_234
10
20.1925058
20
5.2726949
40
0.55319
50
89.924208
51
96.1377933
0
ARC
8
DEFAULT_255_1_234
10
20.1975491
20
5.2845542
40
0.5413475
50
76.6779277
51
90.4563316
0
ARC
8
DEFAULT_255_1_234
10
20.2369114
20
5.4436114
40
0.3775041
50
47.485847
51
76.9287264
0
ARC
8
DEFAULT_255_1_234
10
20.2222087
20
5.4336159
40
0.3948286
50
16.5424086
51
46.8933463
0
ARC
8
DEFAULT_255_1_234
10
20.0614244
20
5.3807861
40
0.564021
50
5.4072051
51
17.0365086
0
ARC
8
DEFAULT_255_1_234
10
19.9175261
20
5.3576679
40
0.5556559
50
7.8891745
51
15.9239216
0
ARC
8
DEFAULT_255_1_234
10
20.1162274
20
5.4153631
40
0.3487515
50
15.7653144
51
27.9410532
0
ARC
8
DEFAULT_255_1_234
10
20.2266492
20
5.474479
40
0.2235026
50
27.8166557
51
46.4008329
0
ARC
8
DEFAULT_255_1_234
10
20.2316135
20
5.4739082
40
0.2205286
50
47.4371857
51
75.0698205
0
ARC
8
DEFAULT_255_1_234
10
20.2007529
20
5.3664765
40
0.3322915
50
74.7008593
51
87.8124495
0
ARC
8
DEFAULT_255_1_234
10
20.1934217
20
5.2608844
40
0.4380987
50
87.3814673
51
90.0240855
0
ARC
8
DEFAULT_255_1_234
10
20.189576
20
5.3786291
40
0.3203749
50
89.3451631
51
108.5745436
0
ARC
8
DEFAULT_255_1_234
10
20.1758865
20
5.4299908
40
0.2673494
50
109.2998449
51
143.3037509
0
ARC
8
DEFAULT_255_1_234
10
20.2520938
20
5.3713881
40
0.3634757
50
143.0753173
51
163.1916937
0
ARC
8
DEFAULT_255_1_234
10
20.4472666
20
5.3097967
40
0.5681262
50
162.9373603
51
174.6208611
0
ARC
8
DEFAULT_255_1_234
10
20.7098708
20
5.281001
40
0.8322832
50
174.3419979
51
180.1430411
0
ARC
8
DEFAULT_255_1_234
10
20.6167864
20
5.1615698
40
0.7392076
50
179.6817502
51
189.150529
0
ARC
8
DEFAULT_255_1_234
10
20.3667112
20
5.119919
40
0.4856932
50
188.9910863
51
203.5773039
0
ARC
8
DEFAULT_255_1_234
10
20.2587445
20
5.0751211
40
0.3688271
50
203.9077269
51
215.1312379
0
ARC
8
DEFAULT_255_1_234
10
20.1664539
20
5.0035941
40
0.2522457
50
213.9071664
51
263.8849284
0
ARC
8
DEFAULT_255_1_234
10
20.1789868
20
5.0820518
40
0.3316174
50
263.1758525
51
270.1031083
0
ARC
8
DEFAULT_255_1_234
10
20.182196
20
5.2067365
40
0.4563091
50
269.6719807
51
279.0609165
0
ARC
8
DEFAULT_255_1_234
10
20.2088728
20
5.0454907
40
0.2928759
50
278.8750225
51
293.6346586
0
ARC
8
DEFAULT_255_1_234
10
20.2408936
20
4.97029
40
0.2111472
50
293.8553404
51
310.0518804
0
ARC
8
DEFAULT_255_1_234
10
20.241379
20
4.9640516
40
0.2060917
50
311.0646779
51
332.0108348
0
ARC
8
DEFAULT_255_1_234
10
20.1221517
20
5.0297978
40
0.3422352
50
331.6588543
51
343.2878891
0
ARC
8
DEFAULT_255_1_234
10
19.9159032
20
5.0931798
40
0.5580003
50
343.1446044
51
351.010618
0
ARC
8
DEFAULT_255_1_234
10
19.7617678
20
5.1212871
40
0.7146438
50
350.7157277
51
351.1602153
0
LINE
8
DEFAULT_255_1_234
10
21.7329218
20
5.2612534
11
21.7329218
21
5.1873614
0
LINE
8
DEFAULT_255_1_234
10
20.7924052
20
5.1769201
11
20.7924052
21
5.2612534
0
LINE
8
DEFAULT_255_1_234
10
21.5795156
20
5.1761169
11
21.5795156
21
5.2628597
0
LINE
8
DEFAULT_255_1_234
10
20.9458114
20
5.273301
11
20.9458114
21
5.1873614
0
ARC
8
DEFAULT_255_1_234
10
20.8687244
20
5.1834015
40
0.8642064
50
350.487711
51
0.2625388
0
ARC
8
DEFAULT_255_1_234
10
21.0980486
20
5.1439578
40
0.631518
50
336.0277639
51
350.5787438
0
ARC
8
DEFAULT_255_1_234
10
21.2325309
20
5.0831892
40
0.4839466
50
319.8877444
51
336.1328423
0
ARC
8
DEFAULT_255_1_234
10
21.292795
20
5.034958
40
0.4067874
50
302.4806467
51
319.6143626
0
ARC
8
DEFAULT_255_1_234
10
21.281296
20
5.0571202
40
0.4316636
50
275.8195682
51
302.1884709
0
ARC
8
DEFAULT_255_1_234
10
21.2646593
20
5.1713665
40
0.5470306
50
269.9171439
51
276.3397983
0
ARC
8
DEFAULT_255_1_234
10
21.2601803
20
5.1027681
40
0.4784458
50
252.5219675
51
270.4416499
0
ARC
8
DEFAULT_255_1_234
10
21.2458062
20
5.0488592
40
0.422716
50
237.5352116
51
252.1857531
0
ARC
8
DEFAULT_255_1_234
10
21.2547258
20
5.0602363
40
0.4371052
50
209.063312
51
237.3492538
0
ARC
8
DEFAULT_255_1_234
10
21.3417106
20
5.1148685
40
0.5397041
50
205.1183774
51
209.6470015
0
ARC
8
DEFAULT_255_1_234
10
21.4214143
20
5.148683
40
0.6262326
50
188.7215458
51
204.8240747
0
ARC
8
DEFAULT_255_1_234
10
21.6211671
20
5.1823067
40
0.8287794
50
180.3723947
51
188.9252049
0
ARC
8
DEFAULT_255_1_234
10
21.6184423
20
5.2652402
40
0.8260467
50
169.5253763
51
180.2765336
0
ARC
8
DEFAULT_255_1_234
10
21.4281871
20
5.3002309
40
0.6326007
50
155.8315255
51
169.5089989
0
ARC
8
DEFAULT_255_1_234
10
21.3001373
20
5.3596348
40
0.4914567
50
139.6258461
51
156.0379525
0
ARC
8
DEFAULT_255_1_234
10
21.2411706
20
5.4070799
40
0.4158054
50
122.6416387
51
139.3430715
0
ARC
8
DEFAULT_255_1_234
10
21.2512326
20
5.3887451
40
0.4366739
50
93.0223692
51
122.455762
0
ARC
8
DEFAULT_255_1_234
10
21.2620323
20
5.2922709
40
0.5336137
50
89.975342
51
93.6341897
0
ARC
8
DEFAULT_255_1_234
10
21.2659102
20
5.3321242
40
0.4937738
50
73.746375
51
90.4233405
0
ARC
8
DEFAULT_255_1_234
10
21.2834681
20
5.4001287
40
0.4235786
50
57.662753
51
73.4518111
0
ARC
8
DEFAULT_255_1_234
10
21.2826687
20
5.4022832
40
0.4221899
50
29.1440151
51
57.414694
0
ARC
8
DEFAULT_255_1_234
10
21.1891882
20
5.3439005
40
0.5322966
50
24.0982783
51
29.7323517
0
ARC
8
DEFAULT_255_1_234
10
21.0858157
20
5.3010399
40
0.6441673
50
8.6655297
51
23.8241346
0
ARC
8
DEFAULT_255_1_234
10
20.8623895
20
5.2645854
40
0.8705386
50
359.7806941
51
8.8218784
0
ARC
8
DEFAULT_255_1_234
10
20.7476893
20
5.2671345
40
0.8318373
50
359.7055579
51
8.036044
0
ARC
8
DEFAULT_255_1_234
10
21.0476899
20
5.3108239
40
0.5286768
50
7.8928306
51
20.2962107
0
ARC
8
DEFAULT_255_1_234
10
21.210447
20
5.3708395
40
0.3552073
50
20.3231126
51
36.4992797
0
ARC
8
DEFAULT_255_1_234
10
21.2790016
20
5.4236402
40
0.2686974
50
36.1437156
51
85.6627023
0
ARC
8
DEFAULT_255_1_234
10
21.2627562
20
5.3196221
40
0.373739
50
84.3852322
51
90.0757696
0
ARC
8
DEFAULT_255_1_234
10
21.2585234
20
5.3856839
40
0.3076997
50
89.3038458
51
109.9045693
0
ARC
8
DEFAULT_255_1_234
10
21.2492625
20
5.4239062
40
0.2686424
50
110.8228367
51
143.9179474
0
ARC
8
DEFAULT_255_1_234
10
21.3426285
20
5.3526236
40
0.3860887
50
143.5289163
51
163.2980757
0
ARC
8
DEFAULT_255_1_234
10
21.5334106
20
5.2926433
40
0.5860659
50
163.0418846
51
174.3140048
0
ARC
8
DEFAULT_255_1_234
10
21.7738218
20
5.2648854
40
0.8280531
50
174.0509143
51
179.4176892
0
ARC
8
DEFAULT_255_1_234
10
21.7233957
20
5.1831954
40
0.7775954
50
179.6930361
51
188.7906598
0
ARC
8
DEFAULT_255_1_234
10
21.4570436
20
5.1405935
40
0.5078633
50
188.6331305
51
202.5629587
0
ARC
8
DEFAULT_255_1_234
10
21.3316028
20
5.0901996
40
0.3726913
50
202.8081362
51
216.1193925
0
ARC
8
DEFAULT_255_1_234
10
21.2506598
20
5.0250676
40
0.2689577
50
215.0755913
51
264.6379694
0
ARC
8
DEFAULT_255_1_234
10
21.2633548
20
5.1081513
40
0.3528978
50
263.846392
51
270.0833719
0
ARC
8
DEFAULT_255_1_234
10
21.2674938
20
5.0823374
40
0.3271036
50
269.3649385
51
287.5152008
0
ARC
8
DEFAULT_255_1_234
10
21.2853096
20
5.0176238
40
0.2600406
50
288.0630309
51
323.8113348
0
ARC
8
DEFAULT_255_1_234
10
21.1981937
20
5.0826049
40
0.3687189
50
323.6547608
51
342.6590488
0
ARC
8
DEFAULT_255_1_234
10
20.9950552
20
5.1486952
40
0.5823286
50
342.4091907
51
353.6451149
0
ARC
8
DEFAULT_255_1_234
10
20.7119063
20
5.183919
40
0.8676442
50
353.4029884
51
359.4847795
0
LINE
8
DEFAULT_255_1_234
10
21.9642358
20
5.8098211
11
22.1634229
21
5.8098211
0
LINE
8
DEFAULT_255_1_234
10
22.1634229
20
5.8098211
11
22.5457337
21
4.8556506
0
LINE
8
DEFAULT_255_1_234
10
22.5457337
20
4.8556506
11
22.9280444
21
5.8098211
0
LINE
8
DEFAULT_255_1_234
10
22.9280444
20
5.8098211
11
23.1280347
21
5.8098211
0
LINE
8
DEFAULT_255_1_234
10
23.1280347
20
5.8098211
11
23.1280347
21
4.6404
0
LINE
8
DEFAULT_255_1_234
10
23.1280347
20
4.6404
11
22.9738253
21
4.6404
0
LINE
8
DEFAULT_255_1_234
10
22.9738253
20
4.6404
11
22.9738253
21
5.0957996
0
LINE
8
DEFAULT_255_1_234
10
22.9738253
20
5.0957996
11
22.9882825
21
5.5873419
0
LINE
8
DEFAULT_255_1_234
10
22.9882825
20
5.5873419
11
22.6043654
21
4.6404
0
LINE
8
DEFAULT_255_1_234
10
22.6043654
20
4.6404
11
22.4862988
21
4.6404
0
LINE
8
DEFAULT_255_1_234
10
22.4862988
20
4.6404
11
22.1031849
21
5.5849324
0
LINE
8
DEFAULT_255_1_234
10
22.1031849
20
5.5849324
11
22.1184452
21
5.0957996
0
LINE
8
DEFAULT_255_1_234
10
22.1184452
20
5.0957996
11
22.1184452
21
4.6404
0
LINE
8
DEFAULT_255_1_234
10
22.1184452
20
4.6404
11
21.9642358
21
4.6404
0
LINE
8
DEFAULT_255_1_234
10
21.9642358
20
4.6404
11
21.9642358
21
5.8098211
0
LINE
8
DEFAULT_255_1_234
10
23.850088
20
5.8154433
11
23.850088
21
4.6404
0
LINE
8
DEFAULT_255_1_234
10
23.850088
20
4.6404
11
23.7006977
21
4.6404
0
LINE
8
DEFAULT_255_1_234
10
23.7006977
20
4.6404
11
23.7006977
21
5.6307133
0
LINE
8
DEFAULT_255_1_234
10
23.7006977
20
5.6307133
11
23.4011138
21
5.5206785
0
LINE
8
DEFAULT_255_1_234
10
23.4011138
20
5.5206785
11
23.4011138
21
5.6556117
0
LINE
8
DEFAULT_255_1_234
10
23.4011138
20
5.6556117
11
23.8267959
21
5.8154433
0
LINE
8
DEFAULT_255_1_234
10
23.8267959
20
5.8154433
11
23.850088
21
5.8154433
0
LINE
8
DEFAULT_255_1_234
10
20.467923
20
12.9489663
11
20.6229355
21
12.9489663
0
LINE
8
DEFAULT_255_1_234
10
19.7225777
20
13.1079947
11
19.7225777
21
13.2204391
0
LINE
8
DEFAULT_255_1_234
10
20.6229355
20
13.3714357
11
20.467923
21
13.3714357
0
LINE
8
DEFAULT_255_1_234
10
19.8775902
20
13.2164232
11
19.8775902
21
13.1031757
0
ARC
8
DEFAULT_255_1_234
10
20.0748742
20
13.0086846
40
0.5513052
50
340.1774281
51
353.7814284
0
ARC
8
DEFAULT_255_1_234
10
20.2320095
20
12.9501582
40
0.3836379
50
311.4558989
51
340.4421614
0
ARC
8
DEFAULT_255_1_234
10
20.2286763
20
12.9612528
40
0.3941894
50
282.4333181
51
310.7513653
0
ARC
8
DEFAULT_255_1_234
10
20.1847502
20
13.1427679
40
0.5809175
50
269.9358511
51
282.809604
0
ARC
8
DEFAULT_255_1_234
10
20.1795568
20
13.2885212
40
0.7266847
50
270.0021091
51
270.3581957
0
ARC
8
DEFAULT_255_1_234
10
20.1742985
20
13.0284585
40
0.4666519
50
250.7884749
51
270.6489167
0
ARC
8
DEFAULT_255_1_234
10
20.157482
20
12.9647319
40
0.4009729
50
219.3627325
51
250.0611886
0
ARC
8
DEFAULT_255_1_234
10
20.2404031
20
13.0352042
40
0.5097822
50
193.5479632
51
219.5756669
0
ARC
8
DEFAULT_255_1_234
10
20.4775652
20
13.0967919
40
0.7547848
50
181.1218675
51
193.87563
0
ARC
8
DEFAULT_255_1_234
10
20.6845833
20
13.107858
40
0.9620055
50
179.9918545
51
181.5394234
0
ARC
8
DEFAULT_255_1_234
10
20.4994935
20
13.2241788
40
0.7769248
50
169.5837241
51
180.2757934
0
ARC
8
DEFAULT_255_1_234
10
20.3157873
20
13.2581229
40
0.590109
50
155.0365899
51
169.6003176
0
ARC
8
DEFAULT_255_1_234
10
20.2022337
20
13.3128677
40
0.4640625
50
136.783148
51
155.2472683
0
ARC
8
DEFAULT_255_1_234
10
20.1632814
20
13.3459562
40
0.4130255
50
121.7633186
51
136.428115
0
ARC
8
DEFAULT_255_1_234
10
20.1767776
20
13.3210227
40
0.4413323
50
95.6459699
51
121.5490577
0
ARC
8
DEFAULT_255_1_234
10
20.1925058
20
13.2101949
40
0.55319
50
89.924208
51
96.1377933
0
ARC
8
DEFAULT_255_1_234
10
20.1975491
20
13.2220542
40
0.5413475
50
76.6779277
51
90.4563316
0
ARC
8
DEFAULT_255_1_234
10
20.2369114
20
13.3811114
40
0.3775041
50
47.485847
51
76.9287264
0
ARC
8
DEFAULT_255_1_234
10
20.2222087
20
13.3711159
40
0.3948286
50
16.5424086
51
46.8933463
0
ARC
8
DEFAULT_255_1_234
10
20.0614244
20
13.3182861
40
0.564021
50
5.4072051
51
17.0365086
0
ARC
8
DEFAULT_255_1_234
10
19.9175261
20
13.2951679
40
0.5556559
50
7.8891745
51
15.9239216
0
ARC
8
DEFAULT_255_1_234
10
20.1162274
20
13.3528631
40
0.3487515
50
15.7653144
51
27.9410532
0
ARC
8
DEFAULT_255_1_234
10
20.2266492
20
13.411979
40
0.2235026
50
27.8166557
51
46.4008329
0
ARC
8
DEFAULT_255_1_234
10
20.2316135
20
13.4114082
40
0.2205286
50
47.4371857
51
75.0698205
0
ARC
8
DEFAULT_255_1_234
10
20.2007529
20
13.3039765
40
0.3322915
50
74.7008593
51
87.8124495
0
ARC
8
DEFAULT_255_1_234
10
20.1934217
20
13.1983844
40
0.4380987
50
87.3814673
51
90.0240855
0
ARC
8
DEFAULT_255_1_234
10
20.189576
20
13.3161291
40
0.3203749
50
89.3451631
51
108.5745436
0
ARC
8
DEFAULT_255_1_234
10
20.1758865
20
13.3674908
40
0.2673494
50
109.2998449
51
143.3037509
0
ARC
8
DEFAULT_255_1_234
10
20.2520938
20
13.3088881
40
0.3634757
50
143.0753173
51
163.1916937
0
ARC
8
DEFAULT_255_1_234
10
20.4472666
20
13.2472967
40
0.5681262
50
162.9373603
51
174.6208611
0
ARC
8
DEFAULT_255_1_234
10
20.7098708
20
13.218501
40
0.8322832
50
174.3419979
51
180.1430411
0
ARC
8
DEFAULT_255_1_234
10
20.6167864
20
13.0990698
40
0.7392076
50
179.6817502
51
189.150529
0
ARC
8
DEFAULT_255_1_234
10
20.3667112
20
13.057419
40
0.4856932
50
188.9910863
51
203.5773039
0
ARC
8
DEFAULT_255_1_234
10
20.2587445
20
13.0126211
40
0.3688271
50
203.9077269
51
215.1312379
0
ARC
8
DEFAULT_255_1_234
10
20.1664539
20
12.9410941
40
0.2522457
50
213.9071664
51
263.8849284
0
ARC
8
DEFAULT_255_1_234
10
20.1789868
20
13.0195518
40
0.3316174
50
263.1758525
51
270.1031083
0
ARC
8
DEFAULT_255_1_234
10
20.182196
20
13.1442365
40
0.4563091
50
269.6719807
51
279.0609165
0
ARC
8
DEFAULT_255_1_234
10
20.2088728
20
12.9829907
40
0.2928759
50
278.8750225
51
293.6346586
0
ARC
8
DEFAULT_255_1_234
10
20.2408936
20
12.90779
40
0.2111472
50
293.8553404
51
310.0518804
0
ARC
8
DEFAULT_255_1_234
10
20.241379
20
12.9015516
40
0.2060917
50
311.0646779
51
332.0108348
0
ARC
8
DEFAULT_255_1_234
10
20.1221517
20
12.9672978
40
0.3422352
50
331.6588543
51
343.2878891
0
ARC
8
DEFAULT_255_1_234
10
19.9159032
20
13.0306798
40
0.5580003
50
343.1446044
51
351.010618
0
ARC
8
DEFAULT_255_1_234
10
19.7617678
20
13.0587871
40
0.7146438
50
350.7157277
51
351.1602153
0
LINE
8
DEFAULT_255_1_234
10
21.7329218
20
13.1987534
11
21.7329218
21
13.1248614
0
LINE
8
DEFAULT_255_1_234
10
20.7924052
20
13.1144201
11
20.7924052
21
13.1987534
0
LINE
8
DEFAULT_255_1_234
10
21.5795156
20
13.1136169
11
21.5795156
21
13.2003597
0
LINE
8
DEFAULT_255_1_234
10
20.9458114
20
13.210801
11
20.9458114
21
13.1248614
0
ARC
8
DEFAULT_255_1_234
10
20.8687244
20
13.1209015
40
0.8642064
50
350.487711
51
0.2625388
0
ARC
8
DEFAULT_255_1_234
10
21.0980486
20
13.0814578
40
0.631518
50
336.0277639
51
350.5787438
0
ARC
8
DEFAULT_255_1_234
10
21.2325309
20
13.0206892
40
0.4839466
50
319.8877444
51
336.1328423
0
ARC
8
DEFAULT_255_1_234
10
21.292795
20
12.972458
40
0.4067874
50
302.4806467
51
319.6143626
0
ARC
8
DEFAULT_255_1_234
10
21.281296
20
12.9946202
40
0.4316636
50
275.8195682
51
302.1884709
0
ARC
8
DEFAULT_255_1_234
10
21.2646593
20
13.1088665
40
0.5470306
50
269.9171439
51
276.3397983
0
ARC
8
DEFAULT_255_1_234
10
21.2601803
20
13.0402681
40
0.4784458
50
252.5219675
51
270.4416499
0
ARC
8
DEFAULT_255_1_234
10
21.2458062
20
12.9863592
40
0.422716
50
237.5352116
51
252.1857531
0
ARC
8
DEFAULT_255_1_234
10
21.2547258
20
12.9977363
40
0.4371052
50
209.063312
51
237.3492538
0
ARC
8
DEFAULT_255_1_234
10
21.3417106
20
13.0523685
40
0.5397041
50
205.1183774
51
209.6470015
0
ARC
8
DEFAULT_255_1_234
10
21.4214143
20
13.086183
40
0.6262326
50
188.7215458
51
204.8240747
0
ARC
8
DEFAULT_255_1_234
10
21.6211671
20
13.1198067
40
0.8287794
50
180.3723947
51
188.9252049
0
ARC
8
DEFAULT_255_1_234
10
21.6184423
20
13.2027402
40
0.8260467
50
169.5253763
51
180.2765336
0
ARC
8
DEFAULT_255_1_234
10
21.4281871
20
13.2377309
40
0.6326007
50
155.8315255
51
169.5089989
0
ARC
8
DEFAULT_255_1_234
10
21.3001373
20
13.2971348
40
0.4914567
50
139.6258461
51
156.0379525
0
ARC
8
DEFAULT_255_1_234
10
21.2411706
20
13.3445799
40
0.4158054
50
122.6416387
51
139.3430715
0
ARC
8
DEFAULT_255_1_234
10
21.2512326
20
13.3262451
40
0.4366739
50
93.0223692
51
122.455762
0
ARC
8
DEFAULT_255_1_234
10
21.2620323
20
13.2297709
40
0.5336137
50
89.975342
51
93.6341897
0
ARC
8
DEFAULT_255_1_234
10
21.2659102
20
13.2696242
40
0.4937738
50
73.746375
51
90.4233405
0
ARC
8
DEFAULT_255_1_234
10
21.2834681
20
13.3376287
40
0.4235786
50
57.662753
51
73.4518111
0
ARC
8
DEFAULT_255_1_234
10
21.2826687
20
13.3397832
40
0.4221899
50
29.1440151
51
57.414694
0
ARC
8
DEFAULT_255_1_234
10
21.1891882
20
13.2814005
40
0.5322966
50
24.0982783
51
29.7323517
0
ARC
8
DEFAULT_255_1_234
10
21.0858157
20
13.2385399
40
0.6441673
50
8.6655297
51
23.8241346
0
ARC
8
DEFAULT_255_1_234
10
20.8623895
20
13.2020854
40
0.8705386
50
359.7806941
51
8.8218784
0
ARC
8
DEFAULT_255_1_234
10
20.7476893
20
13.2046345
40
0.8318373
50
359.7055579
51
8.036044
0
ARC
8
DEFAULT_255_1_234
10
21.0476899
20
13.2483239
40
0.5286768
50
7.8928306
51
20.2962107
0
ARC
8
DEFAULT_255_1_234
10
21.210447
20
13.3083395
40
0.3552073
50
20.3231126
51
36.4992797
0
ARC
8
DEFAULT_255_1_234
10
21.2790016
20
13.3611402
40
0.2686974
50
36.1437156
51
85.6627023
0
ARC
8
DEFAULT_255_1_234
10
21.2627562
20
13.2571221
40
0.373739
50
84.3852322
51
90.0757696
0
ARC
8
DEFAULT_255_1_234
10
21.2585234
20
13.3231839
40
0.3076997
50
89.3038458
51
109.9045693
0
ARC
8
DEFAULT_255_1_234
10
21.2492625
20
13.3614062
40
0.2686424
50
110.8228367
51
143.9179474
0
ARC
8
DEFAULT_255_1_234
10
21.3426285
20
13.2901236
40
0.3860887
50
143.5289163
51
163.2980757
0
ARC
8
DEFAULT_255_1_234
10
21.5334106
20
13.2301433
40
0.5860659
50
163.0418846
51
174.3140048
0
ARC
8
DEFAULT_255_1_234
10
21.7738218
20
13.2023854
40
0.8280531
50
174.0509143
51
179.4176892
0
ARC
8
DEFAULT_255_1_234
10
21.7233957
20
13.1206954
40
0.7775954
50
179.6930361
51
188.7906598
0
ARC
8
DEFAULT_255_1_234
10
21.4570436
20
13.0780935
40
0.5078633
50
188.6331305
51
202.5629587
0
ARC
8
DEFAULT_255_1_234
10
21.3316028
20
13.0276996
40
0.3726913
50
202.8081362
51
216.1193925
0
ARC
8
DEFAULT_255_1_234
10
21.2506598
20
12.9625676
40
0.2689577
50
215.0755913
51
264.6379694
0
ARC
8
DEFAULT_255_1_234
10
21.2633548
20
13.0456513
40
0.3528978
50
263.846392
51
270.0833719
0
ARC
8
DEFAULT_255_1_234
10
21.2674938
20
13.0198374
40
0.3271036
50
269.3649385
51
287.5152008
0
ARC
8
DEFAULT_255_1_234
10
21.2853096
20
12.9551238
40
0.2600406
50
288.0630309
51
323.8113348
0
ARC
8
DEFAULT_255_1_234
10
21.1981937
20
13.0201049
40
0.3687189
50
323.6547608
51
342.6590488
0
ARC
8
DEFAULT_255_1_234
10
20.9950552
20
13.0861952
40
0.5823286
50
342.4091907
51
353.6451149
0
ARC
8
DEFAULT_255_1_234
10
20.7119063
20
13.121419
40
0.8676442
50
353.4029884
51
359.4847795
0
LINE
8
DEFAULT_255_1_234
10
21.9642358
20
13.7473211
11
22.1634229
21
13.7473211
0
LINE
8
DEFAULT_255_1_234
10
22.1634229
20
13.7473211
11
22.5457337
21
12.7931506
0
LINE
8
DEFAULT_255_1_234
10
22.5457337
20
12.7931506
11
22.9280444
21
13.7473211
0
LINE
8
DEFAULT_255_1_234
10
22.9280444
20
13.7473211
11
23.1280347
21
13.7473211
0
LINE
8
DEFAULT_255_1_234
10
23.1280347
20
13.7473211
11
23.1280347
21
12.5779
0
LINE
8
DEFAULT_255_1_234
10
23.1280347
20
12.5779
11
22.9738253
21
12.5779
0
LINE
8
DEFAULT_255_1_234
10
22.9738253
20
12.5779
11
22.9738253
21
13.0332996
0
LINE
8
DEFAULT_255_1_234
10
22.9738253
20
13.0332996
11
22.9882825
21
13.5248419
0
LINE
8
DEFAULT_255_1_234
10
22.9882825
20
13.5248419
11
22.6043654
21
12.5779
0
LINE
8
DEFAULT_255_1_234
10
22.6043654
20
12.5779
11
22.4862988
21
12.5779
0
LINE
8
DEFAULT_255_1_234
10
22.4862988
20
12.5779
11
22.1031849
21
13.5224324
0
LINE
8
DEFAULT_255_1_234
10
22.1031849
20
13.5224324
11
22.1184452
21
13.0332996
0
LINE
8
DEFAULT_255_1_234
10
22.1184452
20
13.0332996
11
22.1184452
21
12.5779
0
LINE
8
DEFAULT_255_1_234
10
22.1184452
20
12.5779
11
21.9642358
21
12.5779
0
LINE
8
DEFAULT_255_1_234
10
21.9642358
20
12.5779
11
21.9642358
21
13.7473211
0
LINE
8
DEFAULT_255_1_234
10
23.850088
20
13.7529433
11
23.850088
21
12.5779
0
LINE
8
DEFAULT_255_1_234
10
23.850088
20
12.5779
11
23.7006977
21
12.5779
0
LINE
8
DEFAULT_255_1_234
10
23.7006977
20
12.5779
11
23.7006977
21
13.5682133
0
LINE
8
DEFAULT_255_1_234
10
23.7006977
20
13.5682133
11
23.4011138
21
13.4581785
0
LINE
8
DEFAULT_255_1_234
10
23.4011138
20
13.4581785
11
23.4011138
21
13.5931117
0
LINE
8
DEFAULT_255_1_234
10
23.4011138
20
13.5931117
11
23.8267959
21
13.7529433
0
LINE
8
DEFAULT_255_1_234
10
23.8267959
20
13.7529433
11
23.850088
21
13.7529433
0
LINE
8
DEFAULT_255_1_234
10
22.5173458
20
21.6848211
11
22.8209456
21
21.097701
0
LINE
8
DEFAULT_255_1_234
10
22.8209456
20
21.097701
11
23.1261516
21
21.6848211
0
LINE
8
DEFAULT_255_1_234
10
23.1261516
20
21.6848211
11
23.3012435
21
21.6848211
0
LINE
8
DEFAULT_255_1_234
10
23.3012435
20
21.6848211
11
22.8980502
21
20.9515234
0
LINE
8
DEFAULT_255_1_234
10
22.8980502
20
20.9515234
11
22.8980502
21
20.5154
0
LINE
8
DEFAULT_255_1_234
10
22.8980502
20
20.5154
11
22.7438409
21
20.5154
0
LINE
8
DEFAULT_255_1_234
10
22.7438409
20
20.5154
11
22.7438409
21
20.9515234
0
LINE
8
DEFAULT_255_1_234
10
22.7438409
20
20.9515234
11
22.3406476
21
21.6848211
0
LINE
8
DEFAULT_255_1_234
10
22.3406476
20
21.6848211
11
22.5173458
21
21.6848211
0
LINE
8
DEFAULT_255_1_234
10
24.1686712
20
21.6848211
11
24.1686712
21
21.601291
0
LINE
8
DEFAULT_255_1_234
10
24.1686712
20
21.601291
11
23.6843574
21
20.5154
0
LINE
8
DEFAULT_255_1_234
10
23.6843574
20
20.5154
11
23.5285417
21
20.5154
0
LINE
8
DEFAULT_255_1_234
10
23.5285417
20
20.5154
11
24.0112492
21
21.5627387
0
LINE
8
DEFAULT_255_1_234
10
24.0112492
20
21.5627387
11
23.3783482
21
21.5627387
0
LINE
8
DEFAULT_255_1_234
10
23.3783482
20
21.5627387
11
23.3783482
21
21.6848211
0
LINE
8
DEFAULT_255_1_234
10
23.3783482
20
21.6848211
11
24.1686712
21
21.6848211
0
LINE
8
DEFAULT_255_1_234
10
22.5173458
20
29.6223211
11
22.8209456
21
29.035201
0
LINE
8
DEFAULT_255_1_234
10
22.8209456
20
29.035201
11
23.1261516
21
29.6223211
0
LINE
8
DEFAULT_255_1_234
10
23.1261516
20
29.6223211
11
23.3012435
21
29.6223211
0
LINE
8
DEFAULT_255_1_234
10
23.3012435
20
29.6223211
11
22.8980502
21
28.8890234
0
LINE
8
DEFAULT_255_1_234
10
22.8980502
20
28.8890234
11
22.8980502
21
28.4529
0
LINE
8
DEFAULT_255_1_234
10
22.8980502
20
28.4529
11
22.7438409
21
28.4529
0
LINE
8
DEFAULT_255_1_234
10
22.7438409
20
28.4529
11
22.7438409
21
28.8890234
0
LINE
8
DEFAULT_255_1_234
10
22.7438409
20
28.8890234
11
22.3406476
21
29.6223211
0
LINE
8
DEFAULT_255_1_234
10
22.3406476
20
29.6223211
11
22.5173458
21
29.6223211
0
LINE
8
DEFAULT_255_1_234
10
23.9702873
20
29.6231243
11
23.996792
21
29.6231243
0
LINE
8
DEFAULT_255_1_234
10
23.996792
20
29.6231243
11
23.996792
21
29.497026
0
LINE
8
DEFAULT_255_1_234
10
23.996792
20
29.497026
11
23.9694841
21
29.497026
0
LINE
8
DEFAULT_255_1_234
10
23.4225228
20
28.8978583
11
23.4225228
21
28.9548836
0
LINE
8
DEFAULT_255_1_234
10
23.5719131
20
28.9356075
11
23.5719131
21
28.8809917
0
ARC
8
DEFAULT_255_1_234
10
23.9747189
20
28.9972455
40
0.4998079
50
90.6001036
51
104.514704
0
ARC
8
DEFAULT_255_1_234
10
23.9358705
20
29.1417131
40
0.3502176
50
104.2855254
51
133.862935
0
ARC
8
DEFAULT_255_1_234
10
23.9522462
20
29.130883
40
0.3693984
50
134.5302688
51
161.6210873
0
ARC
8
DEFAULT_255_1_234
10
24.1175651
20
29.0725895
40
0.5446739
50
161.2849839
51
174.2076652
0
ARC
8
DEFAULT_255_1_234
10
24.2582588
20
29.0531787
40
0.6866274
50
173.7810589
51
174.9254635
0
ARC
8
DEFAULT_255_1_234
10
23.803242
20
28.9148839
40
0.3033419
50
95.8330959
51
138.9954921
0
ARC
8
DEFAULT_255_1_234
10
23.8255776
20
28.7870375
40
0.4328947
50
89.8753725
51
97.0544009
0
ARC
8
DEFAULT_255_1_234
10
23.8303242
20
28.8705748
40
0.3493769
50
71.6407809
51
90.6240094
0
ARC
8
DEFAULT_255_1_234
10
23.8453815
20
28.9260082
40
0.2920396
50
39.6367836
51
71.019018
0
ARC
8
DEFAULT_255_1_234
10
23.7817288
20
28.8709998
40
0.3761538
50
10.658731
51
39.9043955
0
ARC
8
DEFAULT_255_1_234
10
23.6269371
20
28.8373686
40
0.5345136
50
359.682601
51
11.132623
0
ARC
8
DEFAULT_255_1_234
10
23.6229502
20
28.830301
40
0.5385081
50
347.2486944
51
0.4369317
0
ARC
8
DEFAULT_255_1_234
10
23.7896979
20
28.7901807
40
0.3670249
50
318.1409698
51
347.6118597
0
ARC
8
DEFAULT_255_1_234
10
23.8221972
20
28.7634702
40
0.3250007
50
275.6342139
51
317.8248465
0
ARC
8
DEFAULT_255_1_234
10
23.8001083
20
28.8934219
40
0.4565864
50
269.8874292
51
276.7917694
0
ARC
8
DEFAULT_255_1_234
10
23.7946154
20
28.7908743
40
0.3540676
50
246.9140195
51
270.7437342
0
ARC
8
DEFAULT_255_1_234
10
23.7952544
20
28.7766384
40
0.3412781
50
218.1665114
51
245.878116
0
ARC
8
DEFAULT_255_1_234
10
23.8832005
20
28.8502279
40
0.455911
50
191.4115814
51
218.6077802
0
ARC
8
DEFAULT_255_1_234
10
24.0770094
20
28.8936833
40
0.6545001
50
179.6345085
51
191.7836486
0
ARC
8
DEFAULT_255_1_234
10
24.6352431
20
28.9615697
40
1.2127388
50
171.4525249
51
180.3158839
0
ARC
8
DEFAULT_255_1_234
10
24.1957307
20
29.0299608
40
0.7679464
50
157.9802646
51
171.6246686
0
ARC
8
DEFAULT_255_1_234
10
23.9743328
20
29.1182421
40
0.5296008
50
141.4298019
51
157.854097
0
ARC
8
DEFAULT_255_1_234
10
23.9101649
20
29.1636381
40
0.4511509
50
102.8715806
51
140.8564722
0
ARC
8
DEFAULT_255_1_234
10
23.9749264
20
28.9196552
40
0.7034845
50
90.3778349
51
103.5869322
0
ARC
8
DEFAULT_255_1_234
10
23.801104
20
28.859173
40
0.2370698
50
89.8751008
51
126.2071704
0
ARC
8
DEFAULT_255_1_234
10
23.805683
20
28.8437303
40
0.2522934
50
124.9745049
51
144.895901
0
ARC
8
DEFAULT_255_1_234
10
23.7881021
20
28.858056
40
0.2296779
50
145.2974905
51
160.2660252
0
ARC
8
DEFAULT_255_1_234
10
24.0953559
20
28.8778071
40
0.5234525
50
179.6514266
51
190.2855912
0
ARC
8
DEFAULT_255_1_234
10
23.9259697
20
28.8458786
40
0.3510893
50
190.0945431
51
207.5098196
0
ARC
8
DEFAULT_255_1_234
10
23.8693966
20
28.8189623
40
0.288489
50
207.9583163
51
216.3251085
0
ARC
8
DEFAULT_255_1_234
10
23.8354074
20
28.7910105
40
0.2445587
50
215.7661442
51
232.5456785
0
ARC
8
DEFAULT_255_1_234
10
23.7971057
20
28.7423482
40
0.1826382
50
232.8005391
51
270.6605633
0
ARC
8
DEFAULT_255_1_234
10
23.8016758
20
28.7787612
40
0.2190529
50
269.35537
51
288.4744281
0
ARC
8
DEFAULT_255_1_234
10
23.8109655
20
28.7438118
40
0.1829749
50
289.1833337
51
322.9683818
0
ARC
8
DEFAULT_255_1_234
10
23.7498177
20
28.7920391
40
0.2608399
50
322.6007884
51
346.5182367
0
ARC
8
DEFAULT_255_1_234
10
23.6340773
20
28.8215616
40
0.3802777
50
346.2582162
51
358.7741648
0
ARC
8
DEFAULT_255_1_234
10
23.5322442
20
28.8270965
40
0.4822176
50
358.3755224
51
0.0098023
0
ARC
8
DEFAULT_255_1_234
10
23.6078629
20
28.8298657
40
0.4066078
50
359.6214041
51
11.2839074
0
ARC
8
DEFAULT_255_1_234
10
23.7355776
20
28.8565066
40
0.2761514
50
11.0482309
51
31.8146458
0
ARC
8
DEFAULT_255_1_234
10
23.7664819
20
28.8732584
40
0.2410679
50
32.3035391
51
38.082671
0
ARC
8
DEFAULT_255_1_234
10
23.8085479
20
28.9113662
40
0.1844966
50
36.825067
51
85.7415724
0
ARC
8
DEFAULT_255_1_234
10
23.8018312
20
28.8613301
40
0.2349122
50
85.0140713
51
90.0513278
0
LINE
8
DEFAULT_255_1_234
10
22.5173458
20
37.5598211
11
22.8209456
21
36.972701
0
LINE
8
DEFAULT_255_1_234
10
22.8209456
20
36.972701
11
23.1261516
21
37.5598211
0
LINE
8
DEFAULT_255_1_234
10
23.1261516
20
37.5598211
11
23.3012435
21
37.5598211
0
LINE
8
DEFAULT_255_1_234
10
23.3012435
20
37.5598211
11
22.8980502
21
36.8265234
0
LINE
8
DEFAULT_255_1_234
10
22.8980502
20
36.8265234
11
22.8980502
21
36.3904
0
LINE
8
DEFAULT_255_1_234
10
22.8980502
20
36.3904
11
22.7438409
21
36.3904
0
LINE
8
DEFAULT_255_1_234
10
22.7438409
20
36.3904
11
22.7438409
21
36.8265234
0
LINE
8
DEFAULT_255_1_234
10
22.7438409
20
36.8265234
11
22.3406476
21
37.5598211
0
LINE
8
DEFAULT_255_1_234
10
22.3406476
20
37.5598211
11
22.5173458
21
37.5598211
0
LINE
8
DEFAULT_255_1_234
10
23.6008273
20
36.9461963
11
23.4819576
21
36.9767169
0
LINE
8
DEFAULT_255_1_234
10
23.4819576
20
36.9767169
11
23.5413925
21
37.5598211
0
LINE
8
DEFAULT_255_1_234
10
23.5413925
20
37.5598211
11
24.1405602
21
37.5598211
0
LINE
8
DEFAULT_255_1_234
10
24.1405602
20
37.5598211
11
24.1405602
21
37.4224784
0
LINE
8
DEFAULT_255_1_234
10
24.1405602
20
37.4224784
11
23.6674908
21
37.4224784
0
LINE
8
DEFAULT_255_1_234
10
23.6674908
20
37.4224784
11
23.6321511
21
37.1036184
0
LINE
8
DEFAULT_255_1_234
10
23.4401926
20
36.6980156
11
23.580748
21
36.6980156
0
LINE
8
DEFAULT_255_1_234
10
23.6401829
20
36.9783232
11
23.6008273
21
36.9461963
0
ARC
8
DEFAULT_255_1_234
10
23.8176295
20
36.785623
40
0.3681349
50
93.7182161
51
120.2538958
0
ARC
8
DEFAULT_255_1_234
10
23.8270558
20
36.7048394
40
0.449379
50
89.9660152
51
94.2496022
0
ARC
8
DEFAULT_255_1_234
10
23.8311292
20
36.7637549
40
0.390482
50
73.8043271
51
90.5585896
0
ARC
8
DEFAULT_255_1_234
10
23.8546189
20
36.8495602
40
0.3015334
50
41.3071453
51
73.5430202
0
ARC
8
DEFAULT_255_1_234
10
23.8130016
20
36.8137324
40
0.3564457
50
13.5075983
51
41.2174222
0
ARC
8
DEFAULT_255_1_234
10
23.648822
20
36.7707486
40
0.5261351
50
1.1331335
51
13.8829381
0
ARC
8
DEFAULT_255_1_234
10
23.5076589
20
36.7631665
40
0.6674378
50
359.9919444
51
1.544251
0
ARC
8
DEFAULT_255_1_234
10
23.6353415
20
36.759028
40
0.5397702
50
347.8572367
51
0.4293338
0
ARC
8
DEFAULT_255_1_234
10
23.8103733
20
36.7193736
40
0.3603188
50
323.673004
51
348.1672506
0
ARC
8
DEFAULT_255_1_234
10
23.8398241
20
36.7014168
40
0.3259678
50
316.8171152
51
323.1492751
0
ARC
8
DEFAULT_255_1_234
10
23.845943
20
36.697746
40
0.3189975
50
281.8396411
51
316.5457803
0
ARC
8
DEFAULT_255_1_234
10
23.8083694
20
36.8532762
40
0.4789527
50
269.5770101
51
282.4214771
0
ARC
8
DEFAULT_255_1_234
10
23.8012505
20
36.8319125
40
0.45759
50
256.2427136
51
270.4486331
0
ARC
8
DEFAULT_255_1_234
10
23.7713408
20
36.7119229
40
0.3339303
50
228.9023911
51
256.3314342
0
ARC
8
DEFAULT_255_1_234
10
23.763964
20
36.7002746
40
0.32031
50
193.753695
51
228.5271154
0
ARC
8
DEFAULT_255_1_234
10
23.8877594
20
36.73658
40
0.4492253
50
184.924711
51
194.497588
0
ARC
8
DEFAULT_255_1_234
10
23.9070161
20
36.7401591
40
0.3289787
50
187.3600538
51
198.6732863
0
ARC
8
DEFAULT_255_1_234
10
23.8020455
20
36.7037674
40
0.217884
50
198.4451669
51
217.794479
0
ARC
8
DEFAULT_255_1_234
10
23.772463
20
36.6828085
40
0.1816698
50
218.2887171
51
228.5612368
0
ARC
8
DEFAULT_255_1_234
10
23.7822417
20
36.6959963
40
0.1980329
50
228.9654866
51
258.1234728
0
ARC
8
DEFAULT_255_1_234
10
23.8028127
20
36.7840833
40
0.2884748
50
257.7258293
51
270.401361
0
ARC
8
DEFAULT_255_1_234
10
23.8073014
20
36.7395821
40
0.2439788
50
269.4204404
51
286.4209037
0
ARC
8
DEFAULT_255_1_234
10
23.8221501
20
36.6856657
40
0.1880666
50
286.7251356
51
320.600362
0
ARC
8
DEFAULT_255_1_234
10
23.7838326
20
36.7167595
40
0.2374121
50
320.6712579
51
344.5441685
0
ARC
8
DEFAULT_255_1_234
10
23.6681652
20
36.7507045
40
0.3579479
50
344.2412205
51
356.7357071
0
ARC
8
DEFAULT_255_1_234
10
23.5432801
20
36.7610444
40
0.4832297
50
356.3548756
51
0.0500261
0
ARC
8
DEFAULT_255_1_234
10
23.676931
20
36.764165
40
0.3495889
50
359.5576869
51
12.953486
0
ARC
8
DEFAULT_255_1_234
10
23.7824207
20
36.7897434
40
0.2410532
50
12.6490276
51
41.6081334
0
ARC
8
DEFAULT_255_1_234
10
23.8054578
20
36.8093321
40
0.2108218
50
41.7850273
51
85.9892764
0
ARC
8
DEFAULT_255_1_234
10
23.7931315
20
36.7280462
40
0.2928454
50
84.6957577
51
90.0676183
0
ARC
8
DEFAULT_255_1_234
10
23.7907799
20
36.6611716
40
0.3597255
50
89.6804936
51
99.1614436
0
ARC
8
DEFAULT_255_1_234
10
23.770243
20
36.7839131
40
0.235281
50
98.9830931
51
113.8908934
0
ARC
8
DEFAULT_255_1_234
10
23.747284
20
36.8380587
40
0.176479
50
114.1950727
51
127.3641004
0
LINE
8
DEFAULT_255_1_234
10
22.4115458
20
45.4973211
11
22.7151456
21
44.910201
0
LINE
8
DEFAULT_255_1_234
10
22.7151456
20
44.910201
11
23.0203516
21
45.4973211
0
LINE
8
DEFAULT_255_1_234
10
23.0203516
20
45.4973211
11
23.1954435
21
45.4973211
0
LINE
8
DEFAULT_255_1_234
10
23.1954435
20
45.4973211
11
22.7922502
21
44.7640234
0
LINE
8
DEFAULT_255_1_234
10
22.7922502
20
44.7640234
11
22.7922502
21
44.3279
0
LINE
8
DEFAULT_255_1_234
10
22.7922502
20
44.3279
11
22.6380409
21
44.3279
0
LINE
8
DEFAULT_255_1_234
10
22.6380409
20
44.3279
11
22.6380409
21
44.7640234
0
LINE
8
DEFAULT_255_1_234
10
22.6380409
20
44.7640234
11
22.2348476
21
45.4973211
0
LINE
8
DEFAULT_255_1_234
10
22.2348476
20
45.4973211
11
22.4115458
21
45.4973211
0
LINE
8
DEFAULT_255_1_234
10
23.9351666
20
45.4973211
11
23.9351666
21
44.720652
0
LINE
8
DEFAULT_255_1_234
10
23.9351666
20
44.720652
11
24.0974077
21
44.720652
0
LINE
8
DEFAULT_255_1_234
10
24.0974077
20
44.720652
11
24.0974077
21
44.5993728
0
LINE
8
DEFAULT_255_1_234
10
24.0974077
20
44.5993728
11
23.9351666
21
44.5993728
0
LINE
8
DEFAULT_255_1_234
10
23.9351666
20
44.5993728
11
23.9351666
21
44.3279
0
LINE
8
DEFAULT_255_1_234
10
23.9351666
20
44.3279
11
23.7857763
21
44.3279
0
LINE
8
DEFAULT_255_1_234
10
23.7857763
20
44.3279
11
23.7857763
21
44.5993728
0
LINE
8
DEFAULT_255_1_234
10
23.7857763
20
44.5993728
11
23.253272
21
44.5993728
0
LINE
8
DEFAULT_255_1_234
10
23.253272
20
44.5993728
11
23.253272
21
44.6869187
0
LINE
8
DEFAULT_255_1_234
10
23.253272
20
44.6869187
11
23.7769414
21
45.4973211
0
LINE
8
DEFAULT_255_1_234
10
23.7769414
20
45.4973211
11
23.9351666
21
45.4973211
0
LINE
8
DEFAULT_255_1_234
10
23.7681064
20
45.2619912
11
23.4219385
21
44.720652
0
LINE
8
DEFAULT_255_1_234
10
23.4219385
20
44.720652
11
23.7857763
21
44.720652
0
LINE
8
DEFAULT_255_1_234
10
23.7857763
20
44.720652
11
23.7857763
21
45.2941181
0
LINE
8
DEFAULT_255_1_234
10
23.7857763
20
45.2941181
11
23.7681064
21
45.2619912
0
LINE
8
DEFAULT_255_1_234
10
22.5173458
20
53.4348211
11
22.8209456
21
52.847701
0
LINE
8
DEFAULT_255_1_234
10
22.8209456
20
52.847701
11
23.1261516
21
53.4348211
0
LINE
8
DEFAULT_255_1_234
10
23.1261516
20
53.4348211
11
23.3012435
21
53.4348211
0
LINE
8
DEFAULT_255_1_234
10
23.3012435
20
53.4348211
11
22.8980502
21
52.7015234
0
LINE
8
DEFAULT_255_1_234
10
22.8980502
20
52.7015234
11
22.8980502
21
52.2654
0
LINE
8
DEFAULT_255_1_234
10
22.8980502
20
52.2654
11
22.7438409
21
52.2654
0
LINE
8
DEFAULT_255_1_234
10
22.7438409
20
52.2654
11
22.7438409
21
52.7015234
0
LINE
8
DEFAULT_255_1_234
10
22.7438409
20
52.7015234
11
22.3406476
21
53.4348211
0
LINE
8
DEFAULT_255_1_234
10
22.3406476
20
53.4348211
11
22.5173458
21
53.4348211
0
LINE
8
DEFAULT_255_1_234
10
23.6297416
20
52.8011169
11
23.6297416
21
52.9223962
0
LINE
8
DEFAULT_255_1_234
10
23.6297416
20
52.9223962
11
23.7413828
21
52.9223962
0
LINE
8
DEFAULT_255_1_234
10
23.5510306
20
53.1280087
11
23.4024434
21
53.1280087
0
LINE
8
DEFAULT_255_1_234
10
23.3920021
20
52.5738188
11
23.5413925
21
52.5738188
0
LINE
8
DEFAULT_255_1_234
10
23.7413828
20
52.8011169
11
23.6297416
21
52.8011169
0
ARC
8
DEFAULT_255_1_234
10
23.7384694
20
53.2616713
40
0.3392876
50
270.4919872
51
281.8951556
0
ARC
8
DEFAULT_255_1_234
10
23.7625956
20
53.1514702
40
0.2264817
50
281.6691735
51
301.2943132
0
ARC
8
DEFAULT_255_1_234
10
23.7796166
20
53.1203304
40
0.1910381
50
301.7833094
51
311.7545298
0
ARC
8
DEFAULT_255_1_234
10
23.7887742
20
53.1101748
40
0.1773635
50
311.7323931
51
354.2802411
0
ARC
8
DEFAULT_255_1_234
10
23.7161367
20
53.1226722
40
0.2509385
50
353.0937916
51
0.1181479
0
ARC
8
DEFAULT_255_1_234
10
23.6700152
20
53.1274386
40
0.2970898
50
359.1805295
51
15.0453146
0
ARC
8
DEFAULT_255_1_234
10
23.8045989
20
53.1666992
40
0.1569564
50
13.9577229
51
77.6713066
0
ARC
8
DEFAULT_255_1_234
10
23.7659518
20
53.0281949
40
0.3006298
50
76.1116566
51
90.7026153
0
ARC
8
DEFAULT_255_1_234
10
23.7600356
20
53.0555545
40
0.2732568
50
89.5324876
51
103.531937
0
ARC
8
DEFAULT_255_1_234
10
23.7399801
20
53.1354884
40
0.1908508
50
103.2931773
51
133.5619022
0
ARC
8
DEFAULT_255_1_234
10
23.7355289
20
53.1414375
40
0.1834746
50
133.8349307
51
173.5344437
0
ARC
8
DEFAULT_255_1_234
10
23.8078332
20
53.1286213
40
0.2568033
50
172.5096846
51
180.1366907
0
ARC
8
DEFAULT_255_1_234
10
23.7127226
20
53.1320622
40
0.3103056
50
155.3484492
51
180.7484736
0
ARC
8
DEFAULT_255_1_234
10
23.7078315
20
53.1291846
40
0.3070957
50
131.5744599
51
154.4798489
0
ARC
8
DEFAULT_255_1_234
10
23.7391462
20
53.097531
40
0.3515643
50
96.9875458
51
131.9690667
0
ARC
8
DEFAULT_255_1_234
10
23.7610942
20
52.9729636
40
0.4779224
50
89.8596053
51
97.7825159
0
ARC
8
DEFAULT_255_1_234
10
23.7659005
20
52.9467616
40
0.5041361
50
78.3655447
51
90.4131539
0
ARC
8
DEFAULT_255_1_234
10
23.8016923
20
53.1126887
40
0.3344039
50
56.6229102
51
78.638727
0
ARC
8
DEFAULT_255_1_234
10
23.8231867
20
53.1502805
40
0.2912001
50
47.0253525
51
56.0854072
0
ARC
8
DEFAULT_255_1_234
10
23.8251647
20
53.1542223
40
0.2869704
50
10.9208013
51
46.7778124
0
ARC
8
DEFAULT_255_1_234
10
23.6887713
20
53.1226857
40
0.426899
50
359.6364486
51
11.6087304
0
ARC
8
DEFAULT_255_1_234
10
23.8722557
20
53.1211752
40
0.243409
50
332.3549906
51
359.7179418
0
ARC
8
DEFAULT_255_1_234
10
23.8072159
20
53.1520142
40
0.3153459
50
325.2333722
51
332.8745602
0
ARC
8
DEFAULT_255_1_234
10
23.8224783
20
53.1413828
40
0.2967456
50
292.9802137
51
325.2392345
0
ARC
8
DEFAULT_255_1_234
10
23.7950157
20
53.1947863
40
0.3566604
50
292.5402179
51
293.6924929
0
ARC
8
DEFAULT_255_1_234
10
23.8342752
20
52.5493091
40
0.3307468
50
57.6435486
51
72.8625112
0
ARC
8
DEFAULT_255_1_234
10
23.8697252
20
52.6067549
40
0.2632492
50
36.7248896
51
57.4697979
0
ARC
8
DEFAULT_255_1_234
10
23.8685885
20
52.608022
40
0.2634081
50
8.0545065
51
36.356114
0
ARC
8
DEFAULT_255_1_234
10
23.782307
20
52.5925174
40
0.3510261
50
359.8320645
51
8.5869982
0
ARC
8
DEFAULT_255_1_234
10
23.7447846
20
52.5877101
40
0.3885653
50
343.9829931
51
0.5571613
0
ARC
8
DEFAULT_255_1_234
10
23.8334043
20
52.5634438
40
0.2966924
50
311.6359546
51
343.7651759
0
ARC
8
DEFAULT_255_1_234
10
23.7955613
20
52.6061102
40
0.3537231
50
279.7829875
51
311.6255694
0
ARC
8
DEFAULT_255_1_234
10
23.7654389
20
52.749828
40
0.5004971
50
269.7286406
51
280.3856417
0
ARC
8
DEFAULT_255_1_234
10
23.7592461
20
52.7456996
40
0.4963778
50
256.6828919
51
270.4412052
0
ARC
8
DEFAULT_255_1_234
10
23.7253757
20
52.6072394
40
0.3538406
50
229.4223008
51
256.8556159
0
ARC
8
DEFAULT_255_1_234
10
23.683915
20
52.5605736
40
0.2914296
50
181.818294
51
229.6455059
0
ARC
8
DEFAULT_255_1_234
10
23.7879106
20
52.5736496
40
0.3959084
50
179.9755256
51
183.2323064
0
ARC
8
DEFAULT_255_1_234
10
23.7706852
20
52.5716037
40
0.2293034
50
179.4465117
51
196.2869258
0
ARC
8
DEFAULT_255_1_234
10
23.721926
20
52.5582651
40
0.1787621
50
196.5661473
51
227.705904
0
ARC
8
DEFAULT_255_1_234
10
23.7383355
20
52.5766155
40
0.2033784
50
227.7652068
51
257.8762805
0
ARC
8
DEFAULT_255_1_234
10
23.7608325
20
52.6709156
40
0.3003081
50
257.4584385
51
270.426602
0
ARC
8
DEFAULT_255_1_234
10
23.7653891
20
52.6998996
40
0.329292
50
269.5962073
51
280.8789248
0
ARC
8
DEFAULT_255_1_234
10
23.788342
20
52.5852685
40
0.2123908
50
280.6346389
51
299.8595945
0
ARC
8
DEFAULT_255_1_234
10
23.8074327
20
52.5490212
40
0.171457
50
300.3576302
51
314.5517981
0
ARC
8
DEFAULT_255_1_234
10
23.7991387
20
52.5550919
40
0.1816095
50
315.0728369
51
345.0431014
0
ARC
8
DEFAULT_255_1_234
10
23.7068201
20
52.5819841
40
0.2777492
50
344.5986631
51
357.9269593
0
ARC
8
DEFAULT_255_1_234
10
23.6172528
20
52.5881276
40
0.3674917
50
357.4748886
51
0.0231117
0
ARC
8
DEFAULT_255_1_234
10
23.7195637
20
52.5905679
40
0.2651907
50
359.5047933
51
13.4239635
0
ARC
8
DEFAULT_255_1_234
10
23.8062281
20
52.6127478
40
0.1757509
50
12.9498199
51
48.7551375
0
ARC
8
DEFAULT_255_1_234
10
23.7880014
20
52.58784
40
0.2065134
50
49.5088623
51
72.1836453
0
ARC
8
DEFAULT_255_1_234
10
23.7522167
20
52.4816291
40
0.3185836
50
71.9010081
51
84.3554254
0
ARC
8
DEFAULT_255_1_234
10
23.7360799
20
52.3455326
40
0.4556151
50
84.0193428
51
89.333121
0
LINE
8
DEFAULT_255_1_234
10
22.5173458
20
61.3723211
11
22.8209456
21
60.785201
0
LINE
8
DEFAULT_255_1_234
10
22.8209456
20
60.785201
11
23.1261516
21
61.3723211
0
LINE
8
DEFAULT_255_1_234
10
23.1261516
20
61.3723211
11
23.3012435
21
61.3723211
0
LINE
8
DEFAULT_255_1_234
10
23.3012435
20
61.3723211
11
22.8980502
21
60.6390234
0
LINE
8
DEFAULT_255_1_234
10
22.8980502
20
60.6390234
11
22.8980502
21
60.2029
0
LINE
8
DEFAULT_255_1_234
10
22.8980502
20
60.2029
11
22.7438409
21
60.2029
0
LINE
8
DEFAULT_255_1_234
10
22.7438409
20
60.2029
11
22.7438409
21
60.6390234
0
LINE
8
DEFAULT_255_1_234
10
22.7438409
20
60.6390234
11
22.3406476
21
61.3723211
0
LINE
8
DEFAULT_255_1_234
10
22.3406476
20
61.3723211
11
22.5173458
21
61.3723211
0
LINE
8
DEFAULT_255_1_234
10
24.1799157
20
60.3241792
11
24.1799157
21
60.2029
0
LINE
8
DEFAULT_255_1_234
10
24.1799157
20
60.2029
11
23.4136878
21
60.2029
0
LINE
8
DEFAULT_255_1_234
10
23.4136878
20
60.2029
11
23.4136878
21
60.3097221
0
LINE
8
DEFAULT_255_1_234
10
23.4136878
20
60.3097221
11
23.8184875
21
60.7594995
0
LINE
8
DEFAULT_255_1_234
10
23.5397861
20
61.0277595
11
23.391199
21
61.0277595
0
LINE
8
DEFAULT_255_1_234
10
23.9060334
20
60.6639218
11
23.5927956
21
60.3241792
0
LINE
8
DEFAULT_255_1_234
10
23.5927956
20
60.3241792
11
24.1799157
21
60.3241792
0
ARC
8
DEFAULT_255_1_234
10
22.4694708
20
61.9524527
40
1.8008286
50
318.5132453
51
320.7828378
0
ARC
8
DEFAULT_255_1_234
10
22.9981682
20
61.5221426
40
1.1191493
50
320.7372736
51
323.9737074
0
ARC
8
DEFAULT_255_1_234
10
23.3901539
20
61.2381361
40
0.6350923
50
323.8961724
51
328.6421089
0
ARC
8
DEFAULT_255_1_234
10
23.5948134
20
61.1119031
40
0.3946393
50
328.8299013
51
331.789948
0
ARC
8
DEFAULT_255_1_234
10
23.6945313
20
61.0604509
40
0.2824501
50
331.4255242
51
352.9364833
0
ARC
8
DEFAULT_255_1_234
10
23.7081813
20
61.0573976
40
0.2685315
50
353.2248685
51
0.0169286
0
ARC
8
DEFAULT_255_1_234
10
23.729169
20
61.059695
40
0.2475536
50
359.4866256
51
15.9339782
0
ARC
8
DEFAULT_255_1_234
10
23.7798675
20
61.0733286
40
0.1950618
50
16.1714718
51
43.5284424
0
ARC
8
DEFAULT_255_1_234
10
23.7875984
20
61.0810573
40
0.184134
50
43.4415429
51
83.1661404
0
ARC
8
DEFAULT_255_1_234
10
23.7741902
20
61.0073771
40
0.258926
50
82.160215
51
90.1505798
0
ARC
8
DEFAULT_255_1_234
10
23.7710329
20
60.9536865
40
0.3126255
50
89.5460705
51
102.5418777
0
ARC
8
DEFAULT_255_1_234
10
23.7467416
20
61.0567665
40
0.2067346
50
102.1739365
51
129.2061916
0
ARC
8
DEFAULT_255_1_234
10
23.7388487
20
61.0692094
40
0.1921118
50
129.7279328
51
135.7542026
0
ARC
8
DEFAULT_255_1_234
10
23.7510015
20
61.0595045
40
0.2075944
50
136.175737
51
166.3674722
0
ARC
8
DEFAULT_255_1_234
10
23.8516934
20
61.0325182
40
0.3118201
50
165.9092917
51
178.8683903
0
ARC
8
DEFAULT_255_1_234
10
23.9381795
20
61.0278179
40
0.3983935
50
178.438168
51
180.0083905
0
ARC
8
DEFAULT_255_1_234
10
23.7980398
20
61.0317231
40
0.4068601
50
163.2878735
51
180.5581814
0
ARC
8
DEFAULT_255_1_234
10
23.7178659
20
61.053784
40
0.3237344
50
133.454115
51
162.9470031
0
ARC
8
DEFAULT_255_1_234
10
23.73572
20
61.0348
40
0.349795
50
100.7869394
51
133.4384016
0
ARC
8
DEFAULT_255_1_234
10
23.7704972
20
60.8799319
40
0.5084616
50
89.6605301
51
101.3704185
0
ARC
8
DEFAULT_255_1_234
10
23.7771311
20
60.8860496
40
0.502348
50
78.2171172
51
90.4130393
0
ARC
8
DEFAULT_255_1_234
10
23.8126389
20
61.0484637
40
0.3361092
50
55.9268222
51
78.4888551
0
ARC
8
DEFAULT_255_1_234
10
23.8322829
20
61.0823324
40
0.2970617
50
47.9292255
51
55.4054003
0
ARC
8
DEFAULT_255_1_234
10
23.842439
20
61.0926502
40
0.2825983
50
4.3347696
51
48.0560701
0
ARC
8
DEFAULT_255_1_234
10
23.7328783
20
61.0756601
40
0.393225
50
359.925209
51
5.5967654
0
ARC
8
DEFAULT_255_1_234
10
23.7757675
20
61.0812816
40
0.3503892
50
337.8914096
51
358.9967724
0
ARC
8
DEFAULT_255_1_234
10
23.5044087
20
61.1859706
40
0.6412172
50
326.9135351
51
338.3505194
0
ARC
8
DEFAULT_255_1_234
10
23.1058391
20
61.4414284
40
1.1146189
50
319.6472867
51
327.095818
0
ARC
8
DEFAULT_255_1_234
10
22.7225394
20
61.7576
40
1.6114559
50
317.2586784
51
319.9046139
0
LINE
8
DEFAULT_255_1_234
10
22.5261458
20
69.3098211
11
22.8297456
21
68.722701
0
LINE
8
DEFAULT_255_1_234
10
22.8297456
20
68.722701
11
23.1349516
21
69.3098211
0
LINE
8
DEFAULT_255_1_234
10
23.1349516
20
69.3098211
11
23.3100435
21
69.3098211
0
LINE
8
DEFAULT_255_1_234
10
23.3100435
20
69.3098211
11
22.9068502
21
68.5765234
0
LINE
8
DEFAULT_255_1_234
10
22.9068502
20
68.5765234
11
22.9068502
21
68.1404
0
LINE
8
DEFAULT_255_1_234
10
22.9068502
20
68.1404
11
22.7526409
21
68.1404
0
LINE
8
DEFAULT_255_1_234
10
22.7526409
20
68.1404
11
22.7526409
21
68.5765234
0
LINE
8
DEFAULT_255_1_234
10
22.7526409
20
68.5765234
11
22.3494476
21
69.3098211
0
LINE
8
DEFAULT_255_1_234
10
22.3494476
20
69.3098211
11
22.5261458
21
69.3098211
0
LINE
8
DEFAULT_255_1_234
10
23.9108175
20
69.3154433
11
23.9108175
21
68.1404
0
LINE
8
DEFAULT_255_1_234
10
23.9108175
20
68.1404
11
23.7614272
21
68.1404
0
LINE
8
DEFAULT_255_1_234
10
23.7614272
20
68.1404
11
23.7614272
21
69.1307133
0
LINE
8
DEFAULT_255_1_234
10
23.7614272
20
69.1307133
11
23.4618434
21
69.0206785
0
LINE
8
DEFAULT_255_1_234
10
23.4618434
20
69.0206785
11
23.4618434
21
69.1556117
0
LINE
8
DEFAULT_255_1_234
10
23.4618434
20
69.1556117
11
23.8875255
21
69.3154433
0
LINE
8
DEFAULT_255_1_234
10
23.8875255
20
69.3154433
11
23.9108175
21
69.3154433
0
LINE
8
DEFAULT_255_1_234
10
22.5173458
20
77.2473211
11
22.8209456
21
76.660201
0
LINE
8
DEFAULT_255_1_234
10
22.8209456
20
76.660201
11
23.1261516
21
77.2473211
0
LINE
8
DEFAULT_255_1_234
10
23.1261516
20
77.2473211
11
23.3012435
21
77.2473211
0
LINE
8
DEFAULT_255_1_234
10
23.3012435
20
77.2473211
11
22.8980502
21
76.5140234
0
LINE
8
DEFAULT_255_1_234
10
22.8980502
20
76.5140234
11
22.8980502
21
76.0779
0
LINE
8
DEFAULT_255_1_234
10
22.8980502
20
76.0779
11
22.7438409
21
76.0779
0
LINE
8
DEFAULT_255_1_234
10
22.7438409
20
76.0779
11
22.7438409
21
76.5140234
0
LINE
8
DEFAULT_255_1_234
10
22.7438409
20
76.5140234
11
22.3406476
21
77.2473211
0
LINE
8
DEFAULT_255_1_234
10
22.3406476
20
77.2473211
11
22.5173458
21
77.2473211
0
LINE
8
DEFAULT_255_1_234
10
24.1469855
20
76.7694327
11
24.1469855
21
76.5766709
0
LINE
8
DEFAULT_255_1_234
10
23.4088688
20
76.5565916
11
23.4088688
21
76.7549755
0
LINE
8
DEFAULT_255_1_234
10
23.9983984
20
76.5365123
11
23.9983984
21
76.7798739
0
LINE
8
DEFAULT_255_1_234
10
23.557456
20
76.7911184
11
23.557456
21
76.5533789
0
ARC
8
DEFAULT_255_1_234
10
22.9222745
20
76.5717805
40
1.2247208
50
353.8441951
51
0.2287902
0
ARC
8
DEFAULT_255_1_234
10
23.3862249
20
76.5199806
40
0.7578929
50
344.4934747
51
353.9765454
0
ARC
8
DEFAULT_255_1_234
10
23.6854839
20
76.4348981
40
0.4467846
50
329.2803592
51
344.7472793
0
ARC
8
DEFAULT_255_1_234
10
23.7847664
20
76.3804018
40
0.3336173
50
324.9352394
51
328.6160465
0
ARC
8
DEFAULT_255_1_234
10
23.8224773
20
76.3540427
40
0.2876076
50
280.580143
51
324.9173126
0
ARC
8
DEFAULT_255_1_234
10
23.7823565
20
76.5211099
40
0.4592847
50
269.5977311
51
281.6734359
0
ARC
8
DEFAULT_255_1_234
10
23.7751471
20
76.5091173
40
0.4472986
50
256.6228859
51
270.51044
0
ARC
8
DEFAULT_255_1_234
10
23.7349449
20
76.3542877
40
0.2873874
50
215.8618325
51
257.2788573
0
ARC
8
DEFAULT_255_1_234
10
23.837048
20
76.4227977
40
0.4102928
50
197.9693508
51
215.2623606
0
ARC
8
DEFAULT_255_1_234
10
24.0855596
20
76.5066709
40
0.6725652
50
187.8816417
51
198.2346507
0
ARC
8
DEFAULT_255_1_234
10
24.4813804
20
76.5638079
40
1.0724845
50
180.8976217
51
188.0055519
0
ARC
8
DEFAULT_255_1_234
10
24.7613992
20
76.5741777
40
1.3526448
50
180.7449369
51
181.1510016
0
ARC
8
DEFAULT_255_1_234
10
24.6036721
20
76.7598042
40
1.1948131
50
173.7675579
51
180.231553
0
ARC
8
DEFAULT_255_1_234
10
24.1518868
20
76.8108666
40
0.7401564
50
164.3058563
51
173.9002247
0
ARC
8
DEFAULT_255_1_234
10
23.8606937
20
76.8947656
40
0.4371288
50
148.7922025
51
164.568378
0
ARC
8
DEFAULT_255_1_234
10
23.7655389
20
76.9478929
40
0.3282386
50
144.5883898
51
148.1176286
0
ARC
8
DEFAULT_255_1_234
10
23.7312287
20
76.9718315
40
0.2864044
50
101.6440918
51
144.514236
0
ARC
8
DEFAULT_255_1_234
10
23.7737354
20
76.8029069
40
0.4604934
50
89.5284041
51
102.5819763
0
ARC
8
DEFAULT_255_1_234
10
23.7816441
20
76.7990018
40
0.464401
50
77.0437873
51
90.5081339
0
ARC
8
DEFAULT_255_1_234
10
23.8218443
20
76.9632615
40
0.2953195
50
48.2778575
51
77.4994676
0
ARC
8
DEFAULT_255_1_234
10
23.8291074
20
76.9761746
40
0.2808655
50
36.3142134
51
47.6305865
0
ARC
8
DEFAULT_255_1_234
10
23.7422381
20
76.9176515
40
0.3855453
50
18.2931786
51
35.6769206
0
ARC
8
DEFAULT_255_1_234
10
23.487914
20
76.8303593
40
0.654423
50
8.024666
51
18.5605216
0
ARC
8
DEFAULT_255_1_234
10
23.071606
20
76.7688792
40
1.0752407
50
1.1274072
51
8.1718305
0
ARC
8
DEFAULT_255_1_234
10
22.7480251
20
76.7561885
40
1.3990231
50
0.5424119
51
1.3863029
0
ARC
8
DEFAULT_255_1_234
10
22.9301629
20
76.7834342
40
1.0682415
50
359.8090433
51
4.9407866
0
ARC
8
DEFAULT_255_1_234
10
23.3511643
20
76.8210113
40
0.6455691
50
4.8362157
51
12.2904523
0
ARC
8
DEFAULT_255_1_234
10
23.6266757
20
76.8823965
40
0.3633074
50
12.0805627
51
23.8173984
0
ARC
8
DEFAULT_255_1_234
10
23.7440463
20
76.9320919
40
0.2358723
50
24.2871213
51
31.3935614
0
ARC
8
DEFAULT_255_1_234
10
23.796516
20
76.9664233
40
0.1732111
50
30.7407893
51
82.4657128
0
ARC
8
DEFAULT_255_1_234
10
23.7785294
20
76.8780691
40
0.263235
50
81.1060089
51
90.2184952
0
ARC
8
DEFAULT_255_1_234
10
23.7749593
20
76.9038924
40
0.2374236
50
89.3806855
51
105.6762551
0
ARC
8
DEFAULT_255_1_234
10
23.7566224
20
76.9705567
40
0.1682847
50
105.7981136
51
149.7388061
0
ARC
8
DEFAULT_255_1_234
10
23.8630302
20
76.906595
40
0.2924306
50
149.4208916
51
163.6286378
0
ARC
8
DEFAULT_255_1_234
10
24.072119
20
76.842825
40
0.5110213
50
163.3763315
51
172.1410975
0
ARC
8
DEFAULT_255_1_234
10
24.4021909
20
76.7955518
40
0.8444586
50
172.0259487
51
178.0703232
0
ARC
8
DEFAULT_255_1_234
10
24.7051999
20
76.7811906
40
1.1477868
50
177.8631668
51
179.5044149
0
ARC
8
DEFAULT_255_1_234
10
24.5979403
20
76.5497389
40
1.0404907
50
179.7995573
51
185.2460446
0
ARC
8
DEFAULT_255_1_234
10
24.1936442
20
76.5114513
40
0.6343885
50
185.1411642
51
193.0079639
0
ARC
8
DEFAULT_255_1_234
10
23.9292915
20
76.4489641
40
0.3627568
50
192.7897626
51
205.2507664
0
ARC
8
DEFAULT_255_1_234
10
23.8246462
20
76.4022415
40
0.2481908
50
205.8005384
51
211.2537509
0
ARC
8
DEFAULT_255_1_234
10
23.7722902
20
76.367158
40
0.1852521
50
210.3789793
51
238.4008143
0
ARC
8
DEFAULT_255_1_234
10
23.7703424
20
76.3718376
40
0.1882621
50
239.6520629
51
265.9793761
0
ARC
8
DEFAULT_255_1_234
10
23.7788624
20
76.4390427
40
0.2559272
50
265.1315437
51
270.060332
0
ARC
8
DEFAULT_255_1_234
10
23.7817403
20
76.4066534
40
0.2235528
50
269.3314664
51
287.2178029
0
ARC
8
DEFAULT_255_1_234
10
23.7955255
20
76.3563279
40
0.1714108
50
287.7958004
51
329.080874
0
ARC
8
DEFAULT_255_1_234
10
23.6997712
20
76.416093
40
0.2842745
50
328.6634704
51
343.3325132
0
ARC
8
DEFAULT_255_1_234
10
23.4824732
20
76.4837863
40
0.5118644
50
343.0499468
51
351.9393422
0
ARC
8
DEFAULT_255_1_234
10
23.1358032
20
76.5348949
40
0.8622784
50
351.8069023
51
357.7959224
0
ARC
8
DEFAULT_255_1_234
10
22.8122588
20
76.5516721
40
1.1862365
50
357.5871873
51
359.2677531
0
ENDSEC
0
EOF