0
SECTION
2
HEADER
9
$MEASUREMENT
70
1
0
ENDSEC
0
SECTION
2
TABLES
0
TABLE
2
LTYPE
0
LTYPE
72
65
70
64
2
CONTINUOUS
3
______
73
0
40
0
0
ENDTAB
0
TABLE
2
LAYER
0
LAYER
2
DEFAULT_255_2_778
70
0
62
255
6
CONTINUOUS
0
ENDTAB
0
ENDSEC
0
SECTION
2
ENTITIES
0
ARC
8
DEFAULT_255_2_778
10
17.3030675
20
85.9565339
40
0.2000088
50
0.0025281
51
89.9974516
0
ARC
8
DEFAULT_255_2_778
10
17.3032594
20
83.3562597
40
0.1998171
50
269.947541
51
0.052459
0
ARC
8
DEFAULT_255_2_778
10
15.8031066
20
85.9565125
40
0.2000302
50
89.9800103
51
179.9913489
0
ARC
8
DEFAULT_255_2_778
10
15.8029788
20
83.356345
40
0.1999024
50
179.9719992
51
270.0566416
0
ARC
8
DEFAULT_255_2_778
10
15.8031707
20
84.8567369
40
0.2000943
50
180.0269863
51
270.0016342
0
LINE
8
DEFAULT_255_2_778
10
36.4030764
20
81.1564427
11
38.1029764
21
81.1564427
0
LINE
8
DEFAULT_255_2_778
10
38.1029764
20
81.1564427
11
38.1029764
21
75.1564427
0
LINE
8
DEFAULT_255_2_778
10
38.1029764
20
75.1564427
11
36.4030764
21
75.1564427
0
LINE
8
DEFAULT_255_2_778
10
36.4030764
20
75.1564427
11
36.4030764
21
81.1564427
0
LINE
8
DEFAULT_255_2_778
10
13.8031764
20
46.3566427
11
11.8031764
21
46.3566427
0
LINE
8
DEFAULT_255_2_778
10
11.8031764
20
46.3566427
11
11.8031764
21
51.7564427
0
LINE
8
DEFAULT_255_2_778
10
11.8031764
20
51.7564427
11
13.8031764
21
51.7564427
0
LINE
8
DEFAULT_255_2_778
10
18.5029764
20
51.7564427
11
18.5029764
21
46.3566427
0
LINE
8
DEFAULT_255_2_778
10
18.5029764
20
46.3566427
11
16.8029764
21
46.3566427
0
LINE
8
DEFAULT_255_2_778
10
16.8029764
20
46.3566427
11
16.8029764
21
51.7564427
0
LINE
8
DEFAULT_255_2_778
10
16.8029764
20
51.7564427
11
18.5029764
21
51.7564427
0
LINE
8
DEFAULT_255_2_778
10
13.8031764
20
26.7565427
11
11.8031764
21
26.7565427
0
LINE
8
DEFAULT_255_2_778
10
11.8031764
20
26.7565427
11
11.8031764
21
32.1564427
0
LINE
8
DEFAULT_255_2_778
10
11.8031764
20
32.1564427
11
13.8031764
21
32.1564427
0
LINE
8
DEFAULT_255_2_778
10
18.5029764
20
32.1564427
11
18.5029764
21
26.7565427
0
LINE
8
DEFAULT_255_2_778
10
18.5029764
20
26.7565427
11
16.8029764
21
26.7565427
0
LINE
8
DEFAULT_255_2_778
10
16.8029764
20
26.7565427
11
16.8029764
21
32.1564427
0
LINE
8
DEFAULT_255_2_778
10
16.8029764
20
32.1564427
11
18.5029764
21
32.1564427
0
LINE
8
DEFAULT_255_2_778
10
24.8031764
20
12.2563427
11
24.8031764
21
11.2564427
0
LINE
8
DEFAULT_255_2_778
10
24.8031764
20
11.2564427
11
23.0712764
21
10.2563427
0
LINE
8
DEFAULT_255_2_778
10
23.0712764
20
10.2563427
11
22.2052764
21
10.7563427
0
LINE
8
DEFAULT_255_2_778
10
22.2052764
20
10.7563427
11
23.0712764
21
11.2564427
0
LINE
8
DEFAULT_255_2_778
10
23.0712764
20
11.2564427
11
24.8031764
21
10.2563427
0
LINE
8
DEFAULT_255_2_778
10
24.8031764
20
10.2563427
11
24.8031764
21
9.2564427
0
LINE
8
DEFAULT_255_2_778
10
24.8031764
20
9.2564427
11
23.9372764
21
9.7565427
0
LINE
8
DEFAULT_255_2_778
10
23.9372764
20
9.7565427
11
23.9372764
21
11.7565427
0
LINE
8
DEFAULT_255_2_778
10
23.9372764
20
11.7565427
11
24.8031764
21
12.2563427
0
LINE
8
DEFAULT_255_2_778
10
17.5030764
20
85.9565427
11
17.5030764
21
83.3564427
0
LINE
8
DEFAULT_255_2_778
10
15.6030764
20
85.9565427
11
15.6030764
21
83.3564427
0
LINE
8
DEFAULT_255_2_778
10
15.8031764
20
83.1564427
11
15.8031764
21
86.1565427
0
LINE
8
DEFAULT_255_2_778
10
15.8031764
20
86.1565427
11
17.3030764
21
86.1565427
0
LINE
8
DEFAULT_255_2_778
10
17.3030764
20
86.1565427
11
17.3030764
21
83.1567427
0
LINE
8
DEFAULT_255_2_778
10
17.3030764
20
83.1567427
11
15.8031764
21
83.1567427
0
ARC
8
DEFAULT_255_2_778
10
15.8031663
20
4.656274
40
0.2001437
50
89.9965405
51
149.9762196
0
ARC
8
DEFAULT_255_2_778
10
15.8040164
20
4.6563582
40
0.2008382
50
150.1183428
51
180.0115215
0
ARC
8
DEFAULT_255_2_778
10
15.8029954
20
2.0561348
40
0.1998171
50
179.947541
51
270.052459
0
ARC
8
DEFAULT_255_2_778
10
17.3031482
20
2.056348
40
0.2000302
50
269.9800103
51
359.9913489
0
ARC
8
DEFAULT_255_2_778
10
17.3012021
20
4.6558799
40
0.2019768
50
0.1242252
51
29.8525545
0
ARC
8
DEFAULT_255_2_778
10
17.3031603
20
4.6563949
40
0.2000227
50
30.003809
51
90.0234523
0
ARC
8
DEFAULT_255_2_778
10
15.8031233
20
3.5564627
40
0.1999449
50
179.9842058
51
270.0157942
0
LINE
8
DEFAULT_255_2_778
10
33.0032784
20
67.9563178
11
33.0032784
21
72.0063178
0
LINE
8
DEFAULT_255_2_778
10
33.0032784
20
72.0063178
11
35.0031784
21
72.0063178
0
LINE
8
DEFAULT_255_2_778
10
35.0031784
20
72.0063178
11
35.0031784
21
67.9563178
0
LINE
8
DEFAULT_255_2_778
10
35.0031784
20
67.9563178
11
33.0032784
21
67.9563178
0
LINE
8
DEFAULT_255_2_778
10
33.0032784
20
71.7563178
11
34.8031784
21
71.7563178
0
LINE
8
DEFAULT_255_2_778
10
34.8031784
20
71.7563178
11
34.8031784
21
68.2064178
0
LINE
8
DEFAULT_255_2_778
10
34.8031784
20
68.2064178
11
33.0032784
21
68.2064178
0
LINE
8
DEFAULT_255_2_778
10
33.2032784
20
71.7563178
11
33.2032784
21
68.2064178
0
LINE
8
DEFAULT_255_2_778
10
33.5032784
20
68.2064178
11
33.5032784
21
71.7563178
0
LINE
8
DEFAULT_255_2_778
10
15.6031784
20
4.6563178
11
15.6031784
21
2.0563178
0
LINE
8
DEFAULT_255_2_778
10
15.8031784
20
1.8563178
11
15.8031784
21
4.8564178
0
LINE
8
DEFAULT_255_2_778
10
15.8031784
20
4.8564178
11
17.3030784
21
4.8564178
0
LINE
8
DEFAULT_255_2_778
10
17.3030784
20
4.8564178
11
17.3030784
21
1.8563178
0
LINE
8
DEFAULT_255_2_778
10
17.3030784
20
1.8563178
11
15.8031784
21
1.8563178
0
LINE
8
DEFAULT_255_2_778
10
17.5031784
20
2.0563178
11
17.5031784
21
4.6563178
0
LINE
8
DEFAULT_255_2_778
10
22.0031784
20
34.2563178
11
22.0031784
21
38.2563178
0
LINE
8
DEFAULT_255_2_778
10
22.0031784
20
38.2563178
11
24.0031784
21
38.2563178
0
LINE
8
DEFAULT_255_2_778
10
24.0031784
20
38.2563178
11
24.0031784
21
34.2563178
0
LINE
8
DEFAULT_255_2_778
10
24.0031784
20
34.2563178
11
22.0031784
21
34.2563178
0
LINE
8
DEFAULT_255_2_778
10
22.0031784
20
34.5064178
11
23.8031784
21
34.5064178
0
LINE
8
DEFAULT_255_2_778
10
23.8031784
20
34.5064178
11
23.8031784
21
38.0063178
0
LINE
8
DEFAULT_255_2_778
10
23.8031784
20
38.0063178
11
22.0031784
21
38.0063178
0
LINE
8
DEFAULT_255_2_778
10
22.5032784
20
38.0063178
11
22.5032784
21
34.5064178
0
LINE
8
DEFAULT_255_2_778
10
22.2031784
20
38.0063178
11
22.2031784
21
34.5064178
0
LINE
8
DEFAULT_255_2_778
10
23.8031784
20
38.0063178
11
23.8031784
21
38.2563178
0
LINE
8
DEFAULT_255_2_778
10
23.8031784
20
37.7062178
11
24.0031784
21
37.7062178
0
ARC
8
DEFAULT_255_2_778
10
39.2067846
20
15.2549069
40
0.9962783
50
318.352313
51
0.084247
0
ARC
8
DEFAULT_255_2_778
10
39.2040542
20
15.2540497
40
0.997752
50
271.7286836
51
318.4932889
0
ARC
8
DEFAULT_255_2_778
10
39.2028715
20
15.2753954
40
1.0191238
50
269.9994552
51
271.758945
0
ARC
8
DEFAULT_255_2_778
10
39.2014173
20
15.252628
40
0.9963573
50
228.3578711
51
270.0830675
0
ARC
8
DEFAULT_255_2_778
10
39.2003754
20
15.2551975
40
0.9975883
50
181.730003
51
228.5006483
0
ARC
8
DEFAULT_255_2_778
10
39.2218625
20
15.2563619
40
1.0191008
50
179.999446
51
181.7589697
0
LINE
8
DEFAULT_255_2_778
10
38.2027618
20
15.2563718
11
38.2027618
21
21.7563718
0
LINE
8
DEFAULT_255_2_778
10
38.2027618
20
21.7563718
11
40.2027618
21
21.7563718
0
LINE
8
DEFAULT_255_2_778
10
40.2027618
20
21.7563718
11
40.2027618
21
15.2563718
0
ARC
8
DEFAULT_255_2_778
10
43.2034901
20
81.7560843
40
1.000515
50
135.0116647
51
179.9927292
0
ARC
8
DEFAULT_255_2_778
10
43.2032021
20
81.7557958
40
1.0005155
50
90.0072757
51
134.9883214
0
ARC
8
DEFAULT_255_2_778
10
43.2030921
20
81.7561439
40
1.0001674
50
45.0034224
51
90.0009797
0
ARC
8
DEFAULT_255_2_778
10
43.20308
20
81.7562583
40
1.000095
50
359.9973023
51
44.9982952
0
LINE
8
DEFAULT_255_2_778
10
44.203175
20
81.7562112
11
44.203175
21
67.7563112
0
LINE
8
DEFAULT_255_2_778
10
44.203175
20
67.7563112
11
42.203275
21
67.7563112
0
LINE
8
DEFAULT_255_2_778
10
42.203275
20
67.7563112
11
42.203275
21
81.7562112
0
ARC
8
DEFAULT_255_2_778
10
35.2066223
20
15.2548859
40
0.9963538
50
318.3577872
51
0.0854462
0
ARC
8
DEFAULT_255_2_778
10
35.2040874
20
15.2538827
40
0.9975846
50
271.7278219
51
318.4975893
0
ARC
8
DEFAULT_255_2_778
10
35.2028849
20
15.2753724
40
1.0191008
50
269.999446
51
271.7589696
0
ARC
8
DEFAULT_255_2_778
10
35.2014305
20
15.252628
40
0.9963573
50
228.3578711
51
270.0830675
0
ARC
8
DEFAULT_255_2_778
10
35.2003887
20
15.2551975
40
0.9975883
50
181.730003
51
228.5006483
0
ARC
8
DEFAULT_255_2_778
10
35.2218757
20
15.2563619
40
1.0191008
50
179.999446
51
181.7589697
0
LINE
8
DEFAULT_255_2_778
10
34.202775
20
15.2563718
11
34.202775
21
21.7563718
0
LINE
8
DEFAULT_255_2_778
10
34.202775
20
21.7563718
11
36.202775
21
21.7563718
0
LINE
8
DEFAULT_255_2_778
10
36.202775
20
21.7563718
11
36.202775
21
15.2563718
0
ARC
8
DEFAULT_255_2_778
10
31.2067223
20
15.2548859
40
0.9963538
50
318.3577872
51
0.0854462
0
ARC
8
DEFAULT_255_2_778
10
31.2041874
20
15.2538827
40
0.9975846
50
271.7278219
51
318.4975893
0
ARC
8
DEFAULT_255_2_778
10
31.2029849
20
15.2753724
40
1.0191008
50
269.999446
51
271.7589696
0
ARC
8
DEFAULT_255_2_778
10
31.2015305
20
15.252628
40
0.9963573
50
228.3578711
51
270.0830675
0
ARC
8
DEFAULT_255_2_778
10
31.2004887
20
15.2551975
40
0.9975883
50
181.730003
51
228.5006483
0
ARC
8
DEFAULT_255_2_778
10
31.2219757
20
15.2563619
40
1.0191008
50
179.999446
51
181.7589697
0
LINE
8
DEFAULT_255_2_778
10
30.202875
20
15.2563718
11
30.202875
21
21.7563718
0
LINE
8
DEFAULT_255_2_778
10
30.202875
20
21.7563718
11
32.202875
21
21.7563718
0
LINE
8
DEFAULT_255_2_778
10
32.202875
20
21.7563718
11
32.202875
21
15.2563718
0
ARC
8
DEFAULT_255_2_778
10
67.1995113
20
81.7576983
40
0.9963226
50
138.3541388
51
180.0816049
0
ARC
8
DEFAULT_255_2_778
10
67.2021733
20
81.7587178
40
0.9976376
50
91.732932
51
138.4994886
0
ARC
8
DEFAULT_255_2_778
10
67.20328
20
81.7376201
40
1.0187592
50
89.9994554
51
91.7592612
0
ARC
8
DEFAULT_255_2_778
10
67.2047501
20
81.7600612
40
0.9963191
50
48.3540548
51
90.083984
0
ARC
8
DEFAULT_255_2_778
10
67.205731
20
81.7574337
40
0.9976339
50
1.7307506
51
48.4964297
0
ARC
8
DEFAULT_255_2_778
10
67.1846306
20
81.7562889
40
1.0187593
50
359.9994553
51
1.7592611
0
ARC
8
DEFAULT_255_2_778
10
67.206879
20
15.2547092
40
0.9965117
50
318.3612403
51
0.08452
0
ARC
8
DEFAULT_255_2_778
10
67.204469
20
15.2535514
40
0.9975466
50
271.729783
51
318.5029145
0
ARC
8
DEFAULT_255_2_778
10
67.2032995
20
15.27508
40
1.0191008
50
269.999446
51
271.7589697
0
ARC
8
DEFAULT_255_2_778
10
67.2018661
20
15.25226
40
0.9962817
50
228.352397
51
270.0818679
0
ARC
8
DEFAULT_255_2_778
10
67.2009704
20
15.2550249
40
0.9977557
50
181.7308645
51
228.4963478
0
ARC
8
DEFAULT_255_2_778
10
67.2223134
20
15.2561696
40
1.0191238
50
179.9994553
51
181.7589451
0
ARC
8
DEFAULT_255_2_778
10
63.2070334
20
15.2549347
40
0.9963573
50
318.3578711
51
0.0830675
0
ARC
8
DEFAULT_255_2_778
10
63.204464
20
15.2538929
40
0.9975883
50
271.730003
51
318.5006483
0
ARC
8
DEFAULT_255_2_778
10
63.2032995
20
15.27538
40
1.0191008
50
269.999446
51
271.7589697
0
ARC
8
DEFAULT_255_2_778
10
63.2018706
20
15.2526008
40
0.9963226
50
228.3541388
51
270.0816049
0
ARC
8
DEFAULT_255_2_778
10
63.2008511
20
15.2552629
40
0.9976376
50
181.732932
51
228.4994886
0
ARC
8
DEFAULT_255_2_778
10
63.2219489
20
15.2563696
40
1.0187592
50
179.9994554
51
181.7592612
0
ARC
8
DEFAULT_255_2_778
10
63.1995113
20
81.7576983
40
0.9963226
50
138.3541388
51
180.0816049
0
ARC
8
DEFAULT_255_2_778
10
63.2021733
20
81.7587178
40
0.9976376
50
91.732932
51
138.4994886
0
ARC
8
DEFAULT_255_2_778
10
63.20328
20
81.7376201
40
1.0187592
50
89.9994554
51
91.7592612
0
ARC
8
DEFAULT_255_2_778
10
63.2047501
20
81.7600612
40
0.9963191
50
48.3540548
51
90.083984
0
ARC
8
DEFAULT_255_2_778
10
63.205731
20
81.7574337
40
0.9976339
50
1.7307506
51
48.4964297
0
ARC
8
DEFAULT_255_2_778
10
63.1846306
20
81.7562889
40
1.0187593
50
359.9994553
51
1.7592611
0
LINE
8
DEFAULT_255_2_778
10
66.2031897
20
52.2562793
11
68.2031897
21
52.2562793
0
LINE
8
DEFAULT_255_2_778
10
68.2033897
20
81.7562793
11
68.2033897
21
15.2561793
0
LINE
8
DEFAULT_255_2_778
10
66.2031897
20
15.2561793
11
66.2031897
21
81.7562793
0
LINE
8
DEFAULT_255_2_778
10
66.2031897
20
62.2561793
11
68.2031897
21
62.2561793
0
LINE
8
DEFAULT_255_2_778
10
66.2031897
20
58.2561793
11
68.2031897
21
58.2561793
0
LINE
8
DEFAULT_255_2_778
10
68.2031897
20
65.3562793
11
66.2031897
21
65.3562793
0
LINE
8
DEFAULT_255_2_778
10
66.2031897
20
38.7564793
11
68.2031897
21
38.7564793
0
LINE
8
DEFAULT_255_2_778
10
66.2031897
20
40.7563793
11
68.2031897
21
40.7563793
0
LINE
8
DEFAULT_255_2_778
10
66.2031897
20
34.7564793
11
68.2031897
21
34.7564793
0
LINE
8
DEFAULT_255_2_778
10
68.2031897
20
74.2563793
11
66.2031897
21
74.2563793
0
LINE
8
DEFAULT_255_2_778
10
68.2031897
20
77.2564793
11
66.2031897
21
77.2564793
0
LINE
8
DEFAULT_255_2_778
10
66.2031897
20
17.3563793
11
68.2031897
21
17.3563793
0
LINE
8
DEFAULT_255_2_778
10
62.2867897
20
14.8563793
11
64.1197897
21
14.8563793
0
LINE
8
DEFAULT_255_2_778
10
62.2031897
20
15.2563793
11
62.2031897
21
81.7562793
0
LINE
8
DEFAULT_255_2_778
10
64.2033897
20
81.7562793
11
64.2033897
21
15.2563793
0
LINE
8
DEFAULT_255_2_778
10
62.2034897
20
38.7564793
11
64.2033897
21
38.7564793
0
LINE
8
DEFAULT_255_2_778
10
62.2034897
20
40.7563793
11
64.2033897
21
40.7563793
0
LINE
8
DEFAULT_255_2_778
10
62.2034897
20
34.7564793
11
64.2033897
21
34.7564793
0
LINE
8
DEFAULT_255_2_778
10
62.2034897
20
62.2564793
11
64.2033897
21
62.2564793
0
LINE
8
DEFAULT_255_2_778
10
62.2034897
20
58.2564793
11
64.2033897
21
58.2564793
0
LINE
8
DEFAULT_255_2_778
10
62.2034897
20
54.8565793
11
64.2033897
21
54.8565793
0
LINE
8
DEFAULT_255_2_778
10
64.2033897
20
78.3565793
11
62.2034897
21
78.3565793
0
ARC
8
DEFAULT_255_2_778
10
59.206732
20
15.2549024
40
0.9963573
50
318.3578711
51
0.0830675
0
ARC
8
DEFAULT_255_2_778
10
59.2041625
20
15.2538606
40
0.9975883
50
271.730003
51
318.5006483
0
ARC
8
DEFAULT_255_2_778
10
59.2029981
20
15.2753477
40
1.0191008
50
269.999446
51
271.7589697
0
ARC
8
DEFAULT_255_2_778
10
59.2015692
20
15.2525686
40
0.9963226
50
228.3541388
51
270.0816049
0
ARC
8
DEFAULT_255_2_778
10
59.2005497
20
15.2552306
40
0.9976376
50
181.732932
51
228.4994886
0
ARC
8
DEFAULT_255_2_778
10
59.2216474
20
15.2563373
40
1.0187592
50
179.9994554
51
181.7592612
0
ARC
8
DEFAULT_255_2_778
10
59.2034033
20
81.75612
40
1.000515
50
135.0116647
51
179.9927292
0
ARC
8
DEFAULT_255_2_778
10
59.2031153
20
81.7558315
40
1.0005155
50
90.0072757
51
134.9883214
0
ARC
8
DEFAULT_255_2_778
10
59.2030054
20
81.7561796
40
1.0001674
50
45.0034224
51
90.0009797
0
ARC
8
DEFAULT_255_2_778
10
59.2029933
20
81.7562941
40
1.000095
50
359.9973023
51
44.9982952
0
LINE
8
DEFAULT_255_2_778
10
58.2867883
20
14.856347
11
60.1197883
21
14.856347
0
LINE
8
DEFAULT_255_2_778
10
58.2031883
20
58.256447
11
60.2030883
21
58.256447
0
LINE
8
DEFAULT_255_2_778
10
58.2031883
20
62.256447
11
60.2030883
21
62.256447
0
LINE
8
DEFAULT_255_2_778
10
58.2028883
20
15.256347
11
58.2028883
21
81.756247
0
LINE
8
DEFAULT_255_2_778
10
60.2030883
20
81.756247
11
60.2030883
21
15.256347
0
LINE
8
DEFAULT_255_2_778
10
58.2031883
20
38.756447
11
60.2030883
21
38.756447
0
LINE
8
DEFAULT_255_2_778
10
58.2031883
20
40.756347
11
60.2030883
21
40.756347
0
LINE
8
DEFAULT_255_2_778
10
58.2031883
20
34.756447
11
60.2030883
21
34.756447
0
ARC
8
DEFAULT_255_2_778
10
55.2068188
20
15.2549024
40
0.9963573
50
318.3578711
51
0.0830675
0
ARC
8
DEFAULT_255_2_778
10
55.2042493
20
15.2538606
40
0.9975883
50
271.730003
51
318.5006483
0
ARC
8
DEFAULT_255_2_778
10
55.2030849
20
15.2753477
40
1.0191008
50
269.999446
51
271.7589697
0
ARC
8
DEFAULT_255_2_778
10
55.201656
20
15.2525686
40
0.9963226
50
228.3541388
51
270.0816049
0
ARC
8
DEFAULT_255_2_778
10
55.2006365
20
15.2552306
40
0.9976376
50
181.732932
51
228.4994886
0
ARC
8
DEFAULT_255_2_778
10
55.2217342
20
15.2563373
40
1.0187592
50
179.9994554
51
181.7592612
0
ARC
8
DEFAULT_255_2_778
10
55.2034901
20
81.75612
40
1.000515
50
135.0116647
51
179.9927292
0
ARC
8
DEFAULT_255_2_778
10
55.2032021
20
81.7558315
40
1.0005155
50
90.0072757
51
134.9883214
0
ARC
8
DEFAULT_255_2_778
10
55.2030921
20
81.7561796
40
1.0001674
50
45.0034224
51
90.0009797
0
ARC
8
DEFAULT_255_2_778
10
55.20308
20
81.7562941
40
1.000095
50
359.9973023
51
44.9982952
0
LINE
8
DEFAULT_255_2_778
10
54.286875
20
14.856347
11
56.119875
21
14.856347
0
LINE
8
DEFAULT_255_2_778
10
54.203275
20
58.256447
11
56.203175
21
58.256447
0
LINE
8
DEFAULT_255_2_778
10
54.203275
20
62.256447
11
56.203175
21
62.256447
0
LINE
8
DEFAULT_255_2_778
10
54.202975
20
15.256347
11
54.202975
21
81.756247
0
LINE
8
DEFAULT_255_2_778
10
56.203175
20
81.756247
11
56.203175
21
15.256347
0
LINE
8
DEFAULT_255_2_778
10
54.203275
20
38.756447
11
56.203175
21
38.756447
0
LINE
8
DEFAULT_255_2_778
10
54.203275
20
40.756347
11
56.203175
21
40.756347
0
LINE
8
DEFAULT_255_2_778
10
54.203275
20
34.756447
11
56.203175
21
34.756447
0
ARC
8
DEFAULT_255_2_778
10
51.2066811
20
15.2549234
40
0.9962817
50
318.352397
51
0.0818679
0
ARC
8
DEFAULT_255_2_778
10
51.2039161
20
15.2540277
40
0.9977557
50
271.7308645
51
318.4963478
0
ARC
8
DEFAULT_255_2_778
10
51.2027715
20
15.2753707
40
1.0191238
50
269.9994553
51
271.7589451
0
ARC
8
DEFAULT_255_2_778
10
51.2013428
20
15.2525686
40
0.9963226
50
228.3541388
51
270.0816049
0
ARC
8
DEFAULT_255_2_778
10
51.2003233
20
15.2552306
40
0.9976376
50
181.732932
51
228.4994886
0
ARC
8
DEFAULT_255_2_778
10
51.221421
20
15.2563373
40
1.0187592
50
179.9994554
51
181.7592612
0
ARC
8
DEFAULT_255_2_778
10
51.2031768
20
81.75612
40
1.000515
50
135.0116647
51
179.9927292
0
ARC
8
DEFAULT_255_2_778
10
51.2028888
20
81.7558315
40
1.0005155
50
90.0072757
51
134.9883214
0
ARC
8
DEFAULT_255_2_778
10
51.2027789
20
81.7561796
40
1.0001674
50
45.0034224
51
90.0009797
0
ARC
8
DEFAULT_255_2_778
10
51.2027706
20
81.7561542
40
1.0001912
50
0.0053149
51
45.0041129
0
LINE
8
DEFAULT_255_2_778
10
50.2865618
20
14.856347
11
52.1195618
21
14.856347
0
LINE
8
DEFAULT_255_2_778
10
50.2029618
20
58.256447
11
52.2029618
21
58.256447
0
LINE
8
DEFAULT_255_2_778
10
50.2029618
20
62.256447
11
52.2029618
21
62.256447
0
LINE
8
DEFAULT_255_2_778
10
50.2026618
20
15.256347
11
50.2026618
21
81.756247
0
LINE
8
DEFAULT_255_2_778
10
52.2029618
20
81.756247
11
52.2029618
21
15.256347
0
LINE
8
DEFAULT_255_2_778
10
50.2029618
20
38.756447
11
52.2029618
21
38.756447
0
LINE
8
DEFAULT_255_2_778
10
50.2029618
20
40.756347
11
52.2029618
21
40.756347
0
LINE
8
DEFAULT_255_2_778
10
50.2029618
20
34.756447
11
52.2029618
21
34.756447
0
ARC
8
DEFAULT_255_2_778
10
47.2069358
20
15.2549279
40
0.9963226
50
318.3541388
51
0.0816049
0
ARC
8
DEFAULT_255_2_778
10
47.2042737
20
15.2539084
40
0.9976376
50
271.732932
51
318.4994886
0
ARC
8
DEFAULT_255_2_778
10
47.2031671
20
15.2750062
40
1.0187592
50
269.9994554
51
271.7592612
0
ARC
8
DEFAULT_255_2_778
10
47.2017129
20
15.2527229
40
0.996477
50
228.3575081
51
270.0830578
0
ARC
8
DEFAULT_255_2_778
10
47.2005773
20
15.2552255
40
0.9975959
50
181.7327121
51
228.5017548
0
ARC
8
DEFAULT_255_2_778
10
47.2217166
20
15.2563373
40
1.0187592
50
179.9994554
51
181.7592612
0
ARC
8
DEFAULT_255_2_778
10
47.1992381
20
81.7576705
40
0.9962817
50
138.352397
51
180.0818679
0
ARC
8
DEFAULT_255_2_778
10
47.202003
20
81.7585663
40
0.9977557
50
91.7308645
51
138.4963478
0
ARC
8
DEFAULT_255_2_778
10
47.2031477
20
81.7372232
40
1.0191238
50
89.9994553
51
91.7589451
0
ARC
8
DEFAULT_255_2_778
10
47.2045764
20
81.7600254
40
0.9963226
50
48.3541388
51
90.0816049
0
ARC
8
DEFAULT_255_2_778
10
47.2055959
20
81.7573633
40
0.9976376
50
1.732932
51
48.4994886
0
ARC
8
DEFAULT_255_2_778
10
47.1844982
20
81.7562566
40
1.0187592
50
359.9994554
51
1.7592612
0
ARC
8
DEFAULT_255_2_778
10
43.2066011
20
15.2549024
40
0.9963573
50
318.3578711
51
0.0830675
0
ARC
8
DEFAULT_255_2_778
10
43.2040317
20
15.2538606
40
0.9975883
50
271.730003
51
318.5006483
0
ARC
8
DEFAULT_255_2_778
10
43.2028672
20
15.2753477
40
1.0191008
50
269.999446
51
271.7589697
0
ARC
8
DEFAULT_255_2_778
10
43.2014383
20
15.2525686
40
0.9963226
50
228.3541388
51
270.0816049
0
ARC
8
DEFAULT_255_2_778
10
43.2004188
20
15.2552306
40
0.9976376
50
181.732932
51
228.4994886
0
ARC
8
DEFAULT_255_2_778
10
43.2215166
20
15.2563373
40
1.0187592
50
179.9994554
51
181.7592612
0
LINE
8
DEFAULT_255_2_778
10
46.2865574
20
14.856347
11
48.1196574
21
14.856347
0
LINE
8
DEFAULT_255_2_778
10
46.2032574
20
58.256447
11
48.2032574
21
58.256447
0
LINE
8
DEFAULT_255_2_778
10
46.2032574
20
62.256447
11
48.2032574
21
62.256447
0
LINE
8
DEFAULT_255_2_778
10
46.2029574
20
15.256347
11
46.2029574
21
81.756247
0
LINE
8
DEFAULT_255_2_778
10
48.2032574
20
81.756247
11
48.2032574
21
15.256347
0
LINE
8
DEFAULT_255_2_778
10
46.2032574
20
38.756447
11
48.2032574
21
38.756447
0
LINE
8
DEFAULT_255_2_778
10
46.2032574
20
40.756347
11
48.2032574
21
40.756347
0
LINE
8
DEFAULT_255_2_778
10
46.2032574
20
34.756447
11
48.2032574
21
34.756447
0
LINE
8
DEFAULT_255_2_778
10
42.2027574
20
15.256347
11
42.2027574
21
21.756347
0
LINE
8
DEFAULT_255_2_778
10
42.2027574
20
21.756347
11
44.2027574
21
21.756347
0
LINE
8
DEFAULT_255_2_778
10
44.2027574
20
21.756347
11
44.2029574
21
15.256347
0
LINE
8
DEFAULT_255_2_778
10
42.2863574
20
14.856347
11
44.1193574
21
14.856347
0
LINE
8
DEFAULT_255_2_778
10
29.6029755
20
22.2564337
11
29.6029755
21
67.2565337
0
LINE
8
DEFAULT_255_2_778
10
29.6029755
20
67.2565337
11
44.6029755
21
67.2565337
0
LINE
8
DEFAULT_255_2_778
10
44.6029755
20
67.2565337
11
44.6029755
21
22.2564337
0
LINE
8
DEFAULT_255_2_778
10
44.6029755
20
22.2564337
11
29.6029755
21
22.2564337
0
LINE
8
DEFAULT_255_2_778
10
30.9534011
20
27.7027113
11
30.6555011
21
27.7027113
0
LINE
8
DEFAULT_255_2_778
10
30.6555011
20
27.7027113
11
30.6555011
21
28.9779113
0
LINE
8
DEFAULT_255_2_778
10
30.6555011
20
28.9779113
11
30.9534011
21
28.9779113
0
LINE
8
DEFAULT_255_2_778
10
30.9534011
20
28.9779113
11
30.9534011
21
28.5289113
0
LINE
8
DEFAULT_255_2_778
10
30.9534011
20
28.5289113
11
32.3745011
21
28.5289113
0
LINE
8
DEFAULT_255_2_778
10
32.3745011
20
28.5289113
11
32.3745011
21
28.1511113
0
LINE
8
DEFAULT_255_2_778
10
32.3745011
20
28.1511113
11
30.9534011
21
28.1511113
0
LINE
8
DEFAULT_255_2_778
10
30.9534011
20
28.1511113
11
30.9534011
21
27.7027113
0
LINE
8
DEFAULT_255_2_778
10
32.3745011
20
27.2343113
11
30.6555011
21
27.2343113
0
LINE
8
DEFAULT_255_2_778
10
30.6555011
20
27.2343113
11
30.6555011
21
27.6040113
0
LINE
8
DEFAULT_255_2_778
10
30.6555011
20
27.6040113
11
32.3745011
21
27.6040113
0
LINE
8
DEFAULT_255_2_778
10
32.3745011
20
27.6040113
11
32.3745011
21
27.2343113
0
LINE
8
DEFAULT_255_2_778
10
32.3745011
20
25.2566113
11
30.6555011
21
25.2566113
0
LINE
8
DEFAULT_255_2_778
10
30.6555011
20
25.2566113
11
30.6555011
21
25.7873113
0
LINE
8
DEFAULT_255_2_778
10
30.6555011
20
25.7873113
11
31.8620011
21
26.1720113
0
LINE
8
DEFAULT_255_2_778
10
31.8620011
20
26.1720113
11
30.6555011
21
26.5562113
0
LINE
8
DEFAULT_255_2_778
10
30.6555011
20
26.5562113
11
30.6555011
21
27.0875113
0
LINE
8
DEFAULT_255_2_778
10
30.6555011
20
27.0875113
11
32.3745011
21
27.0875113
0
LINE
8
DEFAULT_255_2_778
10
32.3745011
20
27.0875113
11
32.3745011
21
26.7409113
0
LINE
8
DEFAULT_255_2_778
10
32.3745011
20
26.7409113
11
31.0966011
21
26.7409113
0
LINE
8
DEFAULT_255_2_778
10
31.0966011
20
26.7409113
11
32.3745011
21
26.3509113
0
LINE
8
DEFAULT_255_2_778
10
32.3745011
20
26.3509113
11
32.3745011
21
25.9934113
0
LINE
8
DEFAULT_255_2_778
10
32.3745011
20
25.9934113
11
31.0966011
21
25.6034113
0
LINE
8
DEFAULT_255_2_778
10
31.0966011
20
25.6034113
11
32.3745011
21
25.6034113
0
LINE
8
DEFAULT_255_2_778
10
32.3745011
20
25.6034113
11
32.3745011
21
25.2566113
0
LINE
8
DEFAULT_255_2_778
10
30.6555011
20
37.1935113
11
32.3745011
21
37.1935113
0
LINE
8
DEFAULT_255_2_778
10
32.3745011
20
37.1935113
11
32.3745011
21
36.8297113
0
LINE
8
DEFAULT_255_2_778
10
32.3745011
20
36.8297113
11
31.6241011
21
36.8297113
0
LINE
8
DEFAULT_255_2_778
10
31.6241011
20
36.8297113
11
31.6241011
21
36.0942113
0
LINE
8
DEFAULT_255_2_778
10
31.6241011
20
36.0942113
11
32.3745011
21
36.0942113
0
LINE
8
DEFAULT_255_2_778
10
32.3745011
20
36.0942113
11
32.3745011
21
35.7304113
0
LINE
8
DEFAULT_255_2_778
10
32.3745011
20
35.7304113
11
30.6555011
21
35.7304113
0
LINE
8
DEFAULT_255_2_778
10
30.6555011
20
35.7304113
11
30.6555011
21
36.0942113
0
LINE
8
DEFAULT_255_2_778
10
30.6555011
20
36.0942113
11
31.3257011
21
36.0942113
0
LINE
8
DEFAULT_255_2_778
10
31.3257011
20
36.0942113
11
31.3257011
21
36.8297113
0
LINE
8
DEFAULT_255_2_778
10
31.3257011
20
36.8297113
11
30.6555011
21
36.8297113
0
LINE
8
DEFAULT_255_2_778
10
30.6555011
20
36.8297113
11
30.6555011
21
37.1935113
0
LINE
8
DEFAULT_255_2_778
10
32.3745011
20
37.3464113
11
30.6555011
21
37.3464113
0
LINE
8
DEFAULT_255_2_778
10
30.6555011
20
37.3464113
11
30.6555011
21
37.7166113
0
LINE
8
DEFAULT_255_2_778
10
30.6555011
20
37.7166113
11
32.3745011
21
37.7166113
0
LINE
8
DEFAULT_255_2_778
10
32.3745011
20
37.7166113
11
32.3745011
21
37.3464113
0
LINE
8
DEFAULT_255_2_778
10
32.3745011
20
33.6875113
11
30.6555011
21
33.6875113
0
LINE
8
DEFAULT_255_2_778
10
30.6555011
20
33.6875113
11
30.6555011
21
34.0571113
0
LINE
8
DEFAULT_255_2_778
10
30.6555011
20
34.0571113
11
32.3745011
21
34.0571113
0
LINE
8
DEFAULT_255_2_778
10
32.3745011
20
34.0571113
11
32.3745011
21
33.6875113
0
ARC
8
DEFAULT_255_2_778
10
31.7758734
20
30.0899087
40
1.1237004
50
273.9669489
51
277.9264844
0
ARC
8
DEFAULT_255_2_778
10
31.8455102
20
29.5905416
40
0.6195012
50
277.9165403
51
288.6748679
0
ARC
8
DEFAULT_255_2_778
10
31.8808811
20
29.4787211
40
0.5022474
50
288.9367922
51
295.9342429
0
ARC
8
DEFAULT_255_2_778
10
31.8987898
20
29.4422999
40
0.4616619
50
295.9122956
51
317.2834071
0
ARC
8
DEFAULT_255_2_778
10
31.833308
20
29.4994427
40
0.5485421
50
317.5379826
51
333.8492116
0
ARC
8
DEFAULT_255_2_778
10
31.6245827
20
29.6029508
40
0.7815219
50
333.7817443
51
345.345989
0
ARC
8
DEFAULT_255_2_778
10
31.2603735
20
29.7002997
40
1.158513
50
345.2448983
51
353.5272674
0
ARC
8
DEFAULT_255_2_778
10
30.8542391
20
29.751859
40
1.5678803
50
353.3282156
51
357.0292039
0
ARC
8
DEFAULT_255_2_778
10
31.4471822
20
29.7487613
40
0.9759648
50
355.406512
51
0.0101429
0
ARC
8
DEFAULT_255_2_778
10
31.4345824
20
29.7489332
40
0.9885646
50
0.000054
51
0.8469365
0
ARC
8
DEFAULT_255_2_778
10
31.5403218
20
29.7625412
40
0.8827178
50
0.0651848
51
30.6670147
0
ARC
8
DEFAULT_255_2_778
10
31.8878342
20
29.9799011
40
0.4730422
50
29.4904343
51
89.6418203
0
ARC
8
DEFAULT_255_2_778
10
31.8919368
20
29.9024953
40
0.55044
50
90.1192305
51
98.9564836
0
ARC
8
DEFAULT_255_2_778
10
31.9083953
20
29.7968162
40
0.6573929
50
98.9395067
51
106.0657219
0
ARC
8
DEFAULT_255_2_778
10
31.9308864
20
29.7139642
40
0.7432346
50
105.9642945
51
107.8300358
0
ARC
8
DEFAULT_255_2_778
10
31.8825535
20
29.9885354
40
0.4686004
50
112.4888474
51
136.1431349
0
ARC
8
DEFAULT_255_2_778
10
32.1065988
20
29.8289164
40
0.7418334
50
139.2444868
51
170.1384354
0
ARC
8
DEFAULT_255_2_778
10
33.0852189
20
29.5665903
40
1.7532771
50
167.1684057
51
168.0495468
0
ARC
8
DEFAULT_255_2_778
10
34.5920982
20
29.2663143
40
3.2897255
50
168.3674884
51
171.0026567
0
ARC
8
DEFAULT_255_2_778
10
-24.3960338
20
38.8968195
40
56.4794234
50
350.6624153
51
350.711576
0
ARC
8
DEFAULT_255_2_778
10
29.1317285
20
30.0783411
40
2.2301851
50
347.6528472
51
351.0911668
0
ARC
8
DEFAULT_255_2_778
10
30.7047524
20
29.7317657
40
0.6194397
50
338.3769436
51
347.8556421
0
ARC
8
DEFAULT_255_2_778
10
31.0695647
20
29.5837315
40
0.225772
50
316.1421495
51
339.1849813
0
ARC
8
DEFAULT_255_2_778
10
31.1287721
20
29.533412
40
0.1482907
50
312.7396002
51
314.3105461
0
ARC
8
DEFAULT_255_2_778
10
31.0337081
20
29.711141
40
0.3470775
50
296.5866637
51
304.3233482
0
ARC
8
DEFAULT_255_2_778
10
31.0769189
20
29.6239261
40
0.2497461
50
285.8470507
51
296.6764818
0
ARC
8
DEFAULT_255_2_778
10
31.0951848
20
29.5585692
40
0.1818856
50
270.3447009
51
285.9337635
0
ARC
8
DEFAULT_255_2_778
10
31.1032507
20
29.5515217
40
0.1749737
50
206.6947246
51
267.7165252
0
ARC
8
DEFAULT_255_2_778
10
31.2996679
20
29.6744905
40
0.4062733
50
187.5429535
51
209.7457539
0
ARC
8
DEFAULT_255_2_778
10
31.4165487
20
29.6976176
40
0.5252333
50
179.9791477
51
188.3703073
0
ARC
8
DEFAULT_255_2_778
10
31.4220839
20
29.6977972
40
0.5307686
50
178.8668351
51
179.9987529
0
ARC
8
DEFAULT_255_2_778
10
31.3161728
20
29.7094505
40
0.4247553
50
148.7168347
51
180.1560283
0
ARC
8
DEFAULT_255_2_778
10
31.1497275
20
29.8085352
40
0.2310644
50
94.9072125
51
148.2827128
0
ARC
8
DEFAULT_255_2_778
10
31.155097
20
29.7641802
40
0.2757206
50
89.9553019
51
95.2304681
0
ARC
8
DEFAULT_255_2_778
10
31.1443005
20
29.9103847
40
0.4865341
50
89.5040225
51
113.0173961
0
ARC
8
DEFAULT_255_2_778
10
31.1837814
20
29.8653094
40
0.5437802
50
114.9894615
51
157.2610047
0
ARC
8
DEFAULT_255_2_778
10
31.5226706
20
29.7025414
40
0.9194435
50
156.0691508
51
180.1401433
0
ARC
8
DEFAULT_255_2_778
10
31.6051511
20
29.6944559
40
1.0019382
50
179.6662309
51
180.0019418
0
ARC
8
DEFAULT_255_2_778
10
31.512301
20
29.6861506
40
0.9091258
50
179.4787092
51
203.7935414
0
ARC
8
DEFAULT_255_2_778
10
31.1779708
20
29.5292275
40
0.5399727
50
202.8700844
51
242.210111
0
ARC
8
DEFAULT_255_2_778
10
31.1307234
20
29.4692414
40
0.4650825
50
243.914229
51
265.0399812
0
ARC
8
DEFAULT_255_2_778
10
31.1345527
20
29.5593282
40
0.5551772
50
265.4501115
51
269.9558638
0
ARC
8
DEFAULT_255_2_778
10
31.1400586
20
29.4305715
40
0.4264614
50
269.2027902
51
328.3473083
0
ARC
8
DEFAULT_255_2_778
10
30.7918629
20
29.6770219
40
0.8526203
50
326.5280909
51
341.4855264
0
ARC
8
DEFAULT_255_2_778
10
30.1215854
20
29.9104441
40
1.5623516
50
341.1738668
51
350.12457
0
ARC
8
DEFAULT_255_2_778
10
29.3626546
20
30.056433
40
2.3351153
50
349.7892972
51
352.9294537
0
ARC
8
DEFAULT_255_2_778
10
32.2783359
20
29.6767762
40
0.6053896
50
159.0500756
51
171.2375115
0
ARC
8
DEFAULT_255_2_778
10
32.0570585
20
29.7634018
40
0.3677714
50
141.4432313
51
159.3275236
0
ARC
8
DEFAULT_255_2_778
10
31.9348008
20
29.8640321
40
0.2094601
50
110.2060921
51
142.1243691
0
ARC
8
DEFAULT_255_2_778
10
31.913627
20
29.9113716
40
0.15776
50
95.5143455
51
108.9276726
0
ARC
8
DEFAULT_255_2_778
10
31.9128513
20
29.91732
40
0.1517649
50
90.0037623
51
95.4386472
0
ARC
8
DEFAULT_255_2_778
10
31.9091825
20
29.8982994
40
0.1708247
50
43.5150626
51
88.7727003
0
ARC
8
DEFAULT_255_2_778
10
31.8331924
20
29.8197692
40
0.280042
50
22.7365538
51
44.4617649
0
ARC
8
DEFAULT_255_2_778
10
31.7597569
20
29.7834519
40
0.3618435
50
21.5906607
51
23.5461478
0
ARC
8
DEFAULT_255_2_778
10
31.482754
20
29.6846814
40
0.6558334
50
8.1411783
51
20.7092045
0
ARC
8
DEFAULT_255_2_778
10
31.5452646
20
29.6943206
40
0.5925881
50
0.0601189
51
8.0744854
0
ARC
8
DEFAULT_255_2_778
10
31.6628967
20
29.6882893
40
0.4750023
50
334.4695306
51
0.802536
0
ARC
8
DEFAULT_255_2_778
10
31.8525978
20
29.5847796
40
0.2594739
50
271.727383
51
337.0413809
0
ARC
8
DEFAULT_255_2_778
10
31.8604607
20
29.5763051
40
0.2508816
50
266.8585515
51
269.9905433
0
LINE
8
DEFAULT_255_2_778
10
31.1553121
20
30.0399006
11
31.1553121
21
30.3969006
0
LINE
8
DEFAULT_255_2_778
10
31.8467121
20
29.3258006
11
31.8467121
21
28.9689006
0
ARC
8
DEFAULT_255_2_778
10
31.8489912
20
31.1938716
40
0.8138167
50
91.201394
51
94.583023
0
ARC
8
DEFAULT_255_2_778
10
31.8474877
20
31.248188
40
0.759481
50
90.0038232
51
91.1739087
0
ARC
8
DEFAULT_255_2_778
10
31.8555948
20
31.4175499
40
0.5901755
50
68.9090548
51
90.7920091
0
ARC
8
DEFAULT_255_2_778
10
31.8324883
20
31.4468741
40
0.5720325
50
8.4904749
51
65.6910747
0
ARC
8
DEFAULT_255_2_778
10
31.3732105
20
31.3119221
40
1.0482605
50
0.6297123
51
12.0818295
0
ARC
8
DEFAULT_255_2_778
10
31.2568621
20
31.3065994
40
1.1646673
50
359.9993946
51
0.8286378
0
ARC
8
DEFAULT_255_2_778
10
31.2326106
20
31.3067495
40
1.1889188
50
356.8774199
51
359.9921762
0
ARC
8
DEFAULT_255_2_778
10
31.1057447
20
31.2726439
40
1.3143772
50
347.2969157
51
358.6634644
0
ARC
8
DEFAULT_255_2_778
10
31.7451757
20
31.1217416
40
0.6574475
50
325.528992
51
347.8719844
0
ARC
8
DEFAULT_255_2_778
10
31.9079667
20
31.0251225
40
0.4687215
50
277.3953148
51
324.0027955
0
ARC
8
DEFAULT_255_2_778
10
31.8522999
20
31.2543961
40
0.7037222
50
276.491874
51
279.4876545
0
ARC
8
DEFAULT_255_2_778
10
31.8667833
20
31.1634511
40
0.2532062
50
276.9140462
51
342.0081011
0
ARC
8
DEFAULT_255_2_778
10
31.6556332
20
31.2567048
40
0.4834058
50
339.2248574
51
0.5521219
0
ARC
8
DEFAULT_255_2_778
10
31.5824808
20
31.2613603
40
0.5565358
50
0.0002751
51
1.3566349
0
ARC
8
DEFAULT_255_2_778
10
31.6419745
20
31.2695796
40
0.4969109
50
0.5715771
51
29.5543909
0
ARC
8
DEFAULT_255_2_778
10
31.869116
20
31.407577
40
0.2313945
50
27.5719104
51
85.923791
0
ARC
8
DEFAULT_255_2_778
10
31.8585428
20
32.9868823
40
0.2436789
50
180.0081206
51
182.8452845
0
ARC
8
DEFAULT_255_2_778
10
31.8588912
20
32.9798339
40
0.2441281
50
101.0645887
51
178.3536404
0
ARC
8
DEFAULT_255_2_778
10
31.8756519
20
32.9530215
40
0.273892
50
91.604238
51
103.4298381
0
ARC
8
DEFAULT_255_2_778
10
31.8750582
20
32.9640264
40
0.262875
50
90.0002363
51
91.5420326
0
ARC
8
DEFAULT_255_2_778
10
31.8793816
20
33.0000622
40
0.2268805
50
36.3004631
51
91.0921551
0
ARC
8
DEFAULT_255_2_778
10
31.8282602
20
32.9667909
40
0.2877984
50
13.580708
51
35.6134552
0
ARC
8
DEFAULT_255_2_778
10
31.7220882
20
32.9363429
40
0.3981788
50
7.4957407
51
14.2521271
0
ARC
8
DEFAULT_255_2_778
10
31.1752439
20
32.9552778
40
0.2490312
50
180.00615
51
182.575763
0
ARC
8
DEFAULT_255_2_778
10
31.1456635
20
32.9574973
40
0.2194624
50
136.4998001
51
180.5864191
0
ARC
8
DEFAULT_255_2_778
10
31.1486352
20
32.9551477
40
0.2232355
50
92.3034078
51
136.587381
0
ARC
8
DEFAULT_255_2_778
10
31.1456972
20
32.9768634
40
0.2014299
50
90.0002681
51
91.716635
0
ARC
8
DEFAULT_255_2_778
10
31.1472276
20
32.9940106
40
0.1842892
50
38.1758704
51
90.4761105
0
ARC
8
DEFAULT_255_2_778
10
31.0904549
20
32.950438
40
0.2558518
50
15.5388033
51
37.9884822
0
ARC
8
DEFAULT_255_2_778
10
30.9686827
20
32.912153
40
0.3834531
50
6.6391492
51
16.1759426
0
ARC
8
DEFAULT_255_2_778
10
31.8479138
20
33.1092417
40
0.5235155
50
2.1395378
51
25.6606704
0
ARC
8
DEFAULT_255_2_778
10
31.8932568
20
33.1294995
40
0.473874
50
25.8269757
51
66.7857522
0
ARC
8
DEFAULT_255_2_778
10
31.9015761
20
33.1494754
40
0.4522362
50
66.756855
51
89.857092
0
ARC
8
DEFAULT_255_2_778
10
31.9027002
20
33.1673307
40
0.4343794
50
89.9994945
51
91.8111379
0
ARC
8
DEFAULT_255_2_778
10
31.9018558
20
33.1780779
40
0.4236113
50
91.7429206
51
126.4300751
0
ARC
8
DEFAULT_255_2_778
10
31.9413577
20
33.1266158
40
0.4884762
50
126.5734336
51
145.8057929
0
ARC
8
DEFAULT_255_2_778
10
32.0629806
20
33.0430532
40
0.6360376
50
145.7368213
51
159.2679777
0
ARC
8
DEFAULT_255_2_778
10
32.1791104
20
32.9945726
40
0.7618214
50
158.9497172
51
161.2393408
0
ARC
8
DEFAULT_255_2_778
10
30.9394289
20
33.0563636
40
0.5497655
50
19.4676285
51
34.6234543
0
ARC
8
DEFAULT_255_2_778
10
31.0472227
20
33.1315202
40
0.4183595
50
34.541243
51
56.3838232
0
ARC
8
DEFAULT_255_2_778
10
31.0790352
20
33.177301
40
0.3626244
50
56.5650232
51
89.5724543
0
ARC
8
DEFAULT_255_2_778
10
31.0791112
20
33.179682
40
0.3602428
50
89.5817226
51
89.9999975
0
ARC
8
DEFAULT_255_2_778
10
31.083104
20
33.1483331
40
0.391612
50
90.5841778
51
136.4567968
0
ARC
8
DEFAULT_255_2_778
10
31.1407808
20
33.090371
40
0.4733548
50
136.1807655
51
161.0175136
0
ARC
8
DEFAULT_255_2_778
10
31.2693799
20
33.0449751
40
0.6097277
50
160.9144719
51
177.8935624
0
LINE
8
DEFAULT_255_2_778
10
31.9202643
20
30.5551863
11
30.6555643
21
30.5492863
0
LINE
8
DEFAULT_255_2_778
10
30.6555643
20
30.5492863
11
30.6555643
21
30.9120863
0
LINE
8
DEFAULT_255_2_778
10
30.6555643
20
30.9120863
11
31.8972643
21
30.9120863
0
LINE
8
DEFAULT_255_2_778
10
31.8855643
20
31.6383863
11
30.6555643
21
31.6348863
0
LINE
8
DEFAULT_255_2_778
10
30.6555643
20
31.6348863
11
30.6555643
21
32.0050863
0
LINE
8
DEFAULT_255_2_778
10
30.6555643
20
32.0050863
11
31.7699643
21
32.0074863
0
LINE
8
DEFAULT_255_2_778
10
32.1168643
20
32.9882863
11
32.1168643
21
32.5032863
0
LINE
8
DEFAULT_255_2_778
10
32.1168643
20
32.5032863
11
31.6154643
21
32.5032863
0
LINE
8
DEFAULT_255_2_778
10
31.6154643
20
32.5032863
11
31.6154643
21
32.9882863
0
LINE
8
DEFAULT_255_2_778
10
31.3495643
20
32.9564863
11
31.3495643
21
32.5058863
0
LINE
8
DEFAULT_255_2_778
10
31.3495643
20
32.5058863
11
30.9264643
21
32.5058863
0
LINE
8
DEFAULT_255_2_778
10
30.9264643
20
32.5058863
11
30.9264643
21
32.9564863
0
LINE
8
DEFAULT_255_2_778
10
30.6600643
20
33.0673863
11
30.6552643
21
32.1367863
0
LINE
8
DEFAULT_255_2_778
10
30.6552643
20
32.1367863
11
32.3721643
21
32.1367863
0
LINE
8
DEFAULT_255_2_778
10
32.3721643
20
32.1367863
11
32.3708643
21
33.1165863
0
ARC
8
DEFAULT_255_2_778
10
31.7758734
20
35.2684087
40
1.1237004
50
273.9669489
51
277.9264844
0
ARC
8
DEFAULT_255_2_778
10
31.8455102
20
34.7690416
40
0.6195012
50
277.9165403
51
288.6748679
0
ARC
8
DEFAULT_255_2_778
10
31.8808811
20
34.6572211
40
0.5022474
50
288.9367922
51
295.9342429
0
ARC
8
DEFAULT_255_2_778
10
31.8987898
20
34.6207999
40
0.4616619
50
295.9122956
51
317.2834071
0
ARC
8
DEFAULT_255_2_778
10
31.833308
20
34.6779427
40
0.5485421
50
317.5379826
51
333.8492116
0
ARC
8
DEFAULT_255_2_778
10
31.6245827
20
34.7814508
40
0.7815219
50
333.7817443
51
345.345989
0
ARC
8
DEFAULT_255_2_778
10
31.2603735
20
34.8787997
40
1.158513
50
345.2448983
51
353.5272674
0
ARC
8
DEFAULT_255_2_778
10
30.8542391
20
34.930359
40
1.5678803
50
353.3282156
51
357.0292039
0
ARC
8
DEFAULT_255_2_778
10
31.4471822
20
34.9272613
40
0.9759648
50
355.406512
51
0.0101429
0
ARC
8
DEFAULT_255_2_778
10
31.4345824
20
34.9274332
40
0.9885646
50
0.000054
51
0.8469365
0
ARC
8
DEFAULT_255_2_778
10
31.5403218
20
34.9410412
40
0.8827178
50
0.0651848
51
30.6670147
0
ARC
8
DEFAULT_255_2_778
10
31.8878342
20
35.1584011
40
0.4730422
50
29.4904343
51
89.6418203
0
ARC
8
DEFAULT_255_2_778
10
31.8919368
20
35.0809953
40
0.55044
50
90.1192305
51
98.9564836
0
ARC
8
DEFAULT_255_2_778
10
31.9083953
20
34.9753162
40
0.6573929
50
98.9395067
51
106.0657219
0
ARC
8
DEFAULT_255_2_778
10
31.9308864
20
34.8924642
40
0.7432346
50
105.9642945
51
107.8300358
0
ARC
8
DEFAULT_255_2_778
10
31.8825535
20
35.1670354
40
0.4686004
50
112.4888474
51
136.1431349
0
ARC
8
DEFAULT_255_2_778
10
32.1065988
20
35.0074164
40
0.7418334
50
139.2444868
51
170.1384354
0
ARC
8
DEFAULT_255_2_778
10
33.0852189
20
34.7450903
40
1.7532771
50
167.1684057
51
168.0495468
0
ARC
8
DEFAULT_255_2_778
10
34.5920982
20
34.4448143
40
3.2897255
50
168.3674884
51
171.0026567
0
ARC
8
DEFAULT_255_2_778
10
-24.3960338
20
44.0753195
40
56.4794234
50
350.6624153
51
350.711576
0
ARC
8
DEFAULT_255_2_778
10
29.1317285
20
35.2568411
40
2.2301851
50
347.6528472
51
351.0911668
0
ARC
8
DEFAULT_255_2_778
10
30.7047524
20
34.9102657
40
0.6194397
50
338.3769436
51
347.8556421
0
ARC
8
DEFAULT_255_2_778
10
31.0695647
20
34.7622315
40
0.225772
50
316.1421495
51
339.1849813
0
ARC
8
DEFAULT_255_2_778
10
31.1287721
20
34.711912
40
0.1482907
50
312.7396002
51
314.3105461
0
ARC
8
DEFAULT_255_2_778
10
31.0337081
20
34.889641
40
0.3470775
50
296.5866637
51
304.3233482
0
ARC
8
DEFAULT_255_2_778
10
31.0769189
20
34.8024261
40
0.2497461
50
285.8470507
51
296.6764818
0
ARC
8
DEFAULT_255_2_778
10
31.0951848
20
34.7370692
40
0.1818856
50
270.3447009
51
285.9337635
0
ARC
8
DEFAULT_255_2_778
10
31.1032507
20
34.7300217
40
0.1749737
50
206.6947246
51
267.7165252
0
ARC
8
DEFAULT_255_2_778
10
31.2996679
20
34.8529905
40
0.4062733
50
187.5429535
51
209.7457539
0
ARC
8
DEFAULT_255_2_778
10
31.4165487
20
34.8761176
40
0.5252333
50
179.9791477
51
188.3703073
0
ARC
8
DEFAULT_255_2_778
10
31.4220839
20
34.8762972
40
0.5307686
50
178.8668351
51
179.9987529
0
ARC
8
DEFAULT_255_2_778
10
31.3161728
20
34.8879505
40
0.4247553
50
148.7168347
51
180.1560283
0
ARC
8
DEFAULT_255_2_778
10
31.1497275
20
34.9870352
40
0.2310644
50
94.9072125
51
148.2827128
0
ARC
8
DEFAULT_255_2_778
10
31.155097
20
34.9426802
40
0.2757206
50
89.9553019
51
95.2304681
0
ARC
8
DEFAULT_255_2_778
10
31.1443005
20
35.0888847
40
0.4865341
50
89.5040225
51
113.0173961
0
ARC
8
DEFAULT_255_2_778
10
31.1837814
20
35.0438094
40
0.5437802
50
114.9894615
51
157.2610047
0
ARC
8
DEFAULT_255_2_778
10
31.5226706
20
34.8810414
40
0.9194435
50
156.0691508
51
180.1401433
0
ARC
8
DEFAULT_255_2_778
10
31.6051511
20
34.8729559
40
1.0019382
50
179.6662309
51
180.0019418
0
ARC
8
DEFAULT_255_2_778
10
31.512301
20
34.8646506
40
0.9091258
50
179.4787092
51
203.7935414
0
ARC
8
DEFAULT_255_2_778
10
31.1779708
20
34.7077275
40
0.5399727
50
202.8700844
51
242.210111
0
ARC
8
DEFAULT_255_2_778
10
31.1307234
20
34.6477414
40
0.4650825
50
243.914229
51
265.0399812
0
ARC
8
DEFAULT_255_2_778
10
31.1345527
20
34.7378282
40
0.5551772
50
265.4501115
51
269.9558638
0
ARC
8
DEFAULT_255_2_778
10
31.1400586
20
34.6090715
40
0.4264614
50
269.2027902
51
328.3473083
0
ARC
8
DEFAULT_255_2_778
10
30.7918629
20
34.8555219
40
0.8526203
50
326.5280909
51
341.4855264
0
ARC
8
DEFAULT_255_2_778
10
30.1215854
20
35.0889441
40
1.5623516
50
341.1738668
51
350.12457
0
ARC
8
DEFAULT_255_2_778
10
29.3626546
20
35.234933
40
2.3351153
50
349.7892972
51
352.9294537
0
ARC
8
DEFAULT_255_2_778
10
32.2783359
20
34.8552762
40
0.6053896
50
159.0500756
51
171.2375115
0
ARC
8
DEFAULT_255_2_778
10
32.0570585
20
34.9419018
40
0.3677714
50
141.4432313
51
159.3275236
0
ARC
8
DEFAULT_255_2_778
10
31.9348008
20
35.0425321
40
0.2094601
50
110.2060921
51
142.1243691
0
ARC
8
DEFAULT_255_2_778
10
31.913627
20
35.0898716
40
0.15776
50
95.5143455
51
108.9276726
0
ARC
8
DEFAULT_255_2_778
10
31.9128513
20
35.09582
40
0.1517649
50
90.0037623
51
95.4386472
0
ARC
8
DEFAULT_255_2_778
10
31.9091825
20
35.0767994
40
0.1708247
50
43.5150626
51
88.7727003
0
ARC
8
DEFAULT_255_2_778
10
31.8331924
20
34.9982692
40
0.280042
50
22.7365538
51
44.4617649
0
ARC
8
DEFAULT_255_2_778
10
31.7597569
20
34.9619519
40
0.3618435
50
21.5906607
51
23.5461478
0
ARC
8
DEFAULT_255_2_778
10
31.482754
20
34.8631814
40
0.6558334
50
8.1411783
51
20.7092045
0
ARC
8
DEFAULT_255_2_778
10
31.5452646
20
34.8728206
40
0.5925881
50
0.0601189
51
8.0744854
0
ARC
8
DEFAULT_255_2_778
10
31.6628967
20
34.8667893
40
0.4750023
50
334.4695306
51
0.802536
0
ARC
8
DEFAULT_255_2_778
10
31.8525978
20
34.7632796
40
0.2594739
50
271.727383
51
337.0413809
0
ARC
8
DEFAULT_255_2_778
10
31.8604607
20
34.7548051
40
0.2508816
50
266.8585515
51
269.9905433
0
LINE
8
DEFAULT_255_2_778
10
31.1553121
20
35.2184006
11
31.1553121
21
35.5754006
0
LINE
8
DEFAULT_255_2_778
10
31.8467121
20
34.5043006
11
31.8467121
21
34.1474006
0
ARC
8
DEFAULT_255_2_778
10
6.0528912
20
68.9065654
40
0.4997474
50
134.9793514
51
180.0112208
0
ARC
8
DEFAULT_255_2_778
10
6.0532901
20
68.9064719
40
0.5000956
50
90.0053149
51
135.0041129
0
ARC
8
DEFAULT_255_2_778
10
6.9533695
20
68.9066461
40
0.4999214
50
44.9876157
51
90.0029524
0
ARC
8
DEFAULT_255_2_778
10
6.9536963
20
68.9065654
40
0.4997474
50
359.9887792
51
45.0206486
0
ARC
8
DEFAULT_255_2_778
10
6.9528535
20
20.6062578
40
0.4999903
50
269.9988868
51
0.0011189
0
ARC
8
DEFAULT_255_2_778
10
6.0529981
20
20.606322
40
0.5000544
50
180.0062367
51
269.9937747
0
ARC
8
DEFAULT_255_2_778
10
2.7036407
20
19.5561645
40
0.5000969
50
179.9996485
51
270.0003515
0
ARC
8
DEFAULT_255_2_778
10
3.9032086
20
17.3561476
40
1.6996648
50
134.8914221
51
179.9993291
0
ARC
8
DEFAULT_255_2_778
10
2.703618
20
69.9562461
40
0.4999214
50
89.9970476
51
135.0123843
0
ARC
8
DEFAULT_255_2_778
10
2.7032912
20
69.9561654
40
0.4997474
50
134.9793514
51
180.0112208
0
ARC
8
DEFAULT_255_2_778
10
2.7030218
20
65.006157
40
0.4996894
50
224.976598
51
270.0025138
0
ARC
8
DEFAULT_255_2_778
10
2.7029657
20
65.0065419
40
0.4999219
50
179.9970639
51
225.0123541
0
ARC
8
DEFAULT_255_2_778
10
2.7027912
20
66.0064654
40
0.4997474
50
134.9793514
51
180.0112208
0
ARC
8
DEFAULT_255_2_778
10
2.7030219
20
66.0067779
40
0.4996896
50
89.9974895
51
135.0233845
0
ARC
8
DEFAULT_255_2_778
10
0.7030459
20
69.9567201
40
0.4997474
50
89.9887792
51
135.0206486
0
ARC
8
DEFAULT_255_2_778
10
0.7031394
20
69.9563212
40
0.5000956
50
134.9958871
51
179.9946851
0
ARC
8
DEFAULT_255_2_778
10
0.7031407
20
19.5564645
40
0.5000969
50
179.9996485
51
270.0003515
0
ARC
8
DEFAULT_255_2_778
10
3.9025098
20
72.1562053
40
1.699466
50
179.994531
51
225.1066044
0
ARC
8
DEFAULT_255_2_778
10
71.8529501
20
59.7567395
40
0.7501937
50
306.8677399
51
359.9945081
0
ARC
8
DEFAULT_255_2_778
10
71.8526667
20
59.7564539
40
0.7504771
50
0.0163084
51
53.1214398
0
ARC
8
DEFAULT_255_2_778
10
2.7030219
20
68.6060573
40
0.4996897
50
224.9766167
51
270.0025073
0
ARC
8
DEFAULT_255_2_778
10
2.7031394
20
68.6065139
40
0.5000956
50
180.0053149
51
225.0041129
0
ARC
8
DEFAULT_255_2_778
10
2.7031195
20
89.2563918
40
0.5000757
50
90.008676
51
180.0027763
0
ARC
8
DEFAULT_255_2_778
10
5.5107632
20
72.1538783
40
1.6923824
50
332.8855476
51
0.0842737
0
ARC
8
DEFAULT_255_2_778
10
5.5021376
20
72.1580696
40
1.7019703
50
278.7809527
51
332.8923004
0
ARC
8
DEFAULT_255_2_778
10
5.503705
20
72.1693161
40
1.7128488
50
269.981227
51
278.6717063
0
ARC
8
DEFAULT_255_2_778
10
3.9032675
20
72.1563813
40
1.6999138
50
225.0998625
51
269.9992007
0
ARC
8
DEFAULT_255_2_778
10
16.3034054
20
56.8561611
40
0.4995936
50
269.9814662
51
315.0117423
0
ARC
8
DEFAULT_255_2_778
10
16.3031481
20
56.8566139
40
0.5000956
50
314.9958871
51
359.9946851
0
ARC
8
DEFAULT_255_2_778
10
7.7029407
20
8.2563645
40
0.5000969
50
179.9996485
51
270.0003515
0
ARC
8
DEFAULT_255_2_778
10
3.9029667
20
17.3564548
40
1.6999127
50
90.0007751
51
134.900146
0
ARC
8
DEFAULT_255_2_778
10
5.5032121
20
17.3569253
40
1.6994422
50
44.9883317
51
90.0023034
0
ARC
8
DEFAULT_255_2_778
10
5.5037021
20
17.3564359
40
1.6994416
50
359.9976961
51
45.0116816
0
ARC
8
DEFAULT_255_2_778
10
2.7030983
20
0.2564221
40
0.5000546
50
180.0062506
51
269.9937494
0
ARC
8
DEFAULT_255_2_778
10
2.703098
20
20.9063132
40
0.5000542
50
90.0062114
51
179.9937771
0
ARC
8
DEFAULT_255_2_778
10
7.7029195
20
0.2564433
40
0.5000757
50
180.008676
51
270.0027763
0
ARC
8
DEFAULT_255_2_778
10
7.7026741
20
89.2564312
40
0.4998304
50
134.9670944
51
180.0072967
0
ARC
8
DEFAULT_255_2_778
10
7.7028729
20
89.2566557
40
0.4998121
50
90.0121376
51
135.0014014
0
LINE
8
DEFAULT_255_2_778
10
7.702767
20
89.7564677
11
7.7031438
21
89.7564675
0
ARC
8
DEFAULT_255_2_778
10
74.9025398
20
60.7566816
40
0.300604
50
315.0660219
51
359.9782522
0
ARC
8
DEFAULT_255_2_778
10
74.9034844
20
60.7557319
40
0.2992646
50
269.9347904
51
315.0670152
0
ARC
8
DEFAULT_255_2_778
10
74.703068
20
26.5564918
40
0.5000757
50
359.9972237
51
89.991324
0
LINE
8
DEFAULT_255_2_778
10
5.5531438
20
68.2064675
11
5.6031438
21
68.2064675
0
LINE
8
DEFAULT_255_2_778
10
6.0532438
20
69.4065675
11
6.9533438
21
69.4065675
0
LINE
8
DEFAULT_255_2_778
10
7.4034438
20
68.1063675
11
7.4034438
21
68.3064675
0
LINE
8
DEFAULT_255_2_778
10
7.4034438
20
68.3064675
11
5.6031438
21
68.3064675
0
LINE
8
DEFAULT_255_2_778
10
5.6031438
20
68.3064675
11
5.6031438
21
68.1063675
0
LINE
8
DEFAULT_255_2_778
10
5.6031438
20
68.3064675
11
5.6042438
21
68.3336675
0
LINE
8
DEFAULT_255_2_778
10
5.6042438
20
68.3336675
11
5.6068438
21
68.3683675
0
LINE
8
DEFAULT_255_2_778
10
5.6068438
20
68.3683675
11
5.6127438
21
68.4037675
0
LINE
8
DEFAULT_255_2_778
10
5.6127438
20
68.4037675
11
5.6251438
21
68.4535675
0
LINE
8
DEFAULT_255_2_778
10
5.6251438
20
68.4535675
11
5.6545438
21
68.5273675
0
LINE
8
DEFAULT_255_2_778
10
5.6545438
20
68.5273675
11
5.7127438
21
68.6191675
0
LINE
8
DEFAULT_255_2_778
10
5.7127438
20
68.6191675
11
5.8238438
21
68.7212675
0
LINE
8
DEFAULT_255_2_778
10
5.8238438
20
68.7212675
11
6.0058438
21
68.7969675
0
LINE
8
DEFAULT_255_2_778
10
6.0058438
20
68.7969675
11
6.1029438
21
68.8064675
0
LINE
8
DEFAULT_255_2_778
10
6.1029438
20
68.8064675
11
6.9030438
21
68.8064675
0
LINE
8
DEFAULT_255_2_778
10
6.9030438
20
68.8064675
11
7.0994438
21
68.7662675
0
LINE
8
DEFAULT_255_2_778
10
7.0994438
20
68.7662675
11
7.2364438
21
68.6789675
0
LINE
8
DEFAULT_255_2_778
10
7.2364438
20
68.6789675
11
7.3251438
21
68.5741675
0
LINE
8
DEFAULT_255_2_778
10
7.3251438
20
68.5741675
11
7.3677438
21
68.4903675
0
LINE
8
DEFAULT_255_2_778
10
7.3677438
20
68.4903675
11
7.3878438
21
68.4283675
0
LINE
8
DEFAULT_255_2_778
10
7.3878438
20
68.4283675
11
7.3975438
21
68.3789675
0
LINE
8
DEFAULT_255_2_778
10
7.3975438
20
68.3789675
11
7.4005438
21
68.3543675
0
LINE
8
DEFAULT_255_2_778
10
7.4005438
20
68.3543675
11
7.4028438
21
68.3064675
0
LINE
8
DEFAULT_255_2_778
10
7.4528438
20
21.3063675
11
7.4028438
21
21.3063675
0
LINE
8
DEFAULT_255_2_778
10
6.9528438
20
20.1062675
11
6.0529438
21
20.1062675
0
LINE
8
DEFAULT_255_2_778
10
5.6029438
20
21.4063675
11
5.6029438
21
21.2063675
0
LINE
8
DEFAULT_255_2_778
10
5.6029438
20
21.2063675
11
7.4028438
21
21.2063675
0
LINE
8
DEFAULT_255_2_778
10
7.4028438
20
21.2063675
11
7.4028438
21
21.4063675
0
LINE
8
DEFAULT_255_2_778
10
5.6029438
20
21.2063675
11
5.6042438
21
21.1703675
0
LINE
8
DEFAULT_255_2_778
10
5.6042438
20
21.1703675
11
5.6066438
21
21.1460675
0
LINE
8
DEFAULT_255_2_778
10
5.6066438
20
21.1460675
11
5.6124438
21
21.1089675
0
LINE
8
DEFAULT_255_2_778
10
5.6124438
20
21.1089675
11
5.6248438
21
21.0592675
0
LINE
8
DEFAULT_255_2_778
10
5.6248438
20
21.0592675
11
5.6542438
21
20.9854675
0
LINE
8
DEFAULT_255_2_778
10
5.6542438
20
20.9854675
11
5.7127438
21
20.8936675
0
LINE
8
DEFAULT_255_2_778
10
5.7127438
20
20.8936675
11
5.8238438
21
20.7914675
0
LINE
8
DEFAULT_255_2_778
10
5.8238438
20
20.7914675
11
5.9934438
21
20.7184675
0
LINE
8
DEFAULT_255_2_778
10
5.9934438
20
20.7184675
11
6.9149438
21
20.7062675
0
LINE
8
DEFAULT_255_2_778
10
6.9149438
20
20.7062675
11
7.1115438
21
20.7517675
0
LINE
8
DEFAULT_255_2_778
10
7.1115438
20
20.7517675
11
7.2467438
21
20.8430675
0
LINE
8
DEFAULT_255_2_778
10
7.2467438
20
20.8430675
11
7.2756438
21
20.8727675
0
LINE
8
DEFAULT_255_2_778
10
7.2756438
20
20.8727675
11
7.3457438
21
20.9735675
0
LINE
8
DEFAULT_255_2_778
10
7.3457438
20
20.9735675
11
7.3772438
21
21.0468675
0
LINE
8
DEFAULT_255_2_778
10
7.3772438
20
21.0468675
11
7.3938438
21
21.1089675
0
LINE
8
DEFAULT_255_2_778
10
7.3938438
20
21.1089675
11
7.3997438
21
21.1444675
0
LINE
8
DEFAULT_255_2_778
10
7.3997438
20
21.1444675
11
7.4023438
21
21.1788675
0
LINE
8
DEFAULT_255_2_778
10
7.4023438
20
21.1788675
11
7.4034438
21
21.2060675
0
LINE
8
DEFAULT_255_2_778
10
4.7036438
20
21.3060675
11
2.4202438
21
21.3060675
0
LINE
8
DEFAULT_255_2_778
10
6.5030438
20
21.4061675
11
6.5030438
21
23.4060675
0
LINE
8
DEFAULT_255_2_778
10
4.7030438
20
68.2064675
11
2.4202438
21
68.2064675
0
LINE
8
DEFAULT_255_2_778
10
6.5030438
20
66.5064675
11
6.5030438
21
68.1063675
0
LINE
8
DEFAULT_255_2_778
10
3.3031438
20
68.7665675
11
3.3031438
21
68.7570675
0
LINE
8
DEFAULT_255_2_778
10
3.3031438
20
20.7565675
11
3.3031438
21
20.7470675
0
LINE
8
DEFAULT_255_2_778
10
5.7286438
20
64.5064675
11
5.7286438
21
23.4063675
0
LINE
8
DEFAULT_255_2_778
10
7.3031438
20
63.3563675
11
7.3031438
21
64.5064675
0
LINE
8
DEFAULT_255_2_778
10
7.3031438
20
64.5064675
11
5.0285438
21
64.5064675
0
LINE
8
DEFAULT_255_2_778
10
7.3031438
20
23.4063675
11
7.3031438
21
26.1564675
0
LINE
8
DEFAULT_255_2_778
10
7.9032438
20
23.4063675
11
5.0285438
21
23.4063675
0
LINE
8
DEFAULT_255_2_778
10
5.0285438
20
23.4063675
11
5.0285438
21
64.5064675
0
LINE
8
DEFAULT_255_2_778
10
5.0285438
20
64.5064675
11
2.7030438
21
64.5064675
0
LINE
8
DEFAULT_255_2_778
10
2.2030438
20
65.0065675
11
2.2030438
21
66.0063675
0
LINE
8
DEFAULT_255_2_778
10
2.7030438
20
66.5064675
11
7.9032438
21
66.5064675
0
LINE
8
DEFAULT_255_2_778
10
3.3280438
20
68.7564675
11
2.2030438
21
68.7564675
0
LINE
8
DEFAULT_255_2_778
10
3.3280438
20
20.7565675
11
2.2030438
21
20.7565675
0
LINE
8
DEFAULT_255_2_778
10
2.2030438
20
20.3065675
11
2.4382438
21
20.4006675
0
LINE
8
DEFAULT_255_2_778
10
2.4382438
20
20.4006675
11
4.7030438
21
21.3066675
0
LINE
8
DEFAULT_255_2_778
10
4.7030438
20
21.3066675
11
5.5531438
21
21.3066675
0
LINE
8
DEFAULT_255_2_778
10
2.2030438
20
70.4564675
11
0.7031438
21
70.4564675
0
LINE
8
DEFAULT_255_2_778
10
0.2030438
20
69.9563675
11
0.2030438
21
19.5564675
0
LINE
8
DEFAULT_255_2_778
10
0.7031438
20
19.0563675
11
2.2030438
21
19.0563675
0
LINE
8
DEFAULT_255_2_778
10
2.2001438
20
69.2075675
11
4.7030438
21
68.2064675
0
LINE
8
DEFAULT_255_2_778
10
4.7030438
20
68.2064675
11
5.5531438
21
68.2064675
0
LINE
8
DEFAULT_255_2_778
10
5.5531438
20
68.2064675
11
5.5531438
21
68.9064675
0
LINE
8
DEFAULT_255_2_778
10
5.5531438
20
68.9064675
11
7.4531438
21
68.9064675
0
LINE
8
DEFAULT_255_2_778
10
7.4531438
20
68.9064675
11
7.4531438
21
68.2064675
0
LINE
8
DEFAULT_255_2_778
10
7.4531438
20
68.2064675
11
7.4031438
21
68.2064675
0
LINE
8
DEFAULT_255_2_778
10
7.4531438
20
68.2064675
11
7.9032438
21
68.2064675
0
LINE
8
DEFAULT_255_2_778
10
7.9032438
20
68.2064675
11
7.9032438
21
63.9564675
0
LINE
8
DEFAULT_255_2_778
10
7.9032438
20
63.9564675
11
6.7033438
21
62.7565675
0
LINE
8
DEFAULT_255_2_778
10
6.7033438
20
62.7565675
11
6.7033438
21
26.7565675
0
LINE
8
DEFAULT_255_2_778
10
6.7033438
20
26.7565675
11
7.9032438
21
25.5563675
0
LINE
8
DEFAULT_255_2_778
10
7.9032438
20
25.5563675
11
7.9032438
21
21.3063675
0
LINE
8
DEFAULT_255_2_778
10
7.9032438
20
21.3063675
11
7.4531438
21
21.3063675
0
LINE
8
DEFAULT_255_2_778
10
7.4531438
20
21.3063675
11
7.4531438
21
20.6062675
0
LINE
8
DEFAULT_255_2_778
10
7.4531438
20
20.6062675
11
5.5531438
21
20.6062675
0
LINE
8
DEFAULT_255_2_778
10
5.5531438
20
20.6062675
11
5.5531438
21
21.3063675
0
LINE
8
DEFAULT_255_2_778
10
5.5531438
20
21.3063675
11
5.6031438
21
21.3063675
0
LINE
8
DEFAULT_255_2_778
10
72.2030438
20
60.3564675
11
72.3030438
21
60.3564675
0
LINE
8
DEFAULT_255_2_778
10
72.3030438
20
60.3564675
11
72.3030438
21
59.1565675
0
LINE
8
DEFAULT_255_2_778
10
72.3030438
20
59.1565675
11
72.2030438
21
59.1565675
0
LINE
8
DEFAULT_255_2_778
10
26.3031438
20
0.0563675
11
26.6031438
21
0.0563675
0
LINE
8
DEFAULT_255_2_778
10
26.6031438
20
0.0423675
11
26.3031438
21
0.0423675
0
LINE
8
DEFAULT_255_2_778
10
26.3031438
20
4.7564675
11
26.3031438
21
0.2563675
0
LINE
8
DEFAULT_255_2_778
10
26.3031438
20
0.2563675
11
26.6031438
21
0.2563675
0
LINE
8
DEFAULT_255_2_778
10
26.3031438
20
8.0562675
11
26.6031438
21
8.0562675
0
LINE
8
DEFAULT_255_2_778
10
26.3031438
20
8.2563675
11
26.3031438
21
4.7564675
0
LINE
8
DEFAULT_255_2_778
10
26.3031438
20
4.7564675
11
26.6031438
21
4.7564675
0
LINE
8
DEFAULT_255_2_778
10
26.3031438
20
89.4564675
11
26.6031438
21
89.4564675
0
LINE
8
DEFAULT_255_2_778
10
26.6031438
20
89.4704675
11
26.3031438
21
89.4704675
0
LINE
8
DEFAULT_255_2_778
10
75.2031438
20
62.1561675
11
72.2030438
21
62.1561675
0
LINE
8
DEFAULT_255_2_778
10
72.2030438
20
62.4562675
11
75.2031438
21
62.4562675
0
LINE
8
DEFAULT_255_2_778
10
7.9029438
20
68.1063675
11
2.7030438
21
68.1063675
0
LINE
8
DEFAULT_255_2_778
10
2.2030438
20
68.6064675
11
2.2030438
21
89.2563675
0
LINE
8
DEFAULT_255_2_778
10
2.7030438
20
89.7564675
11
7.2031438
21
89.7564675
0
LINE
8
DEFAULT_255_2_778
10
7.2031438
20
89.7564675
11
7.2031438
21
72.1563675
0
LINE
8
DEFAULT_255_2_778
10
5.5031438
20
70.4564675
11
3.9032438
21
70.4564675
0
LINE
8
DEFAULT_255_2_778
10
3.9032438
20
70.4564675
11
2.7033438
21
70.4564675
0
LINE
8
DEFAULT_255_2_778
10
2.7033438
20
70.4564675
11
2.7033438
21
70.9522675
0
LINE
8
DEFAULT_255_2_778
10
74.9610438
20
26.9848675
11
73.9032438
21
28.8565675
0
LINE
8
DEFAULT_255_2_778
10
73.9032438
20
28.8565675
11
73.5032438
21
28.8565675
0
LINE
8
DEFAULT_255_2_778
10
73.5032438
20
28.8565675
11
73.3031438
21
27.5566675
0
LINE
8
DEFAULT_255_2_778
10
73.3031438
20
27.5566675
11
72.3033438
21
27.5566675
0
LINE
8
DEFAULT_255_2_778
10
72.3033438
20
27.5566675
11
72.3033438
21
27.2565675
0
LINE
8
DEFAULT_255_2_778
10
72.3033438
20
27.0565675
11
72.3033438
21
27.2565675
0
LINE
8
DEFAULT_255_2_778
10
72.3033438
20
27.2565675
11
73.6032438
21
27.2565675
0
LINE
8
DEFAULT_255_2_778
10
73.6032438
20
27.2565675
11
73.6032438
21
27.0565675
0
LINE
8
DEFAULT_255_2_778
10
26.3031438
20
21.5563675
11
25.1032438
21
22.7562675
0
LINE
8
DEFAULT_255_2_778
10
25.1032438
20
22.7562675
11
15.8031438
21
22.7562675
0
LINE
8
DEFAULT_255_2_778
10
15.8031438
20
22.7562675
11
13.8031438
21
24.7562675
0
LINE
8
DEFAULT_255_2_778
10
13.8031438
20
24.7562675
11
13.8031438
21
56.3565675
0
LINE
8
DEFAULT_255_2_778
10
13.8031438
20
56.3565675
11
16.3032438
21
56.3565675
0
LINE
8
DEFAULT_255_2_778
10
16.8032438
20
56.8565675
11
16.8032438
21
66.7564675
0
LINE
8
DEFAULT_255_2_778
10
16.8032438
20
66.7564675
11
25.1032438
21
66.7564675
0
LINE
8
DEFAULT_255_2_778
10
25.1032438
20
66.7564675
11
26.3031438
21
67.9563675
0
LINE
8
DEFAULT_255_2_778
10
26.3031438
20
7.7562675
11
7.7029438
21
7.7562675
0
LINE
8
DEFAULT_255_2_778
10
2.7030438
20
18.5605675
11
2.7030438
21
19.0563675
0
LINE
8
DEFAULT_255_2_778
10
2.7030438
20
19.0563675
11
5.5031438
21
19.0563675
0
LINE
8
DEFAULT_255_2_778
10
7.2031438
20
17.3563675
11
7.2031438
21
-0.2436325
0
LINE
8
DEFAULT_255_2_778
10
7.2031438
20
-0.2436325
11
2.7030438
21
-0.2436325
0
LINE
8
DEFAULT_255_2_778
10
2.2030438
20
0.2563675
11
2.2030438
21
20.9063675
0
LINE
8
DEFAULT_255_2_778
10
2.7030438
20
21.4063675
11
7.9032438
21
21.4063675
0
LINE
8
DEFAULT_255_2_778
10
26.3031438
20
0.2563675
11
26.3031438
21
-0.2436325
0
LINE
8
DEFAULT_255_2_778
10
26.3031438
20
-0.2436325
11
7.7029438
21
-0.2436325
0
LINE
8
DEFAULT_255_2_778
10
7.7031438
20
89.7564675
11
26.3031438
21
89.7564675
0
LINE
8
DEFAULT_255_2_778
10
26.3031438
20
89.7564675
11
26.3031438
21
88.7563675
0
LINE
8
DEFAULT_255_2_778
10
26.3031438
20
88.7563675
11
26.6031438
21
88.7563675
0
LINE
8
DEFAULT_255_2_778
10
75.2031438
20
61.9561675
11
73.4865438
21
61.9561675
0
LINE
8
DEFAULT_255_2_778
10
26.3031438
20
88.7563675
11
26.3031438
21
67.9563675
0
LINE
8
DEFAULT_255_2_778
10
26.3031438
20
67.9563675
11
26.6031438
21
67.9563675
0
LINE
8
DEFAULT_255_2_778
10
26.6031438
20
67.9563675
11
26.6031438
21
89.7564675
0
LINE
8
DEFAULT_255_2_778
10
26.6031438
20
89.7564675
11
75.2031438
21
89.7564675
0
LINE
8
DEFAULT_255_2_778
10
75.2031438
20
89.7564675
11
75.2031438
21
60.7565675
0
LINE
8
DEFAULT_255_2_778
10
74.9031438
20
60.4564675
11
74.2030438
21
60.4564675
0
LINE
8
DEFAULT_255_2_778
10
74.2030438
20
60.4564675
11
73.6029438
21
61.2565675
0
LINE
8
DEFAULT_255_2_778
10
73.6029438
20
61.2565675
11
73.4862438
21
61.9566675
0
LINE
8
DEFAULT_255_2_778
10
73.4862438
20
61.9566675
11
73.4550438
21
62.1567675
0
LINE
8
DEFAULT_255_2_778
10
26.6031438
20
8.2563675
11
26.3031438
21
8.2563675
0
LINE
8
DEFAULT_255_2_778
10
26.3031438
20
8.2563675
11
26.3031438
21
21.5563675
0
LINE
8
DEFAULT_255_2_778
10
26.3031438
20
21.5563675
11
26.6031438
21
21.5563675
0
LINE
8
DEFAULT_255_2_778
10
26.6031438
20
21.5563675
11
26.6031438
21
-0.2436325
0
LINE
8
DEFAULT_255_2_778
10
26.6031438
20
-0.2436325
11
67.2032438
21
-0.2436325
0
LINE
8
DEFAULT_255_2_778
10
26.6031438
20
7.7565675
11
67.2032438
21
7.7565675
0
LINE
8
DEFAULT_255_2_778
10
67.2032438
20
7.7565675
11
67.2032438
21
-0.2434325
0
LINE
8
DEFAULT_255_2_778
10
67.2032438
20
-0.2434325
11
75.2031438
21
-0.2434325
0
LINE
8
DEFAULT_255_2_778
10
75.2031438
20
-0.2434325
11
75.2031438
21
26.5564675
0
LINE
8
DEFAULT_255_2_778
10
74.7031438
20
27.0565675
11
72.2030438
21
27.0565675
0
LINE
8
DEFAULT_255_2_778
10
72.2030438
20
27.0565675
11
72.2030438
21
62.9565675
0
LINE
8
DEFAULT_255_2_778
10
72.2030438
20
62.9565675
11
75.2031438
21
62.9565675
0
ENDSEC
0
EOF