0
SECTION
2
HEADER
9
$MEASUREMENT
70
1
0
ENDSEC
0
SECTION
2
TABLES
0
TABLE
2
LTYPE
0
LTYPE
72
65
70
64
2
CONTINUOUS
3
______
73
0
40
0
0
ENDTAB
0
TABLE
2
LAYER
0
LAYER
2
DEFAULT_255_2_778
70
0
62
255
6
CONTINUOUS
0
ENDTAB
0
ENDSEC
0
SECTION
2
ENTITIES
0
LINE
8
DEFAULT_255_2_778
10
44.638343
20
22.2563846
11
29.638343
21
22.2563846
0
LINE
8
DEFAULT_255_2_778
10
29.638343
20
22.2563846
11
29.638343
21
67.2564846
0
LINE
8
DEFAULT_255_2_778
10
29.638343
20
67.2564846
11
44.638343
21
67.2564846
0
LINE
8
DEFAULT_255_2_778
10
44.638343
20
67.2564846
11
44.638343
21
22.2563846
0
LINE
8
DEFAULT_255_2_778
10
24.838243
20
11.2563846
11
23.106343
21
10.2562846
0
LINE
8
DEFAULT_255_2_778
10
23.106343
20
10.2562846
11
22.240343
21
10.7562846
0
LINE
8
DEFAULT_255_2_778
10
22.240343
20
10.7562846
11
23.106343
21
11.2563846
0
LINE
8
DEFAULT_255_2_778
10
23.106343
20
11.2563846
11
24.838243
21
10.2562846
0
LINE
8
DEFAULT_255_2_778
10
24.838243
20
10.2562846
11
24.838243
21
9.2560846
0
LINE
8
DEFAULT_255_2_778
10
24.838243
20
9.2560846
11
23.972243
21
9.7561846
0
LINE
8
DEFAULT_255_2_778
10
23.972243
20
9.7561846
11
23.972243
21
11.7561846
0
LINE
8
DEFAULT_255_2_778
10
23.972243
20
11.7561846
11
24.838243
21
12.2561846
0
LINE
8
DEFAULT_255_2_778
10
24.838243
20
12.2561846
11
24.838243
21
11.2563846
0
LINE
8
DEFAULT_255_2_778
10
24.038443
20
34.2562846
11
22.038443
21
34.2562846
0
LINE
8
DEFAULT_255_2_778
10
22.038443
20
34.2562846
11
22.038443
21
38.2562846
0
LINE
8
DEFAULT_255_2_778
10
22.038443
20
38.2562846
11
24.038443
21
38.2562846
0
LINE
8
DEFAULT_255_2_778
10
24.038443
20
38.2562846
11
24.038443
21
34.2562846
0
LINE
8
DEFAULT_255_2_778
10
30.9888011
20
27.7024113
11
30.6909011
21
27.7024113
0
LINE
8
DEFAULT_255_2_778
10
30.6909011
20
27.7024113
11
30.6909011
21
28.9776113
0
LINE
8
DEFAULT_255_2_778
10
30.6909011
20
28.9776113
11
30.9888011
21
28.9776113
0
LINE
8
DEFAULT_255_2_778
10
30.9888011
20
28.9776113
11
30.9888011
21
28.5286113
0
LINE
8
DEFAULT_255_2_778
10
30.9888011
20
28.5286113
11
32.4099011
21
28.5286113
0
LINE
8
DEFAULT_255_2_778
10
32.4099011
20
28.5286113
11
32.4099011
21
28.1508113
0
LINE
8
DEFAULT_255_2_778
10
32.4099011
20
28.1508113
11
30.9888011
21
28.1508113
0
LINE
8
DEFAULT_255_2_778
10
30.9888011
20
28.1508113
11
30.9888011
21
27.7024113
0
LINE
8
DEFAULT_255_2_778
10
32.4099011
20
27.2340113
11
30.6909011
21
27.2340113
0
LINE
8
DEFAULT_255_2_778
10
30.6909011
20
27.2340113
11
30.6909011
21
27.6037113
0
LINE
8
DEFAULT_255_2_778
10
30.6909011
20
27.6037113
11
32.4099011
21
27.6037113
0
LINE
8
DEFAULT_255_2_778
10
32.4099011
20
27.6037113
11
32.4099011
21
27.2340113
0
LINE
8
DEFAULT_255_2_778
10
32.4099011
20
25.2563113
11
30.6909011
21
25.2563113
0
LINE
8
DEFAULT_255_2_778
10
30.6909011
20
25.2563113
11
30.6909011
21
25.7870113
0
LINE
8
DEFAULT_255_2_778
10
30.6909011
20
25.7870113
11
31.8974011
21
26.1717113
0
LINE
8
DEFAULT_255_2_778
10
31.8974011
20
26.1717113
11
30.6909011
21
26.5559113
0
LINE
8
DEFAULT_255_2_778
10
30.6909011
20
26.5559113
11
30.6909011
21
27.0872113
0
LINE
8
DEFAULT_255_2_778
10
30.6909011
20
27.0872113
11
32.4099011
21
27.0872113
0
LINE
8
DEFAULT_255_2_778
10
32.4099011
20
27.0872113
11
32.4099011
21
26.7406113
0
LINE
8
DEFAULT_255_2_778
10
32.4099011
20
26.7406113
11
31.1320011
21
26.7406113
0
LINE
8
DEFAULT_255_2_778
10
31.1320011
20
26.7406113
11
32.4099011
21
26.3506113
0
LINE
8
DEFAULT_255_2_778
10
32.4099011
20
26.3506113
11
32.4099011
21
25.9931113
0
LINE
8
DEFAULT_255_2_778
10
32.4099011
20
25.9931113
11
31.1320011
21
25.6031113
0
LINE
8
DEFAULT_255_2_778
10
31.1320011
20
25.6031113
11
32.4099011
21
25.6031113
0
LINE
8
DEFAULT_255_2_778
10
32.4099011
20
25.6031113
11
32.4099011
21
25.2563113
0
LINE
8
DEFAULT_255_2_778
10
30.6909011
20
37.1932113
11
32.4099011
21
37.1932113
0
LINE
8
DEFAULT_255_2_778
10
32.4099011
20
37.1932113
11
32.4099011
21
36.8294113
0
LINE
8
DEFAULT_255_2_778
10
32.4099011
20
36.8294113
11
31.6595011
21
36.8294113
0
LINE
8
DEFAULT_255_2_778
10
31.6595011
20
36.8294113
11
31.6595011
21
36.0939113
0
LINE
8
DEFAULT_255_2_778
10
31.6595011
20
36.0939113
11
32.4099011
21
36.0939113
0
LINE
8
DEFAULT_255_2_778
10
32.4099011
20
36.0939113
11
32.4099011
21
35.7301113
0
LINE
8
DEFAULT_255_2_778
10
32.4099011
20
35.7301113
11
30.6909011
21
35.7301113
0
LINE
8
DEFAULT_255_2_778
10
30.6909011
20
35.7301113
11
30.6909011
21
36.0939113
0
LINE
8
DEFAULT_255_2_778
10
30.6909011
20
36.0939113
11
31.3611011
21
36.0939113
0
LINE
8
DEFAULT_255_2_778
10
31.3611011
20
36.0939113
11
31.3611011
21
36.8294113
0
LINE
8
DEFAULT_255_2_778
10
31.3611011
20
36.8294113
11
30.6909011
21
36.8294113
0
LINE
8
DEFAULT_255_2_778
10
30.6909011
20
36.8294113
11
30.6909011
21
37.1932113
0
LINE
8
DEFAULT_255_2_778
10
32.4099011
20
37.3461113
11
30.6909011
21
37.3461113
0
LINE
8
DEFAULT_255_2_778
10
30.6909011
20
37.3461113
11
30.6909011
21
37.7163113
0
LINE
8
DEFAULT_255_2_778
10
30.6909011
20
37.7163113
11
32.4099011
21
37.7163113
0
LINE
8
DEFAULT_255_2_778
10
32.4099011
20
37.7163113
11
32.4099011
21
37.3461113
0
LINE
8
DEFAULT_255_2_778
10
32.4099011
20
33.6872113
11
30.6909011
21
33.6872113
0
LINE
8
DEFAULT_255_2_778
10
30.6909011
20
33.6872113
11
30.6909011
21
34.0568113
0
LINE
8
DEFAULT_255_2_778
10
30.6909011
20
34.0568113
11
32.4099011
21
34.0568113
0
LINE
8
DEFAULT_255_2_778
10
32.4099011
20
34.0568113
11
32.4099011
21
33.6872113
0
ARC
8
DEFAULT_255_2_778
10
31.8111734
20
30.0897087
40
1.1237004
50
273.9669489
51
277.9264844
0
ARC
8
DEFAULT_255_2_778
10
31.8808102
20
29.5903416
40
0.6195012
50
277.9165403
51
288.6748679
0
ARC
8
DEFAULT_255_2_778
10
31.9161811
20
29.4785211
40
0.5022474
50
288.9367922
51
295.9342429
0
ARC
8
DEFAULT_255_2_778
10
31.9340898
20
29.4420999
40
0.4616619
50
295.9122956
51
317.2834071
0
ARC
8
DEFAULT_255_2_778
10
31.868608
20
29.4992427
40
0.5485421
50
317.5379826
51
333.8492116
0
ARC
8
DEFAULT_255_2_778
10
31.6598827
20
29.6027508
40
0.7815219
50
333.7817443
51
345.345989
0
ARC
8
DEFAULT_255_2_778
10
31.2956735
20
29.7000997
40
1.158513
50
345.2448983
51
353.5272674
0
ARC
8
DEFAULT_255_2_778
10
30.8895391
20
29.751659
40
1.5678803
50
353.3282156
51
357.0292039
0
ARC
8
DEFAULT_255_2_778
10
31.4824822
20
29.7485613
40
0.9759648
50
355.406512
51
0.0101429
0
ARC
8
DEFAULT_255_2_778
10
31.4698824
20
29.7487332
40
0.9885646
50
0.000054
51
0.8469365
0
ARC
8
DEFAULT_255_2_778
10
31.5756218
20
29.7623412
40
0.8827178
50
0.0651848
51
30.6670147
0
ARC
8
DEFAULT_255_2_778
10
31.9231342
20
29.9797011
40
0.4730422
50
29.4904343
51
89.6418203
0
ARC
8
DEFAULT_255_2_778
10
31.9272368
20
29.9022953
40
0.55044
50
90.1192305
51
98.9564836
0
ARC
8
DEFAULT_255_2_778
10
31.9436953
20
29.7966162
40
0.6573929
50
98.9395067
51
106.0657219
0
ARC
8
DEFAULT_255_2_778
10
31.9661864
20
29.7137642
40
0.7432346
50
105.9642945
51
107.8300358
0
ARC
8
DEFAULT_255_2_778
10
31.9178535
20
29.9883354
40
0.4686004
50
112.4888474
51
136.1431349
0
ARC
8
DEFAULT_255_2_778
10
32.1418988
20
29.8287164
40
0.7418334
50
139.2444868
51
170.1384354
0
ARC
8
DEFAULT_255_2_778
10
33.1205189
20
29.5663903
40
1.7532771
50
167.1684057
51
168.0495468
0
ARC
8
DEFAULT_255_2_778
10
34.6273982
20
29.2661143
40
3.2897255
50
168.3674884
51
171.0026567
0
ARC
8
DEFAULT_255_2_778
10
-24.3607338
20
38.8966195
40
56.4794234
50
350.6624153
51
350.711576
0
ARC
8
DEFAULT_255_2_778
10
29.1670285
20
30.0781411
40
2.2301851
50
347.6528472
51
351.0911668
0
ARC
8
DEFAULT_255_2_778
10
30.7400524
20
29.7315657
40
0.6194397
50
338.3769436
51
347.8556421
0
ARC
8
DEFAULT_255_2_778
10
31.1048647
20
29.5835315
40
0.225772
50
316.1421495
51
339.1849813
0
ARC
8
DEFAULT_255_2_778
10
31.1640721
20
29.533212
40
0.1482907
50
312.7396002
51
314.3105461
0
ARC
8
DEFAULT_255_2_778
10
31.0690081
20
29.710941
40
0.3470775
50
296.5866637
51
304.3233482
0
ARC
8
DEFAULT_255_2_778
10
31.1122189
20
29.6237261
40
0.2497461
50
285.8470507
51
296.6764818
0
ARC
8
DEFAULT_255_2_778
10
31.1304848
20
29.5583692
40
0.1818856
50
270.3447009
51
285.9337635
0
ARC
8
DEFAULT_255_2_778
10
31.1385507
20
29.5513217
40
0.1749737
50
206.6947246
51
267.7165252
0
ARC
8
DEFAULT_255_2_778
10
31.3349679
20
29.6742905
40
0.4062733
50
187.5429535
51
209.7457539
0
ARC
8
DEFAULT_255_2_778
10
31.4518487
20
29.6974176
40
0.5252333
50
179.9791477
51
188.3703073
0
ARC
8
DEFAULT_255_2_778
10
31.4573839
20
29.6975972
40
0.5307686
50
178.8668351
51
179.9987529
0
ARC
8
DEFAULT_255_2_778
10
31.3514728
20
29.7092505
40
0.4247553
50
148.7168347
51
180.1560283
0
ARC
8
DEFAULT_255_2_778
10
31.1850275
20
29.8083352
40
0.2310644
50
94.9072125
51
148.2827128
0
ARC
8
DEFAULT_255_2_778
10
31.190397
20
29.7639802
40
0.2757206
50
89.9553019
51
95.2304681
0
ARC
8
DEFAULT_255_2_778
10
31.1796005
20
29.9101847
40
0.4865341
50
89.5040225
51
113.0173961
0
ARC
8
DEFAULT_255_2_778
10
31.2190814
20
29.8651094
40
0.5437802
50
114.9894615
51
157.2610047
0
ARC
8
DEFAULT_255_2_778
10
31.5579706
20
29.7023414
40
0.9194435
50
156.0691508
51
180.1401433
0
ARC
8
DEFAULT_255_2_778
10
31.6404511
20
29.6942559
40
1.0019382
50
179.6662309
51
180.0019418
0
ARC
8
DEFAULT_255_2_778
10
31.547601
20
29.6859506
40
0.9091258
50
179.4787092
51
203.7935414
0
ARC
8
DEFAULT_255_2_778
10
31.2132708
20
29.5290275
40
0.5399727
50
202.8700844
51
242.210111
0
ARC
8
DEFAULT_255_2_778
10
31.1660234
20
29.4690414
40
0.4650825
50
243.914229
51
265.0399812
0
ARC
8
DEFAULT_255_2_778
10
31.1698527
20
29.5591282
40
0.5551772
50
265.4501115
51
269.9558638
0
ARC
8
DEFAULT_255_2_778
10
31.1753586
20
29.4303715
40
0.4264614
50
269.2027902
51
328.3473083
0
ARC
8
DEFAULT_255_2_778
10
30.8271629
20
29.6768219
40
0.8526203
50
326.5280909
51
341.4855264
0
ARC
8
DEFAULT_255_2_778
10
30.1568854
20
29.9102441
40
1.5623516
50
341.1738668
51
350.12457
0
ARC
8
DEFAULT_255_2_778
10
29.3979546
20
30.056233
40
2.3351153
50
349.7892972
51
352.9294537
0
ARC
8
DEFAULT_255_2_778
10
32.3136359
20
29.6765762
40
0.6053896
50
159.0500756
51
171.2375115
0
ARC
8
DEFAULT_255_2_778
10
32.0923585
20
29.7632018
40
0.3677714
50
141.4432313
51
159.3275236
0
ARC
8
DEFAULT_255_2_778
10
31.9701008
20
29.8638321
40
0.2094601
50
110.2060921
51
142.1243691
0
ARC
8
DEFAULT_255_2_778
10
31.948927
20
29.9111716
40
0.15776
50
95.5143455
51
108.9276726
0
ARC
8
DEFAULT_255_2_778
10
31.9481513
20
29.91712
40
0.1517649
50
90.0037623
51
95.4386472
0
ARC
8
DEFAULT_255_2_778
10
31.9444825
20
29.8980994
40
0.1708247
50
43.5150626
51
88.7727003
0
ARC
8
DEFAULT_255_2_778
10
31.8684924
20
29.8195692
40
0.280042
50
22.7365538
51
44.4617649
0
ARC
8
DEFAULT_255_2_778
10
31.7950569
20
29.7832519
40
0.3618435
50
21.5906607
51
23.5461478
0
ARC
8
DEFAULT_255_2_778
10
31.518054
20
29.6844814
40
0.6558334
50
8.1411783
51
20.7092045
0
ARC
8
DEFAULT_255_2_778
10
31.5805646
20
29.6941206
40
0.5925881
50
0.0601189
51
8.0744854
0
ARC
8
DEFAULT_255_2_778
10
31.6981967
20
29.6880893
40
0.4750023
50
334.4695306
51
0.802536
0
ARC
8
DEFAULT_255_2_778
10
31.8878978
20
29.5845796
40
0.2594739
50
271.727383
51
337.0413809
0
ARC
8
DEFAULT_255_2_778
10
31.8957607
20
29.5761051
40
0.2508816
50
266.8585515
51
269.9905433
0
LINE
8
DEFAULT_255_2_778
10
31.1906121
20
30.0397006
11
31.1906121
21
30.3967006
0
LINE
8
DEFAULT_255_2_778
10
31.8820121
20
29.3256006
11
31.8820121
21
28.9687006
0
ARC
8
DEFAULT_255_2_778
10
31.8842912
20
31.1935693
40
0.8138167
50
91.201394
51
94.583023
0
ARC
8
DEFAULT_255_2_778
10
31.8827877
20
31.2478856
40
0.759481
50
90.0038232
51
91.1739087
0
ARC
8
DEFAULT_255_2_778
10
31.8908948
20
31.4172475
40
0.5901755
50
68.9090548
51
90.7920091
0
ARC
8
DEFAULT_255_2_778
10
31.8677883
20
31.4465717
40
0.5720325
50
8.4904749
51
65.6910747
0
ARC
8
DEFAULT_255_2_778
10
31.4085105
20
31.3116197
40
1.0482605
50
0.6297123
51
12.0818295
0
ARC
8
DEFAULT_255_2_778
10
31.2921621
20
31.3062971
40
1.1646673
50
359.9993946
51
0.8286378
0
ARC
8
DEFAULT_255_2_778
10
31.2679106
20
31.3064471
40
1.1889188
50
356.8774199
51
359.9921762
0
ARC
8
DEFAULT_255_2_778
10
31.1410215
20
31.2723431
40
1.3144004
50
347.2970209
51
358.6634213
0
ARC
8
DEFAULT_255_2_778
10
31.7803698
20
31.1214645
40
0.6575566
50
325.531447
51
347.8716668
0
ARC
8
DEFAULT_255_2_778
10
31.9431007
20
31.0249009
40
0.4689112
50
277.4127694
51
324.0054241
0
ARC
8
DEFAULT_255_2_778
10
31.8873642
20
31.2541796
40
0.7039335
50
276.5092248
51
279.504231
0
ARC
8
DEFAULT_255_2_778
10
31.9020834
20
31.1631499
40
0.2532073
50
276.9139912
51
342.0072445
0
ARC
8
DEFAULT_255_2_778
10
31.6909679
20
31.2563933
40
0.4833711
50
339.2241061
51
0.5519509
0
ARC
8
DEFAULT_255_2_778
10
31.6169039
20
31.2610386
40
0.5574126
50
0.0011464
51
1.3512126
0
ARC
8
DEFAULT_255_2_778
10
31.6773828
20
31.2692656
40
0.4968031
50
0.567113
51
29.5555688
0
ARC
8
DEFAULT_255_2_778
10
31.9045035
20
31.4072544
40
0.2313089
50
27.5730172
51
85.9439942
0
ARC
8
DEFAULT_255_2_778
10
31.8938428
20
32.9865799
40
0.2436789
50
180.0081206
51
182.8452845
0
ARC
8
DEFAULT_255_2_778
10
31.8941912
20
32.9795315
40
0.2441281
50
101.0645887
51
178.3536404
0
ARC
8
DEFAULT_255_2_778
10
31.9109519
20
32.9527192
40
0.273892
50
91.604238
51
103.4298381
0
ARC
8
DEFAULT_255_2_778
10
31.9103582
20
32.963724
40
0.262875
50
90.0002363
51
91.5420326
0
ARC
8
DEFAULT_255_2_778
10
31.9146816
20
32.9997598
40
0.2268805
50
36.3004631
51
91.0921551
0
ARC
8
DEFAULT_255_2_778
10
31.8635602
20
32.9664885
40
0.2877984
50
13.580708
51
35.6134552
0
ARC
8
DEFAULT_255_2_778
10
31.7573882
20
32.9360405
40
0.3981788
50
7.4957407
51
14.2521271
0
ARC
8
DEFAULT_255_2_778
10
31.2105439
20
32.9549755
40
0.2490312
50
180.00615
51
182.575763
0
ARC
8
DEFAULT_255_2_778
10
31.1809635
20
32.9571949
40
0.2194624
50
136.4998001
51
180.5864191
0
ARC
8
DEFAULT_255_2_778
10
31.1839352
20
32.9548453
40
0.2232355
50
92.3034078
51
136.587381
0
ARC
8
DEFAULT_255_2_778
10
31.1809972
20
32.976561
40
0.2014299
50
90.0002681
51
91.716635
0
ARC
8
DEFAULT_255_2_778
10
31.1825276
20
32.9937082
40
0.1842892
50
38.1758704
51
90.4761105
0
ARC
8
DEFAULT_255_2_778
10
31.1257549
20
32.9501357
40
0.2558518
50
15.5388033
51
37.9884822
0
ARC
8
DEFAULT_255_2_778
10
31.0039827
20
32.9118507
40
0.3834531
50
6.6391492
51
16.1759426
0
ARC
8
DEFAULT_255_2_778
10
31.8832138
20
33.1089394
40
0.5235155
50
2.1395378
51
25.6606704
0
ARC
8
DEFAULT_255_2_778
10
31.9285568
20
33.1291972
40
0.473874
50
25.8269757
51
66.7857522
0
ARC
8
DEFAULT_255_2_778
10
31.9368761
20
33.149173
40
0.4522362
50
66.756855
51
89.857092
0
ARC
8
DEFAULT_255_2_778
10
31.9380002
20
33.1670284
40
0.4343794
50
89.9994945
51
91.8111379
0
ARC
8
DEFAULT_255_2_778
10
31.9371558
20
33.1777755
40
0.4236113
50
91.7429206
51
126.4300751
0
ARC
8
DEFAULT_255_2_778
10
31.9766577
20
33.1263134
40
0.4884762
50
126.5734336
51
145.8057929
0
ARC
8
DEFAULT_255_2_778
10
32.0982806
20
33.0427509
40
0.6360376
50
145.7368213
51
159.2679777
0
ARC
8
DEFAULT_255_2_778
10
32.2144104
20
32.9942702
40
0.7618214
50
158.9497172
51
161.2393408
0
ARC
8
DEFAULT_255_2_778
10
30.9747292
20
33.0560614
40
0.5497652
50
19.4676266
51
34.6234528
0
ARC
8
DEFAULT_255_2_778
10
31.0825335
20
33.1312249
40
0.4183465
50
34.5412664
51
56.3844162
0
ARC
8
DEFAULT_255_2_778
10
31.1143538
20
33.1770186
40
0.3625965
50
56.5656274
51
89.5753558
0
ARC
8
DEFAULT_255_2_778
10
31.1144016
20
33.1690589
40
0.3705556
50
89.5918762
51
89.9956092
0
ARC
8
DEFAULT_255_2_778
10
31.1184281
20
33.148031
40
0.3916039
50
90.5849691
51
136.4615826
0
ARC
8
DEFAULT_255_2_778
10
31.1761838
20
33.0899975
40
0.4734532
50
136.1850895
51
161.0205095
0
ARC
8
DEFAULT_255_2_778
10
31.3048906
20
33.0445697
40
0.6099385
50
160.9172905
51
177.894001
0
LINE
8
DEFAULT_255_2_778
10
31.9555643
20
30.5547839
11
30.6908643
21
30.5489839
0
LINE
8
DEFAULT_255_2_778
10
30.6908643
20
30.5489839
11
30.6908643
21
30.9117839
0
LINE
8
DEFAULT_255_2_778
10
30.6908643
20
30.9117839
11
31.9325643
21
30.9117839
0
LINE
8
DEFAULT_255_2_778
10
31.9208643
20
31.6379839
11
30.6908643
21
31.6345839
0
LINE
8
DEFAULT_255_2_778
10
30.6908643
20
31.6345839
11
30.6908643
21
32.0047839
0
LINE
8
DEFAULT_255_2_778
10
30.6908643
20
32.0047839
11
31.8052643
21
32.0071839
0
LINE
8
DEFAULT_255_2_778
10
32.1521643
20
32.9879839
11
32.1521643
21
32.5029839
0
LINE
8
DEFAULT_255_2_778
10
32.1521643
20
32.5029839
11
31.6507643
21
32.5029839
0
LINE
8
DEFAULT_255_2_778
10
31.6507643
20
32.5029839
11
31.6507643
21
32.9879839
0
LINE
8
DEFAULT_255_2_778
10
31.3848643
20
32.9561839
11
31.3848643
21
32.5055839
0
LINE
8
DEFAULT_255_2_778
10
31.3848643
20
32.5055839
11
30.9617643
21
32.5055839
0
LINE
8
DEFAULT_255_2_778
10
30.9617643
20
32.5055839
11
30.9617643
21
32.9561839
0
LINE
8
DEFAULT_255_2_778
10
30.6953643
20
33.0669839
11
30.6905643
21
32.1364839
0
LINE
8
DEFAULT_255_2_778
10
30.6905643
20
32.1364839
11
32.4074643
21
32.1364839
0
LINE
8
DEFAULT_255_2_778
10
32.4074643
20
32.1364839
11
32.4061643
21
33.1162839
0
ARC
8
DEFAULT_255_2_778
10
31.8111734
20
35.2681087
40
1.1237004
50
273.9669489
51
277.9264844
0
ARC
8
DEFAULT_255_2_778
10
31.8808102
20
34.7687416
40
0.6195012
50
277.9165403
51
288.6748679
0
ARC
8
DEFAULT_255_2_778
10
31.9161811
20
34.6569211
40
0.5022474
50
288.9367922
51
295.9342429
0
ARC
8
DEFAULT_255_2_778
10
31.9340898
20
34.6204999
40
0.4616619
50
295.9122956
51
317.2834071
0
ARC
8
DEFAULT_255_2_778
10
31.868608
20
34.6776427
40
0.5485421
50
317.5379826
51
333.8492116
0
ARC
8
DEFAULT_255_2_778
10
31.6598827
20
34.7811508
40
0.7815219
50
333.7817443
51
345.345989
0
ARC
8
DEFAULT_255_2_778
10
31.2956735
20
34.8784997
40
1.158513
50
345.2448983
51
353.5272674
0
ARC
8
DEFAULT_255_2_778
10
30.8895391
20
34.930059
40
1.5678803
50
353.3282156
51
357.0292039
0
ARC
8
DEFAULT_255_2_778
10
31.4824822
20
34.9269613
40
0.9759648
50
355.406512
51
0.0101429
0
ARC
8
DEFAULT_255_2_778
10
31.4698824
20
34.9271332
40
0.9885646
50
0.000054
51
0.8469365
0
ARC
8
DEFAULT_255_2_778
10
31.5756218
20
34.9407412
40
0.8827178
50
0.0651848
51
30.6670147
0
ARC
8
DEFAULT_255_2_778
10
31.9231342
20
35.1581011
40
0.4730422
50
29.4904343
51
89.6418203
0
ARC
8
DEFAULT_255_2_778
10
31.9272368
20
35.0806953
40
0.55044
50
90.1192305
51
98.9564836
0
ARC
8
DEFAULT_255_2_778
10
31.9436953
20
34.9750162
40
0.6573929
50
98.9395067
51
106.0657219
0
ARC
8
DEFAULT_255_2_778
10
31.9661864
20
34.8921642
40
0.7432346
50
105.9642945
51
107.8300358
0
ARC
8
DEFAULT_255_2_778
10
31.9178535
20
35.1667354
40
0.4686004
50
112.4888474
51
136.1431349
0
ARC
8
DEFAULT_255_2_778
10
32.1418988
20
35.0071164
40
0.7418334
50
139.2444868
51
170.1384354
0
ARC
8
DEFAULT_255_2_778
10
33.1205189
20
34.7447903
40
1.7532771
50
167.1684057
51
168.0495468
0
ARC
8
DEFAULT_255_2_778
10
34.6273982
20
34.4445143
40
3.2897255
50
168.3674884
51
171.0026567
0
ARC
8
DEFAULT_255_2_778
10
-24.3607338
20
44.0750195
40
56.4794234
50
350.6624153
51
350.711576
0
ARC
8
DEFAULT_255_2_778
10
29.1670285
20
35.2565411
40
2.2301851
50
347.6528472
51
351.0911668
0
ARC
8
DEFAULT_255_2_778
10
30.7400524
20
34.9099657
40
0.6194397
50
338.3769436
51
347.8556421
0
ARC
8
DEFAULT_255_2_778
10
31.1048647
20
34.7619315
40
0.225772
50
316.1421495
51
339.1849813
0
ARC
8
DEFAULT_255_2_778
10
31.1640721
20
34.711612
40
0.1482907
50
312.7396002
51
314.3105461
0
ARC
8
DEFAULT_255_2_778
10
31.0690081
20
34.889341
40
0.3470775
50
296.5866637
51
304.3233482
0
ARC
8
DEFAULT_255_2_778
10
31.1122189
20
34.8021261
40
0.2497461
50
285.8470507
51
296.6764818
0
ARC
8
DEFAULT_255_2_778
10
31.1304848
20
34.7367692
40
0.1818856
50
270.3447009
51
285.9337635
0
ARC
8
DEFAULT_255_2_778
10
31.1385507
20
34.7297217
40
0.1749737
50
206.6947246
51
267.7165252
0
ARC
8
DEFAULT_255_2_778
10
31.3349679
20
34.8526905
40
0.4062733
50
187.5429535
51
209.7457539
0
ARC
8
DEFAULT_255_2_778
10
31.4518487
20
34.8758176
40
0.5252333
50
179.9791477
51
188.3703073
0
ARC
8
DEFAULT_255_2_778
10
31.4573839
20
34.8759972
40
0.5307686
50
178.8668351
51
179.9987529
0
ARC
8
DEFAULT_255_2_778
10
31.3514728
20
34.8876505
40
0.4247553
50
148.7168347
51
180.1560283
0
ARC
8
DEFAULT_255_2_778
10
31.1850275
20
34.9867352
40
0.2310644
50
94.9072125
51
148.2827128
0
ARC
8
DEFAULT_255_2_778
10
31.190397
20
34.9423802
40
0.2757206
50
89.9553019
51
95.2304681
0
ARC
8
DEFAULT_255_2_778
10
31.1796005
20
35.0885847
40
0.4865341
50
89.5040225
51
113.0173961
0
ARC
8
DEFAULT_255_2_778
10
31.2190814
20
35.0435094
40
0.5437802
50
114.9894615
51
157.2610047
0
ARC
8
DEFAULT_255_2_778
10
31.5579706
20
34.8807414
40
0.9194435
50
156.0691508
51
180.1401433
0
ARC
8
DEFAULT_255_2_778
10
31.6404511
20
34.8726559
40
1.0019382
50
179.6662309
51
180.0019418
0
ARC
8
DEFAULT_255_2_778
10
31.547601
20
34.8643506
40
0.9091258
50
179.4787092
51
203.7935414
0
ARC
8
DEFAULT_255_2_778
10
31.2132708
20
34.7074275
40
0.5399727
50
202.8700844
51
242.210111
0
ARC
8
DEFAULT_255_2_778
10
31.1660234
20
34.6474414
40
0.4650825
50
243.914229
51
265.0399812
0
ARC
8
DEFAULT_255_2_778
10
31.1698527
20
34.7375282
40
0.5551772
50
265.4501115
51
269.9558638
0
ARC
8
DEFAULT_255_2_778
10
31.1753586
20
34.6087715
40
0.4264614
50
269.2027902
51
328.3473083
0
ARC
8
DEFAULT_255_2_778
10
30.8271629
20
34.8552219
40
0.8526203
50
326.5280909
51
341.4855264
0
ARC
8
DEFAULT_255_2_778
10
30.1568854
20
35.0886441
40
1.5623516
50
341.1738668
51
350.12457
0
ARC
8
DEFAULT_255_2_778
10
29.3979546
20
35.234633
40
2.3351153
50
349.7892972
51
352.9294537
0
ARC
8
DEFAULT_255_2_778
10
32.3136359
20
34.8549762
40
0.6053896
50
159.0500756
51
171.2375115
0
ARC
8
DEFAULT_255_2_778
10
32.0923585
20
34.9416018
40
0.3677714
50
141.4432313
51
159.3275236
0
ARC
8
DEFAULT_255_2_778
10
31.9701008
20
35.0422321
40
0.2094601
50
110.2060921
51
142.1243691
0
ARC
8
DEFAULT_255_2_778
10
31.948927
20
35.0895716
40
0.15776
50
95.5143455
51
108.9276726
0
ARC
8
DEFAULT_255_2_778
10
31.9481513
20
35.09552
40
0.1517649
50
90.0037623
51
95.4386472
0
ARC
8
DEFAULT_255_2_778
10
31.9444825
20
35.0764994
40
0.1708247
50
43.5150626
51
88.7727003
0
ARC
8
DEFAULT_255_2_778
10
31.8684924
20
34.9979692
40
0.280042
50
22.7365538
51
44.4617649
0
ARC
8
DEFAULT_255_2_778
10
31.7950569
20
34.9616519
40
0.3618435
50
21.5906607
51
23.5461478
0
ARC
8
DEFAULT_255_2_778
10
31.518054
20
34.8628814
40
0.6558334
50
8.1411783
51
20.7092045
0
ARC
8
DEFAULT_255_2_778
10
31.5805646
20
34.8725206
40
0.5925881
50
0.0601189
51
8.0744854
0
ARC
8
DEFAULT_255_2_778
10
31.6981967
20
34.8664893
40
0.4750023
50
334.4695306
51
0.802536
0
ARC
8
DEFAULT_255_2_778
10
31.8878978
20
34.7629796
40
0.2594739
50
271.727383
51
337.0413809
0
ARC
8
DEFAULT_255_2_778
10
31.8957607
20
34.7545051
40
0.2508816
50
266.8585515
51
269.9905433
0
LINE
8
DEFAULT_255_2_778
10
31.1906121
20
35.2181006
11
31.1906121
21
35.5751006
0
LINE
8
DEFAULT_255_2_778
10
31.8820121
20
34.5040006
11
31.8820121
21
34.1471006
0
LINE
8
DEFAULT_255_2_778
10
13.8385073
20
51.7564405
11
11.8385073
21
51.7564405
0
LINE
8
DEFAULT_255_2_778
10
11.8385073
20
51.7564405
11
11.8385073
21
46.3565405
0
LINE
8
DEFAULT_255_2_778
10
11.8385073
20
46.3565405
11
13.8385073
21
46.3565405
0
LINE
8
DEFAULT_255_2_778
10
13.8385073
20
46.3565405
11
11.8385073
21
46.3565405
0
LINE
8
DEFAULT_255_2_778
10
11.8385073
20
46.3565405
11
11.8385073
21
51.7564405
0
LINE
8
DEFAULT_255_2_778
10
11.8385073
20
51.7564405
11
13.8385073
21
51.7564405
0
LINE
8
DEFAULT_255_2_778
10
13.8385073
20
32.1563405
11
11.8385073
21
32.1563405
0
LINE
8
DEFAULT_255_2_778
10
11.8385073
20
32.1563405
11
11.8385073
21
26.7564405
0
LINE
8
DEFAULT_255_2_778
10
11.8385073
20
26.7564405
11
13.8385073
21
26.7564405
0
LINE
8
DEFAULT_255_2_778
10
13.8385073
20
26.7564405
11
11.8385073
21
26.7564405
0
LINE
8
DEFAULT_255_2_778
10
11.8385073
20
26.7564405
11
11.8385073
21
32.1563405
0
LINE
8
DEFAULT_255_2_778
10
11.8385073
20
32.1563405
11
13.8385073
21
32.1563405
0
LINE
8
DEFAULT_255_2_778
10
16.8383261
20
32.1563405
11
18.5382261
21
32.1563405
0
LINE
8
DEFAULT_255_2_778
10
18.5382261
20
32.1563405
11
18.5382261
21
26.7564405
0
LINE
8
DEFAULT_255_2_778
10
18.5382261
20
26.7564405
11
16.8383261
21
26.7564405
0
LINE
8
DEFAULT_255_2_778
10
16.8383261
20
26.7564405
11
16.8383261
21
32.1563405
0
ARC
8
DEFAULT_255_2_778
10
41.2349436
20
81.7576303
40
0.9963226
50
138.3541388
51
180.0816049
0
ARC
8
DEFAULT_255_2_778
10
41.2376057
20
81.7586498
40
0.9976376
50
91.732932
51
138.4994886
0
ARC
8
DEFAULT_255_2_778
10
41.2387123
20
81.7375521
40
1.0187592
50
89.9994554
51
91.7592612
0
ARC
8
DEFAULT_255_2_778
10
41.2401665
20
81.7598353
40
0.996477
50
48.3575081
51
90.0830578
0
ARC
8
DEFAULT_255_2_778
10
41.2413021
20
81.7573327
40
0.9975959
50
1.7327121
51
48.5017548
0
ARC
8
DEFAULT_255_2_778
10
41.2201628
20
81.7562209
40
1.0187592
50
359.9994554
51
1.7592612
0
LINE
8
DEFAULT_255_2_778
10
38.138322
20
75.1564112
11
36.438422
21
75.1564112
0
LINE
8
DEFAULT_255_2_778
10
36.438422
20
75.1564112
11
36.438422
21
81.1564112
0
LINE
8
DEFAULT_255_2_778
10
36.438422
20
81.1564112
11
38.138322
21
81.1564112
0
LINE
8
DEFAULT_255_2_778
10
38.138322
20
81.1564112
11
38.138322
21
75.1564112
0
LINE
8
DEFAULT_255_2_778
10
42.238922
20
81.7562112
11
42.238922
21
67.7563112
0
LINE
8
DEFAULT_255_2_778
10
42.238922
20
67.7563112
11
40.238922
21
67.7563112
0
LINE
8
DEFAULT_255_2_778
10
40.238922
20
67.7563112
11
40.238622
21
81.7562112
0
LINE
8
DEFAULT_255_2_778
10
34.238422
20
72.0063112
11
34.238422
21
67.9563112
0
LINE
8
DEFAULT_255_2_778
10
33.038522
20
72.0063112
11
35.038522
21
72.0063112
0
LINE
8
DEFAULT_255_2_778
10
35.038522
20
72.0063112
11
35.038522
21
67.9563112
0
LINE
8
DEFAULT_255_2_778
10
35.038522
20
67.9563112
11
33.038522
21
67.9563112
0
LINE
8
DEFAULT_255_2_778
10
33.038522
20
67.9563112
11
33.038522
21
72.0063112
0
LINE
8
DEFAULT_255_2_778
10
33.038522
20
72.0063112
11
35.038522
21
72.0063112
0
LINE
8
DEFAULT_255_2_778
10
35.038522
20
72.0063112
11
35.038522
21
67.9563112
0
LINE
8
DEFAULT_255_2_778
10
35.038522
20
67.9563112
11
33.038522
21
67.9563112
0
LINE
8
DEFAULT_255_2_778
10
33.038522
20
67.9563112
11
33.038522
21
72.0063112
0
ARC
8
DEFAULT_255_2_778
10
41.2419223
20
15.2548859
40
0.9963538
50
318.3577872
51
0.0854462
0
ARC
8
DEFAULT_255_2_778
10
41.2393874
20
15.2538827
40
0.9975846
50
271.7278219
51
318.4975893
0
ARC
8
DEFAULT_255_2_778
10
41.2381849
20
15.2753724
40
1.0191008
50
269.999446
51
271.7589696
0
ARC
8
DEFAULT_255_2_778
10
41.2367305
20
15.252628
40
0.9963573
50
228.3578711
51
270.0830675
0
ARC
8
DEFAULT_255_2_778
10
41.2356887
20
15.2551975
40
0.9975883
50
181.730003
51
228.5006483
0
ARC
8
DEFAULT_255_2_778
10
41.2571757
20
15.2563619
40
1.0191008
50
179.999446
51
181.7589697
0
LINE
8
DEFAULT_255_2_778
10
40.238075
20
15.2563718
11
40.238075
21
21.7563718
0
LINE
8
DEFAULT_255_2_778
10
40.238075
20
21.7563718
11
42.238075
21
21.7563718
0
LINE
8
DEFAULT_255_2_778
10
42.238075
20
21.7563718
11
42.238275
21
15.2563718
0
ARC
8
DEFAULT_255_2_778
10
41.2421448
20
15.2549069
40
0.9962783
50
318.352313
51
0.084247
0
ARC
8
DEFAULT_255_2_778
10
41.2394144
20
15.2540497
40
0.997752
50
271.7286836
51
318.4932889
0
ARC
8
DEFAULT_255_2_778
10
41.2382316
20
15.2753954
40
1.0191238
50
269.9994552
51
271.758945
0
ARC
8
DEFAULT_255_2_778
10
41.2367774
20
15.252628
40
0.9963573
50
228.3578711
51
270.0830675
0
ARC
8
DEFAULT_255_2_778
10
41.2357356
20
15.2551975
40
0.9975883
50
181.730003
51
228.5006483
0
ARC
8
DEFAULT_255_2_778
10
41.2572227
20
15.2563619
40
1.0191008
50
179.999446
51
181.7589697
0
ARC
8
DEFAULT_255_2_778
10
37.2384408
20
15.2566442
40
0.9999812
50
299.9927571
51
359.9843899
0
ARC
8
DEFAULT_255_2_778
10
37.2385083
20
15.2553398
40
0.998818
50
269.9888805
51
300.0268065
0
LINE
8
DEFAULT_255_2_778
10
37.2383145
20
14.2565218
11
37.2380986
21
14.2565218
0
ARC
8
DEFAULT_255_2_778
10
37.2381778
20
15.2560426
40
0.9995208
50
240.0069232
51
269.9954621
0
ARC
8
DEFAULT_255_2_778
10
37.2386043
20
15.2565602
40
1.0001823
50
180.0107921
51
240.0005839
0
LINE
8
DEFAULT_255_2_778
10
40.238122
20
15.2563718
11
40.238122
21
21.7563718
0
LINE
8
DEFAULT_255_2_778
10
40.238122
20
21.7563718
11
42.238122
21
21.7563718
0
LINE
8
DEFAULT_255_2_778
10
42.238122
20
21.7563718
11
42.238122
21
15.2563718
0
LINE
8
DEFAULT_255_2_778
10
36.238422
20
15.2563718
11
36.238422
21
21.7563718
0
LINE
8
DEFAULT_255_2_778
10
36.238422
20
21.7563718
11
38.238422
21
21.7563718
0
LINE
8
DEFAULT_255_2_778
10
38.238422
20
21.7563718
11
38.238422
21
15.2563718
0
ARC
8
DEFAULT_255_2_778
10
37.2384261
20
15.2566954
40
0.9999812
50
299.9927571
51
359.9843899
0
ARC
8
DEFAULT_255_2_778
10
37.2384937
20
15.255391
40
0.998818
50
269.9888805
51
300.0268065
0
LINE
8
DEFAULT_255_2_778
10
37.2382998
20
14.2565729
11
37.238084
21
14.256573
0
ARC
8
DEFAULT_255_2_778
10
37.2381632
20
15.2560938
40
0.9995208
50
240.0069232
51
269.9954621
0
ARC
8
DEFAULT_255_2_778
10
37.2385897
20
15.2566113
40
1.0001823
50
180.0107921
51
240.0005839
0
LINE
8
DEFAULT_255_2_778
10
36.2384073
20
15.2564229
11
36.2384073
21
21.7564229
0
LINE
8
DEFAULT_255_2_778
10
36.2384073
20
21.7564229
11
38.2384073
21
21.7564229
0
LINE
8
DEFAULT_255_2_778
10
38.2384073
20
21.7564229
11
38.2384073
21
15.2564229
0
LINE
8
DEFAULT_255_2_778
10
38.1383636
20
14.8203312
11
38.1383636
21
14.8563312
0
LINE
8
DEFAULT_255_2_778
10
38.1383636
20
14.8563312
11
38.1547636
21
14.8563312
0
LINE
8
DEFAULT_255_2_778
10
33.6385636
20
14.3562312
11
32.8384636
21
14.3562312
0
ARC
8
DEFAULT_255_2_778
10
33.2346931
20
15.2549114
40
0.9963191
50
179.916016
51
221.6459452
0
ARC
8
DEFAULT_255_2_778
10
33.2373206
20
15.2539305
40
0.9976339
50
221.5035703
51
268.2692494
0
ARC
8
DEFAULT_255_2_778
10
33.2384653
20
15.2750309
40
1.0187593
50
268.2407389
51
270.0005447
0
ARC
8
DEFAULT_255_2_778
10
33.2399609
20
15.2526245
40
0.9963538
50
269.9145538
51
311.6422128
0
ARC
8
DEFAULT_255_2_778
10
33.2409641
20
15.2551594
40
0.9975846
50
311.5024107
51
358.2721781
0
ARC
8
DEFAULT_255_2_778
10
33.2194744
20
15.2563619
40
1.0191008
50
358.2410304
51
0.000554
0
ARC
8
DEFAULT_255_2_778
10
33.2422223
20
15.2548859
40
0.9963538
50
318.3577872
51
0.0854462
0
ARC
8
DEFAULT_255_2_778
10
33.2396874
20
15.2538827
40
0.9975846
50
271.7278219
51
318.4975893
0
ARC
8
DEFAULT_255_2_778
10
33.2384849
20
15.2753724
40
1.0191008
50
269.999446
51
271.7589696
0
ARC
8
DEFAULT_255_2_778
10
33.2370305
20
15.252628
40
0.9963573
50
228.3578711
51
270.0830675
0
ARC
8
DEFAULT_255_2_778
10
33.2359887
20
15.2551975
40
0.9975883
50
181.730003
51
228.5006483
0
ARC
8
DEFAULT_255_2_778
10
33.2574757
20
15.2563619
40
1.0191008
50
179.999446
51
181.7589697
0
LINE
8
DEFAULT_255_2_778
10
34.238375
20
15.2563718
11
34.238375
21
21.7563718
0
LINE
8
DEFAULT_255_2_778
10
34.238375
20
21.7563718
11
32.238375
21
21.7563718
0
LINE
8
DEFAULT_255_2_778
10
32.238375
20
21.7563718
11
32.238375
21
15.2563718
0
LINE
8
DEFAULT_255_2_778
10
32.238375
20
15.2563718
11
32.238375
21
21.7563718
0
LINE
8
DEFAULT_255_2_778
10
32.238375
20
21.7563718
11
34.238375
21
21.7563718
0
LINE
8
DEFAULT_255_2_778
10
34.238375
20
21.7563718
11
34.238375
21
15.2563718
0
LINE
8
DEFAULT_255_2_778
10
25.0909667
20
56.2022104
11
25.0909667
21
56.8351104
0
LINE
8
DEFAULT_255_2_778
10
24.5998667
20
56.3392104
11
24.5998667
21
57.0716104
0
LINE
8
DEFAULT_255_2_778
10
25.0909667
20
56.2022104
11
25.0909667
21
56.8351104
0
LINE
8
DEFAULT_255_2_778
10
24.5998667
20
56.3392104
11
24.5998667
21
57.0716104
0
LINE
8
DEFAULT_255_2_778
10
18.8796052
20
60.6260312
11
19.0333052
21
60.6260312
0
LINE
8
DEFAULT_255_2_778
10
19.0333052
20
60.6260312
11
19.0333052
21
60.2603312
0
LINE
8
DEFAULT_255_2_778
10
19.0333052
20
60.2603312
11
19.4109052
21
60.2603312
0
LINE
8
DEFAULT_255_2_778
10
19.4109052
20
60.2603312
11
19.4109052
21
60.0698312
0
LINE
8
DEFAULT_255_2_778
10
19.4109052
20
60.0698312
11
18.4867052
21
60.0698312
0
LINE
8
DEFAULT_255_2_778
10
18.4867052
20
60.0698312
11
18.4867052
21
60.6715312
0
LINE
8
DEFAULT_255_2_778
10
18.4867052
20
60.6715312
11
18.6410052
21
60.6715312
0
LINE
8
DEFAULT_255_2_778
10
18.6410052
20
60.6715312
11
18.6410052
21
60.2601312
0
LINE
8
DEFAULT_255_2_778
10
18.6410052
20
60.2601312
11
18.8796052
21
60.2601312
0
LINE
8
DEFAULT_255_2_778
10
18.8796052
20
60.2601312
11
18.8796052
21
60.6257312
0
LINE
8
DEFAULT_255_2_778
10
18.8796052
20
60.6257312
11
18.8796052
21
60.6260312
0
LINE
8
DEFAULT_255_2_778
10
18.4867052
20
60.9396562
11
18.8053052
21
61.1129562
0
LINE
8
DEFAULT_255_2_778
10
18.8053052
20
61.1129562
11
18.4867052
21
61.2862562
0
LINE
8
DEFAULT_255_2_778
10
18.4867052
20
61.2862562
11
18.4867052
21
61.5053562
0
LINE
8
DEFAULT_255_2_778
10
18.4867052
20
61.5053562
11
18.9450052
21
61.2362562
0
LINE
8
DEFAULT_255_2_778
10
18.9450052
20
61.2362562
11
19.4109052
21
61.5124562
0
LINE
8
DEFAULT_255_2_778
10
19.4109052
20
61.5124562
11
19.4109052
21
61.2909562
0
LINE
8
DEFAULT_255_2_778
10
19.4109052
20
61.2909562
11
19.0870052
21
61.1131562
0
LINE
8
DEFAULT_255_2_778
10
19.0870052
20
61.1131562
11
19.4109052
21
60.9353562
0
LINE
8
DEFAULT_255_2_778
10
19.4109052
20
60.9353562
11
19.4109052
21
60.7139562
0
LINE
8
DEFAULT_255_2_778
10
19.4109052
20
60.7139562
11
18.9450052
21
60.9901562
0
LINE
8
DEFAULT_255_2_778
10
18.9450052
20
60.9901562
11
18.4867052
21
60.7210562
0
LINE
8
DEFAULT_255_2_778
10
18.4867052
20
60.7210562
11
18.4867052
21
60.9401562
0
LINE
8
DEFAULT_255_2_778
10
18.4867052
20
60.9401562
11
18.4867052
21
60.9396562
0
LINE
8
DEFAULT_255_2_778
10
22.1189052
20
60.4937312
11
22.2726052
21
60.4937312
0
LINE
8
DEFAULT_255_2_778
10
22.2726052
20
60.4937312
11
22.2726052
21
60.1280312
0
LINE
8
DEFAULT_255_2_778
10
22.2726052
20
60.1280312
11
22.6502052
21
60.1280312
0
LINE
8
DEFAULT_255_2_778
10
22.6502052
20
60.1280312
11
22.6502052
21
59.9375312
0
LINE
8
DEFAULT_255_2_778
10
22.6502052
20
59.9375312
11
21.7260052
21
59.9375312
0
LINE
8
DEFAULT_255_2_778
10
21.7260052
20
59.9375312
11
21.7260052
21
60.5392312
0
LINE
8
DEFAULT_255_2_778
10
21.7260052
20
60.5392312
11
21.8803052
21
60.5392312
0
LINE
8
DEFAULT_255_2_778
10
21.8803052
20
60.5392312
11
21.8803052
21
60.1278312
0
LINE
8
DEFAULT_255_2_778
10
21.8803052
20
60.1278312
11
22.1189052
21
60.1278312
0
LINE
8
DEFAULT_255_2_778
10
22.1189052
20
60.1278312
11
22.1189052
21
60.4934312
0
LINE
8
DEFAULT_255_2_778
10
22.1189052
20
60.4934312
11
22.1189052
21
60.4937312
0
LINE
8
DEFAULT_255_2_778
10
21.7260052
20
60.8073562
11
22.0446052
21
60.9806562
0
LINE
8
DEFAULT_255_2_778
10
22.0446052
20
60.9806562
11
21.7260052
21
61.1539562
0
LINE
8
DEFAULT_255_2_778
10
21.7260052
20
61.1539562
11
21.7260052
21
61.3730562
0
LINE
8
DEFAULT_255_2_778
10
21.7260052
20
61.3730562
11
22.1843052
21
61.1039562
0
LINE
8
DEFAULT_255_2_778
10
22.1843052
20
61.1039562
11
22.6502052
21
61.3801562
0
LINE
8
DEFAULT_255_2_778
10
22.6502052
20
61.3801562
11
22.6502052
21
61.1586562
0
LINE
8
DEFAULT_255_2_778
10
22.6502052
20
61.1586562
11
22.3263052
21
60.9808562
0
LINE
8
DEFAULT_255_2_778
10
22.3263052
20
60.9808562
11
22.6502052
21
60.8030562
0
LINE
8
DEFAULT_255_2_778
10
22.6502052
20
60.8030562
11
22.6502052
21
60.5816562
0
LINE
8
DEFAULT_255_2_778
10
22.6502052
20
60.5816562
11
22.1843052
21
60.8578562
0
LINE
8
DEFAULT_255_2_778
10
22.1843052
20
60.8578562
11
21.7260052
21
60.5887562
0
LINE
8
DEFAULT_255_2_778
10
21.7260052
20
60.5887562
11
21.7260052
21
60.8078562
0
LINE
8
DEFAULT_255_2_778
10
21.7260052
20
60.8078562
11
21.7260052
21
60.8073562
0
LINE
8
DEFAULT_255_2_778
10
25.0973052
20
61.4198312
11
25.2510052
21
61.4198312
0
LINE
8
DEFAULT_255_2_778
10
25.2510052
20
61.4198312
11
25.2510052
21
61.0541312
0
LINE
8
DEFAULT_255_2_778
10
25.2510052
20
61.0541312
11
25.6286052
21
61.0541312
0
LINE
8
DEFAULT_255_2_778
10
25.6286052
20
61.0541312
11
25.6286052
21
60.8636312
0
LINE
8
DEFAULT_255_2_778
10
25.6286052
20
60.8636312
11
24.7044052
21
60.8636312
0
LINE
8
DEFAULT_255_2_778
10
24.7044052
20
60.8636312
11
24.7044052
21
61.4653312
0
LINE
8
DEFAULT_255_2_778
10
24.7044052
20
61.4653312
11
24.8587052
21
61.4653312
0
LINE
8
DEFAULT_255_2_778
10
24.8587052
20
61.4653312
11
24.8587052
21
61.0539312
0
LINE
8
DEFAULT_255_2_778
10
24.8587052
20
61.0539312
11
25.0973052
21
61.0539312
0
LINE
8
DEFAULT_255_2_778
10
25.0973052
20
61.0539312
11
25.0973052
21
61.4195312
0
LINE
8
DEFAULT_255_2_778
10
25.0973052
20
61.4195312
11
25.0973052
21
61.4198312
0
LINE
8
DEFAULT_255_2_778
10
24.7044052
20
61.7333562
11
25.0230052
21
61.9066562
0
LINE
8
DEFAULT_255_2_778
10
25.0230052
20
61.9066562
11
24.7044052
21
62.0799562
0
LINE
8
DEFAULT_255_2_778
10
24.7044052
20
62.0799562
11
24.7044052
21
62.2990562
0
LINE
8
DEFAULT_255_2_778
10
24.7044052
20
62.2990562
11
25.1627052
21
62.0299562
0
LINE
8
DEFAULT_255_2_778
10
25.1627052
20
62.0299562
11
25.6286052
21
62.3061562
0
LINE
8
DEFAULT_255_2_778
10
25.6286052
20
62.3061562
11
25.6286052
21
62.0846562
0
LINE
8
DEFAULT_255_2_778
10
25.6286052
20
62.0846562
11
25.3047052
21
61.9068562
0
LINE
8
DEFAULT_255_2_778
10
25.3047052
20
61.9068562
11
25.6286052
21
61.7290562
0
LINE
8
DEFAULT_255_2_778
10
25.6286052
20
61.7290562
11
25.6286052
21
61.5076562
0
LINE
8
DEFAULT_255_2_778
10
25.6286052
20
61.5076562
11
25.1627052
21
61.7838562
0
LINE
8
DEFAULT_255_2_778
10
25.1627052
20
61.7838562
11
24.7044052
21
61.5147562
0
LINE
8
DEFAULT_255_2_778
10
24.7044052
20
61.5147562
11
24.7044052
21
61.7338562
0
LINE
8
DEFAULT_255_2_778
10
24.7044052
20
61.7338562
11
24.7044052
21
61.7333562
0
LINE
8
DEFAULT_255_2_778
10
22.1189052
20
63.9862312
11
22.2726052
21
63.9862312
0
LINE
8
DEFAULT_255_2_778
10
22.2726052
20
63.9862312
11
22.2726052
21
63.6205312
0
LINE
8
DEFAULT_255_2_778
10
22.2726052
20
63.6205312
11
22.6502052
21
63.6205312
0
LINE
8
DEFAULT_255_2_778
10
22.6502052
20
63.6205312
11
22.6502052
21
63.4300312
0
LINE
8
DEFAULT_255_2_778
10
22.6502052
20
63.4300312
11
21.7260052
21
63.4300312
0
LINE
8
DEFAULT_255_2_778
10
21.7260052
20
63.4300312
11
21.7260052
21
64.0317312
0
LINE
8
DEFAULT_255_2_778
10
21.7260052
20
64.0317312
11
21.8803052
21
64.0317312
0
LINE
8
DEFAULT_255_2_778
10
21.8803052
20
64.0317312
11
21.8803052
21
63.6203312
0
LINE
8
DEFAULT_255_2_778
10
21.8803052
20
63.6203312
11
22.1189052
21
63.6203312
0
LINE
8
DEFAULT_255_2_778
10
22.1189052
20
63.6203312
11
22.1189052
21
63.9859312
0
LINE
8
DEFAULT_255_2_778
10
22.1189052
20
63.9859312
11
22.1189052
21
63.9862312
0
LINE
8
DEFAULT_255_2_778
10
21.7260052
20
64.2998562
11
22.0446052
21
64.4731562
0
LINE
8
DEFAULT_255_2_778
10
22.0446052
20
64.4731562
11
21.7260052
21
64.6464562
0
LINE
8
DEFAULT_255_2_778
10
21.7260052
20
64.6464562
11
21.7260052
21
64.8655562
0
LINE
8
DEFAULT_255_2_778
10
21.7260052
20
64.8655562
11
22.1843052
21
64.5964562
0
LINE
8
DEFAULT_255_2_778
10
22.1843052
20
64.5964562
11
22.6502052
21
64.8726562
0
LINE
8
DEFAULT_255_2_778
10
22.6502052
20
64.8726562
11
22.6502052
21
64.6511562
0
LINE
8
DEFAULT_255_2_778
10
22.6502052
20
64.6511562
11
22.3263052
21
64.4733562
0
LINE
8
DEFAULT_255_2_778
10
22.3263052
20
64.4733562
11
22.6502052
21
64.2955562
0
LINE
8
DEFAULT_255_2_778
10
22.6502052
20
64.2955562
11
22.6502052
21
64.0741562
0
LINE
8
DEFAULT_255_2_778
10
22.6502052
20
64.0741562
11
22.1843052
21
64.3503562
0
LINE
8
DEFAULT_255_2_778
10
22.1843052
20
64.3503562
11
21.7260052
21
64.0812562
0
LINE
8
DEFAULT_255_2_778
10
21.7260052
20
64.0812562
11
21.7260052
21
64.3003562
0
LINE
8
DEFAULT_255_2_778
10
21.7260052
20
64.3003562
11
21.7260052
21
64.2998562
0
LINE
8
DEFAULT_255_2_778
10
25.0973052
20
65.3224312
11
25.2510052
21
65.3224312
0
LINE
8
DEFAULT_255_2_778
10
25.2510052
20
65.3224312
11
25.2510052
21
64.9567312
0
LINE
8
DEFAULT_255_2_778
10
25.2510052
20
64.9567312
11
25.6286052
21
64.9567312
0
LINE
8
DEFAULT_255_2_778
10
25.6286052
20
64.9567312
11
25.6286052
21
64.7662312
0
LINE
8
DEFAULT_255_2_778
10
25.6286052
20
64.7662312
11
24.7044052
21
64.7662312
0
LINE
8
DEFAULT_255_2_778
10
24.7044052
20
64.7662312
11
24.7044052
21
65.3679312
0
LINE
8
DEFAULT_255_2_778
10
24.7044052
20
65.3679312
11
24.8587052
21
65.3679312
0
LINE
8
DEFAULT_255_2_778
10
24.8587052
20
65.3679312
11
24.8587052
21
64.9565312
0
LINE
8
DEFAULT_255_2_778
10
24.8587052
20
64.9565312
11
25.0973052
21
64.9565312
0
LINE
8
DEFAULT_255_2_778
10
25.0973052
20
64.9565312
11
25.0973052
21
65.3221312
0
LINE
8
DEFAULT_255_2_778
10
25.0973052
20
65.3221312
11
25.0973052
21
65.3224312
0
LINE
8
DEFAULT_255_2_778
10
22.1189052
20
57.0542312
11
22.2726052
21
57.0542312
0
LINE
8
DEFAULT_255_2_778
10
22.2726052
20
57.0542312
11
22.2726052
21
56.6885312
0
LINE
8
DEFAULT_255_2_778
10
22.2726052
20
56.6885312
11
22.6502052
21
56.6885312
0
LINE
8
DEFAULT_255_2_778
10
22.6502052
20
56.6885312
11
22.6502052
21
56.4980312
0
LINE
8
DEFAULT_255_2_778
10
22.6502052
20
56.4980312
11
21.7260052
21
56.4980312
0
LINE
8
DEFAULT_255_2_778
10
21.7260052
20
56.4980312
11
21.7260052
21
57.0997312
0
LINE
8
DEFAULT_255_2_778
10
21.7260052
20
57.0997312
11
21.8803052
21
57.0997312
0
LINE
8
DEFAULT_255_2_778
10
21.8803052
20
57.0997312
11
21.8803052
21
56.6883312
0
LINE
8
DEFAULT_255_2_778
10
21.8803052
20
56.6883312
11
22.1189052
21
56.6883312
0
LINE
8
DEFAULT_255_2_778
10
22.1189052
20
56.6883312
11
22.1189052
21
57.0539312
0
LINE
8
DEFAULT_255_2_778
10
22.1189052
20
57.0539312
11
22.1189052
21
57.0542312
0
LINE
8
DEFAULT_255_2_778
10
21.7260052
20
57.3677562
11
22.0446052
21
57.5410562
0
LINE
8
DEFAULT_255_2_778
10
22.0446052
20
57.5410562
11
21.7260052
21
57.7143562
0
LINE
8
DEFAULT_255_2_778
10
21.7260052
20
57.7143562
11
21.7260052
21
57.9334562
0
LINE
8
DEFAULT_255_2_778
10
21.7260052
20
57.9334562
11
22.1843052
21
57.6643562
0
LINE
8
DEFAULT_255_2_778
10
22.1843052
20
57.6643562
11
22.6502052
21
57.9405562
0
LINE
8
DEFAULT_255_2_778
10
22.6502052
20
57.9405562
11
22.6502052
21
57.7190562
0
LINE
8
DEFAULT_255_2_778
10
22.6502052
20
57.7190562
11
22.3263052
21
57.5412562
0
LINE
8
DEFAULT_255_2_778
10
22.3263052
20
57.5412562
11
22.6502052
21
57.3634562
0
LINE
8
DEFAULT_255_2_778
10
22.6502052
20
57.3634562
11
22.6502052
21
57.1420562
0
LINE
8
DEFAULT_255_2_778
10
22.6502052
20
57.1420562
11
22.1843052
21
57.4182562
0
LINE
8
DEFAULT_255_2_778
10
22.1843052
20
57.4182562
11
21.7260052
21
57.1491562
0
LINE
8
DEFAULT_255_2_778
10
21.7260052
20
57.1491562
11
21.7260052
21
57.3682562
0
LINE
8
DEFAULT_255_2_778
10
21.7260052
20
57.3682562
11
21.7260052
21
57.3677562
0
ARC
8
DEFAULT_255_2_778
10
23.2505907
20
60.7595944
40
5.0120553
50
166.311299
51
180.0392213
0
ARC
8
DEFAULT_255_2_778
10
23.2142736
20
60.7649008
40
4.9755153
50
145.3792953
51
166.2717018
0
ARC
8
DEFAULT_255_2_778
10
23.2480749
20
60.7461585
40
5.0139812
50
109.6248068
51
145.4224927
0
ARC
8
DEFAULT_255_2_778
10
23.2291768
20
60.7799906
40
4.9757713
50
94.2932174
51
109.55068
0
ARC
8
DEFAULT_255_2_778
10
23.2380614
20
60.6860432
40
5.0701204
50
89.9946303
51
94.3138603
0
ARC
8
DEFAULT_255_2_778
10
23.2419705
20
60.7441834
40
5.0119811
50
76.3111975
51
90.0392558
0
ARC
8
DEFAULT_255_2_778
10
23.2473024
20
60.7806046
40
4.975334
50
55.3787065
51
76.2715989
0
ARC
8
DEFAULT_255_2_778
10
23.2284864
20
60.7467232
40
5.0139077
50
19.6239169
51
55.4217372
0
ARC
8
DEFAULT_255_2_778
10
23.2620995
20
60.765529
40
4.9759352
50
4.2930085
51
19.5499388
0
ARC
8
DEFAULT_255_2_778
10
23.1680335
20
60.7566385
40
5.0704031
50
359.9946311
51
4.3136198
0
ARC
8
DEFAULT_255_2_778
10
23.2262655
20
60.7527278
40
5.0121722
50
346.3117494
51
0.0392737
0
ARC
8
DEFAULT_255_2_778
10
23.2628243
20
60.7473581
40
4.9753824
50
325.3796436
51
346.2722032
0
ARC
8
DEFAULT_255_2_778
10
23.2291177
20
60.766048
40
5.0137406
50
289.6241982
51
325.4227198
0
ARC
8
DEFAULT_255_2_778
10
23.247912
20
60.7324841
40
4.9758183
50
274.2929891
51
289.5501549
0
ARC
8
DEFAULT_255_2_778
10
23.2390119
20
60.8266448
40
5.0703814
50
269.9946285
51
274.3136286
0
ARC
8
DEFAULT_255_2_778
10
23.2351039
20
60.7685086
40
5.0122464
50
256.3118509
51
270.0392392
0
ARC
8
DEFAULT_255_2_778
10
23.2297597
20
60.732054
40
4.9755637
50
235.3802324
51
256.2723061
0
ARC
8
DEFAULT_255_2_778
10
23.2483759
20
60.7656804
40
5.0138141
50
199.6250881
51
235.4234753
0
ARC
8
DEFAULT_255_2_778
10
23.2145929
20
60.7467938
40
4.9756544
50
184.293198
51
199.5508961
0
ARC
8
DEFAULT_255_2_778
10
23.3086352
20
60.755688
40
5.0700987
50
179.9946277
51
184.313869
0
LINE
8
DEFAULT_255_2_778
10
18.2385366
20
60.7561634
11
18.2385366
21
60.7561634
0
LINE
8
DEFAULT_255_2_778
10
20.1657783
20
56.8121247
11
20.1657783
21
64.7009247
0
LINE
8
DEFAULT_255_2_778
10
21.1658783
20
56.2065247
11
21.1658783
21
65.3065247
0
LINE
8
DEFAULT_255_2_778
10
20.1657783
20
64.2337247
11
21.1658783
21
65.2338247
0
LINE
8
DEFAULT_255_2_778
10
20.1657783
20
63.3394247
11
21.1658783
21
64.3395247
0
LINE
8
DEFAULT_255_2_778
10
20.1657783
20
62.4451247
11
21.1658783
21
63.4452247
0
LINE
8
DEFAULT_255_2_778
10
20.1657783
20
61.5508247
11
21.1658783
21
62.5509247
0
LINE
8
DEFAULT_255_2_778
10
20.1657783
20
60.6565247
11
21.1658783
21
61.6566247
0
LINE
8
DEFAULT_255_2_778
10
20.1657783
20
59.7622247
11
21.1658783
21
60.7623247
0
LINE
8
DEFAULT_255_2_778
10
20.1657783
20
58.8679247
11
21.1658783
21
59.8680247
0
LINE
8
DEFAULT_255_2_778
10
20.1657783
20
57.9736247
11
21.1658783
21
58.9737247
0
LINE
8
DEFAULT_255_2_778
10
20.1657783
20
57.0793247
11
21.1658783
21
58.0794247
0
LINE
8
DEFAULT_255_2_778
10
21.1116783
20
56.2364247
11
21.1658783
21
56.2906247
0
LINE
8
DEFAULT_255_2_778
10
20.5380783
20
56.5570247
11
21.1658783
21
57.1849247
0
LINE
8
DEFAULT_255_2_778
10
24.1659783
20
55.8432247
11
24.1659783
21
65.6698247
0
LINE
8
DEFAULT_255_2_778
10
23.1658783
20
55.7572247
11
23.1658783
21
65.7558247
0
LINE
8
DEFAULT_255_2_778
10
23.1658783
20
64.5501247
11
24.1659783
21
65.5502247
0
LINE
8
DEFAULT_255_2_778
10
23.1658783
20
63.6558247
11
24.1659783
21
64.6559247
0
LINE
8
DEFAULT_255_2_778
10
23.1658783
20
62.7615247
11
24.1659783
21
63.7616247
0
LINE
8
DEFAULT_255_2_778
10
23.1658783
20
61.8672247
11
24.1659783
21
62.8673247
0
LINE
8
DEFAULT_255_2_778
10
23.1658783
20
60.9729247
11
24.1659783
21
61.9731247
0
LINE
8
DEFAULT_255_2_778
10
23.1658783
20
60.0786247
11
24.1659783
21
61.0788247
0
LINE
8
DEFAULT_255_2_778
10
23.1658783
20
59.1843247
11
24.1659783
21
60.1845247
0
LINE
8
DEFAULT_255_2_778
10
23.1658783
20
58.2901247
11
24.1659783
21
59.2902247
0
LINE
8
DEFAULT_255_2_778
10
23.1658783
20
57.3958247
11
24.1659783
21
58.3959247
0
LINE
8
DEFAULT_255_2_778
10
23.1658783
20
56.5015247
11
24.1659783
21
57.5016247
0
LINE
8
DEFAULT_255_2_778
10
23.3224783
20
55.7638247
11
24.1659783
21
56.6073247
0
LINE
8
DEFAULT_255_2_778
10
23.1658783
20
65.4460247
11
23.4664783
21
65.7465247
0
LINE
8
DEFAULT_255_2_778
10
26.1657783
20
56.7028247
11
26.1657783
21
64.8099247
0
LINE
8
DEFAULT_255_2_778
10
27.1658783
20
57.6617247
11
27.1658783
21
63.8511247
0
LINE
8
DEFAULT_255_2_778
10
26.1659783
20
56.8171247
11
27.1660783
21
57.8172247
0
LINE
8
DEFAULT_255_2_778
10
26.1659783
20
57.7117247
11
27.1660783
21
58.7118247
0
LINE
8
DEFAULT_255_2_778
10
26.1659783
20
58.6062247
11
27.1660783
21
59.6064247
0
LINE
8
DEFAULT_255_2_778
10
26.1659783
20
59.5008247
11
27.1660783
21
60.5009247
0
LINE
8
DEFAULT_255_2_778
10
26.1659783
20
60.3953247
11
27.1660783
21
61.3955247
0
LINE
8
DEFAULT_255_2_778
10
26.1659783
20
61.2899247
11
27.1660783
21
62.2900247
0
LINE
8
DEFAULT_255_2_778
10
26.1659783
20
62.1845247
11
27.1660783
21
63.1846247
0
LINE
8
DEFAULT_255_2_778
10
26.1659783
20
63.9736247
11
26.6226783
21
64.4302247
0
LINE
8
DEFAULT_255_2_778
10
26.1659783
20
63.0790247
11
27.0578783
21
63.9709247
0
LINE
8
DEFAULT_255_2_778
10
18.7994783
20
58.6716247
11
19.8540783
21
57.6897247
0
LINE
8
DEFAULT_255_2_778
10
19.0193783
20
58.0734247
11
19.8540783
21
58.3988247
0
LINE
8
DEFAULT_255_2_778
10
24.5999783
20
57.6172247
11
25.6727783
21
58.0355247
0
LINE
8
DEFAULT_255_2_778
10
24.6181783
20
58.3083247
11
25.6727783
21
57.3264247
0
LINE
8
DEFAULT_255_2_778
10
19.6344783
20
64.2220247
11
19.8540783
21
64.0175247
0
LINE
8
DEFAULT_255_2_778
10
18.7629783
20
63.0356247
11
19.8720783
21
62.7266247
0
LINE
8
DEFAULT_255_2_778
10
19.2719783
20
62.8938247
11
19.2719783
21
63.5267247
0
LINE
8
DEFAULT_255_2_778
10
27.5481783
20
59.5331247
11
27.5481783
21
60.2654247
0
LINE
8
DEFAULT_255_2_778
10
28.0392783
20
59.3963247
11
28.0392783
21
60.0292247
0
LINE
8
DEFAULT_255_2_778
10
27.5301783
20
59.5384247
11
28.0495783
21
59.3936247
0
LINE
8
DEFAULT_255_2_778
10
27.5484783
20
60.8113247
11
28.2286783
21
61.0764247
0
LINE
8
DEFAULT_255_2_778
10
27.5664783
20
61.5021247
11
28.2373783
21
60.8774247
0
LINE
8
DEFAULT_255_2_778
10
16.8383783
20
51.7564247
11
18.5382783
21
51.7564247
0
LINE
8
DEFAULT_255_2_778
10
18.5382783
20
51.7564247
11
18.5382783
21
46.3566247
0
LINE
8
DEFAULT_255_2_778
10
18.5382783
20
46.3566247
11
16.8383783
21
46.3566247
0
LINE
8
DEFAULT_255_2_778
10
16.8383783
20
46.3566247
11
16.8383783
21
51.7564247
0
LINE
8
DEFAULT_255_2_778
10
16.8383783
20
51.7564247
11
18.5382783
21
51.7564247
0
LINE
8
DEFAULT_255_2_778
10
18.5382783
20
51.7564247
11
18.5382783
21
46.3566247
0
LINE
8
DEFAULT_255_2_778
10
18.5382783
20
46.3566247
11
16.8383783
21
46.3566247
0
LINE
8
DEFAULT_255_2_778
10
16.8383783
20
46.3566247
11
16.8383783
21
51.7564247
0
ARC
8
DEFAULT_255_2_778
10
15.8382656
20
84.8561845
40
0.1998171
50
179.947541
51
270.052459
0
ARC
8
DEFAULT_255_2_778
10
15.8382656
20
85.9567504
40
0.1998171
50
89.947541
51
180.052459
0
ARC
8
DEFAULT_255_2_778
10
15.8382656
20
83.3562845
40
0.1998171
50
179.947541
51
270.052459
0
ARC
8
DEFAULT_255_2_778
10
15.8382656
20
83.3562845
40
0.1998171
50
179.947541
51
270.052459
0
ARC
8
DEFAULT_255_2_778
10
15.8384576
20
85.9565586
40
0.200009
50
90.0025728
51
179.9974618
0
ARC
8
DEFAULT_255_2_778
10
17.3385315
20
85.9564504
40
0.1998171
50
359.947541
51
90.052459
0
ARC
8
DEFAULT_255_2_778
10
17.3385315
20
83.3559845
40
0.1998171
50
269.947541
51
0.052459
0
ARC
8
DEFAULT_255_2_778
10
17.3385315
20
83.3559845
40
0.1998171
50
269.947541
51
0.052459
0
ARC
8
DEFAULT_255_2_778
10
17.3383398
20
85.9562586
40
0.2000088
50
0.0025382
51
89.9974761
0
ARC
8
DEFAULT_255_2_778
10
0.7384955
20
69.9561287
40
0.5003388
50
90.0053685
51
134.9601647
0
ARC
8
DEFAULT_255_2_778
10
0.7384106
20
69.9564348
40
0.5000622
50
134.9780698
51
180.0077135
0
ARC
8
DEFAULT_255_2_778
10
0.7384455
20
19.5564644
40
0.5000969
50
179.9996485
51
270.0003515
0
ARC
8
DEFAULT_255_2_778
10
3.9382723
20
72.1563813
40
1.6999138
50
225.0998625
51
269.9992007
0
ARC
8
DEFAULT_255_2_778
10
3.9382716
20
17.3564548
40
1.6999127
50
90.0007751
51
134.900146
0
ARC
8
DEFAULT_255_2_778
10
3.9383938
20
17.3563894
40
1.7000452
50
134.9015078
51
180.0007365
0
ARC
8
DEFAULT_255_2_778
10
2.7383267
20
69.9567778
40
0.4996897
50
89.9974895
51
135.0233845
0
ARC
8
DEFAULT_255_2_778
10
2.7384442
20
69.9563211
40
0.5000956
50
134.9958871
51
179.9946851
0
ARC
8
DEFAULT_255_2_778
10
2.7384243
20
19.5564433
40
0.5000757
50
179.9972237
51
269.991324
0
ARC
8
DEFAULT_255_2_778
10
2.7381869
20
65.0058608
40
0.4995933
50
224.9882391
51
270.0185403
0
ARC
8
DEFAULT_255_2_778
10
2.7384442
20
65.0063139
40
0.5000956
50
180.0053149
51
225.0041129
0
ARC
8
DEFAULT_255_2_778
10
2.7384442
20
66.0061211
40
0.5000956
50
134.9958871
51
179.9946851
0
ARC
8
DEFAULT_255_2_778
10
2.738187
20
66.0065739
40
0.4995935
50
89.981463
51
135.0117434
0
ARC
8
DEFAULT_255_2_778
10
2.738187
20
66.0065739
40
0.4995936
50
89.981463
51
135.0117434
0
ARC
8
DEFAULT_255_2_778
10
2.7384442
20
66.0061211
40
0.5000956
50
134.9958871
51
179.9946851
0
ARC
8
DEFAULT_255_2_778
10
2.7384442
20
65.0063139
40
0.5000956
50
180.0053149
51
225.0041129
0
ARC
8
DEFAULT_255_2_778
10
2.7381869
20
65.0058608
40
0.4995933
50
224.9882391
51
270.0185403
0
ARC
8
DEFAULT_255_2_778
10
2.7383606
20
68.6061803
40
0.5000128
50
225.0081707
51
269.9986249
0
ARC
8
DEFAULT_255_2_778
10
2.7384442
20
68.6062139
40
0.5000956
50
180.0053149
51
225.0041129
0
ARC
8
DEFAULT_255_2_778
10
2.7384442
20
68.6062139
40
0.5000956
50
180.0053149
51
225.0041129
0
ARC
8
DEFAULT_255_2_778
10
2.7383609
20
68.6061809
40
0.5000134
50
225.0081915
51
269.9985888
0
ARC
8
DEFAULT_255_2_778
10
6.088524
20
20.606343
40
0.5000754
50
180.0086483
51
270.0028154
0
ARC
8
DEFAULT_255_2_778
10
6.9886732
20
20.606343
40
0.5000755
50
269.9971846
51
359.9913517
0
ARC
8
DEFAULT_255_2_778
10
6.9886732
20
20.606343
40
0.5000754
50
269.9971846
51
359.9913517
0
ARC
8
DEFAULT_255_2_778
10
6.0883028
20
20.6063218
40
0.5000543
50
180.0062229
51
269.9937886
0
ARC
8
DEFAULT_255_2_778
10
6.9888267
20
68.9064931
40
0.4999219
50
359.9970639
51
45.0123541
0
ARC
8
DEFAULT_255_2_778
10
6.9886744
20
68.9066461
40
0.4999214
50
44.9876157
51
90.0029524
0
ARC
8
DEFAULT_255_2_778
10
6.088295
20
68.9064719
40
0.5000956
50
90.0053149
51
135.0041129
0
ARC
8
DEFAULT_255_2_778
10
6.088495
20
68.9064588
40
0.5002463
50
135.0192487
51
179.9990051
0
ARC
8
DEFAULT_255_2_778
10
6.088495
20
68.9064588
40
0.5002464
50
135.0192487
51
179.9990051
0
ARC
8
DEFAULT_255_2_778
10
6.088295
20
68.9064719
40
0.5000956
50
90.0053149
51
135.0041129
0
ARC
8
DEFAULT_255_2_778
10
6.9884465
20
68.9068201
40
0.4997474
50
44.9793514
51
90.0112208
0
ARC
8
DEFAULT_255_2_778
10
6.9885267
20
68.9064931
40
0.4999219
50
359.9970639
51
45.0123541
0
ARC
8
DEFAULT_255_2_778
10
2.738096
20
89.2564654
40
0.4997474
50
134.9793514
51
180.0112208
0
ARC
8
DEFAULT_255_2_778
10
2.7383267
20
89.2567778
40
0.4996896
50
89.9974895
51
135.0233845
0
ARC
8
DEFAULT_255_2_778
10
5.545775
20
72.153817
40
1.6926755
50
332.8879338
51
0.0863328
0
ARC
8
DEFAULT_255_2_778
10
5.5376806
20
72.1578394
40
1.7017136
50
278.7741742
51
332.8915878
0
ARC
8
DEFAULT_255_2_778
10
5.5390136
20
72.1699069
40
1.7134394
50
269.9811083
51
278.6685677
0
ARC
8
DEFAULT_255_2_778
10
3.9383355
20
72.1564216
40
1.6999869
50
180.0018221
51
225.0993126
0
ARC
8
DEFAULT_255_2_778
10
5.5385169
20
17.3569253
40
1.6994422
50
44.9883317
51
90.0023034
0
ARC
8
DEFAULT_255_2_778
10
5.5390069
20
17.3564358
40
1.6994416
50
359.9976961
51
45.0116816
0
ARC
8
DEFAULT_255_2_778
10
2.7384032
20
0.2564221
40
0.5000546
50
180.0062506
51
269.9937494
0
ARC
8
DEFAULT_255_2_778
10
2.7384028
20
20.9063132
40
0.5000542
50
90.0062114
51
179.9937771
0
ARC
8
DEFAULT_255_2_778
10
7.738196
20
89.2564654
40
0.4997474
50
134.9793514
51
180.0112208
0
ARC
8
DEFAULT_255_2_778
10
7.7384267
20
89.2567781
40
0.4996894
50
89.9974895
51
135.0234089
0
ARC
8
DEFAULT_255_2_778
10
16.338253
20
56.8566139
40
0.5000956
50
314.9958871
51
359.9946851
0
ARC
8
DEFAULT_255_2_778
10
16.3383421
20
56.8565669
40
0.4999994
50
269.9892894
51
314.9924763
0
ARC
8
DEFAULT_255_2_778
10
7.7385243
20
0.2566433
40
0.5000757
50
179.9972237
51
269.991324
0
ARC
8
DEFAULT_255_2_778
10
7.7385029
20
8.2566219
40
0.5000544
50
180.0062367
51
269.9937747
0
ARC
8
DEFAULT_255_2_778
10
48.7382731
20
26.5564921
40
0.5000755
50
359.9971846
51
89.9913517
0
ARC
8
DEFAULT_255_2_778
10
48.9387393
20
60.7563769
40
0.3001094
50
269.9826924
51
314.9729979
0
ARC
8
DEFAULT_255_2_778
10
48.9385384
20
60.7561772
40
0.3001103
50
315.0270678
51
0.0172365
0
ARC
8
DEFAULT_255_2_778
10
16.3383421
20
56.8565669
40
0.4999994
50
269.9892894
51
314.9924763
0
ARC
8
DEFAULT_255_2_778
10
16.338253
20
56.8566139
40
0.5000956
50
314.9958871
51
359.9946851
0
ARC
8
DEFAULT_255_2_778
10
45.8887817
20
59.756584
40
0.749767
50
359.9910999
51
53.1390135
0
ARC
8
DEFAULT_255_2_778
10
45.8883088
20
59.7564874
40
0.7502398
50
306.8790536
51
359.9984824
0
ARC
8
DEFAULT_255_2_778
10
45.8887344
20
59.7562746
40
0.7498143
50
306.8627994
51
0.0147374
0
ARC
8
DEFAULT_255_2_778
10
45.8883561
20
59.7563713
40
0.7501925
50
0.0073481
51
53.1227512
0
LINE
8
DEFAULT_255_2_778
10
15.8384486
20
86.1562675
11
15.8384486
21
83.1561675
0
LINE
8
DEFAULT_255_2_778
10
15.8384486
20
83.1561675
11
17.3383486
21
83.1561675
0
LINE
8
DEFAULT_255_2_778
10
17.3383486
20
83.1561675
11
17.3383486
21
86.1565675
0
LINE
8
DEFAULT_255_2_778
10
17.3383486
20
86.1565675
11
15.8384486
21
86.1565675
0
LINE
8
DEFAULT_255_2_778
10
15.6384486
20
85.9565675
11
15.6384486
21
83.3564675
0
LINE
8
DEFAULT_255_2_778
10
15.6384486
20
83.3564675
11
15.6384486
21
85.9565675
0
LINE
8
DEFAULT_255_2_778
10
15.8384486
20
86.1565675
11
17.3383486
21
86.1565675
0
LINE
8
DEFAULT_255_2_778
10
17.3383486
20
86.1565675
11
17.3383486
21
83.1564675
0
LINE
8
DEFAULT_255_2_778
10
17.3383486
20
83.1564675
11
15.8384486
21
83.1564675
0
LINE
8
DEFAULT_255_2_778
10
15.8384486
20
83.1564675
11
15.8384486
21
86.1562675
0
LINE
8
DEFAULT_255_2_778
10
17.5383486
20
85.9562675
11
17.5383486
21
83.3561675
0
LINE
8
DEFAULT_255_2_778
10
17.5383486
20
83.3561675
11
17.5383486
21
85.9562675
0
LINE
8
DEFAULT_255_2_778
10
17.3383486
20
86.1562675
11
17.3383486
21
86.1562675
0
LINE
8
DEFAULT_255_2_778
10
2.2515486
20
68.4926675
11
4.0226486
21
68.4926675
0
LINE
8
DEFAULT_255_2_778
10
2.2385486
20
70.4564675
11
0.7384486
21
70.4564675
0
LINE
8
DEFAULT_255_2_778
10
0.2383486
20
69.9563675
11
0.2383486
21
19.5564675
0
LINE
8
DEFAULT_255_2_778
10
0.7384486
20
19.0563675
11
2.2383486
21
19.0563675
0
LINE
8
DEFAULT_255_2_778
10
7.4384486
20
68.2064675
11
7.9385486
21
68.2064675
0
LINE
8
DEFAULT_255_2_778
10
7.9385486
20
68.2064675
11
7.9385486
21
63.9564675
0
LINE
8
DEFAULT_255_2_778
10
7.9385486
20
63.9564675
11
6.7386486
21
62.7565675
0
LINE
8
DEFAULT_255_2_778
10
6.7386486
20
62.7565675
11
6.7386486
21
26.7565675
0
LINE
8
DEFAULT_255_2_778
10
6.7386486
20
26.7565675
11
7.9385486
21
25.5566675
0
LINE
8
DEFAULT_255_2_778
10
7.9385486
20
25.5566675
11
7.9385486
21
21.3066675
0
LINE
8
DEFAULT_255_2_778
10
7.9385486
20
21.3066675
11
7.4884486
21
21.3066675
0
LINE
8
DEFAULT_255_2_778
10
5.6384486
20
68.2064675
11
4.7383486
21
68.2064675
0
LINE
8
DEFAULT_255_2_778
10
4.7383486
20
68.2064675
11
2.2375486
21
69.2067675
0
LINE
8
DEFAULT_255_2_778
10
4.7383486
20
21.3063675
11
2.2383486
21
20.3062675
0
LINE
8
DEFAULT_255_2_778
10
7.3384486
20
63.3563675
11
7.3384486
21
64.5062675
0
LINE
8
DEFAULT_255_2_778
10
7.3384486
20
64.5062675
11
5.7639486
21
64.5062675
0
LINE
8
DEFAULT_255_2_778
10
5.7639486
20
64.5062675
11
5.7639486
21
23.4060675
0
LINE
8
DEFAULT_255_2_778
10
2.2383486
20
68.7564675
11
3.3382486
21
68.7564675
0
LINE
8
DEFAULT_255_2_778
10
3.3382486
20
68.7564675
11
3.3382486
21
68.7665675
0
LINE
8
DEFAULT_255_2_778
10
7.3381486
20
23.4066675
11
7.3381486
21
26.1567675
0
LINE
8
DEFAULT_255_2_778
10
3.3633486
20
68.7564675
11
3.3384486
21
68.7564675
0
LINE
8
DEFAULT_255_2_778
10
2.2383486
20
20.7565675
11
3.3633486
21
20.7565675
0
LINE
8
DEFAULT_255_2_778
10
3.3384486
20
20.7562675
11
3.3384486
21
20.7462675
0
LINE
8
DEFAULT_255_2_778
10
5.7639486
20
64.5062675
11
2.7383486
21
64.5062675
0
LINE
8
DEFAULT_255_2_778
10
2.2383486
20
65.0062675
11
2.2383486
21
66.0061675
0
LINE
8
DEFAULT_255_2_778
10
2.7383486
20
66.5061675
11
7.9385486
21
66.5061675
0
LINE
8
DEFAULT_255_2_778
10
7.9385486
20
66.5061675
11
2.7383486
21
66.5061675
0
LINE
8
DEFAULT_255_2_778
10
2.2383486
20
66.0061675
11
2.2383486
21
65.0062675
0
LINE
8
DEFAULT_255_2_778
10
2.7383486
20
64.5062675
11
5.7639486
21
64.5062675
0
LINE
8
DEFAULT_255_2_778
10
7.9385486
20
68.1061675
11
2.7383486
21
68.1061675
0
LINE
8
DEFAULT_255_2_778
10
2.2383486
20
68.6061675
11
2.2383486
21
70.3561675
0
LINE
8
DEFAULT_255_2_778
10
2.2383486
20
70.3561675
11
2.2383486
21
68.6061675
0
LINE
8
DEFAULT_255_2_778
10
2.7383486
20
68.1061675
11
7.9385486
21
68.1061675
0
LINE
8
DEFAULT_255_2_778
10
2.4383486
20
21.3063675
11
5.5884486
21
21.3063675
0
LINE
8
DEFAULT_255_2_778
10
5.5884486
20
21.3063675
11
5.5884486
21
20.6062675
0
LINE
8
DEFAULT_255_2_778
10
5.5884486
20
20.6062675
11
7.4884486
21
20.6062675
0
LINE
8
DEFAULT_255_2_778
10
7.4884486
20
20.6062675
11
7.4884486
21
21.3063675
0
LINE
8
DEFAULT_255_2_778
10
7.4884486
20
21.3063675
11
7.4384486
21
21.3063675
0
LINE
8
DEFAULT_255_2_778
10
7.4384486
20
21.3063675
11
7.4884486
21
21.3063675
0
LINE
8
DEFAULT_255_2_778
10
7.4884486
20
21.3063675
11
7.4884486
21
20.6062675
0
LINE
8
DEFAULT_255_2_778
10
7.4884486
20
20.6062675
11
5.5884486
21
20.6062675
0
LINE
8
DEFAULT_255_2_778
10
5.5884486
20
20.6062675
11
5.5884486
21
21.3063675
0
LINE
8
DEFAULT_255_2_778
10
5.5884486
20
21.3063675
11
2.4383486
21
21.3063675
0
LINE
8
DEFAULT_255_2_778
10
7.4384486
20
21.2063675
11
7.4373486
21
21.1790675
0
LINE
8
DEFAULT_255_2_778
10
7.4373486
20
21.1790675
11
7.4347486
21
21.1447675
0
LINE
8
DEFAULT_255_2_778
10
7.4347486
20
21.1447675
11
7.4233486
21
21.0843675
0
LINE
8
DEFAULT_255_2_778
10
7.4233486
20
21.0843675
11
7.4032486
21
21.0224675
0
LINE
8
DEFAULT_255_2_778
10
7.4032486
20
21.0224675
11
7.3606486
21
20.9385675
0
LINE
8
DEFAULT_255_2_778
10
7.3606486
20
20.9385675
11
7.2720486
21
20.8340675
0
LINE
8
DEFAULT_255_2_778
10
7.2720486
20
20.8340675
11
7.1347486
21
20.7467675
0
LINE
8
DEFAULT_255_2_778
10
7.1347486
20
20.7467675
11
6.9383486
21
20.7065675
0
LINE
8
DEFAULT_255_2_778
10
6.9383486
20
20.7065675
11
7.1347486
21
20.7467675
0
LINE
8
DEFAULT_255_2_778
10
7.1347486
20
20.7467675
11
7.2720486
21
20.8340675
0
LINE
8
DEFAULT_255_2_778
10
7.2720486
20
20.8340675
11
7.3606486
21
20.9388675
0
LINE
8
DEFAULT_255_2_778
10
7.3606486
20
20.9388675
11
7.4032486
21
21.0227675
0
LINE
8
DEFAULT_255_2_778
10
7.4032486
20
21.0227675
11
7.4231486
21
21.0846675
0
LINE
8
DEFAULT_255_2_778
10
7.4231486
20
21.0846675
11
7.4344486
21
21.1449675
0
LINE
8
DEFAULT_255_2_778
10
7.4344486
20
21.1449675
11
7.4371486
21
21.1793675
0
LINE
8
DEFAULT_255_2_778
10
7.4371486
20
21.1793675
11
7.4384486
21
21.2063675
0
LINE
8
DEFAULT_255_2_778
10
6.0885486
20
20.1062675
11
6.9886486
21
20.1062675
0
LINE
8
DEFAULT_255_2_778
10
6.9886486
20
20.1062675
11
6.0882486
21
20.1062675
0
LINE
8
DEFAULT_255_2_778
10
5.5882486
20
20.6062675
11
5.5884486
21
20.6062675
0
LINE
8
DEFAULT_255_2_778
10
7.4384486
20
21.4063675
11
7.4384486
21
21.2063675
0
LINE
8
DEFAULT_255_2_778
10
7.4384486
20
21.2063675
11
5.6384486
21
21.2063675
0
LINE
8
DEFAULT_255_2_778
10
5.6384486
20
21.2063675
11
5.6384486
21
21.4063675
0
LINE
8
DEFAULT_255_2_778
10
5.6384486
20
21.4063675
11
5.6384486
21
21.2063675
0
LINE
8
DEFAULT_255_2_778
10
5.6384486
20
21.2063675
11
7.4384486
21
21.2063675
0
LINE
8
DEFAULT_255_2_778
10
7.4384486
20
21.2063675
11
7.4384486
21
21.4063675
0
LINE
8
DEFAULT_255_2_778
10
5.6384486
20
21.2063675
11
5.6408486
21
21.1584675
0
LINE
8
DEFAULT_255_2_778
10
5.6408486
20
21.1584675
11
5.6459486
21
21.1216675
0
LINE
8
DEFAULT_255_2_778
10
5.6459486
20
21.1216675
11
5.6570486
21
21.0719675
0
LINE
8
DEFAULT_255_2_778
10
5.6570486
20
21.0719675
11
5.6842486
21
20.9978675
0
LINE
8
DEFAULT_255_2_778
10
5.6842486
20
20.9978675
11
5.7398486
21
20.9047675
0
LINE
8
DEFAULT_255_2_778
10
5.7398486
20
20.9047675
11
5.8480486
21
20.7994675
0
LINE
8
DEFAULT_255_2_778
10
5.8480486
20
20.7994675
11
6.0290486
21
20.7184675
0
LINE
8
DEFAULT_255_2_778
10
6.0290486
20
20.7184675
11
6.1388486
21
20.7062675
0
LINE
8
DEFAULT_255_2_778
10
5.6387486
20
21.3063675
11
5.5887486
21
21.3063675
0
LINE
8
DEFAULT_255_2_778
10
7.4887486
20
68.2064675
11
7.4887486
21
68.9064675
0
LINE
8
DEFAULT_255_2_778
10
7.4887486
20
68.9064675
11
5.5882486
21
68.9064675
0
LINE
8
DEFAULT_255_2_778
10
5.5882486
20
68.9064675
11
5.5882486
21
68.2064675
0
LINE
8
DEFAULT_255_2_778
10
5.5882486
20
68.2064675
11
5.5882486
21
68.9064675
0
LINE
8
DEFAULT_255_2_778
10
5.5882486
20
68.9064675
11
7.4881486
21
68.9064675
0
LINE
8
DEFAULT_255_2_778
10
7.4881486
20
68.9064675
11
7.4887486
21
68.2064675
0
LINE
8
DEFAULT_255_2_778
10
6.9886486
20
69.4065675
11
6.0882486
21
69.4065675
0
LINE
8
DEFAULT_255_2_778
10
6.0882486
20
69.4065675
11
6.9883486
21
69.4065675
0
LINE
8
DEFAULT_255_2_778
10
7.4884486
20
68.9064675
11
7.4887486
21
68.9064675
0
LINE
8
DEFAULT_255_2_778
10
5.6387486
20
68.1063675
11
5.6387486
21
68.3064675
0
LINE
8
DEFAULT_255_2_778
10
5.6387486
20
68.3064675
11
7.4387486
21
68.3064675
0
LINE
8
DEFAULT_255_2_778
10
7.4387486
20
68.3064675
11
7.4387486
21
68.1063675
0
LINE
8
DEFAULT_255_2_778
10
7.4387486
20
68.1063675
11
7.4387486
21
68.3064675
0
LINE
8
DEFAULT_255_2_778
10
7.4387486
20
68.3064675
11
5.6387486
21
68.3064675
0
LINE
8
DEFAULT_255_2_778
10
5.6387486
20
68.3064675
11
5.6387486
21
68.1063675
0
LINE
8
DEFAULT_255_2_778
10
7.4387486
20
68.3064675
11
7.4363486
21
68.3543675
0
LINE
8
DEFAULT_255_2_778
10
7.4363486
20
68.3543675
11
7.4313486
21
68.3910675
0
LINE
8
DEFAULT_255_2_778
10
7.4313486
20
68.3910675
11
7.4201486
21
68.4408675
0
LINE
8
DEFAULT_255_2_778
10
7.4201486
20
68.4408675
11
7.3929486
21
68.5149675
0
LINE
8
DEFAULT_255_2_778
10
7.3929486
20
68.5149675
11
7.3373486
21
68.6080675
0
LINE
8
DEFAULT_255_2_778
10
7.3373486
20
68.6080675
11
7.2291486
21
68.7133675
0
LINE
8
DEFAULT_255_2_778
10
7.2291486
20
68.7133675
11
7.0481486
21
68.7943675
0
LINE
8
DEFAULT_255_2_778
10
7.0481486
20
68.7943675
11
6.9383486
21
68.8064675
0
LINE
8
DEFAULT_255_2_778
10
6.9383486
20
68.8064675
11
6.0287486
21
68.7943675
0
LINE
8
DEFAULT_255_2_778
10
6.0287486
20
68.7943675
11
5.8591486
21
68.7212675
0
LINE
8
DEFAULT_255_2_778
10
5.8591486
20
68.7212675
11
5.7480486
21
68.6191675
0
LINE
8
DEFAULT_255_2_778
10
5.7480486
20
68.6191675
11
5.6895486
21
68.5273675
0
LINE
8
DEFAULT_255_2_778
10
5.6895486
20
68.5273675
11
5.6601486
21
68.4535675
0
LINE
8
DEFAULT_255_2_778
10
5.6601486
20
68.4535675
11
5.6477486
21
68.4037675
0
LINE
8
DEFAULT_255_2_778
10
5.6477486
20
68.4037675
11
5.6419486
21
68.3683675
0
LINE
8
DEFAULT_255_2_778
10
5.6419486
20
68.3683675
11
5.6392486
21
68.3339675
0
LINE
8
DEFAULT_255_2_778
10
5.6392486
20
68.3339675
11
5.6382486
21
68.3066675
0
LINE
8
DEFAULT_255_2_778
10
2.2383486
20
70.3566675
11
2.2383486
21
89.2563675
0
LINE
8
DEFAULT_255_2_778
10
2.7383486
20
89.7564675
11
7.2384486
21
89.7564675
0
LINE
8
DEFAULT_255_2_778
10
7.2384486
20
89.7564675
11
7.2384486
21
72.1563675
0
LINE
8
DEFAULT_255_2_778
10
5.5384486
20
70.4564675
11
2.8466486
21
70.4564675
0
LINE
8
DEFAULT_255_2_778
10
2.8466486
20
70.4564675
11
2.7383486
21
70.4564675
0
LINE
8
DEFAULT_255_2_778
10
2.7383486
20
70.4564675
11
2.7383486
21
70.9522675
0
LINE
8
DEFAULT_255_2_778
10
7.2384486
20
1.7563675
11
7.7384486
21
1.7563675
0
LINE
8
DEFAULT_255_2_778
10
7.7384486
20
1.7563675
11
7.7384486
21
0.2563675
0
LINE
8
DEFAULT_255_2_778
10
2.7383486
20
18.5605675
11
2.7383486
21
19.0563675
0
LINE
8
DEFAULT_255_2_778
10
2.7383486
20
19.0563675
11
5.5384486
21
19.0563675
0
LINE
8
DEFAULT_255_2_778
10
7.2384486
20
17.3563675
11
7.2384486
21
0.7564675
0
LINE
8
DEFAULT_255_2_778
10
7.2384486
20
0.7564675
11
7.2384486
21
-0.2436325
0
LINE
8
DEFAULT_255_2_778
10
7.2384486
20
-0.2436325
11
2.7383486
21
-0.2436325
0
LINE
8
DEFAULT_255_2_778
10
2.2383486
20
0.2563675
11
2.2383486
21
20.9063675
0
LINE
8
DEFAULT_255_2_778
10
2.7383486
20
21.4063675
11
6.5383486
21
21.4063675
0
LINE
8
DEFAULT_255_2_778
10
6.5383486
20
21.4063675
11
6.5383486
21
23.4063675
0
LINE
8
DEFAULT_255_2_778
10
6.5383486
20
23.4063675
11
5.0638486
21
23.4063675
0
LINE
8
DEFAULT_255_2_778
10
5.0638486
20
23.4063675
11
5.0638486
21
64.5064675
0
LINE
8
DEFAULT_255_2_778
10
7.7384486
20
89.7564675
11
26.3384486
21
89.7564675
0
LINE
8
DEFAULT_255_2_778
10
26.3384486
20
89.7564675
11
26.3384486
21
67.9563675
0
LINE
8
DEFAULT_255_2_778
10
26.3384486
20
67.9563675
11
25.1385486
21
66.7564675
0
LINE
8
DEFAULT_255_2_778
10
25.1385486
20
66.7564675
11
16.8383486
21
66.7564675
0
LINE
8
DEFAULT_255_2_778
10
16.8383486
20
66.7564675
11
16.8383486
21
56.8565675
0
LINE
8
DEFAULT_255_2_778
10
16.3382486
20
56.3565675
11
13.8381486
21
56.3565675
0
LINE
8
DEFAULT_255_2_778
10
13.8381486
20
56.3565675
11
13.8381486
21
24.7565675
0
LINE
8
DEFAULT_255_2_778
10
13.8381486
20
24.7565675
11
15.8381486
21
22.7565675
0
LINE
8
DEFAULT_255_2_778
10
15.8381486
20
22.7565675
11
25.1382486
21
22.7565675
0
LINE
8
DEFAULT_255_2_778
10
25.1382486
20
22.7565675
11
26.3381486
21
21.5566675
0
LINE
8
DEFAULT_255_2_778
10
26.3381486
20
21.5566675
11
26.3381486
21
-0.2434325
0
LINE
8
DEFAULT_255_2_778
10
26.3381486
20
-0.2434325
11
7.7384486
21
-0.2434325
0
LINE
8
DEFAULT_255_2_778
10
7.7384486
20
-0.2434325
11
7.7384486
21
0.2566675
0
LINE
8
DEFAULT_255_2_778
10
7.7384486
20
0.2566675
11
7.2384486
21
0.2566675
0
LINE
8
DEFAULT_255_2_778
10
26.3384486
20
7.7565675
11
7.7384486
21
7.7565675
0
LINE
8
DEFAULT_255_2_778
10
26.3384486
20
88.7563675
11
26.6384486
21
88.7563675
0
LINE
8
DEFAULT_255_2_778
10
26.6384486
20
88.7563675
11
26.6384486
21
67.9563675
0
LINE
8
DEFAULT_255_2_778
10
26.6384486
20
67.9563675
11
26.3384486
21
67.9563675
0
LINE
8
DEFAULT_255_2_778
10
41.2384486
20
-0.2436325
11
41.2384486
21
8.2563675
0
LINE
8
DEFAULT_255_2_778
10
41.2384486
20
8.2563675
11
26.3384486
21
8.2563675
0
LINE
8
DEFAULT_255_2_778
10
26.6384486
20
89.4564675
11
26.3384486
21
89.4564675
0
LINE
8
DEFAULT_255_2_778
10
26.3384486
20
0.2563675
11
26.6384486
21
0.2563675
0
LINE
8
DEFAULT_255_2_778
10
26.6384486
20
0.2563675
11
26.6384486
21
-0.2436325
0
LINE
8
DEFAULT_255_2_778
10
26.6384486
20
-0.2436325
11
49.2383486
21
-0.2436325
0
LINE
8
DEFAULT_255_2_778
10
49.2383486
20
-0.2436325
11
49.2383486
21
26.5564675
0
LINE
8
DEFAULT_255_2_778
10
48.7383486
20
27.0565675
11
46.2382486
21
27.0565675
0
LINE
8
DEFAULT_255_2_778
10
46.2382486
20
27.0565675
11
46.2382486
21
62.4564675
0
LINE
8
DEFAULT_255_2_778
10
46.2382486
20
62.4564675
11
49.2383486
21
62.4564675
0
LINE
8
DEFAULT_255_2_778
10
49.2383486
20
62.4564675
11
49.2383486
21
62.1564675
0
LINE
8
DEFAULT_255_2_778
10
47.4884486
20
62.1564675
11
47.6384486
21
61.2563675
0
LINE
8
DEFAULT_255_2_778
10
47.6384486
20
61.2563675
11
48.2385486
21
60.4562675
0
LINE
8
DEFAULT_255_2_778
10
48.2385486
20
60.4562675
11
48.9386486
21
60.4562675
0
LINE
8
DEFAULT_255_2_778
10
49.2386486
20
60.7562675
11
49.2386486
21
61.9561675
0
LINE
8
DEFAULT_255_2_778
10
49.2386486
20
61.9561675
11
49.2386486
21
62.1561675
0
LINE
8
DEFAULT_255_2_778
10
49.2386486
20
62.1561675
11
46.2385486
21
62.1561675
0
LINE
8
DEFAULT_255_2_778
10
49.2386486
20
62.4562675
11
49.2386486
21
89.7564675
0
LINE
8
DEFAULT_255_2_778
10
49.2386486
20
89.7564675
11
26.6384486
21
89.7564675
0
LINE
8
DEFAULT_255_2_778
10
26.6384486
20
89.7564675
11
26.6384486
21
88.7563675
0
LINE
8
DEFAULT_255_2_778
10
26.6384486
20
0.2563675
11
26.6384486
21
4.7564675
0
LINE
8
DEFAULT_255_2_778
10
26.6384486
20
4.7564675
11
26.3384486
21
4.7564675
0
LINE
8
DEFAULT_255_2_778
10
26.3384486
20
4.7564675
11
26.6384486
21
4.7564675
0
LINE
8
DEFAULT_255_2_778
10
26.6384486
20
4.7564675
11
26.6384486
21
0.2563675
0
LINE
8
DEFAULT_255_2_778
10
26.6384486
20
4.7564675
11
26.6384486
21
21.5563675
0
LINE
8
DEFAULT_255_2_778
10
26.6384486
20
21.5563675
11
26.3384486
21
21.5563675
0
LINE
8
DEFAULT_255_2_778
10
26.3384486
20
21.5563675
11
26.6384486
21
21.5563675
0
LINE
8
DEFAULT_255_2_778
10
26.6384486
20
21.5563675
11
26.6384486
21
4.7564675
0
LINE
8
DEFAULT_255_2_778
10
46.3385486
20
60.3564675
11
46.3385486
21
60.3564675
0
LINE
8
DEFAULT_255_2_778
10
46.2385486
20
59.1565675
11
46.3385486
21
59.1565675
0
LINE
8
DEFAULT_255_2_778
10
46.3385486
20
59.1565675
11
46.3385486
21
60.3564675
0
LINE
8
DEFAULT_255_2_778
10
46.3385486
20
60.3564675
11
46.2385486
21
60.3564675
0
LINE
8
DEFAULT_255_2_778
10
46.2385486
20
60.3564675
11
46.3385486
21
60.3564675
0
LINE
8
DEFAULT_255_2_778
10
46.3385486
20
60.3564675
11
46.3385486
21
59.1565675
0
LINE
8
DEFAULT_255_2_778
10
46.3385486
20
59.1565675
11
46.2385486
21
59.1565675
0
ARC
8
DEFAULT_255_2_778
10
15.8383585
20
3.5564133
40
0.1999449
50
179.9842058
51
270.0157942
0
ARC
8
DEFAULT_255_2_778
10
15.838402
20
4.656224
40
0.2001444
50
89.9967008
51
149.9761271
0
ARC
8
DEFAULT_255_2_778
10
15.8396423
20
4.6562048
40
0.2012288
50
150.1480973
51
179.9534101
0
ARC
8
DEFAULT_255_2_778
10
15.8382306
20
2.0560854
40
0.1998171
50
179.947541
51
270.052459
0
ARC
8
DEFAULT_255_2_778
10
15.8382306
20
2.0560854
40
0.1998171
50
179.947541
51
270.052459
0
ARC
8
DEFAULT_255_2_778
10
15.8396423
20
4.6562048
40
0.2012288
50
150.1480973
51
179.9534101
0
ARC
8
DEFAULT_255_2_778
10
15.8384016
20
4.6562247
40
0.2001437
50
89.9965796
51
149.9762392
0
ARC
8
DEFAULT_255_2_778
10
17.338395
20
4.6563452
40
0.2000232
50
30.0038233
51
90.0233207
0
ARC
8
DEFAULT_255_2_778
10
17.338124
20
4.6562818
40
0.2002897
50
0.0247795
51
29.9807643
0
ARC
8
DEFAULT_255_2_778
10
17.3385112
20
2.0561707
40
0.1999024
50
269.9433584
51
0.0280008
0
ARC
8
DEFAULT_255_2_778
10
17.3385112
20
2.0561707
40
0.1999024
50
269.9433584
51
0.0280008
0
ARC
8
DEFAULT_255_2_778
10
17.338124
20
4.6562818
40
0.2002896
50
0.0247795
51
29.9807643
0
ARC
8
DEFAULT_255_2_778
10
17.3383953
20
4.6563457
40
0.2000228
50
30.003736
51
90.0233989
0
LINE
8
DEFAULT_255_2_778
10
15.8384136
20
4.8563684
11
17.3383136
21
4.8563684
0
LINE
8
DEFAULT_255_2_778
10
17.3383136
20
4.8563684
11
17.3383136
21
1.8562684
0
LINE
8
DEFAULT_255_2_778
10
17.3383136
20
1.8562684
11
15.8384136
21
1.8562684
0
LINE
8
DEFAULT_255_2_778
10
15.8384136
20
1.8562684
11
15.8384136
21
4.8563684
0
LINE
8
DEFAULT_255_2_778
10
15.6384136
20
4.6563684
11
15.6384136
21
2.0562684
0
LINE
8
DEFAULT_255_2_778
10
15.6384136
20
2.0562684
11
15.6384136
21
4.6563684
0
LINE
8
DEFAULT_255_2_778
10
15.8384136
20
4.8563684
11
15.8384136
21
1.8562684
0
LINE
8
DEFAULT_255_2_778
10
15.8384136
20
1.8562684
11
17.3383136
21
1.8562684
0
LINE
8
DEFAULT_255_2_778
10
17.3383136
20
1.8562684
11
17.3383136
21
4.8563684
0
LINE
8
DEFAULT_255_2_778
10
17.3383136
20
4.8563684
11
15.8384136
21
4.8563684
0
LINE
8
DEFAULT_255_2_778
10
17.5384136
20
4.6563684
11
17.5384136
21
2.0562684
0
LINE
8
DEFAULT_255_2_778
10
17.5384136
20
2.0562684
11
17.5384136
21
4.6563684
0
LINE
8
DEFAULT_255_2_778
10
17.3383136
20
4.8563684
11
17.3383136
21
4.8563684
0
ENDSEC
0
EOF