0
SECTION
2
HEADER
9
$MEASUREMENT
70
1
0
ENDSEC
0
SECTION
2
TABLES
0
TABLE
2
LTYPE
0
LTYPE
72
65
70
64
2
CONTINUOUS
3
______
73
0
40
0
0
ENDTAB
0
TABLE
2
LAYER
0
LAYER
2
DEFAULT_255_2_778
70
0
62
255
6
CONTINUOUS
0
ENDTAB
0
ENDSEC
0
SECTION
2
ENTITIES
0
ARC
8
DEFAULT_255_2_778
10
96.1428705
20
3.7598674
40
2.2543868
50
158.2386051
51
180.0898428
0
ARC
8
DEFAULT_255_2_778
10
96.1335485
20
3.7608494
40
2.2453665
50
100.4545112
51
158.173688
0
ARC
8
DEFAULT_255_2_778
10
96.1372979
20
3.7268205
40
2.2795122
50
89.9701221
51
100.3919857
0
ARC
8
DEFAULT_255_2_778
10
96.1420352
20
3.7518037
40
2.2545315
50
68.2393107
51
90.0901832
0
ARC
8
DEFAULT_255_2_778
10
96.143092
20
3.761359
40
2.2452669
50
10.452684
51
68.1739611
0
ARC
8
DEFAULT_255_2_778
10
96.1087584
20
3.75752
40
2.2797285
50
359.9701533
51
10.3910176
0
ARC
8
DEFAULT_255_2_778
10
96.1337137
20
3.7527838
40
2.2547756
50
338.2413947
51
0.0901731
0
ARC
8
DEFAULT_255_2_778
10
96.1435185
20
3.7515859
40
2.2452269
50
280.453426
51
338.1770349
0
ARC
8
DEFAULT_255_2_778
10
96.1396785
20
3.7860013
40
2.279769
50
269.9700426
51
280.3913994
0
ARC
8
DEFAULT_255_2_778
10
96.1349501
20
3.7605905
40
2.2543609
50
248.2383831
51
270.0898806
0
ARC
8
DEFAULT_255_2_778
10
96.1340064
20
3.7513098
40
2.2453933
50
190.4700843
51
248.172949
0
ARC
8
DEFAULT_255_2_778
10
96.1682671
20
3.7551391
40
2.2797808
50
179.9700099
51
190.4082491
0
LINE
8
DEFAULT_255_2_778
10
18.6382866
20
69.2565324
11
17.6381866
21
67.5245324
0
LINE
8
DEFAULT_255_2_778
10
17.6381866
20
67.5245324
11
16.6380866
21
69.2565324
0
LINE
8
DEFAULT_255_2_778
10
16.6380866
20
69.2565324
11
18.6380866
21
69.2565324
0
LINE
8
DEFAULT_255_2_778
10
83.7384866
20
51.5064324
11
85.4704866
21
50.5063324
0
LINE
8
DEFAULT_255_2_778
10
85.4704866
20
50.5063324
11
83.7384866
21
49.5061324
0
LINE
8
DEFAULT_255_2_778
10
83.7384866
20
49.5061324
11
83.7384866
21
51.5061324
0
LINE
8
DEFAULT_255_2_778
10
93.8884866
20
3.7563324
11
93.8884866
21
3.7563324
0
ARC
8
DEFAULT_255_2_778
10
11.5564629
20
28.6430452
40
0.3005341
50
356.9008044
51
52.5382007
0
ARC
8
DEFAULT_255_2_778
10
11.3051988
20
28.2842904
40
0.7383644
50
53.9943358
51
65.0954789
0
ARC
8
DEFAULT_255_2_778
10
10.7957919
20
27.2265329
40
1.9123489
50
64.5978794
51
70.1416864
0
ARC
8
DEFAULT_255_2_778
10
10.2518857
20
25.7672969
40
3.4696108
50
69.8796578
51
72.112773
0
ARC
8
DEFAULT_255_2_778
10
12.6251042
20
33.1474624
40
4.2827478
50
248.5619128
51
252.223452
0
ARC
8
DEFAULT_255_2_778
10
11.8841492
20
31.2718874
40
2.266126
50
243.114683
51
248.6675001
0
ARC
8
DEFAULT_255_2_778
10
11.5423682
20
30.5781647
40
1.4928563
50
241.7276731
51
242.7743835
0
ARC
8
DEFAULT_255_2_778
10
11.3902327
20
30.3173531
40
1.1911428
50
227.8110029
51
242.2303344
0
ARC
8
DEFAULT_255_2_778
10
11.05272
20
29.9629409
40
0.7019845
50
179.546525
51
228.7952986
0
ARC
8
DEFAULT_255_2_778
10
11.0375518
20
29.9776533
40
0.6868554
50
144.1730277
51
180.7638325
0
ARC
8
DEFAULT_255_2_778
10
11.1330534
20
29.8979725
40
0.810974
50
115.7661659
51
143.5581104
0
ARC
8
DEFAULT_255_2_778
10
11.2833806
20
29.6313999
40
1.11656
50
112.6297032
51
116.7669571
0
ARC
8
DEFAULT_255_2_778
10
11.3657609
20
29.4069405
40
1.3554755
50
92.5091842
51
112.1931276
0
ARC
8
DEFAULT_255_2_778
10
11.3988663
20
29.0397744
40
1.7238227
50
89.9770277
51
93.0742111
0
ARC
8
DEFAULT_255_2_778
10
11.4129917
20
29.4002648
40
1.3633982
50
73.3670416
51
90.5645703
0
ARC
8
DEFAULT_255_2_778
10
11.477283
20
29.6471816
40
1.1084472
50
65.1866755
51
72.8978918
0
ARC
8
DEFAULT_255_2_778
10
11.5929868
20
29.862086
40
0.8649533
50
33.6917401
51
66.1693852
0
ARC
8
DEFAULT_255_2_778
10
11.6295061
20
29.8973684
40
0.8150469
50
359.1232431
51
33.0521572
0
ARC
8
DEFAULT_255_2_778
10
11.4412966
20
29.8991266
40
0.4173035
50
358.0458698
51
31.9184612
0
ARC
8
DEFAULT_255_2_778
10
11.507613
20
29.929285
40
0.3451986
50
33.4894523
51
48.7192514
0
ARC
8
DEFAULT_255_2_778
10
11.4506168
20
29.8492282
40
0.4430758
50
50.0106303
51
83.4915405
0
ARC
8
DEFAULT_255_2_778
10
11.3927305
20
29.5298584
40
0.7672449
50
81.8997589
51
90.2369508
0
ARC
8
DEFAULT_255_2_778
10
11.377092
20
29.5958197
40
0.7013879
50
88.981654
51
106.4785927
0
ARC
8
DEFAULT_255_2_778
10
11.2943512
20
29.8868508
40
0.3988537
50
106.939815
51
126.7589026
0
ARC
8
DEFAULT_255_2_778
10
11.2228838
20
29.9738827
40
0.2864043
50
125.724032
51
181.3376505
0
ARC
8
DEFAULT_255_2_778
10
11.2043005
20
29.971742
40
0.2677816
50
180.9725419
51
237.7467873
0
ARC
8
DEFAULT_255_2_778
10
11.3380267
20
30.1254176
40
0.470138
50
233.9561641
51
236.1657381
0
ARC
8
DEFAULT_255_2_778
10
11.6461237
20
30.6101891
40
1.0444539
50
236.9335293
51
247.2674113
0
ARC
8
DEFAULT_255_2_778
10
12.0986754
20
31.6596445
40
2.1872979
50
246.9568707
51
252.831069
0
ARC
8
DEFAULT_255_2_778
10
12.3923786
20
32.5561717
40
3.1306135
50
252.5387981
51
253.1985801
0
ARC
8
DEFAULT_255_2_778
10
10.6601444
20
26.7638231
40
2.9152292
50
67.1381011
51
73.5134619
0
ARC
8
DEFAULT_255_2_778
10
11.1185344
20
27.8405092
40
1.7450383
50
57.8417189
51
67.2719287
0
ARC
8
DEFAULT_255_2_778
10
11.4865655
20
28.4262449
40
1.0532775
50
46.1794172
51
57.8310844
0
ARC
8
DEFAULT_255_2_778
10
11.701696
20
28.6498519
40
0.7429858
50
358.5921051
51
46.2097274
0
ARC
8
DEFAULT_255_2_778
10
11.7603869
20
28.6045955
40
0.6846033
50
306.2352719
51
2.260381
0
ARC
8
DEFAULT_255_2_778
10
11.577026
20
28.8532804
40
0.9935772
50
283.0681156
51
306.2871734
0
ARC
8
DEFAULT_255_2_778
10
11.4382724
20
29.4102094
40
1.5674833
50
271.0126348
51
283.4056205
0
ARC
8
DEFAULT_255_2_778
10
11.4133539
20
29.8960441
40
2.0537475
50
269.9917301
51
271.4681751
0
ARC
8
DEFAULT_255_2_778
10
11.3985829
20
29.3309652
40
1.4887387
50
250.6535593
51
270.5570817
0
ARC
8
DEFAULT_255_2_778
10
11.3496892
20
29.1612467
40
1.312445
50
245.9755174
51
250.2130046
0
ARC
8
DEFAULT_255_2_778
10
11.2193534
20
28.9033556
40
1.0239277
50
225.9980932
51
246.7617676
0
ARC
8
DEFAULT_255_2_778
10
11.0898982
20
28.7564038
40
0.828341
50
214.1339865
51
225.377947
0
ARC
8
DEFAULT_255_2_778
10
11.1055634
20
28.7595026
40
0.8430692
50
178.8721645
51
213.7109019
0
ARC
8
DEFAULT_255_2_778
10
11.3894841
20
28.7629596
40
0.5390867
50
178.6035924
51
202.7435899
0
ARC
8
DEFAULT_255_2_778
10
11.2469255
20
28.7182934
40
0.3905925
50
204.7861041
51
255.3173207
0
ARC
8
DEFAULT_255_2_778
10
11.3861013
20
29.1451845
40
0.8392356
50
253.5126951
51
268.949147
0
ARC
8
DEFAULT_255_2_778
10
11.4126592
20
29.5745491
40
1.2691524
50
268.105858
51
270.0179833
0
ARC
8
DEFAULT_255_2_778
10
11.4256883
20
29.0099656
40
0.7046819
50
268.9729682
51
286.3476563
0
ARC
8
DEFAULT_255_2_778
10
11.5082497
20
28.7155059
40
0.3989055
50
286.8728631
51
305.3875642
0
ARC
8
DEFAULT_255_2_778
10
11.5805668
20
28.6163807
40
0.2762185
50
305.0654227
51
2.3271901
0
ARC
8
DEFAULT_255_2_778
10
16.1491647
20
28.8990733
40
1.17633
50
337.678458
51
356.545711
0
ARC
8
DEFAULT_255_2_778
10
16.3798597
20
28.8123599
40
0.930017
50
310.5405269
51
337.2223627
0
ARC
8
DEFAULT_255_2_778
10
16.2987726
20
28.9128646
40
1.0591071
50
280.9295598
51
310.3401027
0
ARC
8
DEFAULT_255_2_778
10
16.1886173
20
29.4068845
40
1.5651189
50
269.6390492
51
281.4600174
0
ARC
8
DEFAULT_255_2_778
10
16.1653081
20
29.1436826
40
1.3019553
50
253.4406968
51
270.5918864
0
ARC
8
DEFAULT_255_2_778
10
16.0843609
20
28.8528844
40
1.0001614
50
220.0146739
51
253.1376588
0
ARC
8
DEFAULT_255_2_778
10
16.2633079
20
29.0011286
40
1.2325328
50
195.5656295
51
219.9438876
0
ARC
8
DEFAULT_255_2_778
10
16.8190252
20
29.1660418
40
1.8121479
50
183.5687129
51
195.8736652
0
ARC
8
DEFAULT_255_2_778
10
17.4234725
20
29.2182495
40
2.4187162
50
179.9443948
51
183.9117789
0
ARC
8
DEFAULT_255_2_778
10
16.9321187
20
29.4073632
40
1.9274048
50
167.4894008
51
180.3854533
0
ARC
8
DEFAULT_255_2_778
10
16.4951739
20
29.4991181
40
1.4809676
50
155.3412516
51
167.2930651
0
ARC
8
DEFAULT_255_2_778
10
16.1589492
20
29.6677085
40
1.1051413
50
128.3252478
51
156.0120959
0
ARC
8
DEFAULT_255_2_778
10
16.1106022
20
29.714193
40
1.0387327
50
121.8635262
51
127.8231692
0
ARC
8
DEFAULT_255_2_778
10
16.1506253
20
29.6331403
40
1.1287337
50
92.625698
51
121.4170517
0
ARC
8
DEFAULT_255_2_778
10
16.1858175
20
29.314164
40
1.449133
50
89.9746945
51
93.4379359
0
ARC
8
DEFAULT_255_2_778
10
16.1995301
20
29.2946497
40
1.4687053
50
76.0050381
51
90.509983
0
ARC
8
DEFAULT_255_2_778
10
16.3099927
20
29.7284995
40
1.0210222
50
49.0361252
51
76.1320307
0
ARC
8
DEFAULT_255_2_778
10
16.31733
20
29.7539782
40
0.9970348
50
14.3238792
51
48.394626
0
ARC
8
DEFAULT_255_2_778
10
15.892531
20
29.6243129
40
1.4408539
50
5.3715454
51
15.1405979
0
ARC
8
DEFAULT_255_2_778
10
15.8616323
20
29.7033326
40
0.881098
50
3.6351605
51
18.1488473
0
ARC
8
DEFAULT_255_2_778
10
16.2788585
20
29.8445137
40
0.4406726
50
17.6031515
51
45.4950071
0
ARC
8
DEFAULT_255_2_778
10
16.2909055
20
29.8273039
40
0.4449817
50
48.1555406
51
79.4129714
0
ARC
8
DEFAULT_255_2_778
10
16.1952189
20
29.4102722
40
0.8726688
50
78.2680611
51
90.5752484
0
ARC
8
DEFAULT_255_2_778
10
16.1726852
20
29.7011778
40
0.581882
50
88.6437634
51
115.299569
0
ARC
8
DEFAULT_255_2_778
10
16.131864
20
29.8130026
40
0.4634657
50
116.645052
51
145.9063796
0
ARC
8
DEFAULT_255_2_778
10
16.3446903
20
29.6753874
40
0.7168716
50
146.3329277
51
165.1454501
0
ARC
8
DEFAULT_255_2_778
10
16.9888155
20
29.4937553
40
1.3860737
50
164.714302
51
175.2831026
0
ARC
8
DEFAULT_255_2_778
10
17.864627
20
29.4067999
40
2.2661167
50
174.9129264
51
179.6309328
0
ARC
8
DEFAULT_255_2_778
10
17.9108586
20
29.1943138
40
2.3123332
50
179.6981233
51
186.5456056
0
ARC
8
DEFAULT_255_2_778
10
16.8614706
20
29.0688787
40
1.2554969
50
186.3177216
51
197.3531763
0
ARC
8
DEFAULT_255_2_778
10
16.3058365
20
28.8945033
40
0.6731437
50
197.2923435
51
212.5228788
0
ARC
8
DEFAULT_255_2_778
10
16.12831
20
28.7893892
40
0.4669939
50
213.3590456
51
267.2709029
0
ARC
8
DEFAULT_255_2_778
10
16.1775857
20
29.0893603
40
0.7697642
50
264.6695398
51
270.087218
0
ARC
8
DEFAULT_255_2_778
10
16.1913944
20
29.1518187
40
0.8323178
50
269.1300565
51
284.7018776
0
ARC
8
DEFAULT_255_2_778
10
16.2947341
20
28.7669127
40
0.4337933
50
284.4019053
51
311.8329937
0
ARC
8
DEFAULT_255_2_778
10
16.2634935
20
28.7735094
40
0.4599322
50
314.1852902
51
346.3563218
0
ARC
8
DEFAULT_255_2_778
10
15.88855
20
28.8840561
40
0.8505834
50
345.0774103
51
356.1940703
0
LINE
8
DEFAULT_255_2_778
10
2.4619575
20
30.7243968
11
3.2276575
21
30.7243968
0
LINE
8
DEFAULT_255_2_778
10
3.2276575
20
30.7243968
11
3.9581575
21
28.6619968
0
LINE
8
DEFAULT_255_2_778
10
3.9581575
20
28.6619968
11
4.6847575
21
30.7243968
0
LINE
8
DEFAULT_255_2_778
10
4.6847575
20
30.7243968
11
5.4541575
21
30.7243968
0
LINE
8
DEFAULT_255_2_778
10
5.4541575
20
30.7243968
11
5.4541575
21
27.8806968
0
LINE
8
DEFAULT_255_2_778
10
5.4541575
20
27.8806968
11
4.8662575
21
27.8806968
0
LINE
8
DEFAULT_255_2_778
10
4.8662575
20
27.8806968
11
4.8662575
21
28.6579968
0
LINE
8
DEFAULT_255_2_778
10
4.8662575
20
28.6579968
11
4.9246575
21
29.9996968
0
LINE
8
DEFAULT_255_2_778
10
4.9246575
20
29.9996968
11
4.1571575
21
27.8806968
0
LINE
8
DEFAULT_255_2_778
10
4.1571575
20
27.8806968
11
3.7547575
21
27.8806968
0
LINE
8
DEFAULT_255_2_778
10
3.7547575
20
27.8806968
11
2.9889575
21
29.9978968
0
LINE
8
DEFAULT_255_2_778
10
2.9889575
20
29.9978968
11
3.0474575
21
28.6579968
0
LINE
8
DEFAULT_255_2_778
10
3.0474575
20
28.6579968
11
3.0474575
21
27.8806968
0
LINE
8
DEFAULT_255_2_778
10
3.0474575
20
27.8806968
11
2.4619575
21
27.8806968
0
LINE
8
DEFAULT_255_2_778
10
2.4619575
20
27.8806968
11
2.4619575
21
30.7243968
0
LINE
8
DEFAULT_255_2_778
10
2.4619575
20
30.7243968
11
2.4619575
21
30.7243968
0
LINE
8
DEFAULT_255_2_778
10
7.6768575
20
29.5721968
11
7.6768575
21
29.1130968
0
LINE
8
DEFAULT_255_2_778
10
7.6768575
20
29.1130968
11
6.5518575
21
29.1130968
0
LINE
8
DEFAULT_255_2_778
10
6.5518575
20
29.1130968
11
6.5518575
21
28.3513968
0
LINE
8
DEFAULT_255_2_778
10
6.5518575
20
28.3513968
11
7.8721575
21
28.3513968
0
LINE
8
DEFAULT_255_2_778
10
7.8721575
20
28.3513968
11
7.8721575
21
27.8806968
0
LINE
8
DEFAULT_255_2_778
10
7.8721575
20
27.8806968
11
5.9658575
21
27.8806968
0
LINE
8
DEFAULT_255_2_778
10
5.9658575
20
27.8806968
11
5.9658575
21
30.7243968
0
LINE
8
DEFAULT_255_2_778
10
5.9658575
20
30.7243968
11
7.8681575
21
30.7243968
0
LINE
8
DEFAULT_255_2_778
10
7.8681575
20
30.7243968
11
7.8681575
21
30.2497968
0
LINE
8
DEFAULT_255_2_778
10
7.8681575
20
30.2497968
11
6.5518575
21
30.2497968
0
LINE
8
DEFAULT_255_2_778
10
6.5518575
20
30.2497968
11
6.5518575
21
29.5718968
0
LINE
8
DEFAULT_255_2_778
10
6.5518575
20
29.5718968
11
7.6768575
21
29.5718968
0
LINE
8
DEFAULT_255_2_778
10
7.6768575
20
29.5718968
11
7.6768575
21
29.5721968
0
LINE
8
DEFAULT_255_2_778
10
8.8018575
20
30.7243968
11
8.8018575
21
28.3513968
0
LINE
8
DEFAULT_255_2_778
10
8.8018575
20
28.3513968
11
10.0459575
21
28.3513968
0
LINE
8
DEFAULT_255_2_778
10
10.0459575
20
28.3513968
11
10.0459575
21
27.8806968
0
LINE
8
DEFAULT_255_2_778
10
10.0459575
20
27.8806968
11
8.2158575
21
27.8806968
0
LINE
8
DEFAULT_255_2_778
10
8.2158575
20
27.8806968
11
8.2158575
21
30.7243968
0
LINE
8
DEFAULT_255_2_778
10
8.2158575
20
30.7243968
11
8.8018575
21
30.7243968
0
LINE
8
DEFAULT_255_2_778
10
8.8018575
20
30.7243968
11
8.8018575
21
30.7243968
0
LINE
8
DEFAULT_255_2_778
10
12.4444575
20
29.8848968
11
11.8583575
21
29.8848968
0
LINE
8
DEFAULT_255_2_778
10
10.2626575
20
28.7760968
11
10.8505575
21
28.7760968
0
LINE
8
DEFAULT_255_2_778
10
11.8565575
20
28.6275968
11
11.8565575
21
28.6267968
0
LINE
8
DEFAULT_255_2_778
10
14.5518575
20
29.5721968
11
14.5518575
21
29.1130968
0
LINE
8
DEFAULT_255_2_778
10
14.5518575
20
29.1130968
11
13.4268575
21
29.1130968
0
LINE
8
DEFAULT_255_2_778
10
13.4268575
20
29.1130968
11
13.4268575
21
28.3513968
0
LINE
8
DEFAULT_255_2_778
10
13.4268575
20
28.3513968
11
14.7470575
21
28.3513968
0
LINE
8
DEFAULT_255_2_778
10
14.7470575
20
28.3513968
11
14.7470575
21
27.8806968
0
LINE
8
DEFAULT_255_2_778
10
14.7470575
20
27.8806968
11
12.8407575
21
27.8806968
0
LINE
8
DEFAULT_255_2_778
10
12.8407575
20
27.8806968
11
12.8407575
21
30.7243968
0
LINE
8
DEFAULT_255_2_778
10
12.8407575
20
30.7243968
11
14.7431575
21
30.7243968
0
LINE
8
DEFAULT_255_2_778
10
14.7431575
20
30.7243968
11
14.7431575
21
30.2497968
0
LINE
8
DEFAULT_255_2_778
10
14.7431575
20
30.2497968
11
13.4268575
21
30.2497968
0
LINE
8
DEFAULT_255_2_778
10
13.4268575
20
30.2497968
11
13.4268575
21
29.5718968
0
LINE
8
DEFAULT_255_2_778
10
13.4268575
20
29.5718968
11
14.5518575
21
29.5718968
0
LINE
8
DEFAULT_255_2_778
10
14.5518575
20
29.5718968
11
14.5518575
21
29.5721968
0
LINE
8
DEFAULT_255_2_778
10
16.7372575
20
28.8281968
11
17.3233575
21
28.8281968
0
LINE
8
DEFAULT_255_2_778
10
15.0047575
20
29.2205968
11
15.0047575
21
29.3943968
0
LINE
8
DEFAULT_255_2_778
10
17.3270575
20
29.7591968
11
16.7409575
21
29.7591968
0
LINE
8
DEFAULT_255_2_778
10
15.5985575
20
29.4213968
11
15.5985575
21
29.2064968
0
LINE
8
DEFAULT_255_2_778
10
16.7372575
20
28.8275968
11
16.7372575
21
28.8281968
0
LINE
8
DEFAULT_255_2_778
10
7.0307774
20
58.5558979
11
7.0307774
21
59.1514979
0
LINE
8
DEFAULT_255_2_778
10
7.0307774
20
59.1514979
11
9.5816774
21
59.1514979
0
LINE
8
DEFAULT_255_2_778
10
9.5816774
20
59.1514979
11
9.5816774
21
58.5558979
0
LINE
8
DEFAULT_255_2_778
10
9.5816774
20
58.5558979
11
8.6833774
21
58.5558979
0
LINE
8
DEFAULT_255_2_778
10
8.6833774
20
58.5558979
11
8.6833774
21
55.7134979
0
LINE
8
DEFAULT_255_2_778
10
8.6833774
20
55.7134979
11
7.9279774
21
55.7134979
0
LINE
8
DEFAULT_255_2_778
10
7.9279774
20
55.7134979
11
7.9279774
21
58.5558979
0
LINE
8
DEFAULT_255_2_778
10
7.9279774
20
58.5558979
11
7.0307774
21
58.5558979
0
LINE
8
DEFAULT_255_2_778
10
6.0938774
20
55.7134979
11
6.0938774
21
59.1514979
0
LINE
8
DEFAULT_255_2_778
10
6.0938774
20
59.1514979
11
6.8331774
21
59.1514979
0
LINE
8
DEFAULT_255_2_778
10
6.8331774
20
59.1514979
11
6.8331774
21
55.7134979
0
LINE
8
DEFAULT_255_2_778
10
6.8331774
20
55.7134979
11
6.0938774
21
55.7134979
0
LINE
8
DEFAULT_255_2_778
10
2.1383774
20
55.7134979
11
2.1383774
21
59.1514979
0
LINE
8
DEFAULT_255_2_778
10
2.1383774
20
59.1514979
11
3.1995774
21
59.1514979
0
LINE
8
DEFAULT_255_2_778
10
3.1995774
20
59.1514979
11
3.9690774
21
56.7384979
0
LINE
8
DEFAULT_255_2_778
10
3.9690774
20
56.7384979
11
4.7373774
21
59.1514979
0
LINE
8
DEFAULT_255_2_778
10
4.7373774
20
59.1514979
11
5.7996774
21
59.1514979
0
LINE
8
DEFAULT_255_2_778
10
5.7996774
20
59.1514979
11
5.7996774
21
55.7134979
0
LINE
8
DEFAULT_255_2_778
10
5.7996774
20
55.7134979
11
5.1064774
21
55.7134979
0
LINE
8
DEFAULT_255_2_778
10
5.1064774
20
55.7134979
11
5.1064774
21
58.2695979
0
LINE
8
DEFAULT_255_2_778
10
5.1064774
20
58.2695979
11
4.3264774
21
55.7134979
0
LINE
8
DEFAULT_255_2_778
10
4.3264774
20
55.7134979
11
3.6118774
21
55.7134979
0
LINE
8
DEFAULT_255_2_778
10
3.6118774
20
55.7134979
11
2.8318774
21
58.2695979
0
LINE
8
DEFAULT_255_2_778
10
2.8318774
20
58.2695979
11
2.8318774
21
55.7134979
0
LINE
8
DEFAULT_255_2_778
10
2.8318774
20
55.7134979
11
2.1383774
21
55.7134979
0
LINE
8
DEFAULT_255_2_778
10
26.0122774
20
59.1514979
11
26.0122774
21
55.7134979
0
LINE
8
DEFAULT_255_2_778
10
26.0122774
20
55.7134979
11
25.2846774
21
55.7134979
0
LINE
8
DEFAULT_255_2_778
10
25.2846774
20
55.7134979
11
25.2846774
21
57.2141979
0
LINE
8
DEFAULT_255_2_778
10
25.2846774
20
57.2141979
11
23.8132774
21
57.2141979
0
LINE
8
DEFAULT_255_2_778
10
23.8132774
20
57.2141979
11
23.8132774
21
55.7134979
0
LINE
8
DEFAULT_255_2_778
10
23.8132774
20
55.7134979
11
23.0856774
21
55.7134979
0
LINE
8
DEFAULT_255_2_778
10
23.0856774
20
55.7134979
11
23.0856774
21
59.1514979
0
LINE
8
DEFAULT_255_2_778
10
23.0856774
20
59.1514979
11
23.8132774
21
59.1514979
0
LINE
8
DEFAULT_255_2_778
10
23.8132774
20
59.1514979
11
23.8132774
21
57.8108979
0
LINE
8
DEFAULT_255_2_778
10
23.8132774
20
57.8108979
11
25.2846774
21
57.8108979
0
LINE
8
DEFAULT_255_2_778
10
25.2846774
20
57.8108979
11
25.2846774
21
59.1514979
0
LINE
8
DEFAULT_255_2_778
10
25.2846774
20
59.1514979
11
26.0122774
21
59.1514979
0
LINE
8
DEFAULT_255_2_778
10
26.3178774
20
55.7134979
11
26.3178774
21
59.1514979
0
LINE
8
DEFAULT_255_2_778
10
26.3178774
20
59.1514979
11
27.0583774
21
59.1514979
0
LINE
8
DEFAULT_255_2_778
10
27.0583774
20
59.1514979
11
27.0583774
21
55.7134979
0
LINE
8
DEFAULT_255_2_778
10
27.0583774
20
55.7134979
11
26.3178774
21
55.7134979
0
LINE
8
DEFAULT_255_2_778
10
19.0002774
20
55.7134979
11
19.0002774
21
59.1514979
0
LINE
8
DEFAULT_255_2_778
10
19.0002774
20
59.1514979
11
19.7394774
21
59.1514979
0
LINE
8
DEFAULT_255_2_778
10
19.7394774
20
59.1514979
11
19.7394774
21
55.7134979
0
LINE
8
DEFAULT_255_2_778
10
19.7394774
20
55.7134979
11
19.0002774
21
55.7134979
0
ARC
8
DEFAULT_255_2_778
10
12.270846
20
56.9507762
40
2.714498
50
184.1262787
51
186.3148919
0
ARC
8
DEFAULT_255_2_778
10
11.0606511
20
56.8174357
40
1.4969798
50
186.3371335
51
191.6372616
0
ARC
8
DEFAULT_255_2_778
10
10.7057327
20
56.7438985
40
1.1345234
50
191.615377
51
200.6630466
0
ARC
8
DEFAULT_255_2_778
10
10.5704852
20
56.6954002
40
0.9908654
50
200.798732
51
205.9790615
0
ARC
8
DEFAULT_255_2_778
10
10.5093281
20
56.6646835
40
0.9224332
50
205.9279152
51
221.3656685
0
ARC
8
DEFAULT_255_2_778
10
10.5517638
20
56.7053984
40
0.9811917
50
221.5123908
51
234.6724163
0
ARC
8
DEFAULT_255_2_778
10
10.6743273
20
56.8788472
40
1.193574
50
234.6869291
51
245.0742288
0
ARC
8
DEFAULT_255_2_778
10
10.8201545
20
57.1904782
40
1.5376364
50
245.0403519
51
253.0844199
0
ARC
8
DEFAULT_255_2_778
10
10.961593
20
57.6524078
40
2.0207339
50
253.0584764
51
259.5912397
0
ARC
8
DEFAULT_255_2_778
10
11.0799628
20
58.2902453
40
2.669461
50
259.5658249
51
264.8983582
0
ARC
8
DEFAULT_255_2_778
10
11.1387968
20
58.8865331
40
3.2686233
50
264.8005933
51
266.9781284
0
ARC
8
DEFAULT_255_2_778
10
11.1226242
20
57.5688822
40
1.9526801
50
265.4136269
51
270.0100705
0
ARC
8
DEFAULT_255_2_778
10
11.1229652
20
57.5955486
40
1.9793465
50
270.000063
51
270.8495907
0
ARC
8
DEFAULT_255_2_778
10
11.1365509
20
57.4682724
40
1.8519197
50
270.4876993
51
293.8218573
0
ARC
8
DEFAULT_255_2_778
10
11.3925451
20
56.8990364
40
1.2277923
50
293.6224194
51
318.4597218
0
ARC
8
DEFAULT_255_2_778
10
11.6392979
20
56.6698382
40
0.8911435
50
318.9688937
51
354.4044825
0
ARC
8
DEFAULT_255_2_778
10
11.5525897
20
56.6800229
40
0.9784329
50
354.3060085
51
0.03662
0
ARC
8
DEFAULT_255_2_778
10
11.4551846
20
56.6794809
40
1.0758384
50
0.0621698
51
6.6076873
0
ARC
8
DEFAULT_255_2_778
10
11.3152737
20
56.6634351
40
1.2166663
50
6.6001304
51
12.1203961
0
ARC
8
DEFAULT_255_2_778
10
11.1498861
20
56.6280957
40
1.3857873
50
12.1131932
51
16.852326
0
ARC
8
DEFAULT_255_2_778
10
11.0364994
20
56.5951213
40
1.5038647
50
16.8022963
51
17.8483892
0
ARC
8
DEFAULT_255_2_778
10
11.5862216
20
56.6890043
40
0.9551081
50
22.6004509
51
37.4100724
0
ARC
8
DEFAULT_255_2_778
10
11.4698299
20
56.5577139
40
1.1278198
50
39.1160215
51
72.1133782
0
ARC
8
DEFAULT_255_2_778
10
10.9885483
20
55.2854447
40
2.4873232
50
70.563806
51
78.5038122
0
ARC
8
DEFAULT_255_2_778
10
10.4035443
20
52.5548103
40
5.2798485
50
78.1886238
51
80.3932041
0
ARC
8
DEFAULT_255_2_778
10
7.009873
20
32.5347886
40
25.5854701
50
80.3819534
51
80.7943334
0
ARC
8
DEFAULT_255_2_778
10
14.4719279
20
78.2624128
40
20.747035
50
260.6218675
51
260.6548823
0
ARC
8
DEFAULT_255_2_778
10
12.0169342
20
63.5435395
40
5.8248966
50
258.9045892
51
260.8554766
0
ARC
8
DEFAULT_255_2_778
10
11.2811871
20
59.7981072
40
2.0078844
50
254.3777962
51
258.9391456
0
ARC
8
DEFAULT_255_2_778
10
10.9929201
20
58.774644
40
0.9446034
50
246.2542548
51
254.499493
0
ARC
8
DEFAULT_255_2_778
10
10.7991897
20
58.3408828
40
0.4695601
50
230.9828506
51
246.5791956
0
ARC
8
DEFAULT_255_2_778
10
10.7050598
20
58.2178089
40
0.3147071
50
222.7824152
51
230.1914805
0
ARC
8
DEFAULT_255_2_778
10
11.0735882
20
58.4119694
40
0.7251202
50
208.7858247
51
214.2321672
0
ARC
8
DEFAULT_255_2_778
10
10.9403392
20
58.3390346
40
0.5732165
50
202.1169763
51
208.8100473
0
ARC
8
DEFAULT_255_2_778
10
10.8300025
20
58.2943954
40
0.4541922
50
193.8903735
51
202.1405829
0
ARC
8
DEFAULT_255_2_778
10
10.7432334
20
58.273201
40
0.3648725
50
182.8769994
51
193.9305093
0
ARC
8
DEFAULT_255_2_778
10
10.7050635
20
58.2702987
40
0.3266064
50
180.0065089
51
182.7045789
0
ARC
8
DEFAULT_255_2_778
10
10.709349
20
58.2631713
40
0.3309681
50
124.0291452
51
178.7724769
0
ARC
8
DEFAULT_255_2_778
10
10.9016691
20
58.0226697
40
0.6383916
50
109.0464847
51
126.2552984
0
ARC
8
DEFAULT_255_2_778
10
11.0106467
20
57.7145975
40
0.9651644
50
92.5861435
51
109.1935119
0
ARC
8
DEFAULT_255_2_778
10
11.0206568
20
57.6187216
40
1.0614095
50
90.000138
51
92.8924259
0
ARC
8
DEFAULT_255_2_778
10
11.0206713
20
57.6220245
40
1.0581067
50
88.8628218
51
90.0009194
0
ARC
8
DEFAULT_255_2_778
10
11.0336011
20
57.7659259
40
0.9140324
50
66.5566837
51
89.4941543
0
ARC
8
DEFAULT_255_2_778
10
11.2110848
20
58.1423522
40
0.4982398
50
18.6215917
51
68.0604507
0
ARC
8
DEFAULT_255_2_778
10
11.2011084
20
58.1553327
40
0.5037872
50
359.6158216
51
16.8600243
0
ARC
8
DEFAULT_255_2_778
10
11.4082942
20
58.1699809
40
1.0104993
50
359.7547065
51
14.7362332
0
ARC
8
DEFAULT_255_2_778
10
11.4329416
20
58.158854
40
0.9896396
50
15.722267
51
58.595043
0
ARC
8
DEFAULT_255_2_778
10
11.1399445
20
57.731523
40
1.507294
50
57.5534632
51
74.408737
0
ARC
8
DEFAULT_255_2_778
10
11.0194179
20
57.3215521
40
1.9345828
50
74.2339252
51
89.811499
0
ARC
8
DEFAULT_255_2_778
10
11.0141475
20
57.2415871
40
2.014571
50
89.6690865
51
89.9999941
0
ARC
8
DEFAULT_255_2_778
10
11.0058695
20
57.366743
40
1.8894332
50
89.7489693
51
108.1933477
0
ARC
8
DEFAULT_255_2_778
10
10.8522439
20
57.8319085
40
1.3995565
50
108.1643037
51
125.2444535
0
ARC
8
DEFAULT_255_2_778
10
10.5850346
20
58.1893226
40
0.953535
50
124.5247313
51
165.3623949
0
ARC
8
DEFAULT_255_2_778
10
10.6060136
20
58.1936743
40
0.9727799
50
165.9226483
51
174.8346053
0
ARC
8
DEFAULT_255_2_778
10
10.7517155
20
58.1927286
40
1.1180415
50
175.458586
51
179.3829007
0
ARC
8
DEFAULT_255_2_778
10
10.6903371
20
58.1939892
40
1.0566534
50
179.4154039
51
179.9983278
0
ARC
8
DEFAULT_255_2_778
10
10.4668986
20
58.1772148
40
0.8333842
50
178.8445523
51
230.4059018
0
ARC
8
DEFAULT_255_2_778
10
10.7752651
20
58.5260111
40
1.2987853
50
229.7301655
51
243.5887807
0
ARC
8
DEFAULT_255_2_778
10
11.1087284
20
59.1836772
40
2.0361445
50
243.4165337
51
252.4445144
0
ARC
8
DEFAULT_255_2_778
10
11.433593
20
60.1922968
40
3.0957815
50
252.3426318
51
258.6565007
0
ARC
8
DEFAULT_255_2_778
10
11.7081083
20
61.5312018
40
4.4625301
50
258.5819965
51
262.9873438
0
ARC
8
DEFAULT_255_2_778
10
10.9614397
20
55.8245887
40
1.2933138
50
72.6925384
51
81.0212748
0
ARC
8
DEFAULT_255_2_778
10
11.0732047
20
56.1793982
40
0.92132
50
62.2257557
51
72.7639892
0
ARC
8
DEFAULT_255_2_778
10
11.2079231
20
56.4319508
40
0.6350885
50
47.9881934
51
62.362062
0
ARC
8
DEFAULT_255_2_778
10
11.3492279
20
56.5859455
40
0.4261006
50
26.2513008
51
48.246949
0
ARC
8
DEFAULT_255_2_778
10
11.4395868
20
56.6330621
40
0.3242291
50
5.6894356
51
25.8465126
0
ARC
8
DEFAULT_255_2_778
10
11.4598596
20
56.6362505
40
0.3037423
50
0.0039293
51
5.4700667
0
ARC
8
DEFAULT_255_2_778
10
11.4364827
20
56.6399468
40
0.3271398
50
322.2957163
51
359.3562658
0
ARC
8
DEFAULT_255_2_778
10
11.3278125
20
56.7190703
40
0.4615241
50
304.066835
51
322.774975
0
ARC
8
DEFAULT_255_2_778
10
11.2278469
20
56.8631377
40
0.6368676
50
291.2704984
51
304.2565934
0
ARC
8
DEFAULT_255_2_778
10
10.9885906
20
57.5177197
40
1.3337324
50
281.9287271
51
290.6473245
0
ARC
8
DEFAULT_255_2_778
10
11.0107134
20
57.4117472
40
1.2254756
50
272.7149135
51
281.9408318
0
ARC
8
DEFAULT_255_2_778
10
11.0156741
20
57.3355811
40
1.1491608
50
270.0064348
51
272.6477335
0
ARC
8
DEFAULT_255_2_778
10
11.0096548
20
57.1956837
40
1.0092821
50
252.6373452
51
270.3490359
0
ARC
8
DEFAULT_255_2_778
10
10.9223329
20
56.9294869
40
0.7291667
50
229.7565498
51
252.944188
0
ARC
8
DEFAULT_255_2_778
10
10.7582913
20
56.7442847
40
0.4818559
50
180.3015903
51
230.4184683
0
ARC
8
DEFAULT_255_2_778
10
10.7782667
20
56.7416717
40
0.5018246
50
176.8834249
51
179.99125
0
ARC
8
DEFAULT_255_2_778
10
13.9823906
20
56.7633559
40
1.6579168
50
2.3254815
51
4.549233
0
ARC
8
DEFAULT_255_2_778
10
14.0953662
20
56.7679444
40
1.5448481
50
0.013505
51
2.3254619
0
ARC
8
DEFAULT_255_2_778
10
14.3784934
20
56.7599346
40
1.2617484
50
346.1521993
51
0.3802608
0
ARC
8
DEFAULT_255_2_778
10
14.6513404
20
56.6924053
40
0.9806691
50
322.6361661
51
346.1675278
0
ARC
8
DEFAULT_255_2_778
10
14.5138697
20
56.8419893
40
1.1812417
50
285.4597084
51
320.9158509
0
ARC
8
DEFAULT_255_2_778
10
14.2568443
20
57.6196034
40
1.9996423
50
270.4008105
51
286.6186409
0
ARC
8
DEFAULT_255_2_778
10
14.2373907
20
57.9517634
40
2.3319931
50
269.9990432
51
270.8216789
0
ARC
8
DEFAULT_255_2_778
10
14.2376718
20
58.0014335
40
2.3816633
50
266.9002408
51
269.9923003
0
ARC
8
DEFAULT_255_2_778
10
14.1933762
20
58.543358
40
2.9213253
50
261.1836859
51
268.3426336
0
ARC
8
DEFAULT_255_2_778
10
14.0221369
20
57.4685201
40
1.832947
50
250.4695165
51
261.3236826
0
ARC
8
DEFAULT_255_2_778
10
13.7807006
20
56.8064838
40
1.1283046
50
231.1984196
51
250.7854123
0
ARC
8
DEFAULT_255_2_778
10
13.656631
20
56.629885
40
0.9130393
50
193.86473
51
230.3216437
0
ARC
8
DEFAULT_255_2_778
10
14.0247822
20
56.7420142
40
1.2974978
50
186.3257425
51
194.7762924
0
ARC
8
DEFAULT_255_2_778
10
13.9207048
20
56.7151261
40
0.4737055
50
185.6298695
51
210.2490064
0
ARC
8
DEFAULT_255_2_778
10
13.9775638
20
56.7666314
40
0.5489981
50
211.9033341
51
248.3856238
0
ARC
8
DEFAULT_255_2_778
10
14.1319042
20
57.1192835
40
0.9338045
50
247.5520157
51
268.3509246
0
ARC
8
DEFAULT_255_2_778
10
14.1478919
20
57.2867809
40
1.1017491
50
267.7705049
51
270.0031962
0
ARC
8
DEFAULT_255_2_778
10
14.1479482
20
57.2985142
40
1.1134824
50
270.0002637
51
271.3424019
0
ARC
8
DEFAULT_255_2_778
10
14.1558785
20
57.232377
40
1.0471971
50
270.9933972
51
293.0122815
0
ARC
8
DEFAULT_255_2_778
10
14.3059628
20
56.8838864
40
0.6677695
50
292.8487527
51
314.9639656
0
ARC
8
DEFAULT_255_2_778
10
14.4818547
20
56.7095314
40
0.4201101
50
314.7945147
51
357.5612004
0
ARC
8
DEFAULT_255_2_778
10
17.5987718
20
56.7462941
40
0.4865573
50
90.0065359
51
92.8376449
0
ARC
8
DEFAULT_255_2_778
10
17.6009469
20
56.7883558
40
0.4445011
50
58.4673075
51
90.287529
0
ARC
8
DEFAULT_255_2_778
10
17.5393755
20
56.7149674
40
0.5394385
50
1.255714
51
56.9696445
0
ARC
8
DEFAULT_255_2_778
10
17.5526932
20
56.7124651
40
0.5261861
50
0.0010582
51
1.5599005
0
ARC
8
DEFAULT_255_2_778
10
17.6220912
20
56.7050356
40
0.4568488
50
314.9494176
51
0.9330304
0
ARC
8
DEFAULT_255_2_778
10
17.5997175
20
56.7365708
40
0.4950157
50
294.763802
51
314.2034726
0
ARC
8
DEFAULT_255_2_778
10
17.5310937
20
56.8833664
40
0.6570579
50
281.5095634
51
294.8356365
0
ARC
8
DEFAULT_255_2_778
10
17.49313
20
57.0477904
40
0.8257622
50
277.5329385
51
281.8143448
0
ARC
8
DEFAULT_255_2_778
10
17.5348688
20
58.112526
40
0.4979322
50
90.0056728
51
92.5765965
0
ARC
8
DEFAULT_255_2_778
10
17.5376741
20
58.1639104
40
0.4465569
50
63.4349161
51
90.3662732
0
ARC
8
DEFAULT_255_2_778
10
17.5330877
20
58.1638972
40
0.4486384
50
11.6731927
51
62.9117671
0
ARC
8
DEFAULT_255_2_778
10
17.5629966
20
58.1706807
40
0.417976
50
1.746677
51
11.5920704
0
ARC
8
DEFAULT_255_2_778
10
17.5782425
20
58.171489
40
0.4027126
50
0.0002834
51
1.6978452
0
ARC
8
DEFAULT_255_2_778
10
17.6134653
20
58.1683066
40
0.3675037
50
317.2499725
51
0.4964772
0
ARC
8
DEFAULT_255_2_778
10
17.5696013
20
58.2125508
40
0.4297555
50
297.0687814
51
316.8880497
0
ARC
8
DEFAULT_255_2_778
10
17.4946128
20
58.3570779
40
0.5925763
50
283.5281564
51
297.1660465
0
ARC
8
DEFAULT_255_2_778
10
17.4432204
20
58.5554659
40
0.79749
50
276.7810381
51
283.7838521
0
ARC
8
DEFAULT_255_2_778
10
17.8373631
20
56.7994103
40
1.0799736
50
272.362648
51
287.8214171
0
ARC
8
DEFAULT_255_2_778
10
17.8703593
20
56.6950306
40
0.9705041
50
287.8528626
51
309.3736669
0
ARC
8
DEFAULT_255_2_778
10
17.8887874
20
56.6719947
40
0.9410066
50
309.3960745
51
344.5734518
0
ARC
8
DEFAULT_255_2_778
10
17.9342511
20
56.6583076
40
0.8935408
50
344.6440184
51
359.9347262
0
ARC
8
DEFAULT_255_2_778
10
17.9589153
20
56.6572976
40
0.868876
50
359.9994756
51
1.7874905
0
ARC
8
DEFAULT_255_2_778
10
17.9828589
20
56.659313
40
0.8448822
50
1.7015287
51
29.059978
0
ARC
8
DEFAULT_255_2_778
10
17.9372944
20
56.6317748
40
0.8980888
50
29.1837223
51
45.550527
0
ARC
8
DEFAULT_255_2_778
10
17.833703
20
56.5264904
40
1.045791
50
45.53836
51
57.5974183
0
ARC
8
DEFAULT_255_2_778
10
17.7142219
20
56.3391178
40
1.2680164
50
57.5760943
51
67.2123975
0
ARC
8
DEFAULT_255_2_778
10
17.626114
20
56.1379776
40
1.4875862
50
67.0842919
51
71.2784139
0
ARC
8
DEFAULT_255_2_778
10
17.7150491
20
58.6328821
40
1.1534361
50
289.6850853
51
299.7277819
0
ARC
8
DEFAULT_255_2_778
10
17.8209782
20
58.4484651
40
0.9407622
50
299.6949378
51
312.4564439
0
ARC
8
DEFAULT_255_2_778
10
17.9209733
20
58.3397855
40
0.79308
50
312.4265741
51
329.921456
0
ARC
8
DEFAULT_255_2_778
10
17.980798
20
58.3041025
40
0.7234281
50
329.9923052
51
359.5701956
0
ARC
8
DEFAULT_255_2_778
10
17.972802
20
58.3042708
40
0.7314251
50
359.5617049
51
359.9979393
0
ARC
8
DEFAULT_255_2_778
10
17.9345935
20
58.2995275
40
0.769648
50
0.3511578
51
37.2178649
0
ARC
8
DEFAULT_255_2_778
10
17.851634
20
58.2401419
40
0.871636
50
37.028121
51
57.9282742
0
ARC
8
DEFAULT_255_2_778
10
17.7763577
20
58.1209941
40
1.0125703
50
57.898691
51
73.4443108
0
ARC
8
DEFAULT_255_2_778
10
17.7163753
20
57.9215064
40
1.2208799
50
73.4137009
51
85.587455
0
ARC
8
DEFAULT_255_2_778
10
17.6989583
20
57.7586022
40
1.3846499
50
85.3875091
51
87.5195336
0
ARC
8
DEFAULT_255_2_778
10
22.627446
20
56.9507762
40
2.714498
50
184.1262787
51
186.3148919
0
ARC
8
DEFAULT_255_2_778
10
21.4172511
20
56.8174357
40
1.4969798
50
186.3371335
51
191.6372616
0
ARC
8
DEFAULT_255_2_778
10
21.0623327
20
56.7438985
40
1.1345234
50
191.615377
51
200.6630466
0
ARC
8
DEFAULT_255_2_778
10
20.9270852
20
56.6954002
40
0.9908654
50
200.798732
51
205.9790615
0
ARC
8
DEFAULT_255_2_778
10
20.8659281
20
56.6646835
40
0.9224332
50
205.9279152
51
221.3656685
0
ARC
8
DEFAULT_255_2_778
10
20.9083638
20
56.7053984
40
0.9811917
50
221.5123908
51
234.6724163
0
ARC
8
DEFAULT_255_2_778
10
21.0309273
20
56.8788472
40
1.193574
50
234.6869291
51
245.0742288
0
ARC
8
DEFAULT_255_2_778
10
21.1767545
20
57.1904782
40
1.5376364
50
245.0403519
51
253.0844199
0
ARC
8
DEFAULT_255_2_778
10
21.318193
20
57.6524078
40
2.0207339
50
253.0584764
51
259.5912397
0
ARC
8
DEFAULT_255_2_778
10
21.4365628
20
58.2902453
40
2.669461
50
259.5658249
51
264.8983582
0
ARC
8
DEFAULT_255_2_778
10
21.4953968
20
58.8865331
40
3.2686233
50
264.8005933
51
266.9781284
0
ARC
8
DEFAULT_255_2_778
10
21.4792242
20
57.5688822
40
1.9526801
50
265.4136269
51
270.0100705
0
ARC
8
DEFAULT_255_2_778
10
21.4795652
20
57.5955486
40
1.9793465
50
270.000063
51
270.8495907
0
ARC
8
DEFAULT_255_2_778
10
21.4931509
20
57.4682724
40
1.8519197
50
270.4876993
51
293.8218573
0
ARC
8
DEFAULT_255_2_778
10
21.7491451
20
56.8990364
40
1.2277923
50
293.6224194
51
318.4597218
0
ARC
8
DEFAULT_255_2_778
10
21.9958979
20
56.6698382
40
0.8911435
50
318.9688937
51
354.4044825
0
ARC
8
DEFAULT_255_2_778
10
21.9091897
20
56.6800229
40
0.9784329
50
354.3060085
51
0.03662
0
ARC
8
DEFAULT_255_2_778
10
21.8117846
20
56.6794809
40
1.0758384
50
0.0621698
51
6.6076873
0
ARC
8
DEFAULT_255_2_778
10
21.6718737
20
56.6634351
40
1.2166663
50
6.6001304
51
12.1203961
0
ARC
8
DEFAULT_255_2_778
10
21.5064861
20
56.6280957
40
1.3857873
50
12.1131932
51
16.852326
0
ARC
8
DEFAULT_255_2_778
10
21.3930994
20
56.5951213
40
1.5038647
50
16.8022963
51
17.8483892
0
ARC
8
DEFAULT_255_2_778
10
21.9428216
20
56.6890043
40
0.9551081
50
22.6004509
51
37.4100724
0
ARC
8
DEFAULT_255_2_778
10
21.8264299
20
56.5577139
40
1.1278198
50
39.1160215
51
72.1133782
0
ARC
8
DEFAULT_255_2_778
10
21.3451483
20
55.2854447
40
2.4873232
50
70.563806
51
78.5038122
0
ARC
8
DEFAULT_255_2_778
10
20.7601443
20
52.5548103
40
5.2798485
50
78.1886238
51
80.3932041
0
ARC
8
DEFAULT_255_2_778
10
17.366473
20
32.5347886
40
25.5854701
50
80.3819534
51
80.7943334
0
ARC
8
DEFAULT_255_2_778
10
24.8285279
20
78.2624128
40
20.747035
50
260.6218675
51
260.6548823
0
ARC
8
DEFAULT_255_2_778
10
22.3735342
20
63.5435395
40
5.8248966
50
258.9045892
51
260.8554766
0
ARC
8
DEFAULT_255_2_778
10
21.6377871
20
59.7981072
40
2.0078844
50
254.3777962
51
258.9391456
0
ARC
8
DEFAULT_255_2_778
10
21.3495201
20
58.774644
40
0.9446034
50
246.2542548
51
254.499493
0
ARC
8
DEFAULT_255_2_778
10
21.1557897
20
58.3408828
40
0.4695601
50
230.9828506
51
246.5791956
0
ARC
8
DEFAULT_255_2_778
10
21.0616598
20
58.2178089
40
0.3147071
50
222.7824152
51
230.1914805
0
ARC
8
DEFAULT_255_2_778
10
21.4301882
20
58.4119694
40
0.7251202
50
208.7858247
51
214.2321672
0
ARC
8
DEFAULT_255_2_778
10
21.2969392
20
58.3390346
40
0.5732165
50
202.1169763
51
208.8100473
0
ARC
8
DEFAULT_255_2_778
10
21.1866025
20
58.2943954
40
0.4541922
50
193.8903735
51
202.1405829
0
ARC
8
DEFAULT_255_2_778
10
21.0998334
20
58.273201
40
0.3648725
50
182.8769994
51
193.9305093
0
ARC
8
DEFAULT_255_2_778
10
21.0616635
20
58.2702987
40
0.3266064
50
180.0065089
51
182.7045789
0
ARC
8
DEFAULT_255_2_778
10
21.065949
20
58.2631713
40
0.3309681
50
124.0291452
51
178.7724769
0
ARC
8
DEFAULT_255_2_778
10
21.2582691
20
58.0226697
40
0.6383916
50
109.0464847
51
126.2552984
0
ARC
8
DEFAULT_255_2_778
10
21.3672467
20
57.7145975
40
0.9651644
50
92.5861435
51
109.1935119
0
ARC
8
DEFAULT_255_2_778
10
21.3772568
20
57.6187216
40
1.0614095
50
90.000138
51
92.8924259
0
ARC
8
DEFAULT_255_2_778
10
21.3772713
20
57.6220245
40
1.0581067
50
88.8628218
51
90.0009194
0
ARC
8
DEFAULT_255_2_778
10
21.3902011
20
57.7659259
40
0.9140324
50
66.5566837
51
89.4941543
0
ARC
8
DEFAULT_255_2_778
10
21.5676848
20
58.1423522
40
0.4982398
50
18.6215917
51
68.0604507
0
ARC
8
DEFAULT_255_2_778
10
21.5577084
20
58.1553327
40
0.5037872
50
359.6158216
51
16.8600243
0
ARC
8
DEFAULT_255_2_778
10
21.7648942
20
58.1699809
40
1.0104993
50
359.7547065
51
14.7362332
0
ARC
8
DEFAULT_255_2_778
10
21.7895416
20
58.158854
40
0.9896396
50
15.722267
51
58.595043
0
ARC
8
DEFAULT_255_2_778
10
21.4965445
20
57.731523
40
1.507294
50
57.5534632
51
74.408737
0
ARC
8
DEFAULT_255_2_778
10
21.3760179
20
57.3215521
40
1.9345828
50
74.2339252
51
89.811499
0
ARC
8
DEFAULT_255_2_778
10
21.3707475
20
57.2415871
40
2.014571
50
89.6690865
51
89.9999941
0
ARC
8
DEFAULT_255_2_778
10
21.3624695
20
57.366743
40
1.8894332
50
89.7489693
51
108.1933477
0
ARC
8
DEFAULT_255_2_778
10
21.2088439
20
57.8319085
40
1.3995565
50
108.1643037
51
125.2444535
0
ARC
8
DEFAULT_255_2_778
10
20.9416346
20
58.1893226
40
0.953535
50
124.5247313
51
165.3623949
0
ARC
8
DEFAULT_255_2_778
10
20.9626136
20
58.1936743
40
0.9727799
50
165.9226483
51
174.8346053
0
ARC
8
DEFAULT_255_2_778
10
21.107629
20
58.1927796
40
1.1173532
50
175.4584033
51
179.3830667
0
ARC
8
DEFAULT_255_2_778
10
21.0458428
20
58.1940351
40
1.0555571
50
179.4150997
51
179.9983268
0
ARC
8
DEFAULT_255_2_778
10
20.823532
20
58.1773163
40
0.8334145
50
178.8484167
51
230.4124903
0
ARC
8
DEFAULT_255_2_778
10
21.1321817
20
58.5264123
40
1.2992263
50
229.7334226
51
243.5884289
0
ARC
8
DEFAULT_255_2_778
10
21.4656175
20
59.1840167
40
2.0365181
50
243.4162637
51
252.442499
0
ARC
8
DEFAULT_255_2_778
10
21.7903575
20
60.1921298
40
3.0956348
50
252.3406697
51
258.6541579
0
ARC
8
DEFAULT_255_2_778
10
22.0647183
20
61.5300042
40
4.4613428
50
258.5796937
51
262.9853384
0
ARC
8
DEFAULT_255_2_778
10
21.3180397
20
55.8245887
40
1.2933138
50
72.6925384
51
81.0212748
0
ARC
8
DEFAULT_255_2_778
10
21.4298047
20
56.1793982
40
0.92132
50
62.2257557
51
72.7639892
0
ARC
8
DEFAULT_255_2_778
10
21.5645231
20
56.4319508
40
0.6350885
50
47.9881934
51
62.362062
0
ARC
8
DEFAULT_255_2_778
10
21.7058279
20
56.5859455
40
0.4261006
50
26.2513008
51
48.246949
0
ARC
8
DEFAULT_255_2_778
10
21.7961868
20
56.6330621
40
0.3242291
50
5.6894356
51
25.8465126
0
ARC
8
DEFAULT_255_2_778
10
21.8164596
20
56.6362505
40
0.3037423
50
0.0039293
51
5.4700667
0
ARC
8
DEFAULT_255_2_778
10
21.7930827
20
56.6399468
40
0.3271398
50
322.2957163
51
359.3562658
0
ARC
8
DEFAULT_255_2_778
10
21.6844125
20
56.7190703
40
0.4615241
50
304.066835
51
322.774975
0
ARC
8
DEFAULT_255_2_778
10
21.5844469
20
56.8631377
40
0.6368676
50
291.2704984
51
304.2565934
0
ARC
8
DEFAULT_255_2_778
10
21.3450976
20
57.5181609
40
1.3341781
50
281.9276481
51
290.6443801
0
ARC
8
DEFAULT_255_2_778
10
21.367263
20
57.4119742
40
1.2257027
50
272.7149011
51
281.9397756
0
ARC
8
DEFAULT_255_2_778
10
21.3722319
20
57.335684
40
1.1492638
50
270.0064438
51
272.647614
0
ARC
8
DEFAULT_255_2_778
10
21.3662071
20
57.1956442
40
1.0092427
50
252.6371022
51
270.3493752
0
ARC
8
DEFAULT_255_2_778
10
21.278865
20
56.92938
40
0.7290567
50
229.7539558
51
252.9438255
0
ARC
8
DEFAULT_255_2_778
10
21.1149009
20
56.7442695
40
0.4818656
50
180.3003051
51
230.4145483
0
ARC
8
DEFAULT_255_2_778
10
21.1347579
20
56.741671
40
0.501716
50
176.8826672
51
179.9916695
0
LINE
8
DEFAULT_255_2_778
10
11.7048842
20
58.1519548
11
12.4187842
21
58.1519548
0
LINE
8
DEFAULT_255_2_778
10
10.2771842
20
56.7689548
11
9.5633842
21
56.7689548
0
LINE
8
DEFAULT_255_2_778
10
12.7349842
20
56.6223548
11
12.7235842
21
59.1517548
0
LINE
8
DEFAULT_255_2_778
10
12.7235842
20
59.1517548
11
13.4492842
21
59.1517548
0
LINE
8
DEFAULT_255_2_778
10
13.4492842
20
59.1517548
11
13.4492842
21
56.6686548
0
LINE
8
DEFAULT_255_2_778
10
14.9015842
20
56.6916548
11
14.8949842
21
59.1515548
0
LINE
8
DEFAULT_255_2_778
10
14.8949842
20
59.1515548
11
15.6355842
21
59.1515548
0
LINE
8
DEFAULT_255_2_778
10
15.6355842
20
59.1515548
11
15.6402842
21
56.9226548
0
LINE
8
DEFAULT_255_2_778
10
17.6013842
20
56.2291548
11
16.6316842
21
56.2291548
0
LINE
8
DEFAULT_255_2_778
10
16.6316842
20
56.2291548
11
16.6314842
21
57.2319548
0
LINE
8
DEFAULT_255_2_778
10
16.6314842
20
57.2319548
11
17.6011842
21
57.2319548
0
LINE
8
DEFAULT_255_2_778
10
17.5373842
20
57.7635548
11
16.6364842
21
57.7635548
0
LINE
8
DEFAULT_255_2_778
10
16.6364842
20
57.7635548
11
16.6364842
21
58.6096548
0
LINE
8
DEFAULT_255_2_778
10
16.6364842
20
58.6096548
11
17.5373842
21
58.6096548
0
LINE
8
DEFAULT_255_2_778
10
17.7588842
20
59.1419548
11
15.8980842
21
59.1512548
0
LINE
8
DEFAULT_255_2_778
10
15.8980842
20
59.1512548
11
15.8980842
21
55.7172548
0
LINE
8
DEFAULT_255_2_778
10
15.8980842
20
55.7172548
11
17.8572842
21
55.7201548
0
LINE
8
DEFAULT_255_2_778
10
22.0614842
20
58.1519548
11
22.7753842
21
58.1519548
0
LINE
8
DEFAULT_255_2_778
10
20.6337842
20
56.7689548
11
19.9199842
21
56.7689548
0
LINE
8
DEFAULT_255_2_778
10
94.738275
20
54.5064707
11
94.738275
21
46.5065707
0
LINE
8
DEFAULT_255_2_778
10
94.738275
20
46.5065707
11
95.138275
21
46.5065707
0
LINE
8
DEFAULT_255_2_778
10
95.138275
20
46.5065707
11
95.138275
21
54.5064707
0
LINE
8
DEFAULT_255_2_778
10
95.138275
20
54.5064707
11
94.738275
21
54.5064707
0
LINE
8
DEFAULT_255_2_778
10
95.738375
20
54.5064707
11
95.738375
21
46.5065707
0
LINE
8
DEFAULT_255_2_778
10
95.738375
20
46.5065707
11
96.138375
21
46.5065707
0
LINE
8
DEFAULT_255_2_778
10
96.138375
20
46.5065707
11
96.138375
21
54.5064707
0
LINE
8
DEFAULT_255_2_778
10
96.138375
20
54.5064707
11
95.738375
21
54.5064707
0
LINE
8
DEFAULT_255_2_778
10
96.738275
20
54.5064707
11
96.738275
21
46.5065707
0
LINE
8
DEFAULT_255_2_778
10
96.738275
20
46.5065707
11
97.138275
21
46.5065707
0
LINE
8
DEFAULT_255_2_778
10
97.138275
20
46.5065707
11
97.138275
21
54.5064707
0
LINE
8
DEFAULT_255_2_778
10
97.138275
20
54.5064707
11
96.738275
21
54.5064707
0
LINE
8
DEFAULT_255_2_778
10
97.738375
20
54.5064707
11
97.738375
21
46.5065707
0
LINE
8
DEFAULT_255_2_778
10
97.738375
20
46.5065707
11
98.138375
21
46.5065707
0
LINE
8
DEFAULT_255_2_778
10
98.138375
20
46.5065707
11
98.138375
21
54.5064707
0
LINE
8
DEFAULT_255_2_778
10
98.138375
20
54.5064707
11
97.738375
21
54.5064707
0
ARC
8
DEFAULT_255_2_778
10
25.6733403
20
30.1403813
40
0.5664906
50
268.7378747
51
288.7556844
0
ARC
8
DEFAULT_255_2_778
10
25.7522307
20
29.8992258
40
0.3127879
50
289.275628
51
315.5354947
0
ARC
8
DEFAULT_255_2_778
10
25.6943698
20
29.9408751
40
0.3834086
50
317.1504044
51
1.110779
0
ARC
8
DEFAULT_255_2_778
10
25.4892487
20
29.9618673
40
0.5886138
50
358.6799904
51
0.0059158
0
ARC
8
DEFAULT_255_2_778
10
25.706762
20
29.9760265
40
0.3713683
50
357.8243381
51
32.9416116
0
ARC
8
DEFAULT_255_2_778
10
25.7725586
20
30.007914
40
0.2989464
50
34.6703168
51
46.9939713
0
ARC
8
DEFAULT_255_2_778
10
25.7314492
20
29.9507434
40
0.3689021
50
48.3813955
51
87.7274173
0
ARC
8
DEFAULT_255_2_778
10
25.6983726
20
29.7128423
40
0.6083863
50
85.5026881
51
90.0668664
0
ARC
8
DEFAULT_255_2_778
10
25.6836663
20
29.910529
40
0.4109375
50
88.0481652
51
128.2313242
0
ARC
8
DEFAULT_255_2_778
10
25.6018036
20
30.0117963
40
0.2807352
50
127.8973139
51
181.4835557
0
ARC
8
DEFAULT_255_2_778
10
25.4484566
20
30.0134914
40
0.6853526
50
145.7483006
51
180.7493612
0
ARC
8
DEFAULT_255_2_778
10
25.5318492
20
29.9475307
40
0.7914437
50
113.6816263
51
145.1991432
0
ARC
8
DEFAULT_255_2_778
10
25.6708169
20
29.6618851
40
1.1089233
50
89.3104386
51
114.3292802
0
ARC
8
DEFAULT_255_2_778
10
25.6968268
20
29.3149512
40
1.4558319
50
77.8516151
51
90.498421
0
ARC
8
DEFAULT_255_2_778
10
25.8207377
20
29.861185
40
0.8957756
50
53.8946859
51
78.2471804
0
ARC
8
DEFAULT_255_2_778
10
25.8902952
20
29.9730031
40
0.764507
50
49.8578204
51
53.1682093
0
ARC
8
DEFAULT_255_2_778
10
25.9273611
20
30.0177665
40
0.706392
50
2.5797983
51
49.815362
0
ARC
8
DEFAULT_255_2_778
10
25.5998777
20
29.9704326
40
1.0361853
50
359.9499846
51
4.3797009
0
ARC
8
DEFAULT_255_2_778
10
26.0441761
20
29.9684567
40
0.5918875
50
323.2393896
51
0.103708
0
ARC
8
DEFAULT_255_2_778
10
25.9011369
20
30.0639539
40
0.763689
50
293.8034908
51
323.9219973
0
ARC
8
DEFAULT_255_2_778
10
25.9583959
20
28.6227223
40
0.7837724
50
49.5761288
51
71.3247658
0
ARC
8
DEFAULT_255_2_778
10
26.0792274
20
28.7771076
40
0.5879483
50
34.5358282
51
48.7844153
0
ARC
8
DEFAULT_255_2_778
10
25.9895498
20
28.7259474
40
0.6908807
50
358.7302705
51
33.8146518
0
ARC
8
DEFAULT_255_2_778
10
25.8615657
20
28.7089189
40
0.8186969
50
359.9936426
51
0.1203133
0
ARC
8
DEFAULT_255_2_778
10
25.940177
20
28.6828851
40
0.7405401
50
309.1044677
51
2.0076227
0
ARC
8
DEFAULT_255_2_778
10
25.8026142
20
28.8543461
40
0.9603602
50
280.9327734
51
309.0210449
0
ARC
8
DEFAULT_255_2_778
10
25.6939929
20
29.3433934
40
1.4611984
50
269.6145358
51
281.4777678
0
ARC
8
DEFAULT_255_2_778
10
25.6708088
20
29.1436294
40
1.261472
50
254.1368431
51
270.6065349
0
ARC
8
DEFAULT_255_2_778
10
25.5792587
20
28.8104449
40
0.9159566
50
230.4451763
51
253.9486098
0
ARC
8
DEFAULT_255_2_778
10
25.4529767
20
28.6669393
40
0.7249179
50
178.0878225
51
230.9177163
0
ARC
8
DEFAULT_255_2_778
10
25.609461
20
28.6827308
40
0.3231076
50
178.5107618
51
230.8034339
0
ARC
8
DEFAULT_255_2_778
10
25.6844791
20
28.7699286
40
0.438105
50
230.4071462
51
271.7505739
0
ARC
8
DEFAULT_255_2_778
10
25.7109797
20
28.8447009
40
0.5128406
50
268.5343645
51
293.7364758
0
ARC
8
DEFAULT_255_2_778
10
25.7676949
20
28.6968891
40
0.3547841
50
294.9609083
51
312.9791066
0
ARC
8
DEFAULT_255_2_778
10
25.7596926
20
28.7009079
40
0.3631932
50
313.4704813
51
2.4175644
0
ARC
8
DEFAULT_255_2_778
10
25.6100753
20
28.7289956
40
0.5126462
50
358.572898
51
21.8436929
0
ARC
8
DEFAULT_255_2_778
10
25.77241
20
28.7814693
40
0.3426422
50
23.7996102
51
79.6728356
0
ARC
8
DEFAULT_255_2_778
10
25.6680532
20
28.3938159
40
0.7434641
50
77.1155382
51
90.6774719
0
ARC
8
DEFAULT_255_2_778
10
28.2853994
20
28.6748994
40
0.297198
50
356.9001534
51
52.5144686
0
ARC
8
DEFAULT_255_2_778
10
28.0363389
20
28.3183723
40
0.7319287
50
54.0283742
51
65.1002862
0
ARC
8
DEFAULT_255_2_778
10
27.530953
20
27.2686643
40
1.8969169
50
64.6034597
51
70.130159
0
ARC
8
DEFAULT_255_2_778
10
26.9910159
20
25.8208226
40
3.4421166
50
69.8689222
51
72.0949387
0
ARC
8
DEFAULT_255_2_778
10
29.3268603
20
33.0896153
40
4.1927792
50
248.5636333
51
252.2590529
0
ARC
8
DEFAULT_255_2_778
10
28.6042942
20
31.2604628
40
2.2260894
50
243.0773887
51
248.6687938
0
ARC
8
DEFAULT_255_2_778
10
28.2696685
20
30.58227
40
1.4699118
50
241.6850288
51
242.7375659
0
ARC
8
DEFAULT_255_2_778
10
28.1215012
20
30.3303959
40
1.1779462
50
227.8047863
51
242.2186805
0
ARC
8
DEFAULT_255_2_778
10
27.7874977
20
29.9797816
40
0.6939564
50
179.5503148
51
228.7920433
0
ARC
8
DEFAULT_255_2_778
10
27.7726696
20
29.9942869
40
0.6791674
50
144.1940711
51
180.7642387
0
ARC
8
DEFAULT_255_2_778
10
27.8660283
20
29.9156071
40
0.8009654
50
115.7269424
51
143.5366101
0
ARC
8
DEFAULT_255_2_778
10
28.014873
20
29.6512995
40
1.1038535
50
112.5946411
51
116.7318146
0
ARC
8
DEFAULT_255_2_778
10
28.0971748
20
29.426583
40
1.3429832
50
92.5084995
51
112.1529342
0
ARC
8
DEFAULT_255_2_778
10
28.1297783
20
29.0645221
40
1.7062062
50
89.9770207
51
93.0701703
0
ARC
8
DEFAULT_255_2_778
10
28.1440885
20
29.426567
40
1.3442302
50
72.9829259
51
90.5807945
0
ARC
8
DEFAULT_255_2_778
10
28.2070907
20
29.6643574
40
1.0984527
50
65.2273746
51
72.4953712
0
ARC
8
DEFAULT_255_2_778
10
28.3216277
20
29.8796574
40
0.8550831
50
33.6704145
51
66.15092
0
ARC
8
DEFAULT_255_2_778
10
28.3586098
20
29.9142866
40
0.8051491
50
359.1133949
51
33.0785918
0
ARC
8
DEFAULT_255_2_778
10
28.17316
20
29.9160592
40
0.4115487
50
358.0183481
51
32.1522926
0
ARC
8
DEFAULT_255_2_778
10
28.2382762
20
29.9458429
40
0.3406996
50
33.7395303
51
48.7841023
0
ARC
8
DEFAULT_255_2_778
10
28.1805231
20
29.8654659
40
0.4393183
50
50.0253445
51
83.7859235
0
ARC
8
DEFAULT_255_2_778
10
28.1242128
20
29.5493898
40
0.7599441
50
82.1446359
51
90.2224305
0
ARC
8
DEFAULT_255_2_778
10
28.1086327
20
29.6193582
40
0.6900855
50
88.951321
51
106.7533471
0
ARC
8
DEFAULT_255_2_778
10
28.0264548
20
29.9047309
40
0.3931537
50
107.2735475
51
126.7788815
0
ARC
8
DEFAULT_255_2_778
10
27.9562862
20
29.9897399
40
0.2831033
50
125.7052999
51
181.3584919
0
ARC
8
DEFAULT_255_2_778
10
27.9385086
20
29.987727
40
0.2652876
50
181.014917
51
238.0707596
0
ARC
8
DEFAULT_255_2_778
10
28.0716697
20
30.141814
40
0.4675504
50
234.2049893
51
236.1688969
0
ARC
8
DEFAULT_255_2_778
10
28.3800125
20
30.6277645
40
1.0429894
50
236.9608735
51
247.3791064
0
ARC
8
DEFAULT_255_2_778
10
28.8307382
20
31.6758656
40
2.1838617
50
247.040183
51
252.7800313
0
ARC
8
DEFAULT_255_2_778
10
29.1178688
20
32.5508369
40
3.1046525
50
252.4989129
51
253.146729
0
ARC
8
DEFAULT_255_2_778
10
27.4022897
20
26.8233596
40
2.8742757
50
67.0568371
51
73.5179939
0
ARC
8
DEFAULT_255_2_778
10
27.8622471
20
27.8985772
40
1.7048227
50
57.4780864
51
67.2057931
0
ARC
8
DEFAULT_255_2_778
10
28.2225552
20
28.4659261
40
1.0327332
50
46.1532332
51
57.4108097
0
ARC
8
DEFAULT_255_2_778
10
28.4301038
20
28.6806739
40
0.734083
50
358.5835581
51
46.2250655
0
ARC
8
DEFAULT_255_2_778
10
28.487769
20
28.6358534
40
0.6767195
50
306.2230017
51
2.2590521
0
ARC
8
DEFAULT_255_2_778
10
28.3071506
20
28.8810085
40
0.981225
50
283.0465287
51
306.272028
0
ARC
8
DEFAULT_255_2_778
10
28.1694526
20
29.4342556
40
1.5513029
50
271.0095403
51
283.3882571
0
ARC
8
DEFAULT_255_2_778
10
28.1447561
20
29.9169028
40
2.0343748
50
269.9917335
51
271.4654892
0
ARC
8
DEFAULT_255_2_778
10
28.1299494
20
29.3522667
40
1.4698102
50
250.4602243
51
270.5657575
0
ARC
8
DEFAULT_255_2_778
10
28.0816278
20
29.1859315
40
1.296932
50
245.9779726
51
250.0142927
0
ARC
8
DEFAULT_255_2_778
10
27.9527863
20
28.9304204
40
1.0111935
50
225.7437661
51
246.7523862
0
ARC
8
DEFAULT_255_2_778
10
27.8257414
20
28.7870425
40
0.819892
50
214.1549575
51
225.1102003
0
ARC
8
DEFAULT_255_2_778
10
27.8411464
20
28.7893152
40
0.8339434
50
178.8791553
51
213.6899465
0
ARC
8
DEFAULT_255_2_778
10
28.1206428
20
28.7925607
40
0.5324406
50
178.5936801
51
202.8376156
0
ARC
8
DEFAULT_255_2_778
10
27.9804016
20
28.7486099
40
0.3863858
50
204.9029663
51
255.355248
0
ARC
8
DEFAULT_255_2_778
10
28.1178912
20
29.1710095
40
0.8302377
50
253.5448097
51
268.9491758
0
ARC
8
DEFAULT_255_2_778
10
28.1440643
20
29.5947645
40
1.2545365
50
268.1089213
51
270.0181872
0
ARC
8
DEFAULT_255_2_778
10
28.1569988
20
29.0365105
40
0.6963953
50
268.968526
51
286.3477879
0
ARC
8
DEFAULT_255_2_778
10
28.2389615
20
28.7442769
40
0.3929232
50
286.8735044
51
305.4336613
0
ARC
8
DEFAULT_255_2_778
10
28.3100085
20
28.6474893
40
0.2728774
50
305.061026
51
2.3184254
0
LINE
8
DEFAULT_255_2_778
10
25.3634626
20
29.1377281
11
25.3634626
21
29.5740281
0
LINE
8
DEFAULT_255_2_778
10
25.3634626
20
29.5740281
11
25.6608626
21
29.5740281
0
LINE
8
DEFAULT_255_2_778
10
25.3211626
20
30.0045281
11
24.7631626
21
30.0045281
0
LINE
8
DEFAULT_255_2_778
10
24.7284626
20
28.6911281
11
25.2864626
21
28.6911281
0
LINE
8
DEFAULT_255_2_778
10
25.6592626
20
29.1372281
11
25.3639626
21
29.1372281
0
LINE
8
DEFAULT_255_2_778
10
25.3639626
20
29.1372281
11
25.3634626
21
29.1377281
0
LINE
8
DEFAULT_255_2_778
10
29.1636626
20
29.9018281
11
28.5844626
21
29.9018281
0
LINE
8
DEFAULT_255_2_778
10
27.0073626
20
28.8056281
11
27.5883626
21
28.8056281
0
LINE
8
DEFAULT_255_2_778
10
28.5826626
20
28.6585281
11
28.5821626
21
28.6588281
0
LINE
8
DEFAULT_255_2_778
10
21.7472365
20
29.5159031
11
21.7472365
21
29.0433031
0
LINE
8
DEFAULT_255_2_778
10
21.7472365
20
29.0433031
11
20.6222365
21
29.0433031
0
LINE
8
DEFAULT_255_2_778
10
20.6222365
20
29.0433031
11
20.6222365
21
27.8813031
0
LINE
8
DEFAULT_255_2_778
10
20.6222365
20
27.8813031
11
20.0361365
21
27.8813031
0
LINE
8
DEFAULT_255_2_778
10
20.0361365
20
27.8813031
11
20.0361365
21
30.7250031
0
LINE
8
DEFAULT_255_2_778
10
20.0361365
20
30.7250031
11
21.8877365
21
30.7250031
0
LINE
8
DEFAULT_255_2_778
10
21.8877365
20
30.7250031
11
21.8877365
21
30.2503031
0
LINE
8
DEFAULT_255_2_778
10
21.8877365
20
30.2503031
11
20.6222365
21
30.2503031
0
LINE
8
DEFAULT_255_2_778
10
20.6222365
20
30.2503031
11
20.6222365
21
29.5159031
0
LINE
8
DEFAULT_255_2_778
10
20.6222365
20
29.5159031
11
21.7472365
21
29.5159031
0
LINE
8
DEFAULT_255_2_778
10
21.7472365
20
29.5159031
11
21.7472365
21
29.5159031
0
LINE
8
DEFAULT_255_2_778
10
22.7118365
20
30.7247031
11
23.2450365
21
29.7442031
0
LINE
8
DEFAULT_255_2_778
10
23.2450365
20
29.7442031
11
23.7781365
21
30.7247031
0
LINE
8
DEFAULT_255_2_778
10
23.7781365
20
30.7247031
11
24.4520365
21
30.7247031
0
LINE
8
DEFAULT_255_2_778
10
24.4520365
20
30.7247031
11
23.6238365
21
29.3145031
0
LINE
8
DEFAULT_255_2_778
10
23.6238365
20
29.3145031
11
24.4734365
21
27.8810031
0
LINE
8
DEFAULT_255_2_778
10
24.4734365
20
27.8810031
11
23.7919365
21
27.8810031
0
LINE
8
DEFAULT_255_2_778
10
23.7919365
20
27.8810031
11
23.2450365
21
28.8772031
0
LINE
8
DEFAULT_255_2_778
10
23.2450365
20
28.8772031
11
22.6981365
21
27.8810031
0
LINE
8
DEFAULT_255_2_778
10
22.6981365
20
27.8810031
11
22.0165365
21
27.8810031
0
LINE
8
DEFAULT_255_2_778
10
22.0165365
20
27.8810031
11
22.8661365
21
29.3145031
0
LINE
8
DEFAULT_255_2_778
10
22.8661365
20
29.3145031
11
22.0379365
21
30.7247031
0
LINE
8
DEFAULT_255_2_778
10
22.0379365
20
30.7247031
11
22.7118365
21
30.7247031
0
LINE
8
DEFAULT_255_2_778
10
22.7118365
20
30.7247031
11
22.7118365
21
30.7247031
0
ARC
8
DEFAULT_255_2_778
10
73.6624459
20
37.29005
40
0.3013043
50
267.617375
51
297.265981
0
ARC
8
DEFAULT_255_2_778
10
73.7119553
20
37.1784172
40
0.1795356
50
299.5429659
51
315.8244998
0
ARC
8
DEFAULT_255_2_778
10
73.6668475
20
37.2129429
40
0.2360412
50
317.4441556
51
2.7350588
0
ARC
8
DEFAULT_255_2_778
10
73.6942798
20
37.2363144
40
0.2086916
50
356.6738495
51
45.2430095
0
ARC
8
DEFAULT_255_2_778
10
73.6858391
20
37.2049284
40
0.2374687
50
49.131806
51
93.2878175
0
ARC
8
DEFAULT_255_2_778
10
73.6638889
20
37.1918039
40
0.250341
50
88.0929422
51
128.0999083
0
ARC
8
DEFAULT_255_2_778
10
73.6138929
20
37.2545311
40
0.1701306
50
127.8847831
51
181.4903616
0
ARC
8
DEFAULT_255_2_778
10
73.5227835
20
37.2554426
40
0.4170978
50
145.8465057
51
180.7330593
0
ARC
8
DEFAULT_255_2_778
10
73.5722585
20
37.2149228
40
0.4808229
50
113.696484
51
145.1606291
0
ARC
8
DEFAULT_255_2_778
10
73.6560562
20
37.0439213
40
0.6711322
50
89.3201121
51
114.3801908
0
ARC
8
DEFAULT_255_2_778
10
73.6767028
20
36.8974834
40
0.8176212
50
73.2959671
51
90.8888116
0
ARC
8
DEFAULT_255_2_778
10
73.7634533
20
37.1957
40
0.5070608
50
50.2599934
51
72.9992409
0
ARC
8
DEFAULT_255_2_778
10
73.8019847
20
37.2522311
40
0.4390062
50
358.1470614
51
49.4100944
0
ARC
8
DEFAULT_255_2_778
10
73.5760487
20
37.2292246
40
0.6647711
50
359.998414
51
0.759479
0
ARC
8
DEFAULT_255_2_778
10
73.882425
20
37.2287049
40
0.3583952
50
323.1777402
51
0.0801475
0
ARC
8
DEFAULT_255_2_778
10
73.795134
20
37.2861018
40
0.4627153
50
293.8215512
51
323.9665725
0
ARC
8
DEFAULT_255_2_778
10
73.8490291
20
36.4499899
40
0.4337094
50
39.3256075
51
72.1434129
0
ARC
8
DEFAULT_255_2_778
10
73.9088973
20
36.5106136
40
0.3490939
50
34.4927516
51
37.8555499
0
ARC
8
DEFAULT_255_2_778
10
73.8488405
20
36.4749712
40
0.4188027
50
358.6092108
51
33.8587854
0
ARC
8
DEFAULT_255_2_778
10
73.8190889
20
36.4491482
40
0.4487042
50
309.0743422
51
1.9998041
0
ARC
8
DEFAULT_255_2_778
10
73.7247022
20
36.5731785
40
0.604507
50
276.4992088
51
308.6094638
0
ARC
8
DEFAULT_255_2_778
10
73.666444
20
36.9062673
40
0.9422657
50
269.8161102
51
277.726476
0
ARC
8
DEFAULT_255_2_778
10
73.6498243
20
36.6749362
40
0.71106
50
247.5116784
51
271.0955655
0
ARC
8
DEFAULT_255_2_778
10
73.5937337
20
36.5174645
40
0.5441733
50
230.3118188
51
246.6264885
0
ARC
8
DEFAULT_255_2_778
10
73.5232399
20
36.4398639
40
0.4394641
50
178.0906302
51
230.923396
0
ARC
8
DEFAULT_255_2_778
10
73.6181388
20
36.4494875
40
0.1960832
50
178.53336
51
230.7665698
0
ARC
8
DEFAULT_255_2_778
10
73.6633267
20
36.5021196
40
0.2654367
50
230.3968874
51
271.7472144
0
ARC
8
DEFAULT_255_2_778
10
73.6852863
20
36.510788
40
0.2743324
50
267.1026814
51
306.5772019
0
ARC
8
DEFAULT_255_2_778
10
73.7162167
20
36.4550082
40
0.2112737
50
308.856009
51
313.0055076
0
ARC
8
DEFAULT_255_2_778
10
73.7088762
20
36.4602781
40
0.2201413
50
313.4671112
51
2.4285528
0
ARC
8
DEFAULT_255_2_778
10
73.6566585
20
36.4827589
40
0.2724789
50
357.2332405
51
32.7037651
0
ARC
8
DEFAULT_255_2_778
10
73.702833
20
36.4894143
40
0.2308403
50
37.5115651
51
84.8636864
0
ARC
8
DEFAULT_255_2_778
10
73.6504878
20
36.2271165
40
0.4975968
50
81.5626477
51
90.3072075
0
ARC
8
DEFAULT_255_2_778
10
75.2407162
20
36.4440106
40
0.1800708
50
356.8788511
51
52.4664961
0
ARC
8
DEFAULT_255_2_778
10
75.0540123
20
36.16976
40
0.5116493
50
54.5974297
51
67.2290981
0
ARC
8
DEFAULT_255_2_778
10
74.6114904
20
35.1654442
40
1.6090814
50
66.5413565
51
72.3982211
0
LINE
8
DEFAULT_255_2_778
10
75.0980758
20
36.6991904
11
75.0977198
21
36.6993062
0
ARC
8
DEFAULT_255_2_778
10
75.8026436
20
38.9195344
40
2.3294485
50
247.2943262
51
252.3853255
0
ARC
8
DEFAULT_255_2_778
10
75.3529095
20
37.8385243
40
1.1586232
50
241.9804512
51
247.1762613
0
ARC
8
DEFAULT_255_2_778
10
75.1083679
20
37.3975052
40
0.6544761
50
222.0020286
51
242.7420711
0
ARC
8
DEFAULT_255_2_778
10
74.9313092
20
37.2332738
40
0.4130187
50
179.3157307
51
221.507631
0
ARC
8
DEFAULT_255_2_778
10
74.9296198
20
37.2437244
40
0.411337
50
144.1712978
51
180.7686591
0
ARC
8
DEFAULT_255_2_778
10
75.0017517
20
37.1805239
40
0.5068949
50
111.0456521
51
143.1519511
0
ARC
8
DEFAULT_255_2_778
10
75.1341543
20
36.8736198
40
0.8409803
50
89.143883
51
111.9557515
0
ARC
8
DEFAULT_255_2_778
10
75.1604932
20
36.9493713
40
0.7652589
50
65.9698561
51
91.0312863
0
ARC
8
DEFAULT_255_2_778
10
75.2636161
20
37.1754277
40
0.5168055
50
33.6509614
51
66.2061411
0
ARC
8
DEFAULT_255_2_778
10
75.2851495
20
37.1952386
40
0.4879239
50
359.1506928
51
33.1156266
0
ARC
8
DEFAULT_255_2_778
10
75.1924706
20
37.2008431
40
0.2298081
50
356.7978528
51
47.4007762
0
ARC
8
DEFAULT_255_2_778
10
75.1684686
20
37.1493805
40
0.2844545
50
50.8603684
51
89.0237531
0
ARC
8
DEFAULT_255_2_778
10
75.1413604
20
36.9301959
40
0.5046106
50
86.3692788
51
90.0500191
0
ARC
8
DEFAULT_255_2_778
10
75.1282888
20
37.0652584
40
0.3697636
50
88.0424138
51
114.043185
0
ARC
8
DEFAULT_255_2_778
10
75.0746169
20
37.2039295
40
0.2213829
50
115.980155
51
127.1834693
0
ARC
8
DEFAULT_255_2_778
10
75.0411851
20
37.2408582
40
0.1718108
50
125.7438076
51
181.3180355
0
ARC
8
DEFAULT_255_2_778
10
75.0336262
20
37.2408204
40
0.164253
50
181.3654948
51
240.6104304
0
ARC
8
DEFAULT_255_2_778
10
75.332462
20
37.6899702
40
0.7033868
50
237.3537754
51
249.6988028
0
ARC
8
DEFAULT_255_2_778
10
75.6344594
20
38.4480111
40
1.5192538
50
248.9357869
51
253.3564536
0
ARC
8
DEFAULT_255_2_778
10
74.7424624
20
35.4311671
40
1.6267102
50
64.9803469
51
73.6892099
0
ARC
8
DEFAULT_255_2_778
10
75.0899668
20
36.1634988
40
0.8161454
50
50.3620512
51
65.3433801
0
ARC
8
DEFAULT_255_2_778
10
75.2619164
20
36.3845764
40
0.5362722
50
45.7801593
51
49.4414559
0
ARC
8
DEFAULT_255_2_778
10
75.3274846
20
36.4476188
40
0.4453739
50
358.5702597
51
46.169202
0
ARC
8
DEFAULT_255_2_778
10
75.3636428
20
36.4202351
40
0.4094005
50
306.1623361
51
2.2777575
0
ARC
8
DEFAULT_255_2_778
10
75.238999
20
36.5966986
40
0.6254271
50
278.5313791
51
305.8420874
0
ARC
8
DEFAULT_255_2_778
10
75.1604116
20
37.0050256
40
1.0410355
50
269.6812339
51
279.4748719
0
ARC
8
DEFAULT_255_2_778
10
75.1432322
20
36.8343752
40
0.8704434
50
246.5198201
51
270.7495985
0
ARC
8
DEFAULT_255_2_778
10
75.0133663
20
36.5595474
40
0.5667108
50
215.1716406
51
247.4917235
0
ARC
8
DEFAULT_255_2_778
10
74.9689434
20
36.5133286
40
0.5039223
50
178.8654691
51
213.7852992
0
ARC
8
DEFAULT_255_2_778
10
75.1018519
20
36.5096469
40
0.2848597
50
177.2515599
51
214.7273543
0
ARC
8
DEFAULT_255_2_778
10
75.0734534
20
36.5147207
40
0.2651919
50
219.1278962
51
261.0942964
0
ARC
8
DEFAULT_255_2_778
10
75.1484691
20
36.8353472
40
0.5940707
50
258.7330599
51
270.5739368
0
ARC
8
DEFAULT_255_2_778
10
75.1669163
20
36.6157686
40
0.3746708
50
268.0886407
51
293.3160444
0
ARC
8
DEFAULT_255_2_778
10
75.2208811
20
36.4718147
40
0.2212378
50
295.2379121
51
305.6800392
0
ARC
8
DEFAULT_255_2_778
10
75.2547075
20
36.4274165
40
0.1654517
50
305.132476
51
2.3519345
0
LINE
8
DEFAULT_255_2_778
10
73.4697198
20
36.7244062
11
73.4697198
21
36.9890062
0
LINE
8
DEFAULT_255_2_778
10
73.4697198
20
36.9890062
11
73.6499198
21
36.9890062
0
LINE
8
DEFAULT_255_2_778
10
73.4438198
20
37.2501062
11
73.1057198
21
37.2501062
0
LINE
8
DEFAULT_255_2_778
10
73.0840198
20
36.4545062
11
73.4221198
21
36.4545062
0
LINE
8
DEFAULT_255_2_778
10
73.6478198
20
36.7247062
11
73.4687198
21
36.7247062
0
LINE
8
DEFAULT_255_2_778
10
73.4687198
20
36.7247062
11
73.4697198
21
36.7244062
0
LINE
8
DEFAULT_255_2_778
10
75.7730198
20
37.1880062
11
75.4219198
21
37.1880062
0
LINE
8
DEFAULT_255_2_778
10
74.4651198
20
36.5233062
11
74.8173198
21
36.5233062
0
LINE
8
DEFAULT_255_2_778
10
75.4200198
20
36.4342062
11
75.4205198
21
36.4342062
0
ARC
8
DEFAULT_255_2_778
10
77.7234019
20
37.2989163
40
0.3175572
50
267.7253428
51
296.3948638
0
ARC
8
DEFAULT_255_2_778
10
77.7754545
20
37.1783687
40
0.1865663
50
298.5339745
51
316.0172537
0
ARC
8
DEFAULT_255_2_778
10
77.7290646
20
37.2155203
40
0.2458069
50
317.2953494
51
2.7023197
0
ARC
8
DEFAULT_255_2_778
10
77.7575357
20
37.2397806
40
0.2174319
50
356.6590989
51
45.2918716
0
ARC
8
DEFAULT_255_2_778
10
77.748425
20
37.206296
40
0.2482271
50
49.2376777
51
93.3087715
0
ARC
8
DEFAULT_255_2_778
10
77.725232
20
37.1943163
40
0.2599443
50
88.0453927
51
128.1949989
0
ARC
8
DEFAULT_255_2_778
10
77.6740431
20
37.2584306
40
0.177905
50
128.006424
51
181.4884707
0
ARC
8
DEFAULT_255_2_778
10
77.5769324
20
37.2594951
40
0.4334716
50
145.7573124
51
180.7515591
0
ARC
8
DEFAULT_255_2_778
10
77.6296296
20
37.2175144
40
0.5006824
50
113.660429
51
145.1792643
0
ARC
8
DEFAULT_255_2_778
10
77.7176256
20
37.0367054
40
0.7016527
50
89.3244695
51
114.3167891
0
ARC
8
DEFAULT_255_2_778
10
77.7387694
20
36.8813927
40
0.8570134
50
73.5963539
51
90.8605499
0
ARC
8
DEFAULT_255_2_778
10
77.82886
20
37.1953435
40
0.5304045
50
50.2954032
51
73.3547063
0
ARC
8
DEFAULT_255_2_778
10
77.8709835
20
37.2565261
40
0.4564729
50
358.7175765
51
49.4572133
0
ARC
8
DEFAULT_255_2_778
10
77.6393791
20
37.2316583
40
0.6881189
50
359.9959277
51
1.2200547
0
ARC
8
DEFAULT_255_2_778
10
77.952516
20
37.2310677
40
0.3749825
50
323.3077393
51
0.0827632
0
ARC
8
DEFAULT_255_2_778
10
77.8641962
20
37.2898152
40
0.4809383
50
293.750727
51
323.9827045
0
ARC
8
DEFAULT_255_2_778
10
77.9174138
20
36.4153313
40
0.4564354
50
40.4206496
51
72.0741671
0
ARC
8
DEFAULT_255_2_778
10
77.9805456
20
36.4808868
40
0.365977
50
34.5438712
51
39.015669
0
ARC
8
DEFAULT_255_2_778
10
77.9185167
20
36.4450781
40
0.4374115
50
358.6023859
51
33.8001845
0
ARC
8
DEFAULT_255_2_778
10
77.8882824
20
36.4180216
40
0.4678028
50
309.0658797
51
2.0075519
0
ARC
8
DEFAULT_255_2_778
10
77.7900366
20
36.5458164
40
0.6289557
50
276.6732111
51
308.6780026
0
ARC
8
DEFAULT_255_2_778
10
77.7291392
20
36.8902785
40
0.9783746
50
269.810193
51
277.8712575
0
ARC
8
DEFAULT_255_2_778
10
77.7125183
20
36.6610038
40
0.7492139
50
248.4665691
51
271.0232704
0
ARC
8
DEFAULT_255_2_778
10
77.6534825
20
36.4896784
40
0.5682336
50
230.3111235
51
247.6630505
0
ARC
8
DEFAULT_255_2_778
10
77.5799981
20
36.4083621
40
0.4587535
50
178.0953544
51
230.8878795
0
ARC
8
DEFAULT_255_2_778
10
77.6783445
20
36.4184605
40
0.2042113
50
178.5552342
51
230.8438415
0
ARC
8
DEFAULT_255_2_778
10
77.7258899
20
36.4730733
40
0.2765918
50
230.3500836
51
271.7420129
0
ARC
8
DEFAULT_255_2_778
10
77.7480803
20
36.4860527
40
0.2897713
50
267.2738372
51
305.2038337
0
ARC
8
DEFAULT_255_2_778
10
77.7809061
20
36.4248111
40
0.2209697
50
307.4039106
51
312.9259308
0
ARC
8
DEFAULT_255_2_778
10
77.773718
20
36.4296177
40
0.2293934
50
313.4229315
51
2.4714132
0
ARC
8
DEFAULT_255_2_778
10
77.7151321
20
36.4526084
40
0.288064
50
357.3937047
51
31.4621718
0
ARC
8
DEFAULT_255_2_778
10
77.769599
20
36.4641099
40
0.2363361
50
35.9803842
51
84.0992838
0
ARC
8
DEFAULT_255_2_778
10
77.7131526
20
36.195103
40
0.5105163
50
80.8999334
51
90.3540406
0
ARC
8
DEFAULT_255_2_778
10
78.4595952
20
36.6590434
40
1.3348611
50
348.8359918
51
0.535081
0
ARC
8
DEFAULT_255_2_778
10
79.0468049
20
36.5373037
40
0.7352145
50
327.7676054
51
349.2834401
0
ARC
8
DEFAULT_255_2_778
10
79.2025248
20
36.4501681
40
0.5570966
50
322.0292567
51
326.8062826
0
ARC
8
DEFAULT_255_2_778
10
79.243806
20
36.4226879
40
0.50766
50
273.4938586
51
321.6076798
0
ARC
8
DEFAULT_255_2_778
10
79.1960922
20
36.7146679
40
0.8025597
50
269.9076091
51
275.6240517
0
ARC
8
DEFAULT_255_2_778
10
79.1811879
20
36.5463724
40
0.6344091
50
246.4945333
51
271.2292808
0
ARC
8
DEFAULT_255_2_778
10
79.1289619
20
36.4038035
40
0.4829241
50
218.4192188
51
245.4303185
0
ARC
8
DEFAULT_255_2_778
10
79.2847841
20
36.5168232
40
0.6752909
50
192.7863066
51
217.7166525
0
ARC
8
DEFAULT_255_2_778
10
79.8111283
20
36.6481353
40
1.2176993
50
180.7014912
51
193.3306048
0
ARC
8
DEFAULT_255_2_778
10
80.2450314
20
36.6700193
40
1.651921
50
180.5899894
51
181.2762229
0
ARC
8
DEFAULT_255_2_778
10
79.93177
20
36.9926922
40
1.338632
50
168.8936794
51
180.5428547
0
ARC
8
DEFAULT_255_2_778
10
79.3350634
20
37.1154434
40
0.7294761
50
148.2112347
51
169.3263481
0
ARC
8
DEFAULT_255_2_778
10
79.1717389
20
37.2060016
40
0.5430216
50
141.3422383
51
147.254872
0
ARC
8
DEFAULT_255_2_778
10
79.147531
20
37.2206215
40
0.5149987
50
92.8195325
51
140.9300108
0
ARC
8
DEFAULT_255_2_778
10
79.191708
20
36.9347608
40
0.8032492
50
89.9293803
51
94.9643555
0
ARC
8
DEFAULT_255_2_778
10
79.2059893
20
37.0992532
40
0.6388944
50
66.9701197
51
91.1920363
0
ARC
8
DEFAULT_255_2_778
10
79.2591198
20
37.2460671
40
0.4830717
50
38.5338144
51
65.9572598
0
ARC
8
DEFAULT_255_2_778
10
79.1057573
20
37.1350136
40
0.6722777
50
12.7889071
51
37.7948263
0
ARC
8
DEFAULT_255_2_778
10
78.5781374
20
37.0032633
40
1.2160289
50
0.698669
51
13.3396252
0
ARC
8
DEFAULT_255_2_778
10
78.1427454
20
36.9813013
40
1.6517403
50
0.589988
51
1.2762804
0
ARC
8
DEFAULT_255_2_778
10
78.3612249
20
37.0419251
40
1.0805357
50
359.3840612
51
9.0029984
0
ARC
8
DEFAULT_255_2_778
10
79.0204967
20
37.1532781
40
0.4120172
50
8.0553542
51
28.7716973
0
ARC
8
DEFAULT_255_2_778
10
78.8828891
20
37.0542856
40
0.5806468
50
30.7987157
51
30.8468511
0
ARC
8
DEFAULT_255_2_778
10
79.2050614
20
37.2489283
40
0.2042555
50
30.3092491
51
93.4701577
0
ARC
8
DEFAULT_255_2_778
10
79.1801845
20
37.2529575
40
0.2002432
50
86.4171421
51
148.692747
0
ARC
8
DEFAULT_255_2_778
10
79.3611892
20
37.1556893
40
0.4055835
50
150.2397744
51
171.5797357
0
ARC
8
DEFAULT_255_2_778
10
79.9536978
20
37.0481634
40
1.0076411
50
170.4649498
51
179.4799405
0
ARC
8
DEFAULT_255_2_778
10
80.0059602
20
36.6129818
40
1.0599326
50
179.3390107
51
189.6169294
0
ARC
8
DEFAULT_255_2_778
10
79.3884414
20
36.5041771
40
0.4329347
50
189.0726057
51
207.7779756
0
ARC
8
DEFAULT_255_2_778
10
79.1827743
20
36.3978596
40
0.2014276
50
208.2857178
51
273.5076715
0
ARC
8
DEFAULT_255_2_778
10
79.208688
20
36.3945362
40
0.1981934
50
266.0682079
51
330.9203618
0
ARC
8
DEFAULT_255_2_778
10
78.9879465
20
36.5050855
40
0.444967
50
332.2946525
51
352.0658417
0
ARC
8
DEFAULT_255_2_778
10
78.3580347
20
36.6113248
40
1.0836676
50
351.0996923
51
359.8405651
0
LINE
8
DEFAULT_255_2_778
10
71.2839981
20
36.9583093
11
71.2839981
21
36.6628093
0
LINE
8
DEFAULT_255_2_778
10
71.2839981
20
36.6628093
11
70.5807981
21
36.6628093
0
LINE
8
DEFAULT_255_2_778
10
70.5807981
20
36.6628093
11
70.5807981
21
35.9365093
0
LINE
8
DEFAULT_255_2_778
10
70.5807981
20
35.9365093
11
70.2145981
21
35.9365093
0
LINE
8
DEFAULT_255_2_778
10
70.2145981
20
35.9365093
11
70.2145981
21
37.7140093
0
LINE
8
DEFAULT_255_2_778
10
70.2145981
20
37.7140093
11
71.3718981
21
37.7140093
0
LINE
8
DEFAULT_255_2_778
10
71.3718981
20
37.7140093
11
71.3718981
21
37.4174093
0
LINE
8
DEFAULT_255_2_778
10
71.3718981
20
37.4174093
11
70.5807981
21
37.4174093
0
LINE
8
DEFAULT_255_2_778
10
70.5807981
20
37.4174093
11
70.5807981
21
36.9583093
0
LINE
8
DEFAULT_255_2_778
10
70.5807981
20
36.9583093
11
71.2839981
21
36.9583093
0
LINE
8
DEFAULT_255_2_778
10
71.2839981
20
36.9583093
11
71.2839981
21
36.9583093
0
LINE
8
DEFAULT_255_2_778
10
71.8869981
20
37.7140093
11
72.2203981
21
37.1012093
0
LINE
8
DEFAULT_255_2_778
10
72.2203981
20
37.1012093
11
72.5537981
21
37.7140093
0
LINE
8
DEFAULT_255_2_778
10
72.5537981
20
37.7140093
11
72.9749981
21
37.7140093
0
LINE
8
DEFAULT_255_2_778
10
72.9749981
20
37.7140093
11
72.4574981
21
36.8326093
0
LINE
8
DEFAULT_255_2_778
10
72.4574981
20
36.8326093
11
72.9884981
21
35.9368093
0
LINE
8
DEFAULT_255_2_778
10
72.9884981
20
35.9368093
11
72.5624981
21
35.9368093
0
LINE
8
DEFAULT_255_2_778
10
72.5624981
20
35.9368093
11
72.2206981
21
36.5593093
0
LINE
8
DEFAULT_255_2_778
10
72.2206981
20
36.5593093
11
71.8787981
21
35.9368093
0
LINE
8
DEFAULT_255_2_778
10
71.8787981
20
35.9368093
11
71.4528981
21
35.9368093
0
LINE
8
DEFAULT_255_2_778
10
71.4528981
20
35.9368093
11
71.9838981
21
36.8326093
0
LINE
8
DEFAULT_255_2_778
10
71.9838981
20
36.8326093
11
71.4662981
21
37.7140093
0
LINE
8
DEFAULT_255_2_778
10
71.4662981
20
37.7140093
11
71.8875981
21
37.7140093
0
LINE
8
DEFAULT_255_2_778
10
71.8875981
20
37.7140093
11
71.8869981
21
37.7140093
0
LINE
8
DEFAULT_255_2_778
10
76.8952981
20
36.8398093
11
76.8952981
21
36.5553093
0
LINE
8
DEFAULT_255_2_778
10
76.8952981
20
36.5553093
11
76.2078981
21
36.5553093
0
LINE
8
DEFAULT_255_2_778
10
76.2078981
20
36.5553093
11
76.2078981
21
36.8398093
0
LINE
8
DEFAULT_255_2_778
10
76.2078981
20
36.8398093
11
76.8952981
21
36.8398093
0
LINE
8
DEFAULT_255_2_778
10
76.8952981
20
36.8398093
11
76.8952981
21
36.8398093
0
LINE
8
DEFAULT_255_2_778
10
77.5226981
20
36.7056093
11
77.5226981
21
36.9816093
0
LINE
8
DEFAULT_255_2_778
10
77.5226981
20
36.9816093
11
77.7107981
21
36.9816093
0
LINE
8
DEFAULT_255_2_778
10
77.4961981
20
37.2538093
11
77.1434981
21
37.2538093
0
LINE
8
DEFAULT_255_2_778
10
77.1214981
20
36.4236093
11
77.4741981
21
36.4236093
0
LINE
8
DEFAULT_255_2_778
10
77.7099981
20
36.7056093
11
77.5231981
21
36.7056093
0
LINE
8
DEFAULT_255_2_778
10
77.5231981
20
36.7056093
11
77.5226981
21
36.7056093
0
LINE
8
DEFAULT_255_2_778
10
79.7943981
20
36.9985093
11
79.7943981
21
36.6715093
0
LINE
8
DEFAULT_255_2_778
10
78.5931981
20
36.6530093
11
78.5931981
21
36.9800093
0
LINE
8
DEFAULT_255_2_778
10
79.7943981
20
36.9983093
11
79.7943981
21
36.9985093
0
LINE
8
DEFAULT_255_2_778
10
79.4416981
20
36.6080093
11
79.4416981
21
37.0303093
0
LINE
8
DEFAULT_255_2_778
10
78.9460981
20
37.0573093
11
78.9460981
21
36.6252093
0
LINE
8
DEFAULT_255_2_778
10
79.4416981
20
36.6083093
11
79.4416981
21
36.6080093
0
LINE
8
DEFAULT_255_2_778
10
80.0700981
20
37.7140093
11
80.5486981
21
37.7140093
0
LINE
8
DEFAULT_255_2_778
10
80.5486981
20
37.7140093
11
81.0053981
21
36.4249093
0
LINE
8
DEFAULT_255_2_778
10
81.0053981
20
36.4249093
11
81.4593981
21
37.7140093
0
LINE
8
DEFAULT_255_2_778
10
81.4593981
20
37.7140093
11
81.9403981
21
37.7140093
0
LINE
8
DEFAULT_255_2_778
10
81.9403981
20
37.7140093
11
81.9403981
21
35.9365093
0
LINE
8
DEFAULT_255_2_778
10
81.9403981
20
35.9365093
11
81.5728981
21
35.9365093
0
LINE
8
DEFAULT_255_2_778
10
81.5728981
20
35.9365093
11
81.5728981
21
36.4223093
0
LINE
8
DEFAULT_255_2_778
10
81.5728981
20
36.4223093
11
81.6093981
21
37.2610093
0
LINE
8
DEFAULT_255_2_778
10
81.6093981
20
37.2610093
11
81.1296981
21
35.9365093
0
LINE
8
DEFAULT_255_2_778
10
81.1296981
20
35.9365093
11
80.8783981
21
35.9365093
0
LINE
8
DEFAULT_255_2_778
10
80.8783981
20
35.9365093
11
80.3996981
21
37.2597093
0
LINE
8
DEFAULT_255_2_778
10
80.3996981
20
37.2597093
11
80.4362981
21
36.4223093
0
LINE
8
DEFAULT_255_2_778
10
80.4362981
20
36.4223093
11
80.4362981
21
35.9365093
0
LINE
8
DEFAULT_255_2_778
10
80.4362981
20
35.9365093
11
80.0700981
21
35.9365093
0
LINE
8
DEFAULT_255_2_778
10
80.0700981
20
35.9365093
11
80.0700981
21
37.7140093
0
LINE
8
DEFAULT_255_2_778
10
80.0700981
20
37.7140093
11
80.0700981
21
37.7140093
0
LINE
8
DEFAULT_255_2_778
10
71.6383355
20
32.4564
11
81.1384355
21
32.4564
0
ARC
8
DEFAULT_255_2_778
10
78.0264687
20
33.6505372
40
0.6475259
50
336.2625747
51
1.2107792
0
ARC
8
DEFAULT_255_2_778
10
78.1550955
20
33.6044512
40
0.5113193
50
334.95813
51
335.1877897
0
ARC
8
DEFAULT_255_2_778
10
78.2355363
20
33.5602272
40
0.4197639
50
302.1728225
51
335.7795708
0
ARC
8
DEFAULT_255_2_778
10
78.2294473
20
33.5808361
40
0.4404889
50
268.9597116
51
301.4158131
0
ARC
8
DEFAULT_255_2_778
10
78.2140024
20
33.5836476
40
0.4432904
50
238.8882052
51
270.9626554
0
ARC
8
DEFAULT_255_2_778
10
78.20871
20
33.5645977
40
0.4242792
50
204.8614701
51
238.1708302
0
ARC
8
DEFAULT_255_2_778
10
78.3914612
20
33.6492296
40
0.6256757
50
179.176706
51
204.8573986
0
ARC
8
DEFAULT_255_2_778
10
78.4055877
20
33.7240379
40
0.6398742
50
155.6248706
51
181.1836611
0
ARC
8
DEFAULT_255_2_778
10
78.2090436
20
33.8132138
40
0.4240458
50
122.2047339
51
155.6399345
0
ARC
8
DEFAULT_255_2_778
10
78.212297
20
33.7939222
40
0.4421673
50
88.9823517
51
121.2291405
0
ARC
8
DEFAULT_255_2_778
10
78.2279145
20
33.793594
40
0.4424939
50
58.7830841
51
91.0054237
0
ARC
8
DEFAULT_255_2_778
10
78.2332502
20
33.8149517
40
0.4215134
50
24.2566499
51
57.8986818
0
ARC
8
DEFAULT_255_2_778
10
78.0366839
20
33.7244807
40
0.6378958
50
358.8447565
51
24.4119871
0
ARC
8
DEFAULT_255_2_778
10
77.8537658
20
33.7249998
40
0.5975104
50
358.8223762
51
15.6525542
0
ARC
8
DEFAULT_255_2_778
10
78.14823
20
33.8040686
40
0.292652
50
16.3007602
51
33.9297212
0
ARC
8
DEFAULT_255_2_778
10
78.2280535
20
33.8588616
40
0.1958386
50
33.664224
51
92.459333
0
ARC
8
DEFAULT_255_2_778
10
78.2112619
20
33.8587594
40
0.19594
50
87.546433
51
145.9322154
0
ARC
8
DEFAULT_255_2_778
10
78.3464996
20
33.7768594
40
0.3539342
50
147.2132362
51
174.2583303
0
ARC
8
DEFAULT_255_2_778
10
78.7256134
20
33.7161411
40
0.7375633
50
172.5112962
51
180.0016527
0
ARC
8
DEFAULT_255_2_778
10
78.5622028
20
33.6517225
40
0.5742845
50
178.7730226
51
196.8984227
0
ARC
8
DEFAULT_255_2_778
10
78.3049529
20
33.5786288
40
0.3069337
50
197.8017131
51
213.2096835
0
ARC
8
DEFAULT_255_2_778
10
78.2126482
20
33.5154682
40
0.1951251
50
212.5375323
51
272.4384625
0
ARC
8
DEFAULT_255_2_778
10
78.2293983
20
33.5134762
40
0.1931413
50
267.4929923
51
326.6583024
0
ARC
8
DEFAULT_255_2_778
10
78.0850513
20
33.6000204
40
0.3613659
50
327.7742569
51
354.3109931
0
ARC
8
DEFAULT_255_2_778
10
77.7030789
20
33.6603908
40
0.747771
50
352.6090792
51
359.9945586
0
ARC
8
DEFAULT_255_2_778
10
79.2722673
20
33.5035757
40
0.3685149
50
320.4792208
51
2.433031
0
ARC
8
DEFAULT_255_2_778
10
79.3022234
20
33.4894314
40
0.336505
50
312.7979942
51
319.0910698
0
ARC
8
DEFAULT_255_2_778
10
79.2669565
20
33.5398749
40
0.3975674
50
272.4231785
51
311.5880727
0
ARC
8
DEFAULT_255_2_778
10
79.2324069
20
33.7869892
40
0.6463699
50
269.9329134
51
274.5573643
0
ARC
8
DEFAULT_255_2_778
10
79.218165
20
33.6187783
40
0.4783487
50
243.8770494
51
271.6154235
0
ARC
8
DEFAULT_255_2_778
10
79.1690854
20
33.4993753
40
0.3496364
50
227.9816902
51
242.4828922
0
ARC
8
DEFAULT_255_2_778
10
79.1759904
20
33.4979576
40
0.3532573
50
178.2696775
51
226.9956724
0
ARC
8
DEFAULT_255_2_778
10
79.3843323
20
33.5191374
40
0.5615366
50
180.7976839
51
181.0727522
0
ARC
8
DEFAULT_255_2_778
10
79.2766243
20
33.5055047
40
0.2345032
50
176.9652234
51
209.7344855
0
ARC
8
DEFAULT_255_2_778
10
79.1836534
20
33.4606333
40
0.1317122
50
212.845672
51
226.3566715
0
ARC
8
DEFAULT_255_2_778
10
79.2204599
20
33.5103112
40
0.1932157
50
228.6260883
51
273.3201572
0
ARC
8
DEFAULT_255_2_778
10
79.2451436
20
33.5037873
40
0.1868554
50
265.8588532
51
311.8434579
0
ARC
8
DEFAULT_255_2_778
10
79.2226131
20
33.495118
40
0.1967258
50
318.4307712
51
0.9746455
0
ARC
8
DEFAULT_255_2_778
10
79.0313144
20
33.5177837
40
0.3884768
50
357.1494295
51
359.1646061
0
LINE
8
DEFAULT_255_2_778
10
78.67385
20
33.7119198
11
78.67385
21
33.6642198
0
LINE
8
DEFAULT_255_2_778
10
77.76585
20
33.6582198
11
77.76585
21
33.7108198
0
LINE
8
DEFAULT_255_2_778
10
78.67445
20
33.7116198
11
78.67385
21
33.7119198
0
LINE
8
DEFAULT_255_2_778
10
78.45115
20
33.6605198
11
78.45115
21
33.7127198
0
LINE
8
DEFAULT_255_2_778
10
77.98805
20
33.7161198
11
77.98805
21
33.6640198
0
LINE
8
DEFAULT_255_2_778
10
78.45085
20
33.6603198
11
78.45115
21
33.6605198
0
LINE
8
DEFAULT_255_2_778
10
79.42005
20
34.2217198
11
79.64045
21
34.2217198
0
LINE
8
DEFAULT_255_2_778
10
79.64045
20
34.2217198
11
79.64045
21
33.5192198
0
LINE
8
DEFAULT_255_2_778
10
78.82285
20
33.5113198
11
78.82285
21
34.2217198
0
LINE
8
DEFAULT_255_2_778
10
78.82285
20
34.2217198
11
79.04245
21
34.2217198
0
LINE
8
DEFAULT_255_2_778
10
79.04245
20
34.2217198
11
79.04245
21
33.5179198
0
LINE
8
DEFAULT_255_2_778
10
79.41975
20
33.5121198
11
79.41975
21
34.2217198
0
LINE
8
DEFAULT_255_2_778
10
79.41975
20
34.2217198
11
79.42005
21
34.2217198
0
LINE
8
DEFAULT_255_2_778
10
80.62335
20
34.2217198
11
80.62335
21
34.0436198
0
LINE
8
DEFAULT_255_2_778
10
80.62335
20
34.0436198
11
80.29655
21
34.0436198
0
LINE
8
DEFAULT_255_2_778
10
80.29655
20
34.0436198
11
80.29655
21
33.1552198
0
LINE
8
DEFAULT_255_2_778
10
80.29655
20
33.1552198
11
80.07695
21
33.1552198
0
LINE
8
DEFAULT_255_2_778
10
80.07695
20
33.1552198
11
80.07695
21
34.0436198
0
LINE
8
DEFAULT_255_2_778
10
80.07695
20
34.0436198
11
79.75475
21
34.0436198
0
LINE
8
DEFAULT_255_2_778
10
79.75475
20
34.0436198
11
79.75475
21
34.2217198
0
LINE
8
DEFAULT_255_2_778
10
79.75475
20
34.2217198
11
80.62335
21
34.2217198
0
LINE
8
DEFAULT_255_2_778
10
80.62335
20
34.2217198
11
80.62335
21
34.2217198
0
ARC
8
DEFAULT_255_2_778
10
77.3350964
20
32.2053393
40
0.9435217
50
316.7351377
51
325.5602328
0
ARC
8
DEFAULT_255_2_778
10
77.7241956
20
31.93052
40
0.4672487
50
326.369372
51
329.6141745
0
ARC
8
DEFAULT_255_2_778
10
77.9439325
20
31.811307
40
0.2175536
50
327.4251811
51
358.0689234
0
ARC
8
DEFAULT_255_2_778
10
77.9997981
20
31.8134649
40
0.1618428
50
356.6387993
51
39.1185939
0
ARC
8
DEFAULT_255_2_778
10
78.0308163
20
31.8272246
40
0.1294023
50
43.0601273
51
93.568318
0
ARC
8
DEFAULT_255_2_778
10
78.0164893
20
31.8163191
40
0.1401974
50
87.4354288
51
139.764951
0
ARC
8
DEFAULT_255_2_778
10
78.0644333
20
31.7862407
40
0.1963895
50
142.1014319
51
182.703944
0
ARC
8
DEFAULT_255_2_778
10
78.0055177
20
31.7806088
40
0.349774
50
150.0793683
51
180.5950855
0
ARC
8
DEFAULT_255_2_778
10
77.9856499
20
31.7919614
40
0.3268916
50
117.6672258
51
150.0670092
0
ARC
8
DEFAULT_255_2_778
10
78.0196194
20
31.7281883
40
0.3991464
50
89.0176529
51
117.735166
0
ARC
8
DEFAULT_255_2_778
10
78.039328
20
31.6822823
40
0.4451797
50
66.5630265
51
91.6560496
0
ARC
8
DEFAULT_255_2_778
10
78.0973615
20
31.8342487
40
0.2827601
50
49.1625873
51
65.1044403
0
ARC
8
DEFAULT_255_2_778
10
78.0944642
20
31.8410767
40
0.2795681
50
356.6779035
51
47.7981619
0
ARC
8
DEFAULT_255_2_778
10
78.0151273
20
31.8303306
40
0.3584767
50
332.3145172
51
359.1281497
0
ARC
8
DEFAULT_255_2_778
10
77.6978297
20
31.9971478
40
0.7169537
50
320.185503
51
332.2908303
0
ARC
8
DEFAULT_255_2_778
10
77.1310461
20
32.4429575
40
1.4379118
50
317.5517321
51
321.001499
0
LINE
8
DEFAULT_255_2_778
10
78.4082625
20
31.216576
11
78.4082625
21
31.045876
0
LINE
8
DEFAULT_255_2_778
10
78.4082625
20
31.045876
11
77.6771625
21
31.045876
0
LINE
8
DEFAULT_255_2_778
10
77.6771625
20
31.045876
11
77.6771625
21
31.190876
0
LINE
8
DEFAULT_255_2_778
10
77.6771625
20
31.190876
11
78.0221625
21
31.558676
0
LINE
8
DEFAULT_255_2_778
10
77.8682625
20
31.776976
11
77.6557625
21
31.776976
0
LINE
8
DEFAULT_255_2_778
10
78.1920625
20
31.472476
11
77.9497625
21
31.216876
0
LINE
8
DEFAULT_255_2_778
10
77.9497625
20
31.216876
11
78.4082625
21
31.216876
0
LINE
8
DEFAULT_255_2_778
10
78.4082625
20
31.216876
11
78.4082625
21
31.216576
0
ARC
8
DEFAULT_255_2_778
10
80.5182035
20
31.8324067
40
0.1599071
50
265.3771769
51
311.1364246
0
ARC
8
DEFAULT_255_2_778
10
80.5472887
20
31.7874686
40
0.1072023
50
315.2324711
51
316.1633608
0
ARC
8
DEFAULT_255_2_778
10
80.5164785
20
31.8130976
40
0.1472047
50
317.2737398
51
2.7342286
0
ARC
8
DEFAULT_255_2_778
10
80.5331749
20
31.8278111
40
0.1305674
50
356.6229219
51
45.1762349
0
ARC
8
DEFAULT_255_2_778
10
80.5279334
20
31.8075957
40
0.1489735
50
49.2305192
51
93.3162601
0
ARC
8
DEFAULT_255_2_778
10
80.5140443
20
31.8001803
40
0.1562285
50
88.0664143
51
128.1606677
0
ARC
8
DEFAULT_255_2_778
10
80.4830141
20
31.8389984
40
0.1065347
50
127.9380258
51
181.4945362
0
ARC
8
DEFAULT_255_2_778
10
80.4254796
20
31.8397192
40
0.2606875
50
145.8604371
51
180.7691486
0
ARC
8
DEFAULT_255_2_778
10
80.4560939
20
31.8150572
40
0.2998841
50
113.6667333
51
145.2431119
0
ARC
8
DEFAULT_255_2_778
10
80.5090587
20
31.7059135
40
0.4211355
50
89.3255879
51
114.3059334
0
ARC
8
DEFAULT_255_2_778
10
80.5269838
20
31.6629014
40
0.4642995
50
66.513257
51
91.6005164
0
ARC
8
DEFAULT_255_2_778
10
80.5844012
20
31.8137762
40
0.3031332
50
50.00883
51
65.1014329
0
ARC
8
DEFAULT_255_2_778
10
80.5995639
20
31.8365172
40
0.275982
50
357.1967137
51
49.3863918
0
ARC
8
DEFAULT_255_2_778
10
80.6513481
20
31.8225431
40
0.2238681
50
323.161298
51
0.1220015
0
ARC
8
DEFAULT_255_2_778
10
80.5963251
20
31.8591198
40
0.2898583
50
293.8042201
51
323.8959398
0
ARC
8
DEFAULT_255_2_778
10
80.6324779
20
31.3396542
40
0.2668066
50
36.2234582
51
72.363159
0
ARC
8
DEFAULT_255_2_778
10
80.6287288
20
31.3511983
40
0.2632617
50
358.6334289
51
33.7136634
0
ARC
8
DEFAULT_255_2_778
10
80.6114162
20
31.3351065
40
0.280671
50
309.0439911
51
2.0036859
0
ARC
8
DEFAULT_255_2_778
10
80.5429715
20
31.430066
40
0.3975928
50
271.4284119
51
308.0844577
0
ARC
8
DEFAULT_255_2_778
10
80.5142534
20
31.6659436
40
0.6345239
50
269.9604732
51
273.4902769
0
ARC
8
DEFAULT_255_2_778
10
80.4992991
20
31.4381695
40
0.4070087
50
236.3640883
51
272.0439689
0
ARC
8
DEFAULT_255_2_778
10
80.4689804
20
31.3768598
40
0.339282
50
230.3784567
51
234.8917243
0
ARC
8
DEFAULT_255_2_778
10
80.42631
20
31.328922
40
0.2751549
50
178.0427052
51
230.8568289
0
ARC
8
DEFAULT_255_2_778
10
80.4858517
20
31.3351193
40
0.1228777
50
178.507508
51
230.6351076
0
ARC
8
DEFAULT_255_2_778
10
80.5137386
20
31.3676935
40
0.1657515
50
230.3241343
51
271.7552658
0
ARC
8
DEFAULT_255_2_778
10
80.5284602
20
31.368432
40
0.1666915
50
266.6830701
51
310.6801282
0
ARC
8
DEFAULT_255_2_778
10
80.542246
20
31.3419551
40
0.1377945
50
313.510415
51
2.4392907
0
ARC
8
DEFAULT_255_2_778
10
80.5400119
20
31.3644019
40
0.1408831
50
353.2405546
51
89.2538047
0
ARC
8
DEFAULT_255_2_778
10
80.5053533
20
31.1812624
40
0.3260592
50
83.5738557
51
90.182337
0
LINE
8
DEFAULT_255_2_778
10
80.3926156
20
31.5073198
11
80.3926156
21
31.6730198
0
LINE
8
DEFAULT_255_2_778
10
80.3926156
20
31.6730198
11
80.5053156
21
31.6730198
0
LINE
8
DEFAULT_255_2_778
10
80.3765156
20
31.8362198
11
80.1648156
21
31.8362198
0
LINE
8
DEFAULT_255_2_778
10
80.1513156
20
31.3383198
11
80.3630156
21
31.3383198
0
LINE
8
DEFAULT_255_2_778
10
80.5043156
20
31.5073198
11
80.3921156
21
31.5073198
0
LINE
8
DEFAULT_255_2_778
10
80.3921156
20
31.5073198
11
80.3926156
21
31.5073198
0
LINE
8
DEFAULT_255_2_778
10
75.8787281
20
32.1137614
11
75.8787281
21
31.0459614
0
LINE
8
DEFAULT_255_2_778
10
75.8787281
20
31.0459614
11
75.6671281
21
31.0459614
0
LINE
8
DEFAULT_255_2_778
10
75.6671281
20
31.0459614
11
75.6671281
21
31.8619614
0
LINE
8
DEFAULT_255_2_778
10
75.6671281
20
31.8619614
11
75.4144281
21
31.7835614
0
LINE
8
DEFAULT_255_2_778
10
75.4144281
20
31.7835614
11
75.4144281
21
31.9558614
0
LINE
8
DEFAULT_255_2_778
10
75.4144281
20
31.9558614
11
75.8560281
21
32.1140614
0
LINE
8
DEFAULT_255_2_778
10
75.8560281
20
32.1140614
11
75.8787281
21
32.1140614
0
LINE
8
DEFAULT_255_2_778
10
75.8787281
20
32.1140614
11
75.8787281
21
32.1137614
0
ARC
8
DEFAULT_255_2_778
10
72.7185487
20
31.7141822
40
0.5588141
50
358.7869517
51
12.9921022
0
ARC
8
DEFAULT_255_2_778
10
73.0590744
20
31.7905553
40
0.2098465
50
13.5758153
51
29.9285878
0
ARC
8
DEFAULT_255_2_778
10
73.1352299
20
31.8332133
40
0.122568
50
30.4082557
51
93.5045812
0
ARC
8
DEFAULT_255_2_778
10
73.1204024
20
31.8347915
40
0.1209832
50
86.5240516
51
148.4182752
0
ARC
8
DEFAULT_255_2_778
10
73.2624811
20
31.7640753
40
0.2794136
50
151.3243527
51
175.6540352
0
ARC
8
DEFAULT_255_2_778
10
73.6673253
20
31.707404
40
0.6878733
50
173.5020633
51
179.0963837
0
ARC
8
DEFAULT_255_2_778
10
73.5402439
20
31.4470706
40
0.5608322
50
178.7860693
51
193.3045862
0
ARC
8
DEFAULT_255_2_778
10
73.2133809
20
31.3729908
40
0.2257159
50
194.0987978
51
208.5104923
0
ARC
8
DEFAULT_255_2_778
10
73.1212594
20
31.3224745
40
0.1206545
50
208.3116659
51
273.5534577
0
ARC
8
DEFAULT_255_2_778
10
73.1367622
20
31.3211701
40
0.119388
50
266.1459677
51
330.7596286
0
ARC
8
DEFAULT_255_2_778
10
72.9660967
20
31.4012469
40
0.3077184
50
333.2726597
51
356.0840999
0
ARC
8
DEFAULT_255_2_778
10
72.5402811
20
31.455669
40
0.7366882
50
354.1226132
51
359.4698049
0
ARC
8
DEFAULT_255_2_778
10
72.7583308
20
31.4743893
40
0.7306148
50
344.463457
51
0.9852379
0
ARC
8
DEFAULT_255_2_778
10
73.0861891
20
31.3850042
40
0.390798
50
322.7675771
51
344.2143807
0
ARC
8
DEFAULT_255_2_778
10
73.1518642
20
31.3468621
40
0.3155693
50
268.0194538
51
321.0663607
0
ARC
8
DEFAULT_255_2_778
10
73.1293745
20
31.5498852
40
0.5185334
50
269.995915
51
271.2800467
0
ARC
8
DEFAULT_255_2_778
10
73.1145295
20
31.3716038
40
0.3405738
50
232.4461291
51
272.4919904
0
ARC
8
DEFAULT_255_2_778
10
73.0962857
20
31.3329803
40
0.2989719
50
218.6013892
51
230.7061268
0
ARC
8
DEFAULT_255_2_778
10
73.2078551
20
31.4081125
40
0.4331759
50
187.85889
51
217.1605909
0
ARC
8
DEFAULT_255_2_778
10
73.5772595
20
31.4795287
40
0.8091289
50
180.2391052
51
189.2919436
0
ARC
8
DEFAULT_255_2_778
10
73.501621
20
31.6849926
40
0.7335907
50
164.6854244
51
180.9795011
0
ARC
8
DEFAULT_255_2_778
10
73.1642219
20
31.7762729
40
0.3840653
50
142.2032321
51
164.5251505
0
ARC
8
DEFAULT_255_2_778
10
73.106783
20
31.8081437
40
0.3193024
50
87.6981501
51
140.4052675
0
ARC
8
DEFAULT_255_2_778
10
73.1277027
20
31.6104055
40
0.5168464
50
89.9961439
51
90.8974512
0
ARC
8
DEFAULT_255_2_778
10
73.1425301
20
31.7858347
40
0.3417377
50
52.6454331
51
92.4809048
0
ARC
8
DEFAULT_255_2_778
10
73.1614758
20
31.8256477
40
0.2987337
50
38.7549082
51
50.9004902
0
ARC
8
DEFAULT_255_2_778
10
73.0534438
20
31.752972
40
0.4286146
50
8.1326218
51
37.2906882
0
ARC
8
DEFAULT_255_2_778
10
72.6844167
20
31.6804594
40
0.8044267
50
0.220277
51
9.5272869
0
LINE
8
DEFAULT_255_2_778
10
73.2772375
20
31.4488521
11
73.2772375
21
31.7023521
0
LINE
8
DEFAULT_255_2_778
10
72.9795375
20
31.7182521
11
72.9795375
21
31.4589521
0
LINE
8
DEFAULT_255_2_778
10
73.2769375
20
31.4488521
11
73.2772375
21
31.4488521
0
LINE
8
DEFAULT_255_2_778
10
73.4888375
20
31.6832521
11
73.4888375
21
31.4869521
0
LINE
8
DEFAULT_255_2_778
10
72.7681375
20
31.4761521
11
72.7681375
21
31.6724521
0
LINE
8
DEFAULT_255_2_778
10
73.4888375
20
31.6835521
11
73.4888375
21
31.6832521
0
ARC
8
DEFAULT_255_2_778
10
80.5786175
20
29.9576825
40
0.5987939
50
89.8748857
51
180.1251076
0
ARC
8
DEFAULT_255_2_778
10
80.5814088
20
29.9579585
40
0.5985184
50
359.8484135
51
90.142038
0
ARC
8
DEFAULT_255_2_778
10
80.5814938
20
29.9548062
40
0.5984333
50
269.8498027
51
0.1501973
0
ARC
8
DEFAULT_255_2_778
10
80.5783415
20
29.9548912
40
0.5985184
50
179.857962
51
270.1515865
0
LINE
8
DEFAULT_255_2_778
10
79.979825
20
29.956375
11
79.979825
21
29.956375
0
ARC
8
DEFAULT_255_2_778
10
78.0788175
20
29.9576825
40
0.5987939
50
89.8748857
51
180.1251076
0
ARC
8
DEFAULT_255_2_778
10
78.0816088
20
29.9579585
40
0.5985184
50
359.8484135
51
90.142038
0
ARC
8
DEFAULT_255_2_778
10
78.0816938
20
29.9548062
40
0.5984333
50
269.8498027
51
0.1501973
0
ARC
8
DEFAULT_255_2_778
10
78.0785415
20
29.9548912
40
0.5985184
50
179.857962
51
270.1515865
0
LINE
8
DEFAULT_255_2_778
10
77.480025
20
29.956375
11
77.480025
21
29.956375
0
ARC
8
DEFAULT_255_2_778
10
75.5788175
20
29.9576825
40
0.5987939
50
89.8748857
51
180.1251076
0
ARC
8
DEFAULT_255_2_778
10
75.5816088
20
29.9579585
40
0.5985184
50
359.8484135
51
90.142038
0
ARC
8
DEFAULT_255_2_778
10
75.5816938
20
29.9548062
40
0.5984333
50
269.8498027
51
0.1501973
0
ARC
8
DEFAULT_255_2_778
10
75.5785415
20
29.9548912
40
0.5985184
50
179.857962
51
270.1515865
0
LINE
8
DEFAULT_255_2_778
10
74.980025
20
29.956375
11
74.980025
21
29.956375
0
ARC
8
DEFAULT_255_2_778
10
73.0787175
20
29.9576825
40
0.5987939
50
89.8748857
51
180.1251076
0
ARC
8
DEFAULT_255_2_778
10
73.0815088
20
29.9579585
40
0.5985184
50
359.8484135
51
90.142038
0
ARC
8
DEFAULT_255_2_778
10
73.0815938
20
29.9548062
40
0.5984333
50
269.8498027
51
0.1501973
0
ARC
8
DEFAULT_255_2_778
10
73.0784415
20
29.9548912
40
0.5985184
50
179.857962
51
270.1515865
0
LINE
8
DEFAULT_255_2_778
10
72.479925
20
29.956375
11
72.479925
21
29.956375
0
ARC
8
DEFAULT_255_2_778
10
75.633041
20
28.4109268
40
0.3359862
50
89.8240276
51
118.3156881
0
ARC
8
DEFAULT_255_2_778
10
75.6502671
20
28.4384459
40
0.3088903
50
45.3829402
51
93.0052123
0
ARC
8
DEFAULT_255_2_778
10
75.6600336
20
28.4583546
40
0.2879451
50
42.398596
51
43.9837274
0
ARC
8
DEFAULT_255_2_778
10
75.6091444
20
28.4249108
40
0.3482088
50
2.7851223
51
40.816061
0
ARC
8
DEFAULT_255_2_778
10
75.3609769
20
28.3890598
40
0.5982968
50
359.9091778
51
5.0601364
0
ARC
8
DEFAULT_255_2_778
10
75.5735064
20
28.3816709
40
0.3858203
50
332.4485083
51
0.9564855
0
ARC
8
DEFAULT_255_2_778
10
75.6435756
20
28.3464317
40
0.3073997
50
298.5888669
51
332.2309315
0
ARC
8
DEFAULT_255_2_778
10
75.6086746
20
28.4209816
40
0.3895935
50
268.5583597
51
297.8494077
0
ARC
8
DEFAULT_255_2_778
10
75.59531
20
28.4462785
40
0.4147824
50
244.9172951
51
270.4921721
0
ARC
8
DEFAULT_255_2_778
10
75.5513512
20
28.3593054
40
0.3173895
50
214.1770019
51
245.4486096
0
ARC
8
DEFAULT_255_2_778
10
75.5387562
20
28.3483695
40
0.3008328
50
181.0395926
51
213.8014029
0
ARC
8
DEFAULT_255_2_778
10
75.6042867
20
28.351059
40
0.1570253
50
182.9742208
51
225.4215245
0
ARC
8
DEFAULT_255_2_778
10
75.5919584
20
28.3492387
40
0.147267
50
228.3421642
51
272.4964125
0
ARC
8
DEFAULT_255_2_778
10
75.6049968
20
28.3322444
40
0.1303015
50
267.0861243
51
322.9363181
0
ARC
8
DEFAULT_255_2_778
10
75.518513
20
28.3813761
40
0.2292886
50
326.1661885
51
1.6074479
0
ARC
8
DEFAULT_255_2_778
10
75.3084728
20
28.3997242
40
0.4394002
50
358.4459943
51
0.0113767
0
ARC
8
DEFAULT_255_2_778
10
75.550828
20
28.4131135
40
0.1974934
50
356.137963
51
39.5664689
0
ARC
8
DEFAULT_255_2_778
10
75.586463
20
28.4240268
40
0.163696
50
44.5730055
51
93.5339022
0
ARC
8
DEFAULT_255_2_778
10
75.5679869
20
28.4045817
40
0.1830219
50
87.3738033
51
128.4520731
0
LINE
8
DEFAULT_255_2_778
10
75.4334729
20
28.5286114
11
75.2649729
21
28.5704114
0
LINE
8
DEFAULT_255_2_778
10
75.2649729
20
28.5704114
11
75.3265729
21
29.1123114
0
LINE
8
DEFAULT_255_2_778
10
75.3265729
20
29.1123114
11
75.9242729
21
29.1123114
0
LINE
8
DEFAULT_255_2_778
10
75.9242729
20
29.1123114
11
75.9242729
21
28.9358114
0
LINE
8
DEFAULT_255_2_778
10
75.9242729
20
28.9358114
11
75.5001729
21
28.9358114
0
LINE
8
DEFAULT_255_2_778
10
75.5001729
20
28.9358114
11
75.4736729
21
28.7067114
0
LINE
8
DEFAULT_255_2_778
10
75.2379729
20
28.3429114
11
75.4474729
21
28.3429114
0
LINE
8
DEFAULT_255_2_778
10
75.4541729
20
28.5479114
11
75.4334729
21
28.5289114
0
LINE
8
DEFAULT_255_2_778
10
75.4334729
20
28.5289114
11
75.4334729
21
28.5286114
0
LINE
8
DEFAULT_255_2_778
10
80.9587979
20
29.1122677
11
80.9587979
21
28.9937677
0
LINE
8
DEFAULT_255_2_778
10
80.9587979
20
28.9937677
11
80.5462979
21
28.0460677
0
LINE
8
DEFAULT_255_2_778
10
80.5462979
20
28.0460677
11
80.3229979
21
28.0460677
0
LINE
8
DEFAULT_255_2_778
10
80.3229979
20
28.0460677
11
80.7359979
21
28.9411677
0
LINE
8
DEFAULT_255_2_778
10
80.7359979
20
28.9411677
11
80.2057979
21
28.9411677
0
LINE
8
DEFAULT_255_2_778
10
80.2057979
20
28.9411677
11
80.2057979
21
29.1125677
0
LINE
8
DEFAULT_255_2_778
10
80.2057979
20
29.1125677
11
80.9587979
21
29.1125677
0
LINE
8
DEFAULT_255_2_778
10
80.9587979
20
29.1125677
11
80.9587979
21
29.1122677
0
ARC
8
DEFAULT_255_2_778
10
78.0993949
20
28.4199623
40
0.1693474
50
89.3860675
51
122.618487
0
ARC
8
DEFAULT_255_2_778
10
78.0938295
20
28.4257276
40
0.1614992
50
122.057965
51
155.8115991
0
ARC
8
DEFAULT_255_2_778
10
78.259318
20
28.4150498
40
0.3130523
50
177.739048
51
205.2891762
0
ARC
8
DEFAULT_255_2_778
10
78.1395736
20
28.36698
40
0.1844096
50
207.6792267
51
214.8889582
0
ARC
8
DEFAULT_255_2_778
10
78.1004096
20
28.336453
40
0.1348495
50
213.7677156
51
272.1673974
0
ARC
8
DEFAULT_255_2_778
10
78.1085276
20
28.3353318
40
0.1336659
50
268.7061807
51
323.3803116
0
ARC
8
DEFAULT_255_2_778
10
78.0386268
20
28.385175
40
0.2195071
50
323.8217028
51
2.591497
0
ARC
8
DEFAULT_255_2_778
10
78.0392836
20
28.4055202
40
0.218874
50
357.2712097
51
36.4636961
0
ARC
8
DEFAULT_255_2_778
10
78.105888
20
28.4504155
40
0.1386703
50
37.9007003
51
92.016127
0
ARC
8
DEFAULT_255_2_778
10
78.2793059
20
28.5721588
40
0.3767305
50
88.7522537
51
121.5511809
0
ARC
8
DEFAULT_255_2_778
10
78.2394112
20
28.653924
40
0.286312
50
123.3099313
51
129.703866
0
ARC
8
DEFAULT_255_2_778
10
78.2532343
20
28.6435519
40
0.3031488
50
130.461601
51
174.4444492
0
ARC
8
DEFAULT_255_2_778
10
78.1574276
20
28.4714858
40
0.288045
50
88.272806
51
135.6335052
0
ARC
8
DEFAULT_255_2_778
10
78.1768849
20
28.4877285
40
0.2718851
50
39.2903799
51
92.2713629
0
ARC
8
DEFAULT_255_2_778
10
78.083876
20
28.4233623
40
0.3847361
50
0.6335944
51
37.9377427
0
ARC
8
DEFAULT_255_2_778
10
77.8591352
20
28.3979658
40
0.6101744
50
359.9750365
51
2.7853405
0
ARC
8
DEFAULT_255_2_778
10
78.0770266
20
28.3921148
40
0.3923226
50
332.2757917
51
0.8157039
0
ARC
8
DEFAULT_255_2_778
10
78.1385987
20
28.3601305
40
0.3229397
50
299.3345351
51
332.2168999
0
ARC
8
DEFAULT_255_2_778
10
78.1165617
20
28.4019159
40
0.3701654
50
269.063159
51
299.1395456
0
ARC
8
DEFAULT_255_2_778
10
78.0979956
20
28.3769889
40
0.3454157
50
221.3030891
51
272.0761963
0
ARC
8
DEFAULT_255_2_778
10
78.1678518
20
28.4278499
40
0.4315363
50
182.2176285
51
220.2541569
0
ARC
8
DEFAULT_255_2_778
10
78.416126
20
28.4610447
40
0.6813167
50
179.9448938
51
184.199566
0
ARC
8
DEFAULT_255_2_778
10
78.4199057
20
28.5517305
40
0.6852358
50
154.697356
51
181.1565107
0
ARC
8
DEFAULT_255_2_778
10
78.2352356
20
28.6360325
40
0.4822595
50
120.7707742
51
154.3749661
0
ARC
8
DEFAULT_255_2_778
10
78.2642381
20
28.5712398
40
0.5528298
50
89.0908895
51
119.9179058
0
LINE
8
DEFAULT_255_2_778
10
73.1342095
20
28.7996
11
72.9122095
21
28.4472
0
LINE
8
DEFAULT_255_2_778
10
72.9122095
20
28.4472
11
73.1480095
21
28.4472
0
LINE
8
DEFAULT_255_2_778
10
73.1480095
20
28.4472
11
73.1480095
21
28.8237
0
LINE
8
DEFAULT_255_2_778
10
73.1480095
20
28.8237
11
73.1340095
21
28.7996
0
LINE
8
DEFAULT_255_2_778
10
73.1340095
20
28.7996
11
73.1342095
21
28.7996
0
LINE
8
DEFAULT_255_2_778
10
73.3596095
20
29.1124
11
73.3596095
21
28.4475
0
LINE
8
DEFAULT_255_2_778
10
73.3596095
20
28.4475
11
73.4806095
21
28.4475
0
LINE
8
DEFAULT_255_2_778
10
73.4806095
20
28.4475
11
73.4806095
21
28.2768
0
LINE
8
DEFAULT_255_2_778
10
73.4806095
20
28.2768
11
73.3596095
21
28.2768
0
LINE
8
DEFAULT_255_2_778
10
73.3596095
20
28.2768
11
73.3596095
21
28.0461
0
LINE
8
DEFAULT_255_2_778
10
73.3596095
20
28.0461
11
73.1480095
21
28.0461
0
LINE
8
DEFAULT_255_2_778
10
73.1480095
20
28.0461
11
73.1480095
21
28.2768
0
LINE
8
DEFAULT_255_2_778
10
73.1480095
20
28.2768
11
72.7106095
21
28.2768
0
LINE
8
DEFAULT_255_2_778
10
72.7106095
20
28.2768
11
72.7011095
21
28.4102
0
LINE
8
DEFAULT_255_2_778
10
72.7011095
20
28.4102
11
73.1456095
21
29.1126
0
LINE
8
DEFAULT_255_2_778
10
73.1456095
20
29.1126
11
73.3594095
21
29.1126
0
LINE
8
DEFAULT_255_2_778
10
73.3594095
20
29.1126
11
73.3596095
21
29.1124
0
LINE
8
DEFAULT_255_2_778
10
77.9465095
20
28.4919
11
77.9465095
21
28.4274
0
LINE
8
DEFAULT_255_2_778
10
78.1010095
20
28.589
11
78.1012095
21
28.5893
0
LINE
8
DEFAULT_255_2_778
10
78.2727095
20
29.1232
11
78.3079095
21
29.1232
0
LINE
8
DEFAULT_255_2_778
10
78.3079095
20
29.1232
11
78.3079095
21
28.9488
0
LINE
8
DEFAULT_255_2_778
10
78.3079095
20
28.9488
11
78.2875095
21
28.9488
0
LINE
8
DEFAULT_255_2_778
10
77.7348095
20
28.4617
11
77.7348095
21
28.5379
0
LINE
8
DEFAULT_255_2_778
10
78.2730095
20
29.124
11
78.2727095
21
29.1232
0
ARC
8
DEFAULT_255_2_778
10
80.5786175
20
26.9574825
40
0.5987939
50
89.8748857
51
180.1251076
0
ARC
8
DEFAULT_255_2_778
10
80.5814088
20
26.9577585
40
0.5985184
50
359.8484135
51
90.142038
0
ARC
8
DEFAULT_255_2_778
10
80.5814938
20
26.9546062
40
0.5984333
50
269.8498027
51
0.1501973
0
ARC
8
DEFAULT_255_2_778
10
80.5783415
20
26.9546912
40
0.5985184
50
179.857962
51
270.1515865
0
LINE
8
DEFAULT_255_2_778
10
79.979825
20
26.956175
11
79.979825
21
26.956175
0
ARC
8
DEFAULT_255_2_778
10
78.0788175
20
26.9574825
40
0.5987939
50
89.8748857
51
180.1251076
0
ARC
8
DEFAULT_255_2_778
10
78.0816088
20
26.9577585
40
0.5985184
50
359.8484135
51
90.142038
0
ARC
8
DEFAULT_255_2_778
10
78.0816938
20
26.9546062
40
0.5984333
50
269.8498027
51
0.1501973
0
ARC
8
DEFAULT_255_2_778
10
78.0785415
20
26.9546912
40
0.5985184
50
179.857962
51
270.1515865
0
LINE
8
DEFAULT_255_2_778
10
77.480025
20
26.956175
11
77.480025
21
26.956175
0
ARC
8
DEFAULT_255_2_778
10
75.5788175
20
26.9574825
40
0.5987939
50
89.8748857
51
180.1251076
0
ARC
8
DEFAULT_255_2_778
10
75.5816088
20
26.9577585
40
0.5985184
50
359.8484135
51
90.142038
0
ARC
8
DEFAULT_255_2_778
10
75.5816938
20
26.9546062
40
0.5984333
50
269.8498027
51
0.1501973
0
ARC
8
DEFAULT_255_2_778
10
75.5785415
20
26.9546912
40
0.5985184
50
179.857962
51
270.1515865
0
LINE
8
DEFAULT_255_2_778
10
74.980025
20
26.956175
11
74.980025
21
26.956175
0
ARC
8
DEFAULT_255_2_778
10
73.0787175
20
26.9574825
40
0.5987939
50
89.8748857
51
180.1251076
0
ARC
8
DEFAULT_255_2_778
10
73.0815088
20
26.9577585
40
0.5985184
50
359.8484135
51
90.142038
0
ARC
8
DEFAULT_255_2_778
10
73.0815938
20
26.9546062
40
0.5984333
50
269.8498027
51
0.1501973
0
ARC
8
DEFAULT_255_2_778
10
73.0784415
20
26.9546912
40
0.5985184
50
179.857962
51
270.1515865
0
LINE
8
DEFAULT_255_2_778
10
72.479925
20
26.956175
11
72.479925
21
26.956175
0
LINE
8
DEFAULT_255_2_778
10
80.2346281
20
26.1039614
11
80.2346281
21
25.0361614
0
LINE
8
DEFAULT_255_2_778
10
80.2346281
20
25.0361614
11
80.0230281
21
25.0361614
0
LINE
8
DEFAULT_255_2_778
10
80.0230281
20
25.0361614
11
80.0230281
21
25.8521614
0
LINE
8
DEFAULT_255_2_778
10
80.0230281
20
25.8521614
11
79.7703281
21
25.7737614
0
LINE
8
DEFAULT_255_2_778
10
79.7703281
20
25.7737614
11
79.7703281
21
25.9460614
0
LINE
8
DEFAULT_255_2_778
10
79.7703281
20
25.9460614
11
80.2119281
21
26.1042614
0
LINE
8
DEFAULT_255_2_778
10
80.2119281
20
26.1042614
11
80.2346281
21
26.1042614
0
LINE
8
DEFAULT_255_2_778
10
80.2346281
20
26.1042614
11
80.2346281
21
26.1039614
0
ARC
8
DEFAULT_255_2_778
10
80.9222035
20
25.8226067
40
0.1599071
50
265.3771769
51
311.1364246
0
ARC
8
DEFAULT_255_2_778
10
80.9512887
20
25.7776686
40
0.1072023
50
315.2324711
51
316.1633608
0
ARC
8
DEFAULT_255_2_778
10
80.9204785
20
25.8032976
40
0.1472047
50
317.2737398
51
2.7342286
0
ARC
8
DEFAULT_255_2_778
10
80.9371749
20
25.8180111
40
0.1305674
50
356.6229219
51
45.1762349
0
ARC
8
DEFAULT_255_2_778
10
80.9319334
20
25.7977957
40
0.1489735
50
49.2305192
51
93.3162601
0
ARC
8
DEFAULT_255_2_778
10
80.9180443
20
25.7903803
40
0.1562285
50
88.0664143
51
128.1606677
0
ARC
8
DEFAULT_255_2_778
10
80.8870141
20
25.8291984
40
0.1065347
50
127.9380258
51
181.4945362
0
ARC
8
DEFAULT_255_2_778
10
80.8290674
20
25.829899
40
0.260275
50
145.7934795
51
180.7659286
0
ARC
8
DEFAULT_255_2_778
10
80.8597693
20
25.8058888
40
0.2991753
50
113.6583533
51
145.2961367
0
ARC
8
DEFAULT_255_2_778
10
80.9130587
20
25.6961135
40
0.4211355
50
89.3255879
51
114.3059334
0
ARC
8
DEFAULT_255_2_778
10
80.9309838
20
25.6531014
40
0.4642995
50
66.513257
51
91.6005164
0
ARC
8
DEFAULT_255_2_778
10
80.9884012
20
25.8039762
40
0.3031332
50
50.00883
51
65.1014329
0
ARC
8
DEFAULT_255_2_778
10
81.0035639
20
25.8267172
40
0.275982
50
357.1967137
51
49.3863918
0
ARC
8
DEFAULT_255_2_778
10
81.0553481
20
25.8127431
40
0.2238681
50
323.161298
51
0.1220015
0
ARC
8
DEFAULT_255_2_778
10
81.0008995
20
25.8486068
40
0.2889742
50
293.7570937
51
323.9430662
0
ARC
8
DEFAULT_255_2_778
10
81.0364779
20
25.3298542
40
0.2668066
50
36.2234582
51
72.363159
0
ARC
8
DEFAULT_255_2_778
10
81.0327288
20
25.3413983
40
0.2632617
50
358.6334289
51
33.7136634
0
ARC
8
DEFAULT_255_2_778
10
81.0154162
20
25.3253065
40
0.280671
50
309.0439911
51
2.0036859
0
ARC
8
DEFAULT_255_2_778
10
80.9469715
20
25.420266
40
0.3975928
50
271.4284119
51
308.0844577
0
ARC
8
DEFAULT_255_2_778
10
80.9182534
20
25.6561436
40
0.6345239
50
269.9604732
51
273.4902769
0
ARC
8
DEFAULT_255_2_778
10
80.9032991
20
25.4283695
40
0.4070087
50
236.3640883
51
272.0439689
0
ARC
8
DEFAULT_255_2_778
10
80.8729804
20
25.3670598
40
0.339282
50
230.3784567
51
234.8917243
0
ARC
8
DEFAULT_255_2_778
10
80.83031
20
25.319122
40
0.2751549
50
178.0427052
51
230.8568289
0
ARC
8
DEFAULT_255_2_778
10
80.8898517
20
25.3253193
40
0.1228777
50
178.507508
51
230.6351076
0
ARC
8
DEFAULT_255_2_778
10
80.9177386
20
25.3578935
40
0.1657515
50
230.3241343
51
271.7552658
0
ARC
8
DEFAULT_255_2_778
10
80.9324602
20
25.358632
40
0.1666915
50
266.6830701
51
310.6801282
0
ARC
8
DEFAULT_255_2_778
10
80.946246
20
25.3321551
40
0.1377945
50
313.510415
51
2.4392907
0
ARC
8
DEFAULT_255_2_778
10
80.9440119
20
25.3546019
40
0.1408831
50
353.2405546
51
89.2538047
0
ARC
8
DEFAULT_255_2_778
10
80.9093533
20
25.1714624
40
0.3260592
50
83.5738557
51
90.182337
0
LINE
8
DEFAULT_255_2_778
10
80.7966156
20
25.4975198
11
80.7966156
21
25.6632198
0
LINE
8
DEFAULT_255_2_778
10
80.7966156
20
25.6632198
11
80.9093156
21
25.6632198
0
LINE
8
DEFAULT_255_2_778
10
80.7805156
20
25.8264198
11
80.5688156
21
25.8264198
0
LINE
8
DEFAULT_255_2_778
10
80.5553156
20
25.3285198
11
80.7670156
21
25.3285198
0
LINE
8
DEFAULT_255_2_778
10
80.9083156
20
25.4975198
11
80.7961156
21
25.4975198
0
LINE
8
DEFAULT_255_2_778
10
80.7961156
20
25.4975198
11
80.7966156
21
25.4975198
0
LINE
8
DEFAULT_255_2_778
10
77.7345281
20
26.1039614
11
77.7345281
21
25.0361614
0
LINE
8
DEFAULT_255_2_778
10
77.7345281
20
25.0361614
11
77.5229281
21
25.0361614
0
LINE
8
DEFAULT_255_2_778
10
77.5229281
20
25.0361614
11
77.5229281
21
25.8521614
0
LINE
8
DEFAULT_255_2_778
10
77.5229281
20
25.8521614
11
77.2702281
21
25.7737614
0
LINE
8
DEFAULT_255_2_778
10
77.2702281
20
25.7737614
11
77.2702281
21
25.9460614
0
LINE
8
DEFAULT_255_2_778
10
77.2702281
20
25.9460614
11
77.7118281
21
26.1042614
0
LINE
8
DEFAULT_255_2_778
10
77.7118281
20
26.1042614
11
77.7345281
21
26.1042614
0
LINE
8
DEFAULT_255_2_778
10
77.7345281
20
26.1042614
11
77.7345281
21
26.1039614
0
ARC
8
DEFAULT_255_2_778
10
77.7387964
20
26.1955393
40
0.9435217
50
316.7351377
51
325.5602328
0
ARC
8
DEFAULT_255_2_778
10
78.1278956
20
25.92072
40
0.4672487
50
326.369372
51
329.6141745
0
ARC
8
DEFAULT_255_2_778
10
78.3476325
20
25.801507
40
0.2175536
50
327.4251811
51
358.0689234
0
ARC
8
DEFAULT_255_2_778
10
78.4034981
20
25.8036649
40
0.1618428
50
356.6387993
51
39.1185939
0
ARC
8
DEFAULT_255_2_778
10
78.4345163
20
25.8174246
40
0.1294023
50
43.0601273
51
93.568318
0
ARC
8
DEFAULT_255_2_778
10
78.4201893
20
25.8065191
40
0.1401974
50
87.4354288
51
139.764951
0
ARC
8
DEFAULT_255_2_778
10
78.4681333
20
25.7764407
40
0.1963895
50
142.1014319
51
182.703944
0
ARC
8
DEFAULT_255_2_778
10
78.4092177
20
25.7708088
40
0.349774
50
150.0793683
51
180.5950855
0
ARC
8
DEFAULT_255_2_778
10
78.3893499
20
25.7821614
40
0.3268916
50
117.6672258
51
150.0670092
0
ARC
8
DEFAULT_255_2_778
10
78.4233194
20
25.7183883
40
0.3991464
50
89.0176529
51
117.735166
0
ARC
8
DEFAULT_255_2_778
10
78.443028
20
25.6724823
40
0.4451797
50
66.5630265
51
91.6560496
0
ARC
8
DEFAULT_255_2_778
10
78.5010615
20
25.8244487
40
0.2827601
50
49.1625873
51
65.1044403
0
ARC
8
DEFAULT_255_2_778
10
78.4981642
20
25.8312767
40
0.2795681
50
356.6779035
51
47.7981619
0
ARC
8
DEFAULT_255_2_778
10
78.4188273
20
25.8205306
40
0.3584767
50
332.3145172
51
359.1281497
0
ARC
8
DEFAULT_255_2_778
10
78.1015297
20
25.9873478
40
0.7169537
50
320.185503
51
332.2908303
0
ARC
8
DEFAULT_255_2_778
10
77.5347461
20
26.4331575
40
1.4379118
50
317.5517321
51
321.001499
0
LINE
8
DEFAULT_255_2_778
10
78.8119625
20
25.206776
11
78.8119625
21
25.036076
0
LINE
8
DEFAULT_255_2_778
10
78.8119625
20
25.036076
11
78.0808625
21
25.036076
0
LINE
8
DEFAULT_255_2_778
10
78.0808625
20
25.036076
11
78.0808625
21
25.181076
0
LINE
8
DEFAULT_255_2_778
10
78.0808625
20
25.181076
11
78.4258625
21
25.548876
0
LINE
8
DEFAULT_255_2_778
10
78.2719625
20
25.767176
11
78.0594625
21
25.767176
0
LINE
8
DEFAULT_255_2_778
10
78.5957625
20
25.462676
11
78.3534625
21
25.207076
0
LINE
8
DEFAULT_255_2_778
10
78.3534625
20
25.207076
11
78.8119625
21
25.207076
0
LINE
8
DEFAULT_255_2_778
10
78.8119625
20
25.207076
11
78.8119625
21
25.206776
0
LINE
8
DEFAULT_255_2_778
10
75.4221281
20
26.1039614
11
75.4221281
21
25.0361614
0
LINE
8
DEFAULT_255_2_778
10
75.4221281
20
25.0361614
11
75.2105281
21
25.0361614
0
LINE
8
DEFAULT_255_2_778
10
75.2105281
20
25.0361614
11
75.2105281
21
25.8521614
0
LINE
8
DEFAULT_255_2_778
10
75.2105281
20
25.8521614
11
74.9578281
21
25.7737614
0
LINE
8
DEFAULT_255_2_778
10
74.9578281
20
25.7737614
11
74.9578281
21
25.9460614
0
LINE
8
DEFAULT_255_2_778
10
74.9578281
20
25.9460614
11
75.3994281
21
26.1042614
0
LINE
8
DEFAULT_255_2_778
10
75.3994281
20
26.1042614
11
75.4221281
21
26.1042614
0
LINE
8
DEFAULT_255_2_778
10
75.4221281
20
26.1042614
11
75.4221281
21
26.1039614
0
LINE
8
DEFAULT_255_2_778
10
76.2827281
20
26.1039614
11
76.2827281
21
25.0361614
0
LINE
8
DEFAULT_255_2_778
10
76.2827281
20
25.0361614
11
76.0711281
21
25.0361614
0
LINE
8
DEFAULT_255_2_778
10
76.0711281
20
25.0361614
11
76.0711281
21
25.8521614
0
LINE
8
DEFAULT_255_2_778
10
76.0711281
20
25.8521614
11
75.8184281
21
25.7737614
0
LINE
8
DEFAULT_255_2_778
10
75.8184281
20
25.7737614
11
75.8184281
21
25.9460614
0
LINE
8
DEFAULT_255_2_778
10
75.8184281
20
25.9460614
11
76.2600281
21
26.1042614
0
LINE
8
DEFAULT_255_2_778
10
76.2600281
20
26.1042614
11
76.2827281
21
26.1042614
0
LINE
8
DEFAULT_255_2_778
10
76.2827281
20
26.1042614
11
76.2827281
21
26.1039614
0
LINE
8
DEFAULT_255_2_778
10
72.8283281
20
26.1039614
11
72.8283281
21
25.0361614
0
LINE
8
DEFAULT_255_2_778
10
72.8283281
20
25.0361614
11
72.6167281
21
25.0361614
0
LINE
8
DEFAULT_255_2_778
10
72.6167281
20
25.0361614
11
72.6167281
21
25.8521614
0
LINE
8
DEFAULT_255_2_778
10
72.6167281
20
25.8521614
11
72.3640281
21
25.7737614
0
LINE
8
DEFAULT_255_2_778
10
72.3640281
20
25.7737614
11
72.3640281
21
25.9460614
0
LINE
8
DEFAULT_255_2_778
10
72.3640281
20
25.9460614
11
72.8056281
21
26.1042614
0
LINE
8
DEFAULT_255_2_778
10
72.8056281
20
26.1042614
11
72.8283281
21
26.1042614
0
LINE
8
DEFAULT_255_2_778
10
72.8283281
20
26.1042614
11
72.8283281
21
26.1039614
0
ARC
8
DEFAULT_255_2_778
10
73.1620308
20
25.4643893
40
0.7306148
50
344.463457
51
0.9852379
0
ARC
8
DEFAULT_255_2_778
10
73.4898891
20
25.3750042
40
0.390798
50
322.7675771
51
344.2143807
0
ARC
8
DEFAULT_255_2_778
10
73.5555642
20
25.3368621
40
0.3155693
50
268.0194538
51
321.0663607
0
ARC
8
DEFAULT_255_2_778
10
73.5330745
20
25.5398852
40
0.5185334
50
269.995915
51
271.2800467
0
ARC
8
DEFAULT_255_2_778
10
73.5182295
20
25.3616038
40
0.3405738
50
232.4461291
51
272.4919904
0
ARC
8
DEFAULT_255_2_778
10
73.4999857
20
25.3229803
40
0.2989719
50
218.6013892
51
230.7061268
0
ARC
8
DEFAULT_255_2_778
10
73.6115551
20
25.3981125
40
0.4331759
50
187.85889
51
217.1605909
0
ARC
8
DEFAULT_255_2_778
10
73.9809595
20
25.4695287
40
0.8091289
50
180.2391052
51
189.2919436
0
ARC
8
DEFAULT_255_2_778
10
73.905321
20
25.6749926
40
0.7335907
50
164.6854244
51
180.9795011
0
ARC
8
DEFAULT_255_2_778
10
73.5679219
20
25.7662729
40
0.3840653
50
142.2032321
51
164.5251505
0
ARC
8
DEFAULT_255_2_778
10
73.510483
20
25.7981437
40
0.3193024
50
87.6981501
51
140.4052675
0
ARC
8
DEFAULT_255_2_778
10
73.5314027
20
25.6004055
40
0.5168464
50
89.9961439
51
90.8974512
0
ARC
8
DEFAULT_255_2_778
10
73.5462301
20
25.7758347
40
0.3417377
50
52.6454331
51
92.4809048
0
ARC
8
DEFAULT_255_2_778
10
73.5651758
20
25.8156477
40
0.2987337
50
38.7549082
51
50.9004902
0
ARC
8
DEFAULT_255_2_778
10
73.4571438
20
25.742972
40
0.4286146
50
8.1326218
51
37.2906882
0
ARC
8
DEFAULT_255_2_778
10
73.0881167
20
25.6704594
40
0.8044267
50
0.220277
51
9.5272869
0
ARC
8
DEFAULT_255_2_778
10
73.1222487
20
25.7041822
40
0.5588141
50
358.7869517
51
12.9921022
0
ARC
8
DEFAULT_255_2_778
10
73.4627744
20
25.7805553
40
0.2098465
50
13.5758153
51
29.9285878
0
ARC
8
DEFAULT_255_2_778
10
73.5389299
20
25.8232133
40
0.122568
50
30.4082557
51
93.5045812
0
ARC
8
DEFAULT_255_2_778
10
73.5241024
20
25.8247915
40
0.1209832
50
86.5240516
51
148.4182752
0
ARC
8
DEFAULT_255_2_778
10
73.6661811
20
25.7540753
40
0.2794136
50
151.3243527
51
175.6540352
0
ARC
8
DEFAULT_255_2_778
10
74.0710253
20
25.697404
40
0.6878733
50
173.5020633
51
179.0963837
0
ARC
8
DEFAULT_255_2_778
10
73.9439439
20
25.4370706
40
0.5608322
50
178.7860693
51
193.3045862
0
ARC
8
DEFAULT_255_2_778
10
73.6170809
20
25.3629908
40
0.2257159
50
194.0987978
51
208.5104923
0
ARC
8
DEFAULT_255_2_778
10
73.5249594
20
25.3124745
40
0.1206545
50
208.3116659
51
273.5534577
0
ARC
8
DEFAULT_255_2_778
10
73.5404622
20
25.3111701
40
0.119388
50
266.1459677
51
330.7596286
0
ARC
8
DEFAULT_255_2_778
10
73.3697967
20
25.3912469
40
0.3077184
50
333.2726597
51
356.0840999
0
ARC
8
DEFAULT_255_2_778
10
72.9439811
20
25.445669
40
0.7366882
50
354.1226132
51
359.4698049
0
LINE
8
DEFAULT_255_2_778
10
73.8925375
20
25.6732521
11
73.8925375
21
25.4769521
0
LINE
8
DEFAULT_255_2_778
10
73.1718375
20
25.4661521
11
73.1718375
21
25.6624521
0
LINE
8
DEFAULT_255_2_778
10
73.8925375
20
25.6735521
11
73.8925375
21
25.6732521
0
LINE
8
DEFAULT_255_2_778
10
73.6809375
20
25.4388521
11
73.6809375
21
25.6923521
0
LINE
8
DEFAULT_255_2_778
10
73.3832375
20
25.7082521
11
73.3832375
21
25.4489521
0
LINE
8
DEFAULT_255_2_778
10
73.6806375
20
25.4388521
11
73.6809375
21
25.4388521
0
ARC
8
DEFAULT_255_2_778
10
80.5786175
20
23.9576825
40
0.5987939
50
89.8748857
51
180.1251076
0
ARC
8
DEFAULT_255_2_778
10
80.5814088
20
23.9579585
40
0.5985184
50
359.8484135
51
90.142038
0
ARC
8
DEFAULT_255_2_778
10
80.5814938
20
23.9548062
40
0.5984333
50
269.8498027
51
0.1501973
0
ARC
8
DEFAULT_255_2_778
10
80.5783415
20
23.9548912
40
0.5985184
50
179.857962
51
270.1515865
0
LINE
8
DEFAULT_255_2_778
10
79.979825
20
23.956375
11
79.979825
21
23.956375
0
ARC
8
DEFAULT_255_2_778
10
78.0788175
20
23.9576825
40
0.5987939
50
89.8748857
51
180.1251076
0
ARC
8
DEFAULT_255_2_778
10
78.0816088
20
23.9579585
40
0.5985184
50
359.8484135
51
90.142038
0
ARC
8
DEFAULT_255_2_778
10
78.0816938
20
23.9548062
40
0.5984333
50
269.8498027
51
0.1501973
0
ARC
8
DEFAULT_255_2_778
10
78.0785415
20
23.9548912
40
0.5985184
50
179.857962
51
270.1515865
0
LINE
8
DEFAULT_255_2_778
10
77.480025
20
23.956375
11
77.480025
21
23.956375
0
ARC
8
DEFAULT_255_2_778
10
75.5788175
20
23.9576825
40
0.5987939
50
89.8748857
51
180.1251076
0
ARC
8
DEFAULT_255_2_778
10
75.5816088
20
23.9579585
40
0.5985184
50
359.8484135
51
90.142038
0
ARC
8
DEFAULT_255_2_778
10
75.5816938
20
23.9548062
40
0.5984333
50
269.8498027
51
0.1501973
0
ARC
8
DEFAULT_255_2_778
10
75.5785415
20
23.9548912
40
0.5985184
50
179.857962
51
270.1515865
0
LINE
8
DEFAULT_255_2_778
10
74.980025
20
23.956375
11
74.980025
21
23.956375
0
ARC
8
DEFAULT_255_2_778
10
73.0787175
20
23.9576825
40
0.5987939
50
89.8748857
51
180.1251076
0
ARC
8
DEFAULT_255_2_778
10
73.0815088
20
23.9579585
40
0.5985184
50
359.8484135
51
90.142038
0
ARC
8
DEFAULT_255_2_778
10
73.0815938
20
23.9548062
40
0.5984333
50
269.8498027
51
0.1501973
0
ARC
8
DEFAULT_255_2_778
10
73.0784415
20
23.9548912
40
0.5985184
50
179.857962
51
270.1515865
0
LINE
8
DEFAULT_255_2_778
10
72.479925
20
23.956375
11
72.479925
21
23.956375
0
LINE
8
DEFAULT_255_2_778
10
75.5260281
20
23.1038614
11
75.5260281
21
22.0360614
0
LINE
8
DEFAULT_255_2_778
10
75.5260281
20
22.0360614
11
75.3144281
21
22.0360614
0
LINE
8
DEFAULT_255_2_778
10
75.3144281
20
22.0360614
11
75.3144281
21
22.8520614
0
LINE
8
DEFAULT_255_2_778
10
75.3144281
20
22.8520614
11
75.0617281
21
22.7736614
0
LINE
8
DEFAULT_255_2_778
10
75.0617281
20
22.7736614
11
75.0617281
21
22.9459614
0
LINE
8
DEFAULT_255_2_778
10
75.0617281
20
22.9459614
11
75.5033281
21
23.1041614
0
LINE
8
DEFAULT_255_2_778
10
75.5033281
20
23.1041614
11
75.5260281
21
23.1041614
0
LINE
8
DEFAULT_255_2_778
10
75.5260281
20
23.1041614
11
75.5260281
21
23.1038614
0
ARC
8
DEFAULT_255_2_778
10
76.272041
20
22.4009268
40
0.3359862
50
89.8240276
51
118.3156881
0
ARC
8
DEFAULT_255_2_778
10
76.2892671
20
22.4284459
40
0.3088903
50
45.3829402
51
93.0052123
0
ARC
8
DEFAULT_255_2_778
10
76.2990336
20
22.4483546
40
0.2879451
50
42.398596
51
43.9837274
0
ARC
8
DEFAULT_255_2_778
10
76.2481444
20
22.4149108
40
0.3482088
50
2.7851223
51
40.816061
0
ARC
8
DEFAULT_255_2_778
10
75.9999769
20
22.3790598
40
0.5982968
50
359.9091778
51
5.0601364
0
ARC
8
DEFAULT_255_2_778
10
76.2125064
20
22.3716709
40
0.3858203
50
332.4485083
51
0.9564855
0
ARC
8
DEFAULT_255_2_778
10
76.2825756
20
22.3364317
40
0.3073997
50
298.5888669
51
332.2309315
0
ARC
8
DEFAULT_255_2_778
10
76.2476746
20
22.4109816
40
0.3895935
50
268.5583597
51
297.8494077
0
ARC
8
DEFAULT_255_2_778
10
76.23431
20
22.4362785
40
0.4147824
50
244.9172951
51
270.4921721
0
ARC
8
DEFAULT_255_2_778
10
76.1903512
20
22.3493054
40
0.3173895
50
214.1770019
51
245.4486096
0
ARC
8
DEFAULT_255_2_778
10
76.1777562
20
22.3383695
40
0.3008328
50
181.0395926
51
213.8014029
0
ARC
8
DEFAULT_255_2_778
10
76.2432867
20
22.341059
40
0.1570253
50
182.9742208
51
225.4215245
0
ARC
8
DEFAULT_255_2_778
10
76.2309584
20
22.3392387
40
0.147267
50
228.3421642
51
272.4964125
0
ARC
8
DEFAULT_255_2_778
10
76.2439968
20
22.3222444
40
0.1303015
50
267.0861243
51
322.9363181
0
ARC
8
DEFAULT_255_2_778
10
76.157513
20
22.3713761
40
0.2292886
50
326.1661885
51
1.6074479
0
ARC
8
DEFAULT_255_2_778
10
75.9474728
20
22.3897242
40
0.4394002
50
358.4459943
51
0.0113767
0
ARC
8
DEFAULT_255_2_778
10
76.189828
20
22.4031135
40
0.1974934
50
356.137963
51
39.5664689
0
ARC
8
DEFAULT_255_2_778
10
76.225463
20
22.4140268
40
0.163696
50
44.5730055
51
93.5339022
0
ARC
8
DEFAULT_255_2_778
10
76.2069869
20
22.3945817
40
0.1830219
50
87.3738033
51
128.4520731
0
LINE
8
DEFAULT_255_2_778
10
76.0724729
20
22.5186114
11
75.9039729
21
22.5604114
0
LINE
8
DEFAULT_255_2_778
10
75.9039729
20
22.5604114
11
75.9655729
21
23.1023114
0
LINE
8
DEFAULT_255_2_778
10
75.9655729
20
23.1023114
11
76.5632729
21
23.1023114
0
LINE
8
DEFAULT_255_2_778
10
76.5632729
20
23.1023114
11
76.5632729
21
22.9258114
0
LINE
8
DEFAULT_255_2_778
10
76.5632729
20
22.9258114
11
76.1391729
21
22.9258114
0
LINE
8
DEFAULT_255_2_778
10
76.1391729
20
22.9258114
11
76.1126729
21
22.6967114
0
LINE
8
DEFAULT_255_2_778
10
75.8769729
20
22.3329114
11
76.0864729
21
22.3329114
0
LINE
8
DEFAULT_255_2_778
10
76.0931729
20
22.5379114
11
76.0724729
21
22.5189114
0
LINE
8
DEFAULT_255_2_778
10
76.0724729
20
22.5189114
11
76.0724729
21
22.5186114
0
LINE
8
DEFAULT_255_2_778
10
73.0260281
20
23.1038614
11
73.0260281
21
22.0360614
0
LINE
8
DEFAULT_255_2_778
10
73.0260281
20
22.0360614
11
72.8144281
21
22.0360614
0
LINE
8
DEFAULT_255_2_778
10
72.8144281
20
22.0360614
11
72.8144281
21
22.8520614
0
LINE
8
DEFAULT_255_2_778
10
72.8144281
20
22.8520614
11
72.5617281
21
22.7736614
0
LINE
8
DEFAULT_255_2_778
10
72.5617281
20
22.7736614
11
72.5617281
21
22.9459614
0
LINE
8
DEFAULT_255_2_778
10
72.5617281
20
22.9459614
11
73.0033281
21
23.1041614
0
LINE
8
DEFAULT_255_2_778
10
73.0033281
20
23.1041614
11
73.0260281
21
23.1041614
0
LINE
8
DEFAULT_255_2_778
10
73.0260281
20
23.1041614
11
73.0260281
21
23.1038614
0
LINE
8
DEFAULT_255_2_778
10
73.9988688
20
23.1023677
11
73.9988688
21
22.4371677
0
LINE
8
DEFAULT_255_2_778
10
73.9988688
20
22.4371677
11
74.1198688
21
22.4371677
0
LINE
8
DEFAULT_255_2_778
10
74.1198688
20
22.4371677
11
74.1198688
21
22.2665677
0
LINE
8
DEFAULT_255_2_778
10
74.1198688
20
22.2665677
11
73.9988688
21
22.2665677
0
LINE
8
DEFAULT_255_2_778
10
73.9988688
20
22.2665677
11
73.9988688
21
22.0358677
0
LINE
8
DEFAULT_255_2_778
10
73.9988688
20
22.0358677
11
73.7872688
21
22.0358677
0
LINE
8
DEFAULT_255_2_778
10
73.7872688
20
22.0358677
11
73.7872688
21
22.2665677
0
LINE
8
DEFAULT_255_2_778
10
73.7872688
20
22.2665677
11
73.3498688
21
22.2665677
0
LINE
8
DEFAULT_255_2_778
10
73.3498688
20
22.2665677
11
73.3403688
21
22.3998677
0
LINE
8
DEFAULT_255_2_778
10
73.3403688
20
22.3998677
11
73.7848688
21
23.1023677
0
LINE
8
DEFAULT_255_2_778
10
73.7848688
20
23.1023677
11
73.9986688
21
23.1023677
0
LINE
8
DEFAULT_255_2_778
10
73.9986688
20
23.1023677
11
73.9988688
21
23.1023677
0
LINE
8
DEFAULT_255_2_778
10
73.7732688
20
22.7896677
11
73.5512688
21
22.4371677
0
LINE
8
DEFAULT_255_2_778
10
73.5512688
20
22.4371677
11
73.7869688
21
22.4371677
0
LINE
8
DEFAULT_255_2_778
10
73.7869688
20
22.4371677
11
73.7869688
21
22.8136677
0
LINE
8
DEFAULT_255_2_778
10
73.7869688
20
22.8136677
11
73.7729688
21
22.7896677
0
LINE
8
DEFAULT_255_2_778
10
73.7729688
20
22.7896677
11
73.7732688
21
22.7896677
0
ARC
8
DEFAULT_255_2_778
10
75.8288175
20
20.9575825
40
0.5987939
50
89.8748857
51
180.1251076
0
ARC
8
DEFAULT_255_2_778
10
75.8316088
20
20.9578585
40
0.5985184
50
359.8484135
51
90.142038
0
ARC
8
DEFAULT_255_2_778
10
75.8316938
20
20.9547062
40
0.5984333
50
269.8498027
51
0.1501973
0
ARC
8
DEFAULT_255_2_778
10
75.8285415
20
20.9547912
40
0.5985184
50
179.857962
51
270.1515865
0
LINE
8
DEFAULT_255_2_778
10
75.230025
20
20.956275
11
75.230025
21
20.956275
0
ARC
8
DEFAULT_255_2_778
10
73.3288175
20
20.9575825
40
0.5987939
50
89.8748857
51
180.1251076
0
ARC
8
DEFAULT_255_2_778
10
73.3316088
20
20.9578585
40
0.5985184
50
359.8484135
51
90.142038
0
ARC
8
DEFAULT_255_2_778
10
73.3316938
20
20.9547062
40
0.5984333
50
269.8498027
51
0.1501973
0
ARC
8
DEFAULT_255_2_778
10
73.3285415
20
20.9547912
40
0.5985184
50
179.857962
51
270.1515865
0
LINE
8
DEFAULT_255_2_778
10
72.730025
20
20.956275
11
72.730025
21
20.956275
0
LINE
8
DEFAULT_255_2_778
10
71.8365355
20
57.0566
11
81.3366355
21
57.0566
0
LINE
8
DEFAULT_255_2_778
10
79.1812945
20
56.6215677
11
79.1812945
21
55.5550677
0
LINE
8
DEFAULT_255_2_778
10
79.1812945
20
55.5550677
11
78.9616945
21
55.5550677
0
LINE
8
DEFAULT_255_2_778
10
78.9616945
20
55.5550677
11
78.9616945
21
56.6215677
0
LINE
8
DEFAULT_255_2_778
10
78.9616945
20
56.6215677
11
79.1812945
21
56.6215677
0
LINE
8
DEFAULT_255_2_778
10
79.1812945
20
56.6215677
11
79.1812945
21
56.6215677
0
LINE
8
DEFAULT_255_2_778
10
80.2522945
20
56.6215677
11
80.2522945
21
55.5550677
0
LINE
8
DEFAULT_255_2_778
10
80.2522945
20
55.5550677
11
80.0326945
21
55.5550677
0
LINE
8
DEFAULT_255_2_778
10
80.0326945
20
55.5550677
11
79.6048945
21
56.2566677
0
LINE
8
DEFAULT_255_2_778
10
79.6048945
20
56.2566677
11
79.6048945
21
55.5550677
0
LINE
8
DEFAULT_255_2_778
10
79.6048945
20
55.5550677
11
79.3852945
21
55.5550677
0
LINE
8
DEFAULT_255_2_778
10
79.3852945
20
55.5550677
11
79.3852945
21
56.6215677
0
LINE
8
DEFAULT_255_2_778
10
79.3852945
20
56.6215677
11
79.6048945
21
56.6215677
0
LINE
8
DEFAULT_255_2_778
10
79.6048945
20
56.6215677
11
80.0331945
21
55.9185677
0
LINE
8
DEFAULT_255_2_778
10
80.0331945
20
55.9185677
11
80.0331945
21
56.6215677
0
LINE
8
DEFAULT_255_2_778
10
80.0331945
20
56.6215677
11
80.2522945
21
56.6215677
0
LINE
8
DEFAULT_255_2_778
10
80.2522945
20
56.6215677
11
80.2522945
21
56.6215677
0
ARC
8
DEFAULT_255_2_778
10
80.6159175
20
68.5576825
40
0.5987939
50
89.8748857
51
180.1251076
0
ARC
8
DEFAULT_255_2_778
10
80.6187088
20
68.5579585
40
0.5985184
50
359.8484135
51
90.142038
0
ARC
8
DEFAULT_255_2_778
10
80.6187938
20
68.5548062
40
0.5984333
50
269.8498027
51
0.1501973
0
ARC
8
DEFAULT_255_2_778
10
80.6156415
20
68.5548912
40
0.5985184
50
179.857962
51
270.1515865
0
LINE
8
DEFAULT_255_2_778
10
80.017125
20
68.556375
11
80.017125
21
68.556375
0
ARC
8
DEFAULT_255_2_778
10
78.1161175
20
68.5576825
40
0.5987939
50
89.8748857
51
180.1251076
0
ARC
8
DEFAULT_255_2_778
10
78.1189088
20
68.5579585
40
0.5985184
50
359.8484135
51
90.142038
0
ARC
8
DEFAULT_255_2_778
10
78.1189938
20
68.5548062
40
0.5984333
50
269.8498027
51
0.1501973
0
ARC
8
DEFAULT_255_2_778
10
78.1158415
20
68.5548912
40
0.5985184
50
179.857962
51
270.1515865
0
LINE
8
DEFAULT_255_2_778
10
77.517325
20
68.556375
11
77.517325
21
68.556375
0
ARC
8
DEFAULT_255_2_778
10
75.6161175
20
68.5576825
40
0.5987939
50
89.8748857
51
180.1251076
0
ARC
8
DEFAULT_255_2_778
10
75.6189088
20
68.5579585
40
0.5985184
50
359.8484135
51
90.142038
0
ARC
8
DEFAULT_255_2_778
10
75.6189938
20
68.5548062
40
0.5984333
50
269.8498027
51
0.1501973
0
ARC
8
DEFAULT_255_2_778
10
75.6158415
20
68.5548912
40
0.5985184
50
179.857962
51
270.1515865
0
LINE
8
DEFAULT_255_2_778
10
75.017325
20
68.556375
11
75.017325
21
68.556375
0
ARC
8
DEFAULT_255_2_778
10
73.1160175
20
68.5576825
40
0.5987939
50
89.8748857
51
180.1251076
0
ARC
8
DEFAULT_255_2_778
10
73.1188088
20
68.5579585
40
0.5985184
50
359.8484135
51
90.142038
0
ARC
8
DEFAULT_255_2_778
10
73.1188938
20
68.5548062
40
0.5984333
50
269.8498027
51
0.1501973
0
ARC
8
DEFAULT_255_2_778
10
73.1157415
20
68.5548912
40
0.5985184
50
179.857962
51
270.1515865
0
LINE
8
DEFAULT_255_2_778
10
72.517225
20
68.556375
11
72.517225
21
68.556375
0
LINE
8
DEFAULT_255_2_778
10
75.9658281
20
67.7266614
11
75.9658281
21
66.6588614
0
LINE
8
DEFAULT_255_2_778
10
75.9658281
20
66.6588614
11
75.7542281
21
66.6588614
0
LINE
8
DEFAULT_255_2_778
10
75.7542281
20
66.6588614
11
75.7542281
21
67.4748614
0
LINE
8
DEFAULT_255_2_778
10
75.7542281
20
67.4748614
11
75.5015281
21
67.3964614
0
LINE
8
DEFAULT_255_2_778
10
75.5015281
20
67.3964614
11
75.5015281
21
67.5687614
0
LINE
8
DEFAULT_255_2_778
10
75.5015281
20
67.5687614
11
75.9431281
21
67.7269614
0
LINE
8
DEFAULT_255_2_778
10
75.9431281
20
67.7269614
11
75.9658281
21
67.7269614
0
LINE
8
DEFAULT_255_2_778
10
75.9658281
20
67.7269614
11
75.9658281
21
67.7266614
0
ARC
8
DEFAULT_255_2_778
10
80.6052035
20
67.4453067
40
0.1599071
50
265.3771769
51
311.1364246
0
ARC
8
DEFAULT_255_2_778
10
80.6342887
20
67.4003686
40
0.1072023
50
315.2324711
51
316.1633608
0
ARC
8
DEFAULT_255_2_778
10
80.6034785
20
67.4259976
40
0.1472047
50
317.2737398
51
2.7342286
0
ARC
8
DEFAULT_255_2_778
10
80.6201749
20
67.4407111
40
0.1305674
50
356.6229219
51
45.1762349
0
ARC
8
DEFAULT_255_2_778
10
80.6149334
20
67.4204957
40
0.1489735
50
49.2305192
51
93.3162601
0
ARC
8
DEFAULT_255_2_778
10
80.6010443
20
67.4130803
40
0.1562285
50
88.0664143
51
128.1606677
0
ARC
8
DEFAULT_255_2_778
10
80.5700141
20
67.4518984
40
0.1065347
50
127.9380258
51
181.4945362
0
ARC
8
DEFAULT_255_2_778
10
80.5120674
20
67.452599
40
0.260275
50
145.7934795
51
180.7659286
0
ARC
8
DEFAULT_255_2_778
10
80.5427693
20
67.4285888
40
0.2991753
50
113.6583533
51
145.2961367
0
ARC
8
DEFAULT_255_2_778
10
80.5960587
20
67.3188135
40
0.4211355
50
89.3255879
51
114.3059334
0
ARC
8
DEFAULT_255_2_778
10
80.6139838
20
67.2758014
40
0.4642995
50
66.513257
51
91.6005164
0
ARC
8
DEFAULT_255_2_778
10
80.6714012
20
67.4266762
40
0.3031332
50
50.00883
51
65.1014329
0
ARC
8
DEFAULT_255_2_778
10
80.6865639
20
67.4494172
40
0.275982
50
357.1967137
51
49.3863918
0
ARC
8
DEFAULT_255_2_778
10
80.7383481
20
67.4354431
40
0.2238681
50
323.161298
51
0.1220015
0
ARC
8
DEFAULT_255_2_778
10
80.6838995
20
67.4713068
40
0.2889742
50
293.7570937
51
323.9430662
0
ARC
8
DEFAULT_255_2_778
10
80.7194779
20
66.9525542
40
0.2668066
50
36.2234582
51
72.363159
0
ARC
8
DEFAULT_255_2_778
10
80.7157288
20
66.9640983
40
0.2632617
50
358.6334289
51
33.7136634
0
ARC
8
DEFAULT_255_2_778
10
80.6984162
20
66.9480065
40
0.280671
50
309.0439911
51
2.0036859
0
ARC
8
DEFAULT_255_2_778
10
80.6299715
20
67.042966
40
0.3975928
50
271.4284119
51
308.0844577
0
ARC
8
DEFAULT_255_2_778
10
80.6012534
20
67.2788436
40
0.6345239
50
269.9604732
51
273.4902769
0
ARC
8
DEFAULT_255_2_778
10
80.5862991
20
67.0510695
40
0.4070087
50
236.3640883
51
272.0439689
0
ARC
8
DEFAULT_255_2_778
10
80.5559804
20
66.9897598
40
0.339282
50
230.3784567
51
234.8917243
0
ARC
8
DEFAULT_255_2_778
10
80.51331
20
66.941822
40
0.2751549
50
178.0427052
51
230.8568289
0
ARC
8
DEFAULT_255_2_778
10
80.5728517
20
66.9480193
40
0.1228777
50
178.507508
51
230.6351076
0
ARC
8
DEFAULT_255_2_778
10
80.6007386
20
66.9805935
40
0.1657515
50
230.3241343
51
271.7552658
0
ARC
8
DEFAULT_255_2_778
10
80.6154602
20
66.981332
40
0.1666915
50
266.6830701
51
310.6801282
0
ARC
8
DEFAULT_255_2_778
10
80.629246
20
66.9548551
40
0.1377945
50
313.510415
51
2.4392907
0
ARC
8
DEFAULT_255_2_778
10
80.6270119
20
66.9773019
40
0.1408831
50
353.2405546
51
89.2538047
0
ARC
8
DEFAULT_255_2_778
10
80.5923533
20
66.7941624
40
0.3260592
50
83.5738557
51
90.182337
0
LINE
8
DEFAULT_255_2_778
10
80.4796156
20
67.1202198
11
80.4796156
21
67.2859198
0
LINE
8
DEFAULT_255_2_778
10
80.4796156
20
67.2859198
11
80.5923156
21
67.2859198
0
LINE
8
DEFAULT_255_2_778
10
80.4635156
20
67.4491198
11
80.2518156
21
67.4491198
0
LINE
8
DEFAULT_255_2_778
10
80.2383156
20
66.9512198
11
80.4500156
21
66.9512198
0
LINE
8
DEFAULT_255_2_778
10
80.5913156
20
67.1202198
11
80.4791156
21
67.1202198
0
LINE
8
DEFAULT_255_2_778
10
80.4791156
20
67.1202198
11
80.4796156
21
67.1202198
0
ARC
8
DEFAULT_255_2_778
10
77.3220964
20
67.8182393
40
0.9435217
50
316.7351377
51
325.5602328
0
ARC
8
DEFAULT_255_2_778
10
77.7111956
20
67.54342
40
0.4672487
50
326.369372
51
329.6141745
0
ARC
8
DEFAULT_255_2_778
10
77.9309325
20
67.424207
40
0.2175536
50
327.4251811
51
358.0689234
0
ARC
8
DEFAULT_255_2_778
10
77.9867981
20
67.4263649
40
0.1618428
50
356.6387993
51
39.1185939
0
ARC
8
DEFAULT_255_2_778
10
78.0178163
20
67.4401246
40
0.1294023
50
43.0601273
51
93.568318
0
ARC
8
DEFAULT_255_2_778
10
78.0034893
20
67.4292191
40
0.1401974
50
87.4354288
51
139.764951
0
ARC
8
DEFAULT_255_2_778
10
78.0514333
20
67.3991407
40
0.1963895
50
142.1014319
51
182.703944
0
ARC
8
DEFAULT_255_2_778
10
77.9925177
20
67.3935088
40
0.349774
50
150.0793683
51
180.5950855
0
ARC
8
DEFAULT_255_2_778
10
77.9726499
20
67.4048614
40
0.3268916
50
117.6672258
51
150.0670092
0
ARC
8
DEFAULT_255_2_778
10
78.0066194
20
67.3410883
40
0.3991464
50
89.0176529
51
117.735166
0
ARC
8
DEFAULT_255_2_778
10
78.026328
20
67.2951823
40
0.4451797
50
66.5630265
51
91.6560496
0
ARC
8
DEFAULT_255_2_778
10
78.0843615
20
67.4471487
40
0.2827601
50
49.1625873
51
65.1044403
0
ARC
8
DEFAULT_255_2_778
10
78.0814642
20
67.4539767
40
0.2795681
50
356.6779035
51
47.7981619
0
ARC
8
DEFAULT_255_2_778
10
78.0021273
20
67.4432306
40
0.3584767
50
332.3145172
51
359.1281497
0
ARC
8
DEFAULT_255_2_778
10
77.6848297
20
67.6100478
40
0.7169537
50
320.185503
51
332.2908303
0
ARC
8
DEFAULT_255_2_778
10
77.1180461
20
68.0558575
40
1.4379118
50
317.5517321
51
321.001499
0
LINE
8
DEFAULT_255_2_778
10
78.3952625
20
66.829476
11
78.3952625
21
66.658776
0
LINE
8
DEFAULT_255_2_778
10
78.3952625
20
66.658776
11
77.6641625
21
66.658776
0
LINE
8
DEFAULT_255_2_778
10
77.6641625
20
66.658776
11
77.6641625
21
66.803776
0
LINE
8
DEFAULT_255_2_778
10
77.6641625
20
66.803776
11
78.0091625
21
67.171576
0
LINE
8
DEFAULT_255_2_778
10
77.8552625
20
67.389876
11
77.6427625
21
67.389876
0
LINE
8
DEFAULT_255_2_778
10
78.1790625
20
67.085376
11
77.9367625
21
66.829776
0
LINE
8
DEFAULT_255_2_778
10
77.9367625
20
66.829776
11
78.3952625
21
66.829776
0
LINE
8
DEFAULT_255_2_778
10
78.3952625
20
66.829776
11
78.3952625
21
66.829476
0
ARC
8
DEFAULT_255_2_778
10
72.7453308
20
67.0870893
40
0.7306148
50
344.463457
51
0.9852379
0
ARC
8
DEFAULT_255_2_778
10
73.0731891
20
66.9977042
40
0.390798
50
322.7675771
51
344.2143807
0
ARC
8
DEFAULT_255_2_778
10
73.1388642
20
66.9595621
40
0.3155693
50
268.0194538
51
321.0663607
0
ARC
8
DEFAULT_255_2_778
10
73.1163745
20
67.1625852
40
0.5185334
50
269.995915
51
271.2800467
0
ARC
8
DEFAULT_255_2_778
10
73.1015516
20
66.9845543
40
0.3408231
50
232.4607126
51
272.4864393
0
ARC
8
DEFAULT_255_2_778
10
73.0833813
20
66.9460383
40
0.2993482
50
218.6315855
51
230.7263214
0
ARC
8
DEFAULT_255_2_778
10
73.1951098
20
67.0207694
40
0.4334326
50
187.8484572
51
217.1277292
0
ARC
8
DEFAULT_255_2_778
10
73.5651065
20
67.0922352
40
0.809976
50
180.2393183
51
189.2826093
0
ARC
8
DEFAULT_255_2_778
10
73.488621
20
67.2976926
40
0.7335907
50
164.6854244
51
180.9795011
0
ARC
8
DEFAULT_255_2_778
10
73.1512219
20
67.3889729
40
0.3840653
50
142.2032321
51
164.5251505
0
ARC
8
DEFAULT_255_2_778
10
73.093783
20
67.4208437
40
0.3193024
50
87.6981501
51
140.4052675
0
ARC
8
DEFAULT_255_2_778
10
73.1147027
20
67.2231055
40
0.5168464
50
89.9961439
51
90.8974512
0
ARC
8
DEFAULT_255_2_778
10
73.1294784
20
67.3984328
40
0.3418373
50
52.7964154
51
92.4715033
0
ARC
8
DEFAULT_255_2_778
10
73.1487103
20
67.4388366
40
0.2981667
50
38.7218899
51
51.0451729
0
ARC
8
DEFAULT_255_2_778
10
73.0406912
20
67.3656271
40
0.4283655
50
8.1434639
51
37.3236298
0
ARC
8
DEFAULT_255_2_778
10
72.6723105
20
67.2931698
40
0.8035329
50
0.2197797
51
9.5372306
0
LINE
8
DEFAULT_255_2_778
10
73.4758375
20
67.2959521
11
73.4758375
21
67.0996521
0
LINE
8
DEFAULT_255_2_778
10
72.7551375
20
67.0888521
11
72.7551375
21
67.2851521
0
LINE
8
DEFAULT_255_2_778
10
73.4758375
20
67.2962521
11
73.4758375
21
67.2959521
0
ARC
8
DEFAULT_255_2_778
10
72.7054652
20
67.3268276
40
0.5589325
50
358.7840558
51
12.9909967
0
ARC
8
DEFAULT_255_2_778
10
73.0467114
20
67.4033687
40
0.209225
50
13.5741252
51
29.9637583
0
ARC
8
DEFAULT_255_2_778
10
73.1222643
20
67.4458279
40
0.122568
50
30.4082557
51
93.5045812
0
ARC
8
DEFAULT_255_2_778
10
73.1074367
20
67.447406
40
0.1209832
50
86.5240516
51
148.4182752
0
ARC
8
DEFAULT_255_2_778
10
73.2495154
20
67.3766899
40
0.2794136
50
151.3243527
51
175.6540352
0
ARC
8
DEFAULT_255_2_778
10
73.6543597
20
67.3200186
40
0.6878733
50
173.5020633
51
179.0963837
0
ARC
8
DEFAULT_255_2_778
10
73.5272782
20
67.0596851
40
0.5608322
50
178.7860693
51
193.3045862
0
ARC
8
DEFAULT_255_2_778
10
73.2004153
20
66.9856054
40
0.2257159
50
194.0987978
51
208.5104923
0
ARC
8
DEFAULT_255_2_778
10
73.1082937
20
66.9350891
40
0.1206545
50
208.3116659
51
273.5534577
0
ARC
8
DEFAULT_255_2_778
10
73.1238723
20
66.9336448
40
0.1192536
50
266.1051287
51
330.8004676
0
ARC
8
DEFAULT_255_2_778
10
72.9531311
20
67.0138615
40
0.3077184
50
333.2726597
51
356.0840999
0
ARC
8
DEFAULT_255_2_778
10
72.5273154
20
67.0682836
40
0.7366882
50
354.1226132
51
359.4698049
0
LINE
8
DEFAULT_255_2_778
10
73.2642719
20
67.0614667
11
73.2642719
21
67.3149667
0
LINE
8
DEFAULT_255_2_778
10
72.9665719
20
67.3308667
11
72.9665719
21
67.0715667
0
LINE
8
DEFAULT_255_2_778
10
73.2639719
20
67.0614667
11
73.2642719
21
67.0614667
0
ARC
8
DEFAULT_255_2_778
10
80.6159175
20
65.5575825
40
0.5987939
50
89.8748857
51
180.1251076
0
ARC
8
DEFAULT_255_2_778
10
80.6187088
20
65.5578585
40
0.5985184
50
359.8484135
51
90.142038
0
ARC
8
DEFAULT_255_2_778
10
80.6187938
20
65.5547062
40
0.5984333
50
269.8498027
51
0.1501973
0
ARC
8
DEFAULT_255_2_778
10
80.6156415
20
65.5547912
40
0.5985184
50
179.857962
51
270.1515865
0
LINE
8
DEFAULT_255_2_778
10
80.017125
20
65.556275
11
80.017125
21
65.556275
0
ARC
8
DEFAULT_255_2_778
10
78.1161175
20
65.5575825
40
0.5987939
50
89.8748857
51
180.1251076
0
ARC
8
DEFAULT_255_2_778
10
78.1189088
20
65.5578585
40
0.5985184
50
359.8484135
51
90.142038
0
ARC
8
DEFAULT_255_2_778
10
78.1189938
20
65.5547062
40
0.5984333
50
269.8498027
51
0.1501973
0
ARC
8
DEFAULT_255_2_778
10
78.1158415
20
65.5547912
40
0.5985184
50
179.857962
51
270.1515865
0
LINE
8
DEFAULT_255_2_778
10
77.517325
20
65.556275
11
77.517325
21
65.556275
0
ARC
8
DEFAULT_255_2_778
10
75.6161175
20
65.5575825
40
0.5987939
50
89.8748857
51
180.1251076
0
ARC
8
DEFAULT_255_2_778
10
75.6189088
20
65.5578585
40
0.5985184
50
359.8484135
51
90.142038
0
ARC
8
DEFAULT_255_2_778
10
75.6189938
20
65.5547062
40
0.5984333
50
269.8498027
51
0.1501973
0
ARC
8
DEFAULT_255_2_778
10
75.6158415
20
65.5547912
40
0.5985184
50
179.857962
51
270.1515865
0
LINE
8
DEFAULT_255_2_778
10
75.017325
20
65.556275
11
75.017325
21
65.556275
0
ARC
8
DEFAULT_255_2_778
10
73.1160175
20
65.5575825
40
0.5987939
50
89.8748857
51
180.1251076
0
ARC
8
DEFAULT_255_2_778
10
73.1188088
20
65.5578585
40
0.5985184
50
359.8484135
51
90.142038
0
ARC
8
DEFAULT_255_2_778
10
73.1188938
20
65.5547062
40
0.5984333
50
269.8498027
51
0.1501973
0
ARC
8
DEFAULT_255_2_778
10
73.1157415
20
65.5547912
40
0.5985184
50
179.857962
51
270.1515865
0
LINE
8
DEFAULT_255_2_778
10
72.517225
20
65.556275
11
72.517225
21
65.556275
0
LINE
8
DEFAULT_255_2_778
10
81.0457979
20
64.6751677
11
81.0457979
21
64.5566677
0
LINE
8
DEFAULT_255_2_778
10
81.0457979
20
64.5566677
11
80.6332979
21
63.6089677
0
LINE
8
DEFAULT_255_2_778
10
80.6332979
20
63.6089677
11
80.4099979
21
63.6089677
0
LINE
8
DEFAULT_255_2_778
10
80.4099979
20
63.6089677
11
80.8229979
21
64.5040677
0
LINE
8
DEFAULT_255_2_778
10
80.8229979
20
64.5040677
11
80.2927979
21
64.5040677
0
LINE
8
DEFAULT_255_2_778
10
80.2927979
20
64.5040677
11
80.2927979
21
64.6754677
0
LINE
8
DEFAULT_255_2_778
10
80.2927979
20
64.6754677
11
81.0457979
21
64.6754677
0
LINE
8
DEFAULT_255_2_778
10
81.0457979
20
64.6754677
11
81.0457979
21
64.6751677
0
ARC
8
DEFAULT_255_2_778
10
75.720041
20
63.9738268
40
0.3359862
50
89.8240276
51
118.3156881
0
ARC
8
DEFAULT_255_2_778
10
75.7372671
20
64.0013459
40
0.3088903
50
45.3829402
51
93.0052123
0
ARC
8
DEFAULT_255_2_778
10
75.7470336
20
64.0212546
40
0.2879451
50
42.398596
51
43.9837274
0
ARC
8
DEFAULT_255_2_778
10
75.6961444
20
63.9878108
40
0.3482088
50
2.7851223
51
40.816061
0
ARC
8
DEFAULT_255_2_778
10
75.4479769
20
63.9519598
40
0.5982968
50
359.9091778
51
5.0601364
0
ARC
8
DEFAULT_255_2_778
10
75.6605064
20
63.9445709
40
0.3858203
50
332.4485083
51
0.9564855
0
ARC
8
DEFAULT_255_2_778
10
75.7305756
20
63.9093317
40
0.3073997
50
298.5888669
51
332.2309315
0
ARC
8
DEFAULT_255_2_778
10
75.6956746
20
63.9838816
40
0.3895935
50
268.5583597
51
297.8494077
0
ARC
8
DEFAULT_255_2_778
10
75.68231
20
64.0091785
40
0.4147824
50
244.9172951
51
270.4921721
0
ARC
8
DEFAULT_255_2_778
10
75.6383512
20
63.9222054
40
0.3173895
50
214.1770019
51
245.4486096
0
ARC
8
DEFAULT_255_2_778
10
75.6257562
20
63.9112695
40
0.3008328
50
181.0395926
51
213.8014029
0
ARC
8
DEFAULT_255_2_778
10
75.6912867
20
63.913959
40
0.1570253
50
182.9742208
51
225.4215245
0
ARC
8
DEFAULT_255_2_778
10
75.6789584
20
63.9121387
40
0.147267
50
228.3421642
51
272.4964125
0
ARC
8
DEFAULT_255_2_778
10
75.6919968
20
63.8951444
40
0.1303015
50
267.0861243
51
322.9363181
0
ARC
8
DEFAULT_255_2_778
10
75.605513
20
63.9442761
40
0.2292886
50
326.1661885
51
1.6074479
0
ARC
8
DEFAULT_255_2_778
10
75.3954728
20
63.9626242
40
0.4394002
50
358.4459943
51
0.0113767
0
ARC
8
DEFAULT_255_2_778
10
75.637828
20
63.9760135
40
0.1974934
50
356.137963
51
39.5664689
0
ARC
8
DEFAULT_255_2_778
10
75.673463
20
63.9869268
40
0.163696
50
44.5730055
51
93.5339022
0
ARC
8
DEFAULT_255_2_778
10
75.6549869
20
63.9674817
40
0.1830219
50
87.3738033
51
128.4520731
0
LINE
8
DEFAULT_255_2_778
10
75.5204729
20
64.0915114
11
75.3519729
21
64.1333114
0
LINE
8
DEFAULT_255_2_778
10
75.3519729
20
64.1333114
11
75.4135729
21
64.6752114
0
LINE
8
DEFAULT_255_2_778
10
75.4135729
20
64.6752114
11
76.0112729
21
64.6752114
0
LINE
8
DEFAULT_255_2_778
10
76.0112729
20
64.6752114
11
76.0112729
21
64.4987114
0
LINE
8
DEFAULT_255_2_778
10
76.0112729
20
64.4987114
11
75.5871729
21
64.4987114
0
LINE
8
DEFAULT_255_2_778
10
75.5871729
20
64.4987114
11
75.5606729
21
64.2696114
0
LINE
8
DEFAULT_255_2_778
10
75.3249729
20
63.9058114
11
75.5344729
21
63.9058114
0
LINE
8
DEFAULT_255_2_778
10
75.5411729
20
64.1108114
11
75.5204729
21
64.0918114
0
LINE
8
DEFAULT_255_2_778
10
75.5204729
20
64.0918114
11
75.5204729
21
64.0915114
0
ARC
8
DEFAULT_255_2_778
10
78.2661225
20
64.1351265
40
0.3767305
50
88.7522537
51
121.5511809
0
ARC
8
DEFAULT_255_2_778
10
78.2262278
20
64.2168917
40
0.286312
50
123.3099313
51
129.703866
0
ARC
8
DEFAULT_255_2_778
10
78.2396094
20
64.2067644
40
0.3026761
50
130.42807
51
174.5013133
0
ARC
8
DEFAULT_255_2_778
10
78.1441918
20
64.0344734
40
0.2879238
50
88.2815622
51
135.6432715
0
ARC
8
DEFAULT_255_2_778
10
78.1637103
20
64.050665
40
0.2718207
50
39.3099923
51
92.2948443
0
ARC
8
DEFAULT_255_2_778
10
78.0713586
20
63.9866377
40
0.3839429
50
0.67322
51
37.9718148
0
ARC
8
DEFAULT_255_2_778
10
77.8442161
20
63.9608429
40
0.61181
50
359.9742267
51
2.8393037
0
ARC
8
DEFAULT_255_2_778
10
78.0626609
20
63.9550562
40
0.3934037
50
332.3463957
51
0.8027295
0
ARC
8
DEFAULT_255_2_778
10
78.1244571
20
63.9236213
40
0.3240779
50
299.3955077
51
332.1983989
0
ARC
8
DEFAULT_255_2_778
10
78.1032606
20
63.9646278
40
0.3702126
50
269.0350604
51
299.1386047
0
ARC
8
DEFAULT_255_2_778
10
78.0845121
20
63.9396566
40
0.3454157
50
221.3030891
51
272.0761963
0
ARC
8
DEFAULT_255_2_778
10
78.1543684
20
63.9905176
40
0.4315363
50
182.2176285
51
220.2541569
0
ARC
8
DEFAULT_255_2_778
10
78.4026426
20
64.0237124
40
0.6813167
50
179.9448938
51
184.199566
0
ARC
8
DEFAULT_255_2_778
10
78.4045061
20
64.1145218
40
0.6833225
50
154.6607994
51
181.17012
0
ARC
8
DEFAULT_255_2_778
10
78.2217522
20
64.1984002
40
0.4822595
50
120.7707742
51
154.3749661
0
ARC
8
DEFAULT_255_2_778
10
78.2507547
20
64.1336075
40
0.5528298
50
89.0908895
51
119.9179058
0
LINE
8
DEFAULT_255_2_778
10
78.2597261
20
64.6860677
11
78.2949261
21
64.6860677
0
LINE
8
DEFAULT_255_2_778
10
78.2949261
20
64.6860677
11
78.2949261
21
64.5117677
0
LINE
8
DEFAULT_255_2_778
10
78.2949261
20
64.5117677
11
78.2743261
21
64.5117677
0
LINE
8
DEFAULT_255_2_778
10
77.7213261
20
64.0243677
11
77.7213261
21
64.1005677
0
LINE
8
DEFAULT_255_2_778
10
78.2595261
20
64.6863677
11
78.2597261
21
64.6860677
0
ARC
8
DEFAULT_255_2_778
10
78.0865713
20
63.9823375
40
0.1698394
50
89.4023842
51
122.5695861
0
ARC
8
DEFAULT_255_2_778
10
78.0803192
20
63.9889758
40
0.1608883
50
121.9658124
51
155.8234096
0
ARC
8
DEFAULT_255_2_778
10
78.2463513
20
63.9779175
40
0.3130523
50
177.739048
51
205.2891762
0
ARC
8
DEFAULT_255_2_778
10
78.1266069
20
63.9298477
40
0.1844096
50
207.6792267
51
214.8889582
0
ARC
8
DEFAULT_255_2_778
10
78.0874429
20
63.8993207
40
0.1348495
50
213.7677156
51
272.1673974
0
ARC
8
DEFAULT_255_2_778
10
78.0956202
20
63.8983749
40
0.1338426
50
268.6824813
51
323.2361623
0
ARC
8
DEFAULT_255_2_778
10
78.0256602
20
63.9478427
40
0.2195071
50
323.8217028
51
2.591497
0
ARC
8
DEFAULT_255_2_778
10
78.0267393
20
63.9682235
40
0.2184539
50
357.2566253
51
36.5009424
0
ARC
8
DEFAULT_255_2_778
10
78.0928934
20
64.0131827
40
0.13857
50
37.8285404
51
92.0060213
0
LINE
8
DEFAULT_255_2_778
10
77.9335428
20
64.0548677
11
77.9335428
21
63.9902677
0
LINE
8
DEFAULT_255_2_778
10
78.0880428
20
64.1516677
11
78.0883428
21
64.1521677
0
LINE
8
DEFAULT_255_2_778
10
73.3469428
20
64.6752677
11
73.3469428
21
64.0100677
0
LINE
8
DEFAULT_255_2_778
10
73.3469428
20
64.0100677
11
73.4679428
21
64.0100677
0
LINE
8
DEFAULT_255_2_778
10
73.4679428
20
64.0100677
11
73.4679428
21
63.8394677
0
LINE
8
DEFAULT_255_2_778
10
73.4679428
20
63.8394677
11
73.3469428
21
63.8394677
0
LINE
8
DEFAULT_255_2_778
10
73.3469428
20
63.8394677
11
73.3469428
21
63.6087677
0
LINE
8
DEFAULT_255_2_778
10
73.3469428
20
63.6087677
11
73.1353428
21
63.6087677
0
LINE
8
DEFAULT_255_2_778
10
73.1353428
20
63.6087677
11
73.1353428
21
63.8394677
0
LINE
8
DEFAULT_255_2_778
10
73.1353428
20
63.8394677
11
72.6979428
21
63.8394677
0
LINE
8
DEFAULT_255_2_778
10
72.6979428
20
63.8394677
11
72.6884428
21
63.9727677
0
LINE
8
DEFAULT_255_2_778
10
72.6884428
20
63.9727677
11
73.1329428
21
64.6752677
0
LINE
8
DEFAULT_255_2_778
10
73.1329428
20
64.6752677
11
73.3467428
21
64.6752677
0
LINE
8
DEFAULT_255_2_778
10
73.3467428
20
64.6752677
11
73.3469428
21
64.6752677
0
LINE
8
DEFAULT_255_2_778
10
73.1213281
20
64.362451
11
72.8993281
21
64.010051
0
LINE
8
DEFAULT_255_2_778
10
72.8993281
20
64.010051
11
73.1350281
21
64.010051
0
LINE
8
DEFAULT_255_2_778
10
73.1350281
20
64.010051
11
73.1350281
21
64.386551
0
LINE
8
DEFAULT_255_2_778
10
73.1350281
20
64.386551
11
73.1210281
21
64.362451
0
LINE
8
DEFAULT_255_2_778
10
73.1210281
20
64.362451
11
73.1213281
21
64.362451
0
ARC
8
DEFAULT_255_2_778
10
80.6159175
20
62.5577825
40
0.5987939
50
89.8748857
51
180.1251076
0
ARC
8
DEFAULT_255_2_778
10
80.6187088
20
62.5580585
40
0.5985184
50
359.8484135
51
90.142038
0
ARC
8
DEFAULT_255_2_778
10
80.6187938
20
62.5549062
40
0.5984333
50
269.8498027
51
0.1501973
0
ARC
8
DEFAULT_255_2_778
10
80.6156415
20
62.5549912
40
0.5985184
50
179.857962
51
270.1515865
0
LINE
8
DEFAULT_255_2_778
10
80.017125
20
62.556475
11
80.017125
21
62.556475
0
ARC
8
DEFAULT_255_2_778
10
78.1161175
20
62.5577825
40
0.5987939
50
89.8748857
51
180.1251076
0
ARC
8
DEFAULT_255_2_778
10
78.1189088
20
62.5580585
40
0.5985184
50
359.8484135
51
90.142038
0
ARC
8
DEFAULT_255_2_778
10
78.1189938
20
62.5549062
40
0.5984333
50
269.8498027
51
0.1501973
0
ARC
8
DEFAULT_255_2_778
10
78.1158415
20
62.5549912
40
0.5985184
50
179.857962
51
270.1515865
0
LINE
8
DEFAULT_255_2_778
10
77.517325
20
62.556475
11
77.517325
21
62.556475
0
ARC
8
DEFAULT_255_2_778
10
75.6161175
20
62.5577825
40
0.5987939
50
89.8748857
51
180.1251076
0
ARC
8
DEFAULT_255_2_778
10
75.6189088
20
62.5580585
40
0.5985184
50
359.8484135
51
90.142038
0
ARC
8
DEFAULT_255_2_778
10
75.6189938
20
62.5549062
40
0.5984333
50
269.8498027
51
0.1501973
0
ARC
8
DEFAULT_255_2_778
10
75.6158415
20
62.5549912
40
0.5985184
50
179.857962
51
270.1515865
0
LINE
8
DEFAULT_255_2_778
10
75.017325
20
62.556475
11
75.017325
21
62.556475
0
ARC
8
DEFAULT_255_2_778
10
73.1160175
20
62.5577825
40
0.5987939
50
89.8748857
51
180.1251076
0
ARC
8
DEFAULT_255_2_778
10
73.1188088
20
62.5580585
40
0.5985184
50
359.8484135
51
90.142038
0
ARC
8
DEFAULT_255_2_778
10
73.1188938
20
62.5549062
40
0.5984333
50
269.8498027
51
0.1501973
0
ARC
8
DEFAULT_255_2_778
10
73.1157415
20
62.5549912
40
0.5985184
50
179.857962
51
270.1515865
0
LINE
8
DEFAULT_255_2_778
10
72.517225
20
62.556475
11
72.517225
21
62.556475
0
LINE
8
DEFAULT_255_2_778
10
72.8156281
20
61.6766614
11
72.8156281
21
60.6088614
0
LINE
8
DEFAULT_255_2_778
10
72.8156281
20
60.6088614
11
72.6040281
21
60.6088614
0
LINE
8
DEFAULT_255_2_778
10
72.6040281
20
60.6088614
11
72.6040281
21
61.4248614
0
LINE
8
DEFAULT_255_2_778
10
72.6040281
20
61.4248614
11
72.3513281
21
61.3464614
0
LINE
8
DEFAULT_255_2_778
10
72.3513281
20
61.3464614
11
72.3513281
21
61.5187614
0
LINE
8
DEFAULT_255_2_778
10
72.3513281
20
61.5187614
11
72.7929281
21
61.6769614
0
LINE
8
DEFAULT_255_2_778
10
72.7929281
20
61.6769614
11
72.8156281
21
61.6769614
0
LINE
8
DEFAULT_255_2_778
10
72.8156281
20
61.6769614
11
72.8156281
21
61.6766614
0
ARC
8
DEFAULT_255_2_778
10
73.1493308
20
61.0370893
40
0.7306148
50
344.463457
51
0.9852379
0
ARC
8
DEFAULT_255_2_778
10
73.4771891
20
60.9477042
40
0.390798
50
322.7675771
51
344.2143807
0
ARC
8
DEFAULT_255_2_778
10
73.5428642
20
60.9095621
40
0.3155693
50
268.0194538
51
321.0663607
0
ARC
8
DEFAULT_255_2_778
10
73.5203745
20
61.1125852
40
0.5185334
50
269.995915
51
271.2800467
0
ARC
8
DEFAULT_255_2_778
10
73.5055295
20
60.9343038
40
0.3405738
50
232.4461291
51
272.4919904
0
ARC
8
DEFAULT_255_2_778
10
73.4872857
20
60.8956803
40
0.2989719
50
218.6013892
51
230.7061268
0
ARC
8
DEFAULT_255_2_778
10
73.5988551
20
60.9708125
40
0.4331759
50
187.85889
51
217.1605909
0
ARC
8
DEFAULT_255_2_778
10
73.9682595
20
61.0422287
40
0.8091289
50
180.2391052
51
189.2919436
0
ARC
8
DEFAULT_255_2_778
10
73.892621
20
61.2476926
40
0.7335907
50
164.6854244
51
180.9795011
0
ARC
8
DEFAULT_255_2_778
10
73.5552219
20
61.3389729
40
0.3840653
50
142.2032321
51
164.5251505
0
ARC
8
DEFAULT_255_2_778
10
73.497783
20
61.3708437
40
0.3193024
50
87.6981501
51
140.4052675
0
ARC
8
DEFAULT_255_2_778
10
73.5187027
20
61.1731055
40
0.5168464
50
89.9961439
51
90.8974512
0
ARC
8
DEFAULT_255_2_778
10
73.5335301
20
61.3485347
40
0.3417377
50
52.6454331
51
92.4809048
0
ARC
8
DEFAULT_255_2_778
10
73.5524758
20
61.3883477
40
0.2987337
50
38.7549082
51
50.9004902
0
ARC
8
DEFAULT_255_2_778
10
73.4444438
20
61.315672
40
0.4286146
50
8.1326218
51
37.2906882
0
ARC
8
DEFAULT_255_2_778
10
73.0754167
20
61.2431594
40
0.8044267
50
0.220277
51
9.5272869
0
ARC
8
DEFAULT_255_2_778
10
73.1095487
20
61.2768822
40
0.5588141
50
358.7869517
51
12.9921022
0
ARC
8
DEFAULT_255_2_778
10
73.4500744
20
61.3532553
40
0.2098465
50
13.5758153
51
29.9285878
0
ARC
8
DEFAULT_255_2_778
10
73.5262299
20
61.3959133
40
0.122568
50
30.4082557
51
93.5045812
0
ARC
8
DEFAULT_255_2_778
10
73.5114024
20
61.3974915
40
0.1209832
50
86.5240516
51
148.4182752
0
ARC
8
DEFAULT_255_2_778
10
73.6534811
20
61.3267753
40
0.2794136
50
151.3243527
51
175.6540352
0
ARC
8
DEFAULT_255_2_778
10
74.0583253
20
61.270104
40
0.6878733
50
173.5020633
51
179.0963837
0
ARC
8
DEFAULT_255_2_778
10
73.9312439
20
61.0097706
40
0.5608322
50
178.7860693
51
193.3045862
0
ARC
8
DEFAULT_255_2_778
10
73.6043809
20
60.9356908
40
0.2257159
50
194.0987978
51
208.5104923
0
ARC
8
DEFAULT_255_2_778
10
73.5122594
20
60.8851745
40
0.1206545
50
208.3116659
51
273.5534577
0
ARC
8
DEFAULT_255_2_778
10
73.5277622
20
60.8838701
40
0.119388
50
266.1459677
51
330.7596286
0
ARC
8
DEFAULT_255_2_778
10
73.3570967
20
60.9639469
40
0.3077184
50
333.2726597
51
356.0840999
0
ARC
8
DEFAULT_255_2_778
10
72.9312811
20
61.018369
40
0.7366882
50
354.1226132
51
359.4698049
0
LINE
8
DEFAULT_255_2_778
10
73.8798375
20
61.2459521
11
73.8798375
21
61.0496521
0
LINE
8
DEFAULT_255_2_778
10
73.1591375
20
61.0388521
11
73.1591375
21
61.2351521
0
LINE
8
DEFAULT_255_2_778
10
73.8798375
20
61.2462521
11
73.8798375
21
61.2459521
0
LINE
8
DEFAULT_255_2_778
10
73.6682375
20
61.0115521
11
73.6682375
21
61.2650521
0
LINE
8
DEFAULT_255_2_778
10
73.3705375
20
61.2809521
11
73.3705375
21
61.0216521
0
LINE
8
DEFAULT_255_2_778
10
73.6679375
20
61.0115521
11
73.6682375
21
61.0115521
0
LINE
8
DEFAULT_255_2_778
10
75.5094281
20
61.6766614
11
75.5094281
21
60.6088614
0
LINE
8
DEFAULT_255_2_778
10
75.5094281
20
60.6088614
11
75.2978281
21
60.6088614
0
LINE
8
DEFAULT_255_2_778
10
75.2978281
20
60.6088614
11
75.2978281
21
61.4248614
0
LINE
8
DEFAULT_255_2_778
10
75.2978281
20
61.4248614
11
75.0451281
21
61.3464614
0
LINE
8
DEFAULT_255_2_778
10
75.0451281
20
61.3464614
11
75.0451281
21
61.5187614
0
LINE
8
DEFAULT_255_2_778
10
75.0451281
20
61.5187614
11
75.4867281
21
61.6769614
0
LINE
8
DEFAULT_255_2_778
10
75.4867281
20
61.6769614
11
75.5094281
21
61.6769614
0
LINE
8
DEFAULT_255_2_778
10
75.5094281
20
61.6769614
11
75.5094281
21
61.6766614
0
LINE
8
DEFAULT_255_2_778
10
76.3701281
20
61.6766614
11
76.3701281
21
60.6088614
0
LINE
8
DEFAULT_255_2_778
10
76.3701281
20
60.6088614
11
76.1585281
21
60.6088614
0
LINE
8
DEFAULT_255_2_778
10
76.1585281
20
60.6088614
11
76.1585281
21
61.4248614
0
LINE
8
DEFAULT_255_2_778
10
76.1585281
20
61.4248614
11
75.9058281
21
61.3464614
0
LINE
8
DEFAULT_255_2_778
10
75.9058281
20
61.3464614
11
75.9058281
21
61.5187614
0
LINE
8
DEFAULT_255_2_778
10
75.9058281
20
61.5187614
11
76.3474281
21
61.6769614
0
LINE
8
DEFAULT_255_2_778
10
76.3474281
20
61.6769614
11
76.3701281
21
61.6769614
0
LINE
8
DEFAULT_255_2_778
10
76.3701281
20
61.6769614
11
76.3701281
21
61.6766614
0
LINE
8
DEFAULT_255_2_778
10
77.7218281
20
61.6766614
11
77.7218281
21
60.6088614
0
LINE
8
DEFAULT_255_2_778
10
77.7218281
20
60.6088614
11
77.5102281
21
60.6088614
0
LINE
8
DEFAULT_255_2_778
10
77.5102281
20
60.6088614
11
77.5102281
21
61.4248614
0
LINE
8
DEFAULT_255_2_778
10
77.5102281
20
61.4248614
11
77.2575281
21
61.3464614
0
LINE
8
DEFAULT_255_2_778
10
77.2575281
20
61.3464614
11
77.2575281
21
61.5187614
0
LINE
8
DEFAULT_255_2_778
10
77.2575281
20
61.5187614
11
77.6991281
21
61.6769614
0
LINE
8
DEFAULT_255_2_778
10
77.6991281
20
61.6769614
11
77.7218281
21
61.6769614
0
LINE
8
DEFAULT_255_2_778
10
77.7218281
20
61.6769614
11
77.7218281
21
61.6766614
0
ARC
8
DEFAULT_255_2_778
10
77.7260964
20
61.7682393
40
0.9435217
50
316.7351377
51
325.5602328
0
ARC
8
DEFAULT_255_2_778
10
78.1151956
20
61.49342
40
0.4672487
50
326.369372
51
329.6141745
0
ARC
8
DEFAULT_255_2_778
10
78.3349325
20
61.374207
40
0.2175536
50
327.4251811
51
358.0689234
0
ARC
8
DEFAULT_255_2_778
10
78.3907981
20
61.3763649
40
0.1618428
50
356.6387993
51
39.1185939
0
ARC
8
DEFAULT_255_2_778
10
78.4218163
20
61.3901246
40
0.1294023
50
43.0601273
51
93.568318
0
ARC
8
DEFAULT_255_2_778
10
78.4074893
20
61.3792191
40
0.1401974
50
87.4354288
51
139.764951
0
ARC
8
DEFAULT_255_2_778
10
78.4554333
20
61.3491407
40
0.1963895
50
142.1014319
51
182.703944
0
ARC
8
DEFAULT_255_2_778
10
78.3965177
20
61.3435088
40
0.349774
50
150.0793683
51
180.5950855
0
ARC
8
DEFAULT_255_2_778
10
78.3766499
20
61.3548614
40
0.3268916
50
117.6672258
51
150.0670092
0
ARC
8
DEFAULT_255_2_778
10
78.4106194
20
61.2910883
40
0.3991464
50
89.0176529
51
117.735166
0
ARC
8
DEFAULT_255_2_778
10
78.430328
20
61.2451823
40
0.4451797
50
66.5630265
51
91.6560496
0
ARC
8
DEFAULT_255_2_778
10
78.4883615
20
61.3971487
40
0.2827601
50
49.1625873
51
65.1044403
0
ARC
8
DEFAULT_255_2_778
10
78.4854642
20
61.4039767
40
0.2795681
50
356.6779035
51
47.7981619
0
ARC
8
DEFAULT_255_2_778
10
78.4061273
20
61.3932306
40
0.3584767
50
332.3145172
51
359.1281497
0
ARC
8
DEFAULT_255_2_778
10
78.0888297
20
61.5600478
40
0.7169537
50
320.185503
51
332.2908303
0
ARC
8
DEFAULT_255_2_778
10
77.5220461
20
62.0058575
40
1.4379118
50
317.5517321
51
321.001499
0
LINE
8
DEFAULT_255_2_778
10
78.7992625
20
60.779476
11
78.7992625
21
60.608776
0
LINE
8
DEFAULT_255_2_778
10
78.7992625
20
60.608776
11
78.0681625
21
60.608776
0
LINE
8
DEFAULT_255_2_778
10
78.0681625
20
60.608776
11
78.0681625
21
60.753776
0
LINE
8
DEFAULT_255_2_778
10
78.0681625
20
60.753776
11
78.4131625
21
61.121576
0
LINE
8
DEFAULT_255_2_778
10
78.2592625
20
61.339876
11
78.0467625
21
61.339876
0
LINE
8
DEFAULT_255_2_778
10
78.5830625
20
61.035376
11
78.3407625
21
60.779776
0
LINE
8
DEFAULT_255_2_778
10
78.3407625
20
60.779776
11
78.7992625
21
60.779776
0
LINE
8
DEFAULT_255_2_778
10
78.7992625
20
60.779776
11
78.7992625
21
60.779476
0
LINE
8
DEFAULT_255_2_778
10
80.3219281
20
61.6766614
11
80.3219281
21
60.6088614
0
LINE
8
DEFAULT_255_2_778
10
80.3219281
20
60.6088614
11
80.1103281
21
60.6088614
0
LINE
8
DEFAULT_255_2_778
10
80.1103281
20
60.6088614
11
80.1103281
21
61.4248614
0
LINE
8
DEFAULT_255_2_778
10
80.1103281
20
61.4248614
11
79.8576281
21
61.3464614
0
LINE
8
DEFAULT_255_2_778
10
79.8576281
20
61.3464614
11
79.8576281
21
61.5187614
0
LINE
8
DEFAULT_255_2_778
10
79.8576281
20
61.5187614
11
80.2992281
21
61.6769614
0
LINE
8
DEFAULT_255_2_778
10
80.2992281
20
61.6769614
11
80.3219281
21
61.6769614
0
LINE
8
DEFAULT_255_2_778
10
80.3219281
20
61.6769614
11
80.3219281
21
61.6766614
0
ARC
8
DEFAULT_255_2_778
10
81.0095035
20
61.3953067
40
0.1599071
50
265.3771769
51
311.1364246
0
ARC
8
DEFAULT_255_2_778
10
81.0385887
20
61.3503686
40
0.1072023
50
315.2324711
51
316.1633608
0
ARC
8
DEFAULT_255_2_778
10
81.0077785
20
61.3759976
40
0.1472047
50
317.2737398
51
2.7342286
0
ARC
8
DEFAULT_255_2_778
10
81.0244749
20
61.3907111
40
0.1305674
50
356.6229219
51
45.1762349
0
ARC
8
DEFAULT_255_2_778
10
81.0192334
20
61.3704957
40
0.1489735
50
49.2305192
51
93.3162601
0
ARC
8
DEFAULT_255_2_778
10
81.0053443
20
61.3630803
40
0.1562285
50
88.0664143
51
128.1606677
0
ARC
8
DEFAULT_255_2_778
10
80.9743141
20
61.4018984
40
0.1065347
50
127.9380258
51
181.4945362
0
ARC
8
DEFAULT_255_2_778
10
80.9163674
20
61.402599
40
0.260275
50
145.7934795
51
180.7659286
0
ARC
8
DEFAULT_255_2_778
10
80.9470693
20
61.3785888
40
0.2991753
50
113.6583533
51
145.2961367
0
ARC
8
DEFAULT_255_2_778
10
81.0003587
20
61.2688135
40
0.4211355
50
89.3255879
51
114.3059334
0
ARC
8
DEFAULT_255_2_778
10
81.0182838
20
61.2258014
40
0.4642995
50
66.513257
51
91.6005164
0
ARC
8
DEFAULT_255_2_778
10
81.0757012
20
61.3766762
40
0.3031332
50
50.00883
51
65.1014329
0
ARC
8
DEFAULT_255_2_778
10
81.0908639
20
61.3994172
40
0.275982
50
357.1967137
51
49.3863918
0
ARC
8
DEFAULT_255_2_778
10
81.1426481
20
61.3854431
40
0.2238681
50
323.161298
51
0.1220015
0
ARC
8
DEFAULT_255_2_778
10
81.0881995
20
61.4213068
40
0.2889742
50
293.7570937
51
323.9430662
0
ARC
8
DEFAULT_255_2_778
10
81.1237779
20
60.9025542
40
0.2668066
50
36.2234582
51
72.363159
0
ARC
8
DEFAULT_255_2_778
10
81.1200288
20
60.9140983
40
0.2632617
50
358.6334289
51
33.7136634
0
ARC
8
DEFAULT_255_2_778
10
81.1027162
20
60.8980065
40
0.280671
50
309.0439911
51
2.0036859
0
ARC
8
DEFAULT_255_2_778
10
81.0342715
20
60.992966
40
0.3975928
50
271.4284119
51
308.0844577
0
ARC
8
DEFAULT_255_2_778
10
81.0055534
20
61.2288436
40
0.6345239
50
269.9604732
51
273.4902769
0
ARC
8
DEFAULT_255_2_778
10
80.9905991
20
61.0010695
40
0.4070087
50
236.3640883
51
272.0439689
0
ARC
8
DEFAULT_255_2_778
10
80.9602804
20
60.9397598
40
0.339282
50
230.3784567
51
234.8917243
0
ARC
8
DEFAULT_255_2_778
10
80.91761
20
60.891822
40
0.2751549
50
178.0427052
51
230.8568289
0
ARC
8
DEFAULT_255_2_778
10
80.9771517
20
60.8980193
40
0.1228777
50
178.507508
51
230.6351076
0
ARC
8
DEFAULT_255_2_778
10
81.0050386
20
60.9305935
40
0.1657515
50
230.3241343
51
271.7552658
0
ARC
8
DEFAULT_255_2_778
10
81.0197602
20
60.931332
40
0.1666915
50
266.6830701
51
310.6801282
0
ARC
8
DEFAULT_255_2_778
10
81.033546
20
60.9048551
40
0.1377945
50
313.510415
51
2.4392907
0
ARC
8
DEFAULT_255_2_778
10
81.0313119
20
60.9273019
40
0.1408831
50
353.2405546
51
89.2538047
0
ARC
8
DEFAULT_255_2_778
10
80.9966533
20
60.7441624
40
0.3260592
50
83.5738557
51
90.182337
0
LINE
8
DEFAULT_255_2_778
10
80.8839156
20
61.0702198
11
80.8839156
21
61.2359198
0
LINE
8
DEFAULT_255_2_778
10
80.8839156
20
61.2359198
11
80.9966156
21
61.2359198
0
LINE
8
DEFAULT_255_2_778
10
80.8678156
20
61.3991198
11
80.6561156
21
61.3991198
0
LINE
8
DEFAULT_255_2_778
10
80.6426156
20
60.9012198
11
80.8543156
21
60.9012198
0
LINE
8
DEFAULT_255_2_778
10
80.9956156
20
61.0702198
11
80.8834156
21
61.0702198
0
LINE
8
DEFAULT_255_2_778
10
80.8834156
20
61.0702198
11
80.8839156
21
61.0702198
0
ARC
8
DEFAULT_255_2_778
10
80.6159175
20
59.5575825
40
0.5987939
50
89.8748857
51
180.1251076
0
ARC
8
DEFAULT_255_2_778
10
80.6187088
20
59.5578585
40
0.5985184
50
359.8484135
51
90.142038
0
ARC
8
DEFAULT_255_2_778
10
80.6187938
20
59.5547062
40
0.5984333
50
269.8498027
51
0.1501973
0
ARC
8
DEFAULT_255_2_778
10
80.6156415
20
59.5547912
40
0.5985184
50
179.857962
51
270.1515865
0
LINE
8
DEFAULT_255_2_778
10
80.017125
20
59.556275
11
80.017125
21
59.556275
0
ARC
8
DEFAULT_255_2_778
10
78.1161175
20
59.5575825
40
0.5987939
50
89.8748857
51
180.1251076
0
ARC
8
DEFAULT_255_2_778
10
78.1189088
20
59.5578585
40
0.5985184
50
359.8484135
51
90.142038
0
ARC
8
DEFAULT_255_2_778
10
78.1189938
20
59.5547062
40
0.5984333
50
269.8498027
51
0.1501973
0
ARC
8
DEFAULT_255_2_778
10
78.1158415
20
59.5547912
40
0.5985184
50
179.857962
51
270.1515865
0
LINE
8
DEFAULT_255_2_778
10
77.517325
20
59.556275
11
77.517325
21
59.556275
0
ARC
8
DEFAULT_255_2_778
10
75.6161175
20
59.5575825
40
0.5987939
50
89.8748857
51
180.1251076
0
ARC
8
DEFAULT_255_2_778
10
75.6189088
20
59.5578585
40
0.5985184
50
359.8484135
51
90.142038
0
ARC
8
DEFAULT_255_2_778
10
75.6189938
20
59.5547062
40
0.5984333
50
269.8498027
51
0.1501973
0
ARC
8
DEFAULT_255_2_778
10
75.6158415
20
59.5547912
40
0.5985184
50
179.857962
51
270.1515865
0
LINE
8
DEFAULT_255_2_778
10
75.017325
20
59.556275
11
75.017325
21
59.556275
0
ARC
8
DEFAULT_255_2_778
10
73.1160175
20
59.5575825
40
0.5987939
50
89.8748857
51
180.1251076
0
ARC
8
DEFAULT_255_2_778
10
73.1188088
20
59.5578585
40
0.5985184
50
359.8484135
51
90.142038
0
ARC
8
DEFAULT_255_2_778
10
73.1188938
20
59.5547062
40
0.5984333
50
269.8498027
51
0.1501973
0
ARC
8
DEFAULT_255_2_778
10
73.1157415
20
59.5547912
40
0.5985184
50
179.857962
51
270.1515865
0
LINE
8
DEFAULT_255_2_778
10
72.517225
20
59.556275
11
72.517225
21
59.556275
0
LINE
8
DEFAULT_255_2_778
10
80.3634281
20
58.6765614
11
80.3634281
21
57.6087614
0
LINE
8
DEFAULT_255_2_778
10
80.3634281
20
57.6087614
11
80.1518281
21
57.6087614
0
LINE
8
DEFAULT_255_2_778
10
80.1518281
20
57.6087614
11
80.1518281
21
58.4247614
0
LINE
8
DEFAULT_255_2_778
10
80.1518281
20
58.4247614
11
79.8991281
21
58.3463614
0
LINE
8
DEFAULT_255_2_778
10
79.8991281
20
58.3463614
11
79.8991281
21
58.5186614
0
LINE
8
DEFAULT_255_2_778
10
79.8991281
20
58.5186614
11
80.3407281
21
58.6768614
0
LINE
8
DEFAULT_255_2_778
10
80.3407281
20
58.6768614
11
80.3634281
21
58.6768614
0
LINE
8
DEFAULT_255_2_778
10
80.3634281
20
58.6768614
11
80.3634281
21
58.6765614
0
LINE
8
DEFAULT_255_2_778
10
81.4349979
20
58.6749677
11
81.4349979
21
58.5564677
0
LINE
8
DEFAULT_255_2_778
10
81.4349979
20
58.5564677
11
81.0224979
21
57.6087677
0
LINE
8
DEFAULT_255_2_778
10
81.0224979
20
57.6087677
11
80.7991979
21
57.6087677
0
LINE
8
DEFAULT_255_2_778
10
80.7991979
20
57.6087677
11
81.2121979
21
58.5038677
0
LINE
8
DEFAULT_255_2_778
10
81.2121979
20
58.5038677
11
80.6819979
21
58.5038677
0
LINE
8
DEFAULT_255_2_778
10
80.6819979
20
58.5038677
11
80.6819979
21
58.6752677
0
LINE
8
DEFAULT_255_2_778
10
80.6819979
20
58.6752677
11
81.4349979
21
58.6752677
0
LINE
8
DEFAULT_255_2_778
10
81.4349979
20
58.6752677
11
81.4349979
21
58.6749677
0
LINE
8
DEFAULT_255_2_778
10
77.7636281
20
58.6765614
11
77.7636281
21
57.6087614
0
LINE
8
DEFAULT_255_2_778
10
77.7636281
20
57.6087614
11
77.5520281
21
57.6087614
0
LINE
8
DEFAULT_255_2_778
10
77.5520281
20
57.6087614
11
77.5520281
21
58.4247614
0
LINE
8
DEFAULT_255_2_778
10
77.5520281
20
58.4247614
11
77.2993281
21
58.3463614
0
LINE
8
DEFAULT_255_2_778
10
77.2993281
20
58.3463614
11
77.2993281
21
58.5186614
0
LINE
8
DEFAULT_255_2_778
10
77.2993281
20
58.5186614
11
77.7409281
21
58.6768614
0
LINE
8
DEFAULT_255_2_778
10
77.7409281
20
58.6768614
11
77.7636281
21
58.6768614
0
LINE
8
DEFAULT_255_2_778
10
77.7636281
20
58.6768614
11
77.7636281
21
58.6765614
0
ARC
8
DEFAULT_255_2_778
10
78.6556225
20
58.1351265
40
0.3767305
50
88.7522537
51
121.5511809
0
ARC
8
DEFAULT_255_2_778
10
78.6157278
20
58.2168917
40
0.286312
50
123.3099313
51
129.703866
0
ARC
8
DEFAULT_255_2_778
10
78.6291094
20
58.2067644
40
0.3026761
50
130.42807
51
174.5013133
0
ARC
8
DEFAULT_255_2_778
10
78.5336918
20
58.0344734
40
0.2879238
50
88.2815622
51
135.6432715
0
ARC
8
DEFAULT_255_2_778
10
78.5532103
20
58.050665
40
0.2718207
50
39.3099923
51
92.2948443
0
ARC
8
DEFAULT_255_2_778
10
78.4608586
20
57.9866377
40
0.3839429
50
0.67322
51
37.9718148
0
ARC
8
DEFAULT_255_2_778
10
78.2337161
20
57.9608429
40
0.61181
50
359.9742267
51
2.8393037
0
ARC
8
DEFAULT_255_2_778
10
78.4521609
20
57.9550562
40
0.3934037
50
332.3463957
51
0.8027295
0
ARC
8
DEFAULT_255_2_778
10
78.5139571
20
57.9236213
40
0.3240779
50
299.3955077
51
332.1983989
0
ARC
8
DEFAULT_255_2_778
10
78.4927606
20
57.9646278
40
0.3702126
50
269.0350604
51
299.1386047
0
ARC
8
DEFAULT_255_2_778
10
78.4740121
20
57.9396566
40
0.3454157
50
221.3030891
51
272.0761963
0
ARC
8
DEFAULT_255_2_778
10
78.5438684
20
57.9905176
40
0.4315363
50
182.2176285
51
220.2541569
0
ARC
8
DEFAULT_255_2_778
10
78.7921426
20
58.0237124
40
0.6813167
50
179.9448938
51
184.199566
0
ARC
8
DEFAULT_255_2_778
10
78.7940061
20
58.1145218
40
0.6833225
50
154.6607994
51
181.17012
0
ARC
8
DEFAULT_255_2_778
10
78.6112522
20
58.1984002
40
0.4822595
50
120.7707742
51
154.3749661
0
ARC
8
DEFAULT_255_2_778
10
78.6402547
20
58.1336075
40
0.5528298
50
89.0908895
51
119.9179058
0
ARC
8
DEFAULT_255_2_778
10
78.4759628
20
57.9826581
40
0.1695198
50
89.3702164
51
122.6017539
0
ARC
8
DEFAULT_255_2_778
10
78.4697752
20
57.9890927
40
0.1607747
50
121.9796272
51
155.8899369
0
ARC
8
DEFAULT_255_2_778
10
78.6358346
20
57.9779175
40
0.3130523
50
177.739048
51
205.2891762
0
ARC
8
DEFAULT_255_2_778
10
78.5160902
20
57.9298477
40
0.1844096
50
207.6792267
51
214.8889582
0
ARC
8
DEFAULT_255_2_778
10
78.4769262
20
57.8993207
40
0.1348495
50
213.7677156
51
272.1673974
0
ARC
8
DEFAULT_255_2_778
10
78.4850676
20
57.8986484
40
0.1341152
50
268.7004812
51
323.1773043
0
ARC
8
DEFAULT_255_2_778
10
78.4149478
20
57.9477675
40
0.2197014
50
323.8830619
51
2.5827492
0
ARC
8
DEFAULT_255_2_778
10
78.4160585
20
57.9681663
40
0.2186197
50
357.2474794
51
36.4874264
0
ARC
8
DEFAULT_255_2_778
10
78.4823766
20
58.0131827
40
0.13857
50
37.8285404
51
92.0060213
0
LINE
8
DEFAULT_255_2_778
10
78.6492261
20
58.6860677
11
78.6844261
21
58.6860677
0
LINE
8
DEFAULT_255_2_778
10
78.6844261
20
58.6860677
11
78.6844261
21
58.5117677
0
LINE
8
DEFAULT_255_2_778
10
78.6844261
20
58.5117677
11
78.6638261
21
58.5117677
0
LINE
8
DEFAULT_255_2_778
10
78.1108261
20
58.0243677
11
78.1108261
21
58.1005677
0
LINE
8
DEFAULT_255_2_778
10
78.6490261
20
58.6863677
11
78.6492261
21
58.6860677
0
LINE
8
DEFAULT_255_2_778
10
78.3230261
20
58.0547677
11
78.3230261
21
57.9902677
0
LINE
8
DEFAULT_255_2_778
10
78.4775261
20
58.1516677
11
78.4778261
21
58.1521677
0
LINE
8
DEFAULT_255_2_778
10
75.3636281
20
58.6765614
11
75.3636281
21
57.6087614
0
LINE
8
DEFAULT_255_2_778
10
75.3636281
20
57.6087614
11
75.1520281
21
57.6087614
0
LINE
8
DEFAULT_255_2_778
10
75.1520281
20
57.6087614
11
75.1520281
21
58.4247614
0
LINE
8
DEFAULT_255_2_778
10
75.1520281
20
58.4247614
11
74.8993281
21
58.3463614
0
LINE
8
DEFAULT_255_2_778
10
74.8993281
20
58.3463614
11
74.8993281
21
58.5186614
0
LINE
8
DEFAULT_255_2_778
10
74.8993281
20
58.5186614
11
75.3409281
21
58.6768614
0
LINE
8
DEFAULT_255_2_778
10
75.3409281
20
58.6768614
11
75.3636281
21
58.6768614
0
LINE
8
DEFAULT_255_2_778
10
75.3636281
20
58.6768614
11
75.3636281
21
58.6765614
0
ARC
8
DEFAULT_255_2_778
10
76.109541
20
57.9736268
40
0.3359862
50
89.8240276
51
118.3156881
0
ARC
8
DEFAULT_255_2_778
10
76.1267671
20
58.0011459
40
0.3088903
50
45.3829402
51
93.0052123
0
ARC
8
DEFAULT_255_2_778
10
76.1365336
20
58.0210546
40
0.2879451
50
42.398596
51
43.9837274
0
ARC
8
DEFAULT_255_2_778
10
76.0856444
20
57.9876108
40
0.3482088
50
2.7851223
51
40.816061
0
ARC
8
DEFAULT_255_2_778
10
75.8374769
20
57.9517598
40
0.5982968
50
359.9091778
51
5.0601364
0
ARC
8
DEFAULT_255_2_778
10
76.0500064
20
57.9443709
40
0.3858203
50
332.4485083
51
0.9564855
0
ARC
8
DEFAULT_255_2_778
10
76.1200756
20
57.9091317
40
0.3073997
50
298.5888669
51
332.2309315
0
ARC
8
DEFAULT_255_2_778
10
76.0851746
20
57.9836816
40
0.3895935
50
268.5583597
51
297.8494077
0
ARC
8
DEFAULT_255_2_778
10
76.07181
20
58.0089785
40
0.4147824
50
244.9172951
51
270.4921721
0
ARC
8
DEFAULT_255_2_778
10
76.0278512
20
57.9220054
40
0.3173895
50
214.1770019
51
245.4486096
0
ARC
8
DEFAULT_255_2_778
10
76.0152562
20
57.9110695
40
0.3008328
50
181.0395926
51
213.8014029
0
ARC
8
DEFAULT_255_2_778
10
76.0807867
20
57.913759
40
0.1570253
50
182.9742208
51
225.4215245
0
ARC
8
DEFAULT_255_2_778
10
76.0684584
20
57.9119387
40
0.147267
50
228.3421642
51
272.4964125
0
ARC
8
DEFAULT_255_2_778
10
76.0814968
20
57.8949444
40
0.1303015
50
267.0861243
51
322.9363181
0
ARC
8
DEFAULT_255_2_778
10
75.995013
20
57.9440761
40
0.2292886
50
326.1661885
51
1.6074479
0
ARC
8
DEFAULT_255_2_778
10
75.7849728
20
57.9624242
40
0.4394002
50
358.4459943
51
0.0113767
0
ARC
8
DEFAULT_255_2_778
10
76.027328
20
57.9758135
40
0.1974934
50
356.137963
51
39.5664689
0
ARC
8
DEFAULT_255_2_778
10
76.062963
20
57.9867268
40
0.163696
50
44.5730055
51
93.5339022
0
ARC
8
DEFAULT_255_2_778
10
76.0444869
20
57.9672817
40
0.1830219
50
87.3738033
51
128.4520731
0
LINE
8
DEFAULT_255_2_778
10
75.9099729
20
58.0913114
11
75.7414729
21
58.1331114
0
LINE
8
DEFAULT_255_2_778
10
75.7414729
20
58.1331114
11
75.8030729
21
58.6750114
0
LINE
8
DEFAULT_255_2_778
10
75.8030729
20
58.6750114
11
76.4007729
21
58.6750114
0
LINE
8
DEFAULT_255_2_778
10
76.4007729
20
58.6750114
11
76.4007729
21
58.4985114
0
LINE
8
DEFAULT_255_2_778
10
76.4007729
20
58.4985114
11
75.9766729
21
58.4985114
0
LINE
8
DEFAULT_255_2_778
10
75.9766729
20
58.4985114
11
75.9501729
21
58.2694114
0
LINE
8
DEFAULT_255_2_778
10
75.7144729
20
57.9056114
11
75.9239729
21
57.9056114
0
LINE
8
DEFAULT_255_2_778
10
75.9306729
20
58.1106114
11
75.9099729
21
58.0916114
0
LINE
8
DEFAULT_255_2_778
10
75.9099729
20
58.0916114
11
75.9099729
21
58.0913114
0
LINE
8
DEFAULT_255_2_778
10
72.7635281
20
58.6765614
11
72.7635281
21
57.6087614
0
LINE
8
DEFAULT_255_2_778
10
72.7635281
20
57.6087614
11
72.5519281
21
57.6087614
0
LINE
8
DEFAULT_255_2_778
10
72.5519281
20
57.6087614
11
72.5519281
21
58.4247614
0
LINE
8
DEFAULT_255_2_778
10
72.5519281
20
58.4247614
11
72.2992281
21
58.3463614
0
LINE
8
DEFAULT_255_2_778
10
72.2992281
20
58.3463614
11
72.2992281
21
58.5186614
0
LINE
8
DEFAULT_255_2_778
10
72.2992281
20
58.5186614
11
72.7408281
21
58.6768614
0
LINE
8
DEFAULT_255_2_778
10
72.7408281
20
58.6768614
11
72.7635281
21
58.6768614
0
LINE
8
DEFAULT_255_2_778
10
72.7635281
20
58.6768614
11
72.7635281
21
58.6765614
0
LINE
8
DEFAULT_255_2_778
10
73.7363688
20
58.6750677
11
73.7363688
21
58.0098677
0
LINE
8
DEFAULT_255_2_778
10
73.7363688
20
58.0098677
11
73.8573688
21
58.0098677
0
LINE
8
DEFAULT_255_2_778
10
73.8573688
20
58.0098677
11
73.8573688
21
57.8392677
0
LINE
8
DEFAULT_255_2_778
10
73.8573688
20
57.8392677
11
73.7363688
21
57.8392677
0
LINE
8
DEFAULT_255_2_778
10
73.7363688
20
57.8392677
11
73.7363688
21
57.6085677
0
LINE
8
DEFAULT_255_2_778
10
73.7363688
20
57.6085677
11
73.5247688
21
57.6085677
0
LINE
8
DEFAULT_255_2_778
10
73.5247688
20
57.6085677
11
73.5247688
21
57.8392677
0
LINE
8
DEFAULT_255_2_778
10
73.5247688
20
57.8392677
11
73.0873688
21
57.8392677
0
LINE
8
DEFAULT_255_2_778
10
73.0873688
20
57.8392677
11
73.0778688
21
57.9725677
0
LINE
8
DEFAULT_255_2_778
10
73.0778688
20
57.9725677
11
73.5223688
21
58.6750677
0
LINE
8
DEFAULT_255_2_778
10
73.5223688
20
58.6750677
11
73.7361688
21
58.6750677
0
LINE
8
DEFAULT_255_2_778
10
73.7361688
20
58.6750677
11
73.7363688
21
58.6750677
0
LINE
8
DEFAULT_255_2_778
10
73.5107688
20
58.3623677
11
73.2887688
21
58.0098677
0
LINE
8
DEFAULT_255_2_778
10
73.2887688
20
58.0098677
11
73.5244688
21
58.0098677
0
LINE
8
DEFAULT_255_2_778
10
73.5244688
20
58.0098677
11
73.5244688
21
58.3863677
0
LINE
8
DEFAULT_255_2_778
10
73.5244688
20
58.3863677
11
73.5104688
21
58.3623677
0
LINE
8
DEFAULT_255_2_778
10
73.5104688
20
58.3623677
11
73.5107688
21
58.3623677
0
LINE
8
DEFAULT_255_2_778
10
80.6381677
20
44.7243073
11
80.6384677
21
44.7563073
0
ARC
8
DEFAULT_255_2_778
10
80.1370175
20
45.0573825
40
0.5987939
50
89.8748857
51
180.1251076
0
ARC
8
DEFAULT_255_2_778
10
80.1398088
20
45.0576585
40
0.5985184
50
359.8484135
51
90.142038
0
ARC
8
DEFAULT_255_2_778
10
80.1398938
20
45.0545062
40
0.5984333
50
269.8498027
51
0.1501973
0
ARC
8
DEFAULT_255_2_778
10
80.1367415
20
45.0545912
40
0.5985184
50
179.857962
51
270.1515865
0
LINE
8
DEFAULT_255_2_778
10
79.538225
20
45.056075
11
79.538225
21
45.056075
0
ARC
8
DEFAULT_255_2_778
10
80.1370175
20
47.5574825
40
0.5987939
50
89.8748857
51
180.1251076
0
ARC
8
DEFAULT_255_2_778
10
80.1398088
20
47.5577585
40
0.5985184
50
359.8484135
51
90.142038
0
ARC
8
DEFAULT_255_2_778
10
80.1398938
20
47.5546062
40
0.5984333
50
269.8498027
51
0.1501973
0
ARC
8
DEFAULT_255_2_778
10
80.1367415
20
47.5546912
40
0.5985184
50
179.857962
51
270.1515865
0
LINE
8
DEFAULT_255_2_778
10
79.538225
20
47.556175
11
79.538225
21
47.556175
0
ARC
8
DEFAULT_255_2_778
10
80.1370175
20
50.0574825
40
0.5987939
50
89.8748857
51
180.1251076
0
ARC
8
DEFAULT_255_2_778
10
80.1398088
20
50.0577585
40
0.5985184
50
359.8484135
51
90.142038
0
ARC
8
DEFAULT_255_2_778
10
80.1398938
20
50.0546062
40
0.5984333
50
269.8498027
51
0.1501973
0
ARC
8
DEFAULT_255_2_778
10
80.1367415
20
50.0546912
40
0.5985184
50
179.857962
51
270.1515865
0
LINE
8
DEFAULT_255_2_778
10
79.538225
20
50.056175
11
79.538225
21
50.056175
0
ARC
8
DEFAULT_255_2_778
10
76.3346675
20
50.1011912
40
0.4824342
50
65.3378633
51
91.1991662
0
ARC
8
DEFAULT_255_2_778
10
76.400745
20
50.246471
40
0.3228348
50
31.4101323
51
65.2366643
0
ARC
8
DEFAULT_255_2_778
10
76.3760541
20
50.2364328
40
0.3491655
50
359.0460711
51
30.7043845
0
ARC
8
DEFAULT_255_2_778
10
76.4193323
20
50.2165656
40
0.3061617
50
310.4023216
51
2.6310614
0
ARC
8
DEFAULT_255_2_778
10
76.3681025
20
50.296659
40
0.4005662
50
274.5500019
51
308.5567513
0
ARC
8
DEFAULT_255_2_778
10
76.3225002
20
50.5853354
40
0.692318
50
269.8486312
51
276.4172259
0
ARC
8
DEFAULT_255_2_778
10
76.3375056
20
50.265582
40
0.1949917
50
266.1965973
51
307.1295297
0
ARC
8
DEFAULT_255_2_778
10
76.3712841
20
50.2079612
40
0.1289021
50
310.6210672
51
311.9012318
0
ARC
8
DEFAULT_255_2_778
10
76.3543443
20
50.2198301
40
0.1491228
50
313.7003025
51
3.6100741
0
ARC
8
DEFAULT_255_2_778
10
76.3268727
20
50.2370068
40
0.1764704
50
357.4709262
51
42.4081891
0
ARC
8
DEFAULT_255_2_778
10
76.3362246
20
50.234138
40
0.1717069
50
45.2206504
51
92.1872862
0
ARC
8
DEFAULT_255_2_778
10
77.1056906
20
50.0123501
40
0.6465251
50
336.2223144
51
1.211508
0
ARC
8
DEFAULT_255_2_778
10
77.2330924
20
49.9667086
40
0.5116254
50
334.917613
51
335.1472087
0
ARC
8
DEFAULT_255_2_778
10
77.3136575
20
49.9220272
40
0.4197639
50
302.1728225
51
335.7795708
0
ARC
8
DEFAULT_255_2_778
10
77.3075685
20
49.9426361
40
0.4404889
50
268.9597116
51
301.4158131
0
ARC
8
DEFAULT_255_2_778
10
77.2922126
20
49.9457781
40
0.4436194
50
238.9004183
51
270.9504424
0
ARC
8
DEFAULT_255_2_778
10
77.2868311
20
49.9263977
40
0.4242792
50
204.8614701
51
238.1708302
0
ARC
8
DEFAULT_255_2_778
10
77.4695823
20
50.0110296
40
0.6256757
50
179.176706
51
204.8573986
0
ARC
8
DEFAULT_255_2_778
10
77.4866002
20
50.0858784
40
0.6427658
50
155.7455683
51
181.1819519
0
ARC
8
DEFAULT_255_2_778
10
77.286652
20
50.1750765
40
0.4238261
50
122.1734729
51
155.6357967
0
ARC
8
DEFAULT_255_2_778
10
77.2900589
20
50.1562752
40
0.441612
50
88.9993416
51
121.248673
0
ARC
8
DEFAULT_255_2_778
10
77.3055773
20
50.1559066
40
0.4419821
50
58.7643502
51
91.011993
0
ARC
8
DEFAULT_255_2_778
10
77.3104194
20
50.1762357
40
0.4221375
50
24.2952954
51
57.895435
0
ARC
8
DEFAULT_255_2_778
10
77.1143051
20
50.0862807
40
0.6378958
50
358.8447565
51
24.4119871
0
ARC
8
DEFAULT_255_2_778
10
76.931887
20
50.0867998
40
0.5975104
50
358.8223762
51
15.6525542
0
ARC
8
DEFAULT_255_2_778
10
77.2263512
20
50.1658686
40
0.292652
50
16.3007602
51
33.9297212
0
ARC
8
DEFAULT_255_2_778
10
77.3062556
20
50.2208208
40
0.195683
50
33.6385585
51
92.4849985
0
ARC
8
DEFAULT_255_2_778
10
77.2893831
20
50.2205594
40
0.19594
50
87.546433
51
145.9322154
0
ARC
8
DEFAULT_255_2_778
10
77.4250994
20
50.1386961
40
0.3543169
50
147.2601366
51
174.2705175
0
ARC
8
DEFAULT_255_2_778
10
77.8050339
20
50.0779357
40
0.7387628
50
172.5231067
51
180.0012358
0
ARC
8
DEFAULT_255_2_778
10
77.6413165
20
50.0135195
40
0.5751768
50
178.7746195
51
196.8710984
0
ARC
8
DEFAULT_255_2_778
10
77.3833991
20
49.9403516
40
0.3071635
50
197.7728145
51
213.164415
0
ARC
8
DEFAULT_255_2_778
10
77.2908503
20
49.8774237
40
0.195277
50
212.5632143
51
272.4127804
0
ARC
8
DEFAULT_255_2_778
10
77.3075195
20
49.8752762
40
0.1931413
50
267.4929923
51
326.6583024
0
ARC
8
DEFAULT_255_2_778
10
77.1631724
20
49.9618204
40
0.3613659
50
327.7742569
51
354.3109931
0
ARC
8
DEFAULT_255_2_778
10
76.7812001
20
50.0221908
40
0.747771
50
352.6090792
51
359.9945586
0
LINE
8
DEFAULT_255_2_778
10
76.3208712
20
49.8930198
11
76.1282712
21
49.8930198
0
LINE
8
DEFAULT_255_2_778
10
76.1282712
20
49.8930198
11
76.1282712
21
49.5172198
0
LINE
8
DEFAULT_255_2_778
10
76.1282712
20
49.5172198
11
75.9086712
21
49.5172198
0
LINE
8
DEFAULT_255_2_778
10
75.9086712
20
49.5172198
11
75.9086712
21
50.5835198
0
LINE
8
DEFAULT_255_2_778
10
75.9086712
20
50.5835198
11
76.3245712
21
50.5835198
0
LINE
8
DEFAULT_255_2_778
10
76.3206712
20
49.8930198
11
76.3208712
21
49.8930198
0
LINE
8
DEFAULT_255_2_778
10
76.1282712
20
50.4057198
11
76.1282712
21
50.0710198
0
LINE
8
DEFAULT_255_2_778
10
76.1282712
20
50.0710198
11
76.3245712
21
50.0710198
0
LINE
8
DEFAULT_255_2_778
10
76.3296712
20
50.4057198
11
76.1282712
21
50.4057198
0
LINE
8
DEFAULT_255_2_778
10
76.1282712
20
50.4057198
11
76.1282712
21
50.4057198
0
LINE
8
DEFAULT_255_2_778
10
77.7520712
20
50.0737198
11
77.7520712
21
50.0260198
0
LINE
8
DEFAULT_255_2_778
10
76.8439712
20
50.0200198
11
76.8439712
21
50.0726198
0
LINE
8
DEFAULT_255_2_778
10
77.7520712
20
50.0734198
11
77.7520712
21
50.0737198
0
LINE
8
DEFAULT_255_2_778
10
77.5292712
20
50.0223198
11
77.5292712
21
50.0745198
0
LINE
8
DEFAULT_255_2_778
10
77.0662712
20
50.0779198
11
77.0662712
21
50.0258198
0
LINE
8
DEFAULT_255_2_778
10
77.5289712
20
50.0221198
11
77.5292712
21
50.0223198
0
LINE
8
DEFAULT_255_2_778
10
78.5671712
20
50.5835198
11
78.7423712
21
49.8247198
0
LINE
8
DEFAULT_255_2_778
10
78.7423712
20
49.8247198
11
78.8860712
21
50.5835198
0
LINE
8
DEFAULT_255_2_778
10
78.8860712
20
50.5835198
11
79.1051712
21
50.5835198
0
LINE
8
DEFAULT_255_2_778
10
79.1051712
20
50.5835198
11
78.8685712
21
49.5172198
0
LINE
8
DEFAULT_255_2_778
10
78.8685712
20
49.5172198
11
78.6473712
21
49.5172198
0
LINE
8
DEFAULT_255_2_778
10
78.6473712
20
49.5172198
11
78.4738712
21
50.2306198
0
LINE
8
DEFAULT_255_2_778
10
78.4738712
20
50.2306198
11
78.3002712
21
49.5172198
0
LINE
8
DEFAULT_255_2_778
10
78.3002712
20
49.5172198
11
78.0790712
21
49.5172198
0
LINE
8
DEFAULT_255_2_778
10
78.0790712
20
49.5172198
11
77.8424712
21
50.5835198
0
LINE
8
DEFAULT_255_2_778
10
77.8424712
20
50.5835198
11
78.0615712
21
50.5835198
0
LINE
8
DEFAULT_255_2_778
10
78.0615712
20
50.5835198
11
78.2057712
21
49.8263198
0
LINE
8
DEFAULT_255_2_778
10
78.2057712
20
49.8263198
11
78.3814712
21
50.5835198
0
LINE
8
DEFAULT_255_2_778
10
78.3814712
20
50.5835198
11
78.5674712
21
50.5835198
0
LINE
8
DEFAULT_255_2_778
10
78.5674712
20
50.5835198
11
78.5671712
21
50.5835198
0
ARC
8
DEFAULT_255_2_778
10
76.7018398
20
47.5182381
40
0.5653708
50
70.9473369
51
91.2806229
0
ARC
8
DEFAULT_255_2_778
10
76.7744909
20
47.7440217
40
0.3282784
50
51.0626449
51
70.0688888
0
ARC
8
DEFAULT_255_2_778
10
76.7933197
20
47.7772942
40
0.2906322
50
356.8191645
51
49.8274435
0
ARC
8
DEFAULT_255_2_778
10
76.756729
20
47.7491005
40
0.3269979
50
328.6895195
51
2.1148726
0
ARC
8
DEFAULT_255_2_778
10
76.7702
20
47.7606705
40
0.3219446
50
292.4232239
51
325.68305
0
ARC
8
DEFAULT_255_2_778
10
76.7016498
20
47.766401
40
0.1812079
50
266.3152498
51
309.9901619
0
ARC
8
DEFAULT_255_2_778
10
76.7133417
20
47.7355973
40
0.1504844
50
314.1203753
51
3.1123544
0
ARC
8
DEFAULT_255_2_778
10
76.7032937
20
47.7527467
40
0.1605617
50
356.7942107
51
43.0088662
0
ARC
8
DEFAULT_255_2_778
10
76.7063444
20
47.7326439
40
0.1728598
50
48.5798391
51
92.9597165
0
ARC
8
DEFAULT_255_2_778
10
76.6892622
20
47.5536826
40
0.351685
50
88.6709973
51
90.0094496
0
LINE
8
DEFAULT_255_2_778
10
76.8877042
20
47.0171677
11
76.6877042
21
47.4074677
0
LINE
8
DEFAULT_255_2_778
10
76.6877042
20
47.4074677
11
76.5125042
21
47.4074677
0
LINE
8
DEFAULT_255_2_778
10
76.5125042
20
47.4074677
11
76.5125042
21
47.0171677
0
LINE
8
DEFAULT_255_2_778
10
76.5125042
20
47.0171677
11
76.2929042
21
47.0171677
0
LINE
8
DEFAULT_255_2_778
10
76.2929042
20
47.0171677
11
76.2929042
21
48.0834677
0
LINE
8
DEFAULT_255_2_778
10
76.2929042
20
48.0834677
11
76.6892042
21
48.0834677
0
LINE
8
DEFAULT_255_2_778
10
76.8930042
20
47.4630677
11
77.1237042
21
47.0272677
0
LINE
8
DEFAULT_255_2_778
10
77.1237042
20
47.0272677
11
77.1237042
21
47.0169677
0
LINE
8
DEFAULT_255_2_778
10
77.1237042
20
47.0169677
11
76.8879042
21
47.0169677
0
LINE
8
DEFAULT_255_2_778
10
76.8879042
20
47.0169677
11
76.8877042
21
47.0171677
0
LINE
8
DEFAULT_255_2_778
10
76.5128042
20
47.9056677
11
76.5128042
21
47.5855677
0
LINE
8
DEFAULT_255_2_778
10
76.5128042
20
47.5855677
11
76.6900042
21
47.5855677
0
LINE
8
DEFAULT_255_2_778
10
76.6892042
20
47.9053677
11
76.5128042
21
47.9053677
0
LINE
8
DEFAULT_255_2_778
10
76.5128042
20
47.9053677
11
76.5128042
21
47.9056677
0
ARC
8
DEFAULT_255_2_778
10
77.6883084
20
47.3653679
40
0.3690965
50
320.7139603
51
2.4186004
0
ARC
8
DEFAULT_255_2_778
10
77.719145
20
47.3507385
40
0.3360659
50
312.821817
51
319.3153834
0
ARC
8
DEFAULT_255_2_778
10
77.6834922
20
47.4020602
40
0.3980389
50
272.4085163
51
311.5644891
0
ARC
8
DEFAULT_255_2_778
10
77.6490293
20
47.6489647
40
0.6466213
50
269.9332615
51
274.5406058
0
ARC
8
DEFAULT_255_2_778
10
77.6347911
20
47.4805023
40
0.4783487
50
243.8770494
51
271.6154235
0
ARC
8
DEFAULT_255_2_778
10
77.5857114
20
47.3610993
40
0.3496364
50
227.9816902
51
242.4828922
0
ARC
8
DEFAULT_255_2_778
10
77.5919947
20
47.3590357
40
0.3523609
50
178.1601977
51
226.9979777
0
ARC
8
DEFAULT_255_2_778
10
77.7691243
20
47.3794334
40
0.5293868
50
180.6915769
51
180.9833424
0
ARC
8
DEFAULT_255_2_778
10
77.6936207
20
47.3672123
40
0.2345743
50
176.9621348
51
209.7868297
0
ARC
8
DEFAULT_255_2_778
10
77.6008967
20
47.3223991
40
0.1320339
50
212.8999839
51
226.2995289
0
ARC
8
DEFAULT_255_2_778
10
77.6372892
20
47.3720575
40
0.1932437
50
228.671586
51
273.3484068
0
ARC
8
DEFAULT_255_2_778
10
77.6620696
20
47.3655112
40
0.1868554
50
265.8588532
51
311.8434579
0
ARC
8
DEFAULT_255_2_778
10
77.6395391
20
47.3568419
40
0.1967258
50
318.4307712
51
0.9746455
0
ARC
8
DEFAULT_255_2_778
10
77.4482404
20
47.3795077
40
0.3884768
50
357.1494295
51
359.1646061
0
LINE
8
DEFAULT_255_2_778
10
77.8366761
20
48.0834437
11
78.0570761
21
48.0834437
0
LINE
8
DEFAULT_255_2_778
10
78.0570761
20
48.0834437
11
78.0570761
21
47.3809437
0
LINE
8
DEFAULT_255_2_778
10
77.2397761
20
47.3730437
11
77.2397761
21
48.0834437
0
LINE
8
DEFAULT_255_2_778
10
77.2397761
20
48.0834437
11
77.4593761
21
48.0834437
0
LINE
8
DEFAULT_255_2_778
10
77.4593761
20
48.0834437
11
77.4593761
21
47.3796437
0
LINE
8
DEFAULT_255_2_778
10
77.8366761
20
47.3738437
11
77.8366761
21
48.0834437
0
LINE
8
DEFAULT_255_2_778
10
77.8366761
20
48.0834437
11
77.8366761
21
48.0834437
0
LINE
8
DEFAULT_255_2_778
10
79.1047761
20
48.0834437
11
79.1047761
21
47.0171437
0
LINE
8
DEFAULT_255_2_778
10
79.1047761
20
47.0171437
11
78.8849761
21
47.0171437
0
LINE
8
DEFAULT_255_2_778
10
78.8849761
20
47.0171437
11
78.4570761
21
47.7188437
0
LINE
8
DEFAULT_255_2_778
10
78.4570761
20
47.7188437
11
78.4570761
21
47.0171437
0
LINE
8
DEFAULT_255_2_778
10
78.4570761
20
47.0171437
11
78.2374761
21
47.0171437
0
LINE
8
DEFAULT_255_2_778
10
78.2374761
20
47.0171437
11
78.2374761
21
48.0834437
0
LINE
8
DEFAULT_255_2_778
10
78.2374761
20
48.0834437
11
78.4570761
21
48.0834437
0
LINE
8
DEFAULT_255_2_778
10
78.4570761
20
48.0834437
11
78.8854761
21
47.3804437
0
LINE
8
DEFAULT_255_2_778
10
78.8854761
20
47.3804437
11
78.8854761
21
48.0834437
0
LINE
8
DEFAULT_255_2_778
10
78.8854761
20
48.0834437
11
79.1045761
21
48.0834437
0
LINE
8
DEFAULT_255_2_778
10
79.1045761
20
48.0834437
11
79.1047761
21
48.0834437
0
LINE
8
DEFAULT_255_2_778
10
77.1146479
20
45.1513354
11
77.1146479
21
44.9791354
0
LINE
8
DEFAULT_255_2_778
10
77.1146479
20
44.9791354
11
76.6926479
21
44.9791354
0
LINE
8
DEFAULT_255_2_778
10
76.6926479
20
44.9791354
11
76.6926479
21
44.6933354
0
LINE
8
DEFAULT_255_2_778
10
76.6926479
20
44.6933354
11
77.1876479
21
44.6933354
0
LINE
8
DEFAULT_255_2_778
10
77.1876479
20
44.6933354
11
77.1876479
21
44.5168354
0
LINE
8
DEFAULT_255_2_778
10
77.1876479
20
44.5168354
11
76.4727479
21
44.5168354
0
LINE
8
DEFAULT_255_2_778
10
76.4727479
20
44.5168354
11
76.4727479
21
45.5831354
0
LINE
8
DEFAULT_255_2_778
10
76.4727479
20
45.5831354
11
77.1860479
21
45.5831354
0
LINE
8
DEFAULT_255_2_778
10
77.1860479
20
45.5831354
11
77.1860479
21
45.4050354
0
LINE
8
DEFAULT_255_2_778
10
77.1860479
20
45.4050354
11
76.6923479
21
45.4050354
0
LINE
8
DEFAULT_255_2_778
10
76.6923479
20
45.4050354
11
76.6923479
21
45.1510354
0
LINE
8
DEFAULT_255_2_778
10
76.6923479
20
45.1510354
11
77.1143479
21
45.1510354
0
LINE
8
DEFAULT_255_2_778
10
77.1143479
20
45.1510354
11
77.1146479
21
45.1513354
0
ARC
8
DEFAULT_255_2_778
10
77.7257398
20
45.0179381
40
0.5653708
50
70.9473369
51
91.2806229
0
ARC
8
DEFAULT_255_2_778
10
77.7983909
20
45.2437217
40
0.3282784
50
51.0626449
51
70.0688888
0
ARC
8
DEFAULT_255_2_778
10
77.8172197
20
45.2769942
40
0.2906322
50
356.8191645
51
49.8274435
0
ARC
8
DEFAULT_255_2_778
10
77.780629
20
45.2488005
40
0.3269979
50
328.6895195
51
2.1148726
0
ARC
8
DEFAULT_255_2_778
10
77.7941
20
45.2603705
40
0.3219446
50
292.4232239
51
325.68305
0
ARC
8
DEFAULT_255_2_778
10
77.7255498
20
45.266101
40
0.1812079
50
266.3152498
51
309.9901619
0
ARC
8
DEFAULT_255_2_778
10
77.7372417
20
45.2352973
40
0.1504844
50
314.1203753
51
3.1123544
0
ARC
8
DEFAULT_255_2_778
10
77.7271937
20
45.2524467
40
0.1605617
50
356.7942107
51
43.0088662
0
ARC
8
DEFAULT_255_2_778
10
77.7302444
20
45.2323439
40
0.1728598
50
48.5798391
51
92.9597165
0
ARC
8
DEFAULT_255_2_778
10
77.7131622
20
45.0533826
40
0.351685
50
88.6709973
51
90.0094496
0
LINE
8
DEFAULT_255_2_778
10
77.9116042
20
44.5168677
11
77.7116042
21
44.9071677
0
LINE
8
DEFAULT_255_2_778
10
77.7116042
20
44.9071677
11
77.5364042
21
44.9071677
0
LINE
8
DEFAULT_255_2_778
10
77.5364042
20
44.9071677
11
77.5364042
21
44.5168677
0
LINE
8
DEFAULT_255_2_778
10
77.5364042
20
44.5168677
11
77.3168042
21
44.5168677
0
LINE
8
DEFAULT_255_2_778
10
77.3168042
20
44.5168677
11
77.3168042
21
45.5831677
0
LINE
8
DEFAULT_255_2_778
10
77.3168042
20
45.5831677
11
77.7131042
21
45.5831677
0
LINE
8
DEFAULT_255_2_778
10
77.9169042
20
44.9627677
11
78.1476042
21
44.5269677
0
LINE
8
DEFAULT_255_2_778
10
78.1476042
20
44.5269677
11
78.1476042
21
44.5166677
0
LINE
8
DEFAULT_255_2_778
10
78.1476042
20
44.5166677
11
77.9118042
21
44.5166677
0
LINE
8
DEFAULT_255_2_778
10
77.9118042
20
44.5166677
11
77.9116042
21
44.5168677
0
LINE
8
DEFAULT_255_2_778
10
77.5367042
20
45.4053677
11
77.5367042
21
45.0852677
0
LINE
8
DEFAULT_255_2_778
10
77.5367042
20
45.0852677
11
77.7139042
21
45.0852677
0
LINE
8
DEFAULT_255_2_778
10
77.7131042
20
45.4050677
11
77.5367042
21
45.4050677
0
LINE
8
DEFAULT_255_2_778
10
77.5367042
20
45.4050677
11
77.5367042
21
45.4053677
0
ARC
8
DEFAULT_255_2_778
10
78.6830398
20
45.0179381
40
0.5653708
50
70.9473369
51
91.2806229
0
ARC
8
DEFAULT_255_2_778
10
78.7556909
20
45.2437217
40
0.3282784
50
51.0626449
51
70.0688888
0
ARC
8
DEFAULT_255_2_778
10
78.7745197
20
45.2769942
40
0.2906322
50
356.8191645
51
49.8274435
0
ARC
8
DEFAULT_255_2_778
10
78.737929
20
45.2488005
40
0.3269979
50
328.6895195
51
2.1148726
0
ARC
8
DEFAULT_255_2_778
10
78.7514
20
45.2603705
40
0.3219446
50
292.4232239
51
325.68305
0
ARC
8
DEFAULT_255_2_778
10
78.6828498
20
45.266101
40
0.1812079
50
266.3152498
51
309.9901619
0
ARC
8
DEFAULT_255_2_778
10
78.6945417
20
45.2352973
40
0.1504844
50
314.1203753
51
3.1123544
0
ARC
8
DEFAULT_255_2_778
10
78.6844937
20
45.2524467
40
0.1605617
50
356.7942107
51
43.0088662
0
ARC
8
DEFAULT_255_2_778
10
78.6875444
20
45.2323439
40
0.1728598
50
48.5798391
51
92.9597165
0
ARC
8
DEFAULT_255_2_778
10
78.6704622
20
45.0533826
40
0.351685
50
88.6709973
51
90.0094496
0
LINE
8
DEFAULT_255_2_778
10
78.8689042
20
44.5168677
11
78.6689042
21
44.9071677
0
LINE
8
DEFAULT_255_2_778
10
78.6689042
20
44.9071677
11
78.4937042
21
44.9071677
0
LINE
8
DEFAULT_255_2_778
10
78.4937042
20
44.9071677
11
78.4937042
21
44.5168677
0
LINE
8
DEFAULT_255_2_778
10
78.4937042
20
44.5168677
11
78.2741042
21
44.5168677
0
LINE
8
DEFAULT_255_2_778
10
78.2741042
20
44.5168677
11
78.2741042
21
45.5831677
0
LINE
8
DEFAULT_255_2_778
10
78.2741042
20
45.5831677
11
78.6704042
21
45.5831677
0
LINE
8
DEFAULT_255_2_778
10
78.8742042
20
44.9627677
11
79.1049042
21
44.5269677
0
LINE
8
DEFAULT_255_2_778
10
79.1049042
20
44.5269677
11
79.1049042
21
44.5166677
0
LINE
8
DEFAULT_255_2_778
10
79.1049042
20
44.5166677
11
78.8691042
21
44.5166677
0
LINE
8
DEFAULT_255_2_778
10
78.8691042
20
44.5166677
11
78.8689042
21
44.5168677
0
LINE
8
DEFAULT_255_2_778
10
78.4940042
20
45.4053677
11
78.4940042
21
45.0852677
0
LINE
8
DEFAULT_255_2_778
10
78.4940042
20
45.0852677
11
78.6712042
21
45.0852677
0
LINE
8
DEFAULT_255_2_778
10
78.6704042
20
45.4050677
11
78.4940042
21
45.4050677
0
LINE
8
DEFAULT_255_2_778
10
78.4940042
20
45.4050677
11
78.4940042
21
45.4053677
0
ARC
8
DEFAULT_255_2_778
10
34.6381399
20
19.7564644
40
0.5000969
50
269.9996485
51
0.0003515
0
ARC
8
DEFAULT_255_2_778
10
0.6384337
20
19.7564644
40
0.5000969
50
179.9996485
51
270.0003515
0
ARC
8
DEFAULT_255_2_778
10
94.4877505
20
21.3183833
40
2.2620161
50
270.0173831
51
279.5730964
0
ARC
8
DEFAULT_255_2_778
10
84.3879252
20
21.3021452
40
2.2457778
50
252.8375515
51
270.0156039
0
ARC
8
DEFAULT_255_2_778
10
90.9369927
20
26.255864
40
7.5017474
50
16.2611137
51
29.924447
0
ARC
8
DEFAULT_255_2_778
10
84.3840145
20
21.3060559
40
2.2457778
50
179.9843961
51
197.1624485
0
ARC
8
DEFAULT_255_2_778
10
90.9442146
20
26.2562005
40
7.4942946
50
337.6522572
51
343.7315885
0
ARC
8
DEFAULT_255_2_778
10
4.1430016
20
85.7600225
40
2.2546676
50
158.2408662
51
180.0903398
0
ARC
8
DEFAULT_255_2_778
10
4.1332135
20
85.7611792
40
2.2451496
50
100.4535565
51
158.1756829
0
ARC
8
DEFAULT_255_2_778
10
4.1371436
20
85.7265156
40
2.2799523
50
89.9700133
51
100.3926283
0
ARC
8
DEFAULT_255_2_778
10
4.1418782
20
85.7519474
40
2.2545229
50
68.2401607
51
90.0899995
0
ARC
8
DEFAULT_255_2_778
10
4.1429594
20
85.7615013
40
2.2452504
50
10.46182
51
68.1754031
0
ARC
8
DEFAULT_255_2_778
10
4.1085704
20
85.7576589
40
2.2797667
50
359.9700565
51
10.3998477
0
ARC
8
DEFAULT_255_2_778
10
4.1339528
20
85.7529325
40
2.2543868
50
338.2386051
51
0.0898428
0
ARC
8
DEFAULT_255_2_778
10
4.1432749
20
85.7519505
40
2.2453665
50
280.4545112
51
338.173688
0
ARC
8
DEFAULT_255_2_778
10
4.1395255
20
85.7859794
40
2.2795122
50
269.9701221
51
280.3919857
0
ARC
8
DEFAULT_255_2_778
10
4.1347882
20
85.7609962
40
2.2545315
50
248.2393107
51
270.0901832
0
ARC
8
DEFAULT_255_2_778
10
4.1337313
20
85.7514409
40
2.2452669
50
190.452684
51
248.1739611
0
ARC
8
DEFAULT_255_2_778
10
4.168065
20
85.7552799
40
2.2797285
50
179.9701533
51
190.3910176
0
ARC
8
DEFAULT_255_2_778
10
0.6381993
20
69.7567161
40
0.4996515
50
89.9727611
51
135.0090046
0
ARC
8
DEFAULT_255_2_778
10
0.6384324
20
69.7563211
40
0.5000956
50
134.9958871
51
179.9946851
0
ARC
8
DEFAULT_255_2_778
10
99.6383399
20
69.9563706
40
0.5000969
50
359.9996485
51
90.0003515
0
ARC
8
DEFAULT_255_2_778
10
99.6383399
20
69.8563706
40
0.5000969
50
359.9996485
51
90.0003515
0
ARC
8
DEFAULT_255_2_778
10
99.6380399
20
19.6564644
40
0.5000969
50
269.9996485
51
0.0003515
0
ARC
8
DEFAULT_255_2_778
10
99.6383399
20
19.5564644
40
0.5000969
50
269.9996485
51
0.0003515
0
ARC
8
DEFAULT_255_2_778
10
34.6385106
20
69.7564413
40
0.4999262
50
359.9915458
51
90.0084542
0
ARC
8
DEFAULT_255_2_778
10
97.9383274
20
14.8564769
40
0.3001094
50
270.0208901
51
359.9791099
0
ARC
8
DEFAULT_255_2_778
10
2.3384462
20
14.8564769
40
0.3001094
50
180.0208901
51
269.9791099
0
ARC
8
DEFAULT_255_2_778
10
1.1346549
20
0.7550071
40
0.9963191
50
179.916016
51
221.6459452
0
ARC
8
DEFAULT_255_2_778
10
1.1372824
20
0.7540262
40
0.9976339
50
221.5035703
51
268.2692494
0
ARC
8
DEFAULT_255_2_778
10
1.1384271
20
0.7751266
40
1.0187593
50
268.2407389
51
270.0005447
0
ARC
8
DEFAULT_255_2_778
10
99.1399813
20
0.7527237
40
0.9963573
50
269.9169325
51
311.6421289
0
ARC
8
DEFAULT_255_2_778
10
99.1410232
20
0.7552932
40
0.9975883
50
311.4993517
51
358.269997
0
ARC
8
DEFAULT_255_2_778
10
99.1195361
20
0.7564576
40
1.0191008
50
358.2410303
51
0.000554
0
ARC
8
DEFAULT_255_2_778
10
97.9389515
20
74.6565924
40
0.2997853
50
359.976134
51
45.0256554
0
ARC
8
DEFAULT_255_2_778
10
97.9388718
20
74.6567066
40
0.2997609
50
44.9994464
51
90.0449164
0
ARC
8
DEFAULT_255_2_778
10
2.3382461
20
74.6563579
40
0.3001096
50
89.9826815
51
134.972961
0
ARC
8
DEFAULT_255_2_778
10
2.3384457
20
74.6565583
40
0.3001089
50
135.0269695
51
180.0173429
0
ARC
8
DEFAULT_255_2_778
10
1.1346584
20
88.7577865
40
0.9963226
50
138.3541388
51
180.0816049
0
ARC
8
DEFAULT_255_2_778
10
1.1373205
20
88.758806
40
0.9976376
50
91.732932
51
138.4994886
0
ARC
8
DEFAULT_255_2_778
10
1.1384271
20
88.7377083
40
1.0187592
50
89.9994554
51
91.7592612
0
ARC
8
DEFAULT_255_2_778
10
99.1399558
20
88.7601459
40
0.9963226
50
48.3541388
51
90.0816049
0
ARC
8
DEFAULT_255_2_778
10
99.1409753
20
88.7574839
40
0.9976376
50
1.732932
51
48.4994886
0
ARC
8
DEFAULT_255_2_778
10
99.1198776
20
88.7563772
40
1.0187592
50
359.9994554
51
1.7592612
0
LINE
8
DEFAULT_255_2_778
10
90.3083368
20
19.0563675
11
90.3083368
21
17.0563675
0
LINE
8
DEFAULT_255_2_778
10
90.3083368
20
17.0563675
11
2.6383368
21
17.0563675
0
LINE
8
DEFAULT_255_2_778
10
44.5883368
20
17.0563675
11
44.5883368
21
19.0563675
0
LINE
8
DEFAULT_255_2_778
10
98.1384368
20
16.4562675
11
98.2384368
21
16.4562675
0
LINE
8
DEFAULT_255_2_778
10
98.2384368
20
18.2562675
11
98.1384368
21
18.2562675
0
LINE
8
DEFAULT_255_2_778
10
97.6383368
20
19.1563675
11
97.6383368
21
15.0563675
0
LINE
8
DEFAULT_255_2_778
10
97.6383368
20
15.0563675
11
98.1384368
21
15.0563675
0
LINE
8
DEFAULT_255_2_778
10
98.1384368
20
15.0563675
11
98.1384368
21
19.0563675
0
LINE
8
DEFAULT_255_2_778
10
98.1384368
20
19.0563675
11
98.7385368
21
19.0563675
0
LINE
8
DEFAULT_255_2_778
10
29.4385368
20
19.2563675
11
29.4385368
21
19.0563675
0
LINE
8
DEFAULT_255_2_778
10
23.1385368
20
19.0563675
11
23.1385368
21
19.2563675
0
LINE
8
DEFAULT_255_2_778
10
22.6385368
20
19.2563675
11
22.6385368
21
19.0563675
0
LINE
8
DEFAULT_255_2_778
10
26.4384368
20
19.0563675
11
26.4384368
21
19.2563675
0
LINE
8
DEFAULT_255_2_778
10
30.6384368
20
19.2563675
11
30.6384368
21
19.0563675
0
LINE
8
DEFAULT_255_2_778
10
12.1385368
20
19.2563675
11
12.1385368
21
19.0563675
0
LINE
8
DEFAULT_255_2_778
10
12.6385368
20
19.0563675
11
12.6385368
21
19.2563675
0
LINE
8
DEFAULT_255_2_778
10
5.8385368
20
19.2563675
11
5.8385368
21
19.0563675
0
LINE
8
DEFAULT_255_2_778
10
8.8386368
20
19.2563675
11
8.8386368
21
19.0563675
0
LINE
8
DEFAULT_255_2_778
10
4.6386368
20
19.0563675
11
4.6386368
21
19.2563675
0
LINE
8
DEFAULT_255_2_778
10
2.1385368
20
18.2562675
11
2.0385368
21
18.2562675
0
LINE
8
DEFAULT_255_2_778
10
2.0385368
20
16.4562675
11
2.1385368
21
16.4562675
0
LINE
8
DEFAULT_255_2_778
10
67.4486368
20
17.0563675
11
67.4486368
21
19.0563675
0
LINE
8
DEFAULT_255_2_778
10
63.6383368
20
15.0563675
11
63.6383368
21
17.0563675
0
LINE
8
DEFAULT_255_2_778
10
10.2983368
20
15.0563675
11
10.2983368
21
17.0563675
0
LINE
8
DEFAULT_255_2_778
10
14.1083368
20
17.0563675
11
14.1083368
21
19.0563675
0
LINE
8
DEFAULT_255_2_778
10
21.7283368
20
17.0563675
11
21.7283368
21
19.0563675
0
LINE
8
DEFAULT_255_2_778
10
17.9183368
20
15.0563675
11
17.9183368
21
17.0563675
0
LINE
8
DEFAULT_255_2_778
10
29.3483368
20
17.0563675
11
29.3483368
21
19.0563675
0
LINE
8
DEFAULT_255_2_778
10
25.5383368
20
15.0563675
11
25.5383368
21
17.0563675
0
LINE
8
DEFAULT_255_2_778
10
97.6383368
20
15.0563675
11
2.6383368
21
15.0563675
0
LINE
8
DEFAULT_255_2_778
10
2.6383368
20
15.0563675
11
2.6383368
21
19.0563675
0
LINE
8
DEFAULT_255_2_778
10
75.0683368
20
19.0563675
11
75.0683368
21
17.0563675
0
LINE
8
DEFAULT_255_2_778
10
82.6883368
20
19.0563675
11
82.6883368
21
17.0563675
0
LINE
8
DEFAULT_255_2_778
10
78.8783368
20
17.0563675
11
78.8783368
21
15.0563675
0
LINE
8
DEFAULT_255_2_778
10
86.4983368
20
17.0563675
11
86.4983368
21
15.0563675
0
LINE
8
DEFAULT_255_2_778
10
71.2583368
20
17.0563675
11
71.2583368
21
15.0563675
0
LINE
8
DEFAULT_255_2_778
10
6.4883368
20
19.0563675
11
6.4883368
21
17.0563675
0
LINE
8
DEFAULT_255_2_778
10
36.9683368
20
19.0563675
11
36.9683368
21
17.0563675
0
LINE
8
DEFAULT_255_2_778
10
33.1583368
20
17.0563675
11
33.1583368
21
15.0563675
0
LINE
8
DEFAULT_255_2_778
10
40.7783368
20
17.0563675
11
40.7783368
21
15.0563675
0
LINE
8
DEFAULT_255_2_778
10
48.3983368
20
17.0563675
11
48.3983368
21
15.0563675
0
LINE
8
DEFAULT_255_2_778
10
52.2083368
20
19.0563675
11
52.2083368
21
17.0563675
0
LINE
8
DEFAULT_255_2_778
10
59.8283368
20
19.0563675
11
59.8283368
21
17.0563675
0
LINE
8
DEFAULT_255_2_778
10
56.0183368
20
17.0563675
11
56.0183368
21
15.0563675
0
LINE
8
DEFAULT_255_2_778
10
34.6381368
20
19.2563675
11
0.6384368
21
19.2563675
0
LINE
8
DEFAULT_255_2_778
10
97.6383368
20
15.2563675
11
98.1384368
21
15.2563675
0
LINE
8
DEFAULT_255_2_778
10
2.1383368
20
15.2563675
11
2.6383368
21
15.2563675
0
LINE
8
DEFAULT_255_2_778
10
2.1383368
20
14.6327675
11
2.1383368
21
19.0563675
0
LINE
8
DEFAULT_255_2_778
10
2.2883368
20
14.5605675
11
2.2883368
21
15.2563675
0
LINE
8
DEFAULT_255_2_778
10
94.4884368
20
19.0563675
11
84.3885368
21
19.0563675
0
LINE
8
DEFAULT_255_2_778
10
88.5218368
20
19.1563675
11
88.8385368
21
19.0563675
0
LINE
8
DEFAULT_255_2_778
10
93.0385368
20
19.0563675
11
93.3552368
21
19.1563675
0
LINE
8
DEFAULT_255_2_778
10
98.1386368
20
28.0064675
11
97.4386368
21
28.0064675
0
LINE
8
DEFAULT_255_2_778
10
97.4386368
20
26.4064675
11
98.1386368
21
26.4064675
0
LINE
8
DEFAULT_255_2_778
10
97.4386368
20
20.3065675
11
98.1386368
21
20.3065675
0
LINE
8
DEFAULT_255_2_778
10
98.1386368
20
21.3066675
11
97.4386368
21
21.3066675
0
LINE
8
DEFAULT_255_2_778
10
98.1386368
20
21.4066675
11
97.4386368
21
21.4066675
0
LINE
8
DEFAULT_255_2_778
10
98.1386368
20
23.4066675
11
97.4386368
21
23.4066675
0
LINE
8
DEFAULT_255_2_778
10
84.2385368
20
43.0066675
11
84.2385368
21
42.3066675
0
LINE
8
DEFAULT_255_2_778
10
85.8384368
20
42.3066675
11
85.8384368
21
43.0066675
0
LINE
8
DEFAULT_255_2_778
10
94.2384368
20
43.0066675
11
94.2384368
21
42.3066675
0
LINE
8
DEFAULT_255_2_778
10
95.8384368
20
42.3066675
11
95.8384368
21
43.0066675
0
LINE
8
DEFAULT_255_2_778
10
98.1384368
20
19.1566675
11
82.2385368
21
19.1566675
0
LINE
8
DEFAULT_255_2_778
10
82.2385368
20
19.1566675
11
82.2385368
21
19.6566675
0
LINE
8
DEFAULT_255_2_778
10
97.4386368
20
19.1566675
11
97.4386368
21
19.6566675
0
LINE
8
DEFAULT_255_2_778
10
97.4386368
20
42.3066675
11
82.2385368
21
42.3066675
0
LINE
8
DEFAULT_255_2_778
10
82.2385368
20
42.3066675
11
82.2385368
21
19.6566675
0
LINE
8
DEFAULT_255_2_778
10
82.2385368
20
19.6566675
11
97.4386368
21
19.6566675
0
LINE
8
DEFAULT_255_2_778
10
97.4386368
20
19.6566675
11
97.4386368
21
42.3066675
0
LINE
8
DEFAULT_255_2_778
10
97.8386368
20
21.4066675
11
97.8386368
21
21.3066675
0
LINE
8
DEFAULT_255_2_778
10
2.6383368
20
74.2563675
11
2.1383368
21
74.2563675
0
LINE
8
DEFAULT_255_2_778
10
2.6383368
20
74.4563675
11
2.1383368
21
74.4563675
0
LINE
8
DEFAULT_255_2_778
10
97.6383368
20
72.4564675
11
9.9684368
21
72.4564675
0
LINE
8
DEFAULT_255_2_778
10
9.9684368
20
72.4564675
11
9.9684368
21
70.4564675
0
LINE
8
DEFAULT_255_2_778
10
55.6884368
20
72.4564675
11
55.6884368
21
70.4564675
0
LINE
8
DEFAULT_255_2_778
10
16.1384368
20
70.4564675
11
16.1384368
21
70.2563675
0
LINE
8
DEFAULT_255_2_778
10
19.1386368
20
70.2563675
11
19.1386368
21
70.4564675
0
LINE
8
DEFAULT_255_2_778
10
31.4187368
20
70.2563675
11
31.4187368
21
70.4564675
0
LINE
8
DEFAULT_255_2_778
10
26.4387368
20
70.2563675
11
26.4387368
21
70.4564675
0
LINE
8
DEFAULT_255_2_778
10
29.4388368
20
70.4564675
11
29.4388368
21
70.2563675
0
LINE
8
DEFAULT_255_2_778
10
32.4188368
20
70.4564675
11
32.4188368
21
70.2563675
0
LINE
8
DEFAULT_255_2_778
10
98.2387368
20
73.0564675
11
98.1386368
21
73.0564675
0
LINE
8
DEFAULT_255_2_778
10
98.2387368
20
71.2565675
11
98.1386368
21
71.2565675
0
LINE
8
DEFAULT_255_2_778
10
2.1385368
20
71.2565675
11
2.0385368
21
71.2565675
0
LINE
8
DEFAULT_255_2_778
10
2.1385368
20
73.0564675
11
2.0385368
21
73.0564675
0
LINE
8
DEFAULT_255_2_778
10
98.0463368
20
70.3564675
11
98.1386368
21
70.4564675
0
LINE
8
DEFAULT_255_2_778
10
21.3984368
20
72.4564675
11
21.3984368
21
74.4563675
0
LINE
8
DEFAULT_255_2_778
10
25.2084368
20
70.4564675
11
25.2084368
21
72.4564675
0
LINE
8
DEFAULT_255_2_778
10
2.1383368
20
74.8799675
11
2.1383368
21
70.4564675
0
LINE
8
DEFAULT_255_2_778
10
2.6383368
20
70.4564675
11
2.6383368
21
74.4563675
0
LINE
8
DEFAULT_255_2_778
10
2.6383368
20
74.4563675
11
97.6383368
21
74.4563675
0
LINE
8
DEFAULT_255_2_778
10
93.7884368
20
72.4564675
11
93.7884368
21
70.4564675
0
LINE
8
DEFAULT_255_2_778
10
89.9784368
20
74.4563675
11
89.9784368
21
72.4564675
0
LINE
8
DEFAULT_255_2_778
10
86.1684368
20
72.4564675
11
86.1684368
21
70.4564675
0
LINE
8
DEFAULT_255_2_778
10
82.3584368
20
74.4563675
11
82.3584368
21
72.4564675
0
LINE
8
DEFAULT_255_2_778
10
78.5484368
20
72.4564675
11
78.5484368
21
70.4564675
0
LINE
8
DEFAULT_255_2_778
10
74.7384368
20
74.4563675
11
74.7384368
21
72.4564675
0
LINE
8
DEFAULT_255_2_778
10
70.9284368
20
72.4564675
11
70.9284368
21
70.4564675
0
LINE
8
DEFAULT_255_2_778
10
67.1184368
20
74.4563675
11
67.1184368
21
72.4564675
0
LINE
8
DEFAULT_255_2_778
10
63.3084368
20
72.4564675
11
63.3084368
21
70.4564675
0
LINE
8
DEFAULT_255_2_778
10
59.4984368
20
74.4563675
11
59.4984368
21
72.4564675
0
LINE
8
DEFAULT_255_2_778
10
51.8784368
20
74.4563675
11
51.8784368
21
72.4564675
0
LINE
8
DEFAULT_255_2_778
10
48.0684368
20
72.4564675
11
48.0684368
21
70.4564675
0
LINE
8
DEFAULT_255_2_778
10
44.2584368
20
74.4563675
11
44.2584368
21
72.4564675
0
LINE
8
DEFAULT_255_2_778
10
40.4484368
20
72.4564675
11
40.4484368
21
70.4564675
0
LINE
8
DEFAULT_255_2_778
10
36.6384368
20
74.4563675
11
36.6384368
21
72.4564675
0
LINE
8
DEFAULT_255_2_778
10
32.8284368
20
72.4564675
11
32.8284368
21
70.4564675
0
LINE
8
DEFAULT_255_2_778
10
29.0184368
20
74.4563675
11
29.0184368
21
72.4564675
0
LINE
8
DEFAULT_255_2_778
10
17.5884368
20
72.4564675
11
17.5884368
21
70.4564675
0
LINE
8
DEFAULT_255_2_778
10
13.7784368
20
74.4563675
11
13.7784368
21
72.4564675
0
LINE
8
DEFAULT_255_2_778
10
98.1384368
20
74.2563675
11
97.6383368
21
74.2563675
0
LINE
8
DEFAULT_255_2_778
10
1.7382368
20
70.4564675
11
1.7382368
21
70.2563675
0
LINE
8
DEFAULT_255_2_778
10
35.2382368
20
70.4564675
11
2.0383368
21
70.4564675
0
LINE
8
DEFAULT_255_2_778
10
97.6383368
20
74.9564675
11
97.6383368
21
70.3564675
0
LINE
8
DEFAULT_255_2_778
10
1.8883368
20
85.7564675
11
1.8883368
21
85.7564675
0
LINE
8
DEFAULT_255_2_778
10
82.1382368
20
56.2564675
11
82.2382368
21
56.2564675
0
LINE
8
DEFAULT_255_2_778
10
82.1382368
20
57.7564675
11
82.2382368
21
57.7564675
0
LINE
8
DEFAULT_255_2_778
10
82.2382368
20
58.3564675
11
82.1382368
21
58.3564675
0
LINE
8
DEFAULT_255_2_778
10
35.1382368
20
54.5965675
11
35.2382368
21
54.5965675
0
LINE
8
DEFAULT_255_2_778
10
35.2382368
20
57.3965675
11
35.1382368
21
57.3965675
0
LINE
8
DEFAULT_255_2_778
10
35.2382368
20
56.9965675
11
35.1382368
21
56.9965675
0
LINE
8
DEFAULT_255_2_778
10
35.1382368
20
54.9965675
11
35.2382368
21
54.9965675
0
LINE
8
DEFAULT_255_2_778
10
99.7111368
20
70.3511675
11
99.6603368
21
70.4476675
0
LINE
8
DEFAULT_255_2_778
10
99.6603368
20
70.4476675
11
99.6383368
21
70.4564675
0
LINE
8
DEFAULT_255_2_778
10
99.6383368
20
70.4564675
11
100.1384368
21
70.4564675
0
LINE
8
DEFAULT_255_2_778
10
100.1384368
20
70.4564675
11
100.1384368
21
69.9563675
0
LINE
8
DEFAULT_255_2_778
10
82.2382368
20
56.5065675
11
82.2382368
21
44.5066675
0
LINE
8
DEFAULT_255_2_778
10
82.2382368
20
44.5066675
11
83.0383368
21
44.5066675
0
LINE
8
DEFAULT_255_2_778
10
83.0383368
20
44.5066675
11
83.0383368
21
56.5065675
0
LINE
8
DEFAULT_255_2_778
10
83.0383368
20
56.5065675
11
82.2382368
21
56.5065675
0
LINE
8
DEFAULT_255_2_778
10
82.2382368
20
56.5065675
11
82.2382368
21
70.3564675
0
LINE
8
DEFAULT_255_2_778
10
82.2382368
20
70.3564675
11
99.6383368
21
70.3564675
0
LINE
8
DEFAULT_255_2_778
10
82.2382368
20
43.0064675
11
98.1381368
21
43.0064675
0
LINE
8
DEFAULT_255_2_778
10
98.1381368
20
43.0064675
11
98.1381368
21
19.1563675
0
LINE
8
DEFAULT_255_2_778
10
98.1381368
20
19.1563675
11
99.6380368
21
19.1563675
0
LINE
8
DEFAULT_255_2_778
10
0.1383368
20
19.0563675
11
0.1383368
21
70.4564675
0
LINE
8
DEFAULT_255_2_778
10
82.1382368
20
43.0064675
11
82.2382368
21
43.0064675
0
LINE
8
DEFAULT_255_2_778
10
82.2382368
20
43.0064675
11
82.2382368
21
44.5063675
0
LINE
8
DEFAULT_255_2_778
10
82.2382368
20
68.0563675
11
82.1382368
21
68.0563675
0
LINE
8
DEFAULT_255_2_778
10
2.0383368
20
19.0563675
11
82.1382368
21
19.0563675
0
LINE
8
DEFAULT_255_2_778
10
82.1382368
20
19.0563675
11
82.1382368
21
70.4564675
0
LINE
8
DEFAULT_255_2_778
10
82.1382368
20
70.4564675
11
35.2382368
21
70.4564675
0
LINE
8
DEFAULT_255_2_778
10
35.2382368
20
70.4564675
11
35.2382368
21
19.0563675
0
LINE
8
DEFAULT_255_2_778
10
100.1283368
20
69.9563675
11
100.1384368
21
69.9563675
0
LINE
8
DEFAULT_255_2_778
10
100.1384368
20
69.9563675
11
100.1384368
21
19.5564675
0
LINE
8
DEFAULT_255_2_778
10
99.6383368
20
19.0563675
11
99.6925368
21
19.1119675
0
LINE
8
DEFAULT_255_2_778
10
99.6925368
20
19.1119675
11
99.7111368
21
19.1616675
0
LINE
8
DEFAULT_255_2_778
10
35.1384368
20
19.0563675
11
35.1384368
21
69.7563675
0
LINE
8
DEFAULT_255_2_778
10
34.6384368
20
70.2563675
11
0.6384368
21
70.2563675
0
LINE
8
DEFAULT_255_2_778
10
0.6384368
20
70.2563675
11
0.6384368
21
70.4564675
0
LINE
8
DEFAULT_255_2_778
10
100.1283368
20
19.5564675
11
100.1384368
21
19.5564675
0
LINE
8
DEFAULT_255_2_778
10
100.1384368
20
19.5564675
11
100.1384368
21
19.0563675
0
LINE
8
DEFAULT_255_2_778
10
98.1384368
20
74.8799675
11
98.1384368
21
70.4564675
0
LINE
8
DEFAULT_255_2_778
10
98.1384368
20
70.4564675
11
98.7385368
21
70.4564675
0
LINE
8
DEFAULT_255_2_778
10
98.7385368
20
70.4564675
11
98.7385368
21
70.3564675
0
LINE
8
DEFAULT_255_2_778
10
98.2384368
20
19.0563675
11
98.2384368
21
14.8563675
0
LINE
8
DEFAULT_255_2_778
10
97.9384368
20
14.5563675
11
2.3383368
21
14.5563675
0
LINE
8
DEFAULT_255_2_778
10
2.0383368
20
14.8563675
11
2.0383368
21
19.0563675
0
LINE
8
DEFAULT_255_2_778
10
2.0383368
20
19.0563675
11
0.1383368
21
19.0563675
0
LINE
8
DEFAULT_255_2_778
10
0.1383368
20
19.0563675
11
0.1383368
21
0.7564675
0
LINE
8
DEFAULT_255_2_778
10
1.1384368
20
-0.2436325
11
99.1385368
21
-0.2436325
0
LINE
8
DEFAULT_255_2_778
10
100.1386368
20
0.7564675
11
100.1386368
21
19.0563675
0
LINE
8
DEFAULT_255_2_778
10
100.1386368
20
19.0563675
11
98.7387368
21
19.0563675
0
LINE
8
DEFAULT_255_2_778
10
98.7387368
20
19.0563675
11
98.7387368
21
19.1563675
0
LINE
8
DEFAULT_255_2_778
10
98.2387368
20
70.4564675
11
98.2387368
21
74.6564675
0
LINE
8
DEFAULT_255_2_778
10
97.9386368
20
74.9564675
11
2.3383368
21
74.9564675
0
LINE
8
DEFAULT_255_2_778
10
2.0383368
20
74.6564675
11
2.0383368
21
70.4564675
0
LINE
8
DEFAULT_255_2_778
10
2.0383368
20
70.4564675
11
0.1383368
21
70.4564675
0
LINE
8
DEFAULT_255_2_778
10
0.1383368
20
70.4564675
11
0.1383368
21
88.7563675
0
LINE
8
DEFAULT_255_2_778
10
1.1384368
20
89.7564675
11
99.1385368
21
89.7564675
0
LINE
8
DEFAULT_255_2_778
10
100.1386368
20
88.7563675
11
100.1386368
21
70.4564675
0
LINE
8
DEFAULT_255_2_778
10
100.1386368
20
70.4564675
11
98.7387368
21
70.4564675
0
ARC
8
DEFAULT_255_2_778
10
91.445541
20
18.013592
40
2.0075084
50
306.7710666
51
313.1438846
0
ARC
8
DEFAULT_255_2_778
10
92.0374574
20
17.3872944
40
1.1457712
50
312.9637513
51
322.8973339
0
ARC
8
DEFAULT_255_2_778
10
92.4741736
20
17.0623943
40
0.6014868
50
322.4857277
51
340.0941694
0
ARC
8
DEFAULT_255_2_778
10
92.693045
20
16.9799264
40
0.3676263
50
340.5649298
51
359.5718839
0
ARC
8
DEFAULT_255_2_778
10
92.7302164
20
16.976081
40
0.3304464
50
0.1904729
51
27.7438192
0
ARC
8
DEFAULT_255_2_778
10
92.7143188
20
16.9134285
40
0.3767588
50
35.0708715
51
83.9899651
0
ARC
8
DEFAULT_255_2_778
10
92.6702392
20
16.6861987
40
0.6076856
50
82.0996102
51
90.1864776
0
ARC
8
DEFAULT_255_2_778
10
92.673469
20
16.4243251
40
0.8695716
50
90.3431257
51
99.5112283
0
ARC
8
DEFAULT_255_2_778
10
92.7459514
20
15.977664
40
1.3220717
50
99.4106527
51
105.8161634
0
ARC
8
DEFAULT_255_2_778
10
92.8539462
20
15.5766268
40
1.7373687
50
105.638176
51
107.7261262
0
ARC
8
DEFAULT_255_2_778
10
92.9332839
20
15.3881144
40
1.7199922
50
106.4408339
51
110.2390384
0
ARC
8
DEFAULT_255_2_778
10
92.7256487
20
16.0977809
40
0.9805777
50
100.8413394
51
106.5406247
0
ARC
8
DEFAULT_255_2_778
10
92.6369386
20
16.5706137
40
0.499502
50
91.8649221
51
101.0487713
0
ARC
8
DEFAULT_255_2_778
10
92.627932
20
16.7406748
40
0.3292562
50
90.0101789
51
91.2615141
0
ARC
8
DEFAULT_255_2_778
10
92.633663
20
16.8802146
40
0.1898045
50
69.3356497
51
91.74792
0
ARC
8
DEFAULT_255_2_778
10
92.6653913
20
16.971635
40
0.0931047
50
354.3750283
51
67.7511048
0
ARC
8
DEFAULT_255_2_778
10
92.5249081
20
16.9645454
40
0.2331486
50
349.055893
51
359.4996035
0
ARC
8
DEFAULT_255_2_778
10
92.3828505
20
16.9903627
40
0.3775273
50
343.4162361
51
349.3020714
0
ARC
8
DEFAULT_255_2_778
10
91.8005018
20
17.3686069
40
1.0619106
50
316.089408
51
332.7636114
0
ARC
8
DEFAULT_255_2_778
10
91.2799421
20
17.8582554
40
1.7765413
50
306.2950358
51
316.356205
0
ARC
8
DEFAULT_255_2_778
10
90.9342703
20
18.3015743
40
2.3385215
50
305.8262122
51
306.6915797
0
LINE
8
DEFAULT_255_2_778
10
92.303074
20
16.40551
11
92.303074
21
16.20231
0
LINE
8
DEFAULT_255_2_778
10
92.303074
20
16.20231
11
93.075874
21
16.20231
0
ARC
8
DEFAULT_255_2_778
10
93.1026306
20
16.2129601
40
0.0287983
50
175.9181261
51
201.7042889
0
ARC
8
DEFAULT_255_2_778
10
94.4306103
20
16.2859722
40
1.3585596
50
180.4271677
51
182.9941131
0
ARC
8
DEFAULT_255_2_778
10
101.5322386
20
16.3849287
40
8.4608535
50
179.9942796
51
180.7387309
0
ARC
8
DEFAULT_255_2_778
10
110.0251349
20
16.4052626
40
16.953761
50
179.9991638
51
180.0658642
0
LINE
8
DEFAULT_255_2_778
10
93.071374
20
16.40551
11
92.647274
21
16.40551
0
LINE
8
DEFAULT_255_2_778
10
91.575174
20
16.52771
11
91.575174
21
16.83041
0
LINE
8
DEFAULT_255_2_778
10
91.575174
20
16.83041
11
92.196374
21
16.83041
0
LINE
8
DEFAULT_255_2_778
10
92.196374
20
16.83041
11
92.196374
21
16.52771
0
LINE
8
DEFAULT_255_2_778
10
92.196374
20
16.52771
11
91.575174
21
16.52771
0
LINE
8
DEFAULT_255_2_778
10
92.324974
20
17.23151
11
92.338274
21
17.00191
0
LINE
8
DEFAULT_255_2_778
10
92.647274
20
16.40551
11
92.647274
21
16.40551
0
LINE
8
DEFAULT_255_2_778
10
93.162674
20
16.20231
11
93.590274
21
17.29371
0
LINE
8
DEFAULT_255_2_778
10
93.590274
20
17.29371
11
93.838674
21
17.29371
0
LINE
8
DEFAULT_255_2_778
10
93.838674
20
17.29371
11
94.269474
21
16.20231
0
LINE
8
DEFAULT_255_2_778
10
94.269474
20
16.20231
11
94.025774
21
16.20231
0
LINE
8
DEFAULT_255_2_778
10
94.025774
20
16.20231
11
93.931274
21
16.45261
0
LINE
8
DEFAULT_255_2_778
10
93.931274
20
16.45261
11
93.486774
21
16.45261
0
LINE
8
DEFAULT_255_2_778
10
93.486774
20
16.45261
11
93.390974
21
16.20231
0
LINE
8
DEFAULT_255_2_778
10
93.390974
20
16.20231
11
93.162674
21
16.20231
0
LINE
8
DEFAULT_255_2_778
10
93.708274
20
17.07491
11
93.549474
21
16.62461
0
LINE
8
DEFAULT_255_2_778
10
93.549474
20
16.62461
11
93.870174
21
16.62461
0
LINE
8
DEFAULT_255_2_778
10
93.870174
20
16.62461
11
93.711174
21
17.07491
0
LINE
8
DEFAULT_255_2_778
10
93.711174
20
17.07491
11
93.708274
21
17.07491
0
ARC
8
DEFAULT_255_2_778
10
94.5601334
20
16.7517127
40
0.47235
50
0.2093343
51
19.7813568
0
ARC
8
DEFAULT_255_2_778
10
94.7635886
20
16.8177631
40
0.2586338
50
21.2664403
51
88.984408
0
ARC
8
DEFAULT_255_2_778
10
94.7045421
20
16.4838965
40
0.5958671
50
83.8698889
51
90.1814035
0
ARC
8
DEFAULT_255_2_778
10
94.7039404
20
16.2634698
40
0.8162919
50
90.0901808
51
93.9462812
0
ARC
8
DEFAULT_255_2_778
10
94.7120133
20
16.1259081
40
0.954084
50
93.8614022
51
94.3540226
0
ARC
8
DEFAULT_255_2_778
10
94.714513
20
17.1550435
40
0.7396107
50
264.1851739
51
267.6681521
0
ARC
8
DEFAULT_255_2_778
10
94.7099835
20
17.0529026
40
0.6373703
50
267.701402
51
269.9784658
0
ARC
8
DEFAULT_255_2_778
10
94.718643
20
16.8312303
40
0.415793
50
268.7736248
51
289.8409965
0
ARC
8
DEFAULT_255_2_778
10
94.7457424
20
16.7048311
40
0.2882256
50
293.304114
51
5.7429438
0
ARC
8
DEFAULT_255_2_778
10
94.4469336
20
16.7396982
40
0.5856189
50
359.4104554
51
359.9983648
0
ARC
8
DEFAULT_255_2_778
10
94.4366539
20
16.7396497
40
0.5958986
50
0.0030561
51
0.8931559
0
ARC
8
DEFAULT_255_2_778
10
94.764501
20
16.8118
40
0.6110847
50
265.9536023
51
309.0802618
0
ARC
8
DEFAULT_255_2_778
10
94.8461684
20
16.6516844
40
0.4369251
50
314.0094852
51
344.4805598
0
ARC
8
DEFAULT_255_2_778
10
94.5487661
20
16.7391315
40
0.7468966
50
344.1212159
51
359.8904844
0
ARC
8
DEFAULT_255_2_778
10
94.2597251
20
16.7533933
40
1.0360551
50
359.1323169
51
0.002502
0
ARC
8
DEFAULT_255_2_778
10
94.2902216
20
16.7649597
40
1.0056246
50
359.3435612
51
359.9997859
0
ARC
8
DEFAULT_255_2_778
10
94.5593195
20
16.7744404
40
0.7365879
50
359.2622289
51
14.7420871
0
ARC
8
DEFAULT_255_2_778
10
94.8560145
20
16.8556632
40
0.4290019
50
14.3347961
51
44.5430757
0
ARC
8
DEFAULT_255_2_778
10
94.7990765
20
16.743413
40
0.5497822
50
48.7221156
51
91.5489441
0
ARC
8
DEFAULT_255_2_778
10
94.7475004
20
16.2448581
40
1.0487791
50
87.9938154
51
90.0166428
0
ARC
8
DEFAULT_255_2_778
10
94.7472873
20
16.1612839
40
1.1323534
50
90.0046293
51
91.0731134
0
LINE
8
DEFAULT_255_2_778
10
94.6395802
20
17.0772385
11
94.6395802
21
16.4192385
0
LINE
8
DEFAULT_255_2_778
10
94.7260802
20
17.2934385
11
94.3863802
21
17.2934385
0
LINE
8
DEFAULT_255_2_778
10
94.3863802
20
17.2934385
11
94.3863802
21
16.2022385
0
LINE
8
DEFAULT_255_2_778
10
94.3863802
20
16.2022385
11
94.7213802
21
16.2022385
0
LINE
8
DEFAULT_255_2_778
10
91.1605802
20
18.6647385
11
91.4476802
21
18.6647385
0
LINE
8
DEFAULT_255_2_778
10
91.4476802
20
18.6647385
11
91.7214802
21
17.8913385
0
LINE
8
DEFAULT_255_2_778
10
91.7214802
20
17.8913385
11
91.9939802
21
18.6647385
0
LINE
8
DEFAULT_255_2_778
10
91.9939802
20
18.6647385
11
92.2826802
21
18.6647385
0
LINE
8
DEFAULT_255_2_778
10
92.2826802
20
18.6647385
11
92.2826802
21
17.5982385
0
LINE
8
DEFAULT_255_2_778
10
92.2826802
20
17.5982385
11
92.0622802
21
17.5982385
0
LINE
8
DEFAULT_255_2_778
10
92.0622802
20
17.5982385
11
92.0622802
21
17.8897385
0
LINE
8
DEFAULT_255_2_778
10
92.0622802
20
17.8897385
11
92.0842802
21
18.3930385
0
LINE
8
DEFAULT_255_2_778
10
92.0842802
20
18.3930385
11
91.7963802
21
17.5982385
0
LINE
8
DEFAULT_255_2_778
10
91.7963802
20
17.5982385
11
91.6455802
21
17.5982385
0
LINE
8
DEFAULT_255_2_778
10
91.6455802
20
17.5982385
11
91.3584802
21
18.3922385
0
LINE
8
DEFAULT_255_2_778
10
91.3584802
20
18.3922385
11
91.3804802
21
17.8897385
0
LINE
8
DEFAULT_255_2_778
10
91.3804802
20
17.8897385
11
91.3804802
21
17.5982385
0
LINE
8
DEFAULT_255_2_778
10
91.3804802
20
17.5982385
11
91.1608802
21
17.5982385
0
LINE
8
DEFAULT_255_2_778
10
91.1608802
20
17.5982385
11
91.1608802
21
18.6647385
0
LINE
8
DEFAULT_255_2_778
10
91.1608802
20
18.6647385
11
91.1605802
21
18.6647385
0
LINE
8
DEFAULT_255_2_778
10
93.8770802
20
18.6647385
11
93.4843802
21
17.5066385
0
LINE
8
DEFAULT_255_2_778
10
93.4843802
20
17.5066385
11
93.3269802
21
17.5066385
0
LINE
8
DEFAULT_255_2_778
10
93.3269802
20
17.5066385
11
93.7195802
21
18.6647385
0
LINE
8
DEFAULT_255_2_778
10
93.7195802
20
18.6647385
11
93.8770802
21
18.6647385
0
LINE
8
DEFAULT_255_2_778
10
93.8770802
20
18.6647385
11
93.8770802
21
18.6647385
0
LINE
8
DEFAULT_255_2_778
10
94.6337802
20
18.2326385
11
94.6337802
21
18.0604385
0
LINE
8
DEFAULT_255_2_778
10
94.6337802
20
18.0604385
11
94.2117802
21
18.0604385
0
LINE
8
DEFAULT_255_2_778
10
94.2117802
20
18.0604385
11
94.2117802
21
17.7746385
0
LINE
8
DEFAULT_255_2_778
10
94.2117802
20
17.7746385
11
94.7067802
21
17.7746385
0
LINE
8
DEFAULT_255_2_778
10
94.7067802
20
17.7746385
11
94.7067802
21
17.5982385
0
LINE
8
DEFAULT_255_2_778
10
94.7067802
20
17.5982385
11
93.9918802
21
17.5982385
0
LINE
8
DEFAULT_255_2_778
10
93.9918802
20
17.5982385
11
93.9918802
21
18.6647385
0
LINE
8
DEFAULT_255_2_778
10
93.9918802
20
18.6647385
11
94.7051802
21
18.6647385
0
LINE
8
DEFAULT_255_2_778
10
94.7051802
20
18.6647385
11
94.7051802
21
18.4866385
0
LINE
8
DEFAULT_255_2_778
10
94.7051802
20
18.4866385
11
94.2114802
21
18.4866385
0
LINE
8
DEFAULT_255_2_778
10
94.2114802
20
18.4866385
11
94.2114802
21
18.2326385
0
LINE
8
DEFAULT_255_2_778
10
94.2114802
20
18.2326385
11
94.6334802
21
18.2326385
0
LINE
8
DEFAULT_255_2_778
10
94.6334802
20
18.2326385
11
94.6337802
21
18.2326385
0
ARC
8
DEFAULT_255_2_778
10
95.2761952
20
17.8842099
40
0.1129448
50
356.9090229
51
52.4206267
0
ARC
8
DEFAULT_255_2_778
10
95.1324328
20
17.6670735
40
0.3731608
50
55.2607464
51
69.5822194
0
ARC
8
DEFAULT_255_2_778
10
94.8413353
20
16.962691
40
1.1351657
50
68.215467
51
72.2834389
0
ARC
8
DEFAULT_255_2_778
10
95.5954794
20
19.3399768
40
1.3588757
50
245.9688882
51
252.4963846
0
ARC
8
DEFAULT_255_2_778
10
95.3168965
20
18.7011202
40
0.6619692
50
241.9661732
51
245.4732179
0
ARC
8
DEFAULT_255_2_778
10
95.1697399
20
18.4479327
40
0.3694861
50
213.7937639
51
243.6557966
0
ARC
8
DEFAULT_255_2_778
10
95.081561
20
18.3780664
40
0.2575033
50
179.3205905
51
211.7871533
0
ARC
8
DEFAULT_255_2_778
10
95.0819319
20
18.3845708
40
0.2578792
50
144.1998548
51
180.7667807
0
ARC
8
DEFAULT_255_2_778
10
95.1270408
20
18.3445989
40
0.3179045
50
111.0846181
51
143.1124957
0
ARC
8
DEFAULT_255_2_778
10
95.209588
20
18.1522357
40
0.5271431
50
89.1426338
51
111.934476
0
ARC
8
DEFAULT_255_2_778
10
95.2260688
20
18.1982349
40
0.4811616
50
66.0650388
51
91.0232953
0
ARC
8
DEFAULT_255_2_778
10
95.292083
20
18.3439278
40
0.3212178
50
33.521399
51
66.2844243
0
ARC
8
DEFAULT_255_2_778
10
95.3035521
20
18.3546246
40
0.3057599
50
359.1183332
51
33.0371853
0
ARC
8
DEFAULT_255_2_778
10
95.2462366
20
18.3581316
40
0.1434743
50
356.7188746
51
47.3865357
0
ARC
8
DEFAULT_255_2_778
10
95.2256897
20
18.3156661
40
0.1891293
50
51.5192455
51
93.6116702
0
ARC
8
DEFAULT_255_2_778
10
95.201389
20
18.3033398
40
0.2014611
50
86.4749685
51
124.0197668
0
ARC
8
DEFAULT_255_2_778
10
95.151577
20
18.3829867
40
0.1076272
50
125.7631382
51
181.2601617
0
ARC
8
DEFAULT_255_2_778
10
95.146561
20
18.382966
40
0.102612
50
181.3101871
51
240.6560132
0
ARC
8
DEFAULT_255_2_778
10
95.3600545
20
18.713553
40
0.4959911
50
237.8713916
51
252.1916139
0
ARC
8
DEFAULT_255_2_778
10
95.5516163
20
19.2338663
40
1.0502173
50
250.9229047
51
253.3427396
0
ARC
8
DEFAULT_255_2_778
10
94.9962399
20
17.3391497
40
0.9242529
50
62.0961401
51
74.0272631
0
ARC
8
DEFAULT_255_2_778
10
95.225834
20
17.773984
40
0.4325278
50
46.4983038
51
62.0169656
0
ARC
8
DEFAULT_255_2_778
10
95.3305657
20
17.8865409
40
0.2787935
50
358.5980277
51
46.1871783
0
ARC
8
DEFAULT_255_2_778
10
95.3524935
20
17.8696652
40
0.2569791
50
306.2854223
51
2.2423343
0
ARC
8
DEFAULT_255_2_778
10
95.2646321
20
18.0009735
40
0.4148781
50
273.7236515
51
305.3343864
0
ARC
8
DEFAULT_255_2_778
10
95.2239678
20
18.2880004
40
0.7042819
50
269.8867518
51
275.5086479
0
ARC
8
DEFAULT_255_2_778
10
95.2153404
20
18.1293091
40
0.5456373
50
246.5810146
51
270.7597893
0
ARC
8
DEFAULT_255_2_778
10
95.1343412
20
17.9568414
40
0.3552308
50
215.2306363
51
247.5131726
0
ARC
8
DEFAULT_255_2_778
10
95.1069028
20
17.9274853
40
0.3159885
50
178.8694809
51
213.7525597
0
ARC
8
DEFAULT_255_2_778
10
95.1682216
20
17.9190679
40
0.1575287
50
174.6631428
51
267.0561977
0
ARC
8
DEFAULT_255_2_778
10
95.2198472
20
18.1526708
40
0.3954585
50
261.3148963
51
270.351865
0
ARC
8
DEFAULT_255_2_778
10
95.2342205
20
17.962012
40
0.2051403
50
266.661943
51
302.5110821
0
ARC
8
DEFAULT_255_2_778
10
95.2851221
20
17.8736186
40
0.1033432
50
305.0531109
51
2.3853464
0
ARC
8
DEFAULT_255_2_778
10
92.8175647
20
18.334129
40
0.1123148
50
359.5361584
51
85.8792393
0
ARC
8
DEFAULT_255_2_778
10
92.742462
20
18.048984
40
0.4057848
50
78.1722896
51
90.8291328
0
ARC
8
DEFAULT_255_2_778
10
92.7384478
20
17.7064008
40
0.748328
50
90.1422368
51
94.3826036
0
ARC
8
DEFAULT_255_2_778
10
92.7504025
20
17.5232106
40
0.9318983
50
94.254784
51
94.8152708
0
LINE
8
DEFAULT_255_2_778
10
92.6721758
20
18.4518198
11
92.6721758
21
18.2150198
0
ARC
8
DEFAULT_255_2_778
10
92.7522161
20
18.9853493
40
0.7744766
50
264.0680276
51
268.2172012
0
ARC
8
DEFAULT_255_2_778
10
92.7454382
20
18.8074468
40
0.5964506
50
268.3363111
51
269.9819875
0
ARC
8
DEFAULT_255_2_778
10
92.7552315
20
18.5239585
40
0.3131216
50
268.1733646
51
288.7618239
0
ARC
8
DEFAULT_255_2_778
10
92.8250304
20
18.327806
40
0.104985
50
287.1240326
51
2.9558731
0
ARC
8
DEFAULT_255_2_778
10
92.6945506
20
17.460777
40
0.550533
50
90.0260178
51
91.860618
0
ARC
8
DEFAULT_255_2_778
10
92.7049751
20
17.7519485
40
0.259581
50
69.2167964
51
92.3567777
0
ARC
8
DEFAULT_255_2_778
10
92.7653782
20
17.9145716
40
0.0861156
50
30.763874
51
68.3974955
0
ARC
8
DEFAULT_255_2_778
10
92.951122
20
17.9819745
40
0.1418808
50
26.7884038
51
70.503013
0
ARC
8
DEFAULT_255_2_778
10
92.9493013
20
18.3462297
40
0.2356968
50
282.0423453
51
2.0477161
0
ARC
8
DEFAULT_255_2_778
10
92.7514571
20
18.3735175
40
0.4338009
50
357.5074276
51
0.0218246
0
ARC
8
DEFAULT_255_2_778
10
92.716053
20
18.3736373
40
0.469205
50
0.0055575
51
1.0725163
0
ARC
8
DEFAULT_255_2_778
10
92.9368713
20
18.3838642
40
0.2483087
50
359.6667147
51
78.0394841
0
ARC
8
DEFAULT_255_2_778
10
92.8181925
20
17.9985439
40
0.6508689
50
74.8467983
51
90.6562577
0
ARC
8
DEFAULT_255_2_778
10
92.8040525
20
17.6427873
40
1.006605
50
89.6194761
51
89.9991176
0
ARC
8
DEFAULT_255_2_778
10
92.8042436
20
17.585278
40
1.0641142
50
90.0094564
51
91.2960096
0
LINE
8
DEFAULT_255_2_778
10
92.7801758
20
18.6491198
11
92.4187758
21
18.6491198
0
LINE
8
DEFAULT_255_2_778
10
95.6092758
20
18.3499198
11
95.3894758
21
18.3499198
0
LINE
8
DEFAULT_255_2_778
10
94.7909758
20
17.9337198
11
95.0113758
21
17.9337198
0
LINE
8
DEFAULT_255_2_778
10
95.3883758
20
17.8779198
11
95.3889758
21
17.8781198
0
LINE
8
DEFAULT_255_2_778
10
92.9298758
20
18.3332198
11
92.9298758
21
18.3332198
0
LINE
8
DEFAULT_255_2_778
10
92.4184758
20
18.6494198
11
92.4184758
21
17.5913198
0
LINE
8
DEFAULT_255_2_778
10
92.4184758
20
17.5913198
11
92.6766758
21
17.5913198
0
LINE
8
DEFAULT_255_2_778
10
92.6766758
20
17.5913198
11
92.6766758
21
18.0110198
0
LINE
8
DEFAULT_255_2_778
10
92.8393758
20
17.9586198
11
92.9624758
21
17.5956198
0
LINE
8
DEFAULT_255_2_778
10
92.9624758
20
17.5956198
11
93.2286758
21
17.5911198
0
LINE
8
DEFAULT_255_2_778
10
93.2286758
20
17.5911198
11
93.0777758
21
18.0459198
0
LINE
8
DEFAULT_255_2_778
10
92.4187758
20
18.6491198
11
92.4184758
21
18.6494198
0
ENDSEC
0
EOF