0
SECTION
2
HEADER
9
$MEASUREMENT
70
1
0
ENDSEC
0
SECTION
2
TABLES
0
TABLE
2
LTYPE
0
LTYPE
72
65
70
64
2
CONTINUOUS
3
______
73
0
40
0
0
ENDTAB
0
TABLE
2
LAYER
0
LAYER
2
DEFAULT_255_2_778
70
0
62
255
6
CONTINUOUS
0
ENDTAB
0
ENDSEC
0
SECTION
2
ENTITIES
0
ARC
8
DEFAULT_255_2_778
10
1.1586443
20
88.7577865
40
0.9963226
50
138.3541388
51
180.0816049
0
ARC
8
DEFAULT_255_2_778
10
1.1613064
20
88.758806
40
0.9976376
50
91.732932
51
138.4994886
0
ARC
8
DEFAULT_255_2_778
10
1.162413
20
88.7377083
40
1.0187592
50
89.9994554
51
91.7592612
0
ARC
8
DEFAULT_255_2_778
10
59.1625398
20
88.7563001
40
1.0001674
50
45.0034224
51
90.0009797
0
ARC
8
DEFAULT_255_2_778
10
59.1625315
20
88.7562747
40
1.0001912
50
0.0053149
51
45.0041129
0
ARC
8
DEFAULT_255_2_778
10
1.1586408
20
0.7550071
40
0.9963191
50
179.916016
51
221.6459452
0
ARC
8
DEFAULT_255_2_778
10
1.1612683
20
0.7540262
40
0.9976339
50
221.5035703
51
268.2692494
0
ARC
8
DEFAULT_255_2_778
10
1.162413
20
0.7751266
40
1.0187593
50
268.2407389
51
270.0005447
0
ARC
8
DEFAULT_255_2_778
10
59.1639927
20
0.7528781
40
0.9965117
50
269.91548
51
311.6387597
0
ARC
8
DEFAULT_255_2_778
10
59.1651506
20
0.7552881
40
0.9975466
50
311.4970855
51
358.270217
0
ARC
8
DEFAULT_255_2_778
10
59.143622
20
0.7564576
40
1.0191008
50
358.2410303
51
0.000554
0
LINE
8
DEFAULT_255_2_778
10
0.1623227
20
70.4564675
11
0.1623227
21
88.7563675
0
LINE
8
DEFAULT_255_2_778
10
1.1624227
20
89.7564675
11
59.1625227
21
89.7564675
0
LINE
8
DEFAULT_255_2_778
10
60.1627227
20
88.7563675
11
60.1627227
21
70.4564675
0
LINE
8
DEFAULT_255_2_778
10
0.1623227
20
19.0563675
11
0.1623227
21
0.7564675
0
LINE
8
DEFAULT_255_2_778
10
1.1624227
20
-0.2436325
11
59.1625227
21
-0.2436325
0
LINE
8
DEFAULT_255_2_778
10
60.1627227
20
0.7564675
11
60.1627227
21
19.0563675
0
LINE
8
DEFAULT_255_2_778
10
45.4942188
20
50.5061927
11
43.7622188
21
49.5060927
0
LINE
8
DEFAULT_255_2_778
10
43.7622188
20
49.5060927
11
43.7622188
21
51.5060927
0
LINE
8
DEFAULT_255_2_778
10
43.7622188
20
51.5060927
11
45.4942188
21
50.5059927
0
LINE
8
DEFAULT_255_2_778
10
7.0546774
20
58.5558979
11
7.0546774
21
59.1514979
0
LINE
8
DEFAULT_255_2_778
10
7.0546774
20
59.1514979
11
9.6055774
21
59.1514979
0
LINE
8
DEFAULT_255_2_778
10
9.6055774
20
59.1514979
11
9.6055774
21
58.5558979
0
LINE
8
DEFAULT_255_2_778
10
9.6055774
20
58.5558979
11
8.7072774
21
58.5558979
0
LINE
8
DEFAULT_255_2_778
10
8.7072774
20
58.5558979
11
8.7072774
21
55.7134979
0
LINE
8
DEFAULT_255_2_778
10
8.7072774
20
55.7134979
11
7.9518774
21
55.7134979
0
LINE
8
DEFAULT_255_2_778
10
7.9518774
20
55.7134979
11
7.9518774
21
58.5558979
0
LINE
8
DEFAULT_255_2_778
10
7.9518774
20
58.5558979
11
7.0546774
21
58.5558979
0
LINE
8
DEFAULT_255_2_778
10
6.1177774
20
55.7134979
11
6.1177774
21
59.1514979
0
LINE
8
DEFAULT_255_2_778
10
6.1177774
20
59.1514979
11
6.8570774
21
59.1514979
0
LINE
8
DEFAULT_255_2_778
10
6.8570774
20
59.1514979
11
6.8570774
21
55.7134979
0
LINE
8
DEFAULT_255_2_778
10
6.8570774
20
55.7134979
11
6.1177774
21
55.7134979
0
LINE
8
DEFAULT_255_2_778
10
2.1622774
20
55.7134979
11
2.1622774
21
59.1514979
0
LINE
8
DEFAULT_255_2_778
10
2.1622774
20
59.1514979
11
3.2234774
21
59.1514979
0
LINE
8
DEFAULT_255_2_778
10
3.2234774
20
59.1514979
11
3.9929774
21
56.7384979
0
LINE
8
DEFAULT_255_2_778
10
3.9929774
20
56.7384979
11
4.7612774
21
59.1514979
0
LINE
8
DEFAULT_255_2_778
10
4.7612774
20
59.1514979
11
5.8235774
21
59.1514979
0
LINE
8
DEFAULT_255_2_778
10
5.8235774
20
59.1514979
11
5.8235774
21
55.7134979
0
LINE
8
DEFAULT_255_2_778
10
5.8235774
20
55.7134979
11
5.1303774
21
55.7134979
0
LINE
8
DEFAULT_255_2_778
10
5.1303774
20
55.7134979
11
5.1303774
21
58.2695979
0
LINE
8
DEFAULT_255_2_778
10
5.1303774
20
58.2695979
11
4.3503774
21
55.7134979
0
LINE
8
DEFAULT_255_2_778
10
4.3503774
20
55.7134979
11
3.6357774
21
55.7134979
0
LINE
8
DEFAULT_255_2_778
10
3.6357774
20
55.7134979
11
2.8557774
21
58.2695979
0
LINE
8
DEFAULT_255_2_778
10
2.8557774
20
58.2695979
11
2.8557774
21
55.7134979
0
LINE
8
DEFAULT_255_2_778
10
2.8557774
20
55.7134979
11
2.1622774
21
55.7134979
0
LINE
8
DEFAULT_255_2_778
10
26.0361774
20
59.1514979
11
26.0361774
21
55.7134979
0
LINE
8
DEFAULT_255_2_778
10
26.0361774
20
55.7134979
11
25.3085774
21
55.7134979
0
LINE
8
DEFAULT_255_2_778
10
25.3085774
20
55.7134979
11
25.3085774
21
57.2141979
0
LINE
8
DEFAULT_255_2_778
10
25.3085774
20
57.2141979
11
23.8371774
21
57.2141979
0
LINE
8
DEFAULT_255_2_778
10
23.8371774
20
57.2141979
11
23.8371774
21
55.7134979
0
LINE
8
DEFAULT_255_2_778
10
23.8371774
20
55.7134979
11
23.1095774
21
55.7134979
0
LINE
8
DEFAULT_255_2_778
10
23.1095774
20
55.7134979
11
23.1095774
21
59.1514979
0
LINE
8
DEFAULT_255_2_778
10
23.1095774
20
59.1514979
11
23.8371774
21
59.1514979
0
LINE
8
DEFAULT_255_2_778
10
23.8371774
20
59.1514979
11
23.8371774
21
57.8108979
0
LINE
8
DEFAULT_255_2_778
10
23.8371774
20
57.8108979
11
25.3085774
21
57.8108979
0
LINE
8
DEFAULT_255_2_778
10
25.3085774
20
57.8108979
11
25.3085774
21
59.1514979
0
LINE
8
DEFAULT_255_2_778
10
25.3085774
20
59.1514979
11
26.0361774
21
59.1514979
0
LINE
8
DEFAULT_255_2_778
10
26.3417774
20
55.7134979
11
26.3417774
21
59.1514979
0
LINE
8
DEFAULT_255_2_778
10
26.3417774
20
59.1514979
11
27.0822774
21
59.1514979
0
LINE
8
DEFAULT_255_2_778
10
27.0822774
20
59.1514979
11
27.0822774
21
55.7134979
0
LINE
8
DEFAULT_255_2_778
10
27.0822774
20
55.7134979
11
26.3417774
21
55.7134979
0
LINE
8
DEFAULT_255_2_778
10
19.0241774
20
55.7134979
11
19.0241774
21
59.1514979
0
LINE
8
DEFAULT_255_2_778
10
19.0241774
20
59.1514979
11
19.7633774
21
59.1514979
0
LINE
8
DEFAULT_255_2_778
10
19.7633774
20
59.1514979
11
19.7633774
21
55.7134979
0
LINE
8
DEFAULT_255_2_778
10
19.7633774
20
55.7134979
11
19.0241774
21
55.7134979
0
ARC
8
DEFAULT_255_2_778
10
12.294746
20
56.9507762
40
2.714498
50
184.1262787
51
186.3148919
0
ARC
8
DEFAULT_255_2_778
10
11.0845511
20
56.8174357
40
1.4969798
50
186.3371335
51
191.6372616
0
ARC
8
DEFAULT_255_2_778
10
10.7296327
20
56.7438985
40
1.1345234
50
191.615377
51
200.6630466
0
ARC
8
DEFAULT_255_2_778
10
10.5943852
20
56.6954002
40
0.9908654
50
200.798732
51
205.9790615
0
ARC
8
DEFAULT_255_2_778
10
10.5332281
20
56.6646835
40
0.9224332
50
205.9279152
51
221.3656685
0
ARC
8
DEFAULT_255_2_778
10
10.5756638
20
56.7053984
40
0.9811917
50
221.5123908
51
234.6724163
0
ARC
8
DEFAULT_255_2_778
10
10.6982273
20
56.8788472
40
1.193574
50
234.6869291
51
245.0742288
0
ARC
8
DEFAULT_255_2_778
10
10.8440545
20
57.1904782
40
1.5376364
50
245.0403519
51
253.0844199
0
ARC
8
DEFAULT_255_2_778
10
10.985493
20
57.6524078
40
2.0207339
50
253.0584764
51
259.5912397
0
ARC
8
DEFAULT_255_2_778
10
11.1038628
20
58.2902453
40
2.669461
50
259.5658249
51
264.8983582
0
ARC
8
DEFAULT_255_2_778
10
11.1626968
20
58.8865331
40
3.2686233
50
264.8005933
51
266.9781284
0
ARC
8
DEFAULT_255_2_778
10
11.1465242
20
57.5688822
40
1.9526801
50
265.4136269
51
270.0100705
0
ARC
8
DEFAULT_255_2_778
10
11.1468652
20
57.5955486
40
1.9793465
50
270.000063
51
270.8495907
0
ARC
8
DEFAULT_255_2_778
10
11.1604509
20
57.4682724
40
1.8519197
50
270.4876993
51
293.8218573
0
ARC
8
DEFAULT_255_2_778
10
11.4164451
20
56.8990364
40
1.2277923
50
293.6224194
51
318.4597218
0
ARC
8
DEFAULT_255_2_778
10
11.6631979
20
56.6698382
40
0.8911435
50
318.9688937
51
354.4044825
0
ARC
8
DEFAULT_255_2_778
10
11.5764897
20
56.6800229
40
0.9784329
50
354.3060085
51
0.03662
0
ARC
8
DEFAULT_255_2_778
10
11.4790846
20
56.6794809
40
1.0758384
50
0.0621698
51
6.6076873
0
ARC
8
DEFAULT_255_2_778
10
11.3391737
20
56.6634351
40
1.2166663
50
6.6001304
51
12.1203961
0
ARC
8
DEFAULT_255_2_778
10
11.1737861
20
56.6280957
40
1.3857873
50
12.1131932
51
16.852326
0
ARC
8
DEFAULT_255_2_778
10
11.0603994
20
56.5951213
40
1.5038647
50
16.8022963
51
17.8483892
0
ARC
8
DEFAULT_255_2_778
10
11.6101216
20
56.6890043
40
0.9551081
50
22.6004509
51
37.4100724
0
ARC
8
DEFAULT_255_2_778
10
11.4937299
20
56.5577139
40
1.1278198
50
39.1160215
51
72.1133782
0
ARC
8
DEFAULT_255_2_778
10
11.0124483
20
55.2854447
40
2.4873232
50
70.563806
51
78.5038122
0
ARC
8
DEFAULT_255_2_778
10
10.4274443
20
52.5548103
40
5.2798485
50
78.1886238
51
80.3932041
0
ARC
8
DEFAULT_255_2_778
10
7.033773
20
32.5347886
40
25.5854701
50
80.3819534
51
80.7943334
0
ARC
8
DEFAULT_255_2_778
10
14.4958279
20
78.2624128
40
20.747035
50
260.6218675
51
260.6548823
0
ARC
8
DEFAULT_255_2_778
10
12.0408342
20
63.5435395
40
5.8248966
50
258.9045892
51
260.8554766
0
ARC
8
DEFAULT_255_2_778
10
11.3050871
20
59.7981072
40
2.0078844
50
254.3777962
51
258.9391456
0
ARC
8
DEFAULT_255_2_778
10
11.0168201
20
58.774644
40
0.9446034
50
246.2542548
51
254.499493
0
ARC
8
DEFAULT_255_2_778
10
10.8230897
20
58.3408828
40
0.4695601
50
230.9828506
51
246.5791956
0
ARC
8
DEFAULT_255_2_778
10
10.7289598
20
58.2178089
40
0.3147071
50
222.7824152
51
230.1914805
0
ARC
8
DEFAULT_255_2_778
10
11.0974882
20
58.4119694
40
0.7251202
50
208.7858247
51
214.2321672
0
ARC
8
DEFAULT_255_2_778
10
10.9642392
20
58.3390346
40
0.5732165
50
202.1169763
51
208.8100473
0
ARC
8
DEFAULT_255_2_778
10
10.8539025
20
58.2943954
40
0.4541922
50
193.8903735
51
202.1405829
0
ARC
8
DEFAULT_255_2_778
10
10.7671334
20
58.273201
40
0.3648725
50
182.8769994
51
193.9305093
0
ARC
8
DEFAULT_255_2_778
10
10.7289635
20
58.2702987
40
0.3266064
50
180.0065089
51
182.7045789
0
ARC
8
DEFAULT_255_2_778
10
10.733249
20
58.2631713
40
0.3309681
50
124.0291452
51
178.7724769
0
ARC
8
DEFAULT_255_2_778
10
10.9255691
20
58.0226697
40
0.6383916
50
109.0464847
51
126.2552984
0
ARC
8
DEFAULT_255_2_778
10
11.0345467
20
57.7145975
40
0.9651644
50
92.5861435
51
109.1935119
0
ARC
8
DEFAULT_255_2_778
10
11.0445568
20
57.6187216
40
1.0614095
50
90.000138
51
92.8924259
0
ARC
8
DEFAULT_255_2_778
10
11.0445713
20
57.6220245
40
1.0581067
50
88.8628218
51
90.0009194
0
ARC
8
DEFAULT_255_2_778
10
11.0575011
20
57.7659259
40
0.9140324
50
66.5566837
51
89.4941543
0
ARC
8
DEFAULT_255_2_778
10
11.2349848
20
58.1423522
40
0.4982398
50
18.6215917
51
68.0604507
0
ARC
8
DEFAULT_255_2_778
10
11.2250084
20
58.1553327
40
0.5037872
50
359.6158216
51
16.8600243
0
ARC
8
DEFAULT_255_2_778
10
11.4321942
20
58.1699809
40
1.0104993
50
359.7547065
51
14.7362332
0
ARC
8
DEFAULT_255_2_778
10
11.4568416
20
58.158854
40
0.9896396
50
15.722267
51
58.595043
0
ARC
8
DEFAULT_255_2_778
10
11.1638445
20
57.731523
40
1.507294
50
57.5534632
51
74.408737
0
ARC
8
DEFAULT_255_2_778
10
11.0433179
20
57.3215521
40
1.9345828
50
74.2339252
51
89.811499
0
ARC
8
DEFAULT_255_2_778
10
11.0380475
20
57.2415871
40
2.014571
50
89.6690865
51
89.9999941
0
ARC
8
DEFAULT_255_2_778
10
11.0297695
20
57.366743
40
1.8894332
50
89.7489693
51
108.1933477
0
ARC
8
DEFAULT_255_2_778
10
10.8761439
20
57.8319085
40
1.3995565
50
108.1643037
51
125.2444535
0
ARC
8
DEFAULT_255_2_778
10
10.6089346
20
58.1893226
40
0.953535
50
124.5247313
51
165.3623949
0
ARC
8
DEFAULT_255_2_778
10
10.6299136
20
58.1936743
40
0.9727799
50
165.9226483
51
174.8346053
0
ARC
8
DEFAULT_255_2_778
10
10.7756155
20
58.1927286
40
1.1180415
50
175.458586
51
179.3829007
0
ARC
8
DEFAULT_255_2_778
10
10.7142371
20
58.1939892
40
1.0566534
50
179.4154039
51
179.9983278
0
ARC
8
DEFAULT_255_2_778
10
10.4907986
20
58.1772148
40
0.8333842
50
178.8445523
51
230.4059018
0
ARC
8
DEFAULT_255_2_778
10
10.7991651
20
58.5260111
40
1.2987853
50
229.7301655
51
243.5887807
0
ARC
8
DEFAULT_255_2_778
10
11.1326284
20
59.1836772
40
2.0361445
50
243.4165337
51
252.4445144
0
ARC
8
DEFAULT_255_2_778
10
11.457493
20
60.1922968
40
3.0957815
50
252.3426318
51
258.6565007
0
ARC
8
DEFAULT_255_2_778
10
11.7320083
20
61.5312018
40
4.4625301
50
258.5819965
51
262.9873438
0
ARC
8
DEFAULT_255_2_778
10
10.9853397
20
55.8245887
40
1.2933138
50
72.6925384
51
81.0212748
0
ARC
8
DEFAULT_255_2_778
10
11.0971047
20
56.1793982
40
0.92132
50
62.2257557
51
72.7639892
0
ARC
8
DEFAULT_255_2_778
10
11.2318231
20
56.4319508
40
0.6350885
50
47.9881934
51
62.362062
0
ARC
8
DEFAULT_255_2_778
10
11.3731279
20
56.5859455
40
0.4261006
50
26.2513008
51
48.246949
0
ARC
8
DEFAULT_255_2_778
10
11.4634868
20
56.6330621
40
0.3242291
50
5.6894356
51
25.8465126
0
ARC
8
DEFAULT_255_2_778
10
11.4837596
20
56.6362505
40
0.3037423
50
0.0039293
51
5.4700667
0
ARC
8
DEFAULT_255_2_778
10
11.4603827
20
56.6399468
40
0.3271398
50
322.2957163
51
359.3562658
0
ARC
8
DEFAULT_255_2_778
10
11.3517125
20
56.7190703
40
0.4615241
50
304.066835
51
322.774975
0
ARC
8
DEFAULT_255_2_778
10
11.2517469
20
56.8631377
40
0.6368676
50
291.2704984
51
304.2565934
0
ARC
8
DEFAULT_255_2_778
10
11.0124906
20
57.5177197
40
1.3337324
50
281.9287271
51
290.6473245
0
ARC
8
DEFAULT_255_2_778
10
11.0346134
20
57.4117472
40
1.2254756
50
272.7149135
51
281.9408318
0
ARC
8
DEFAULT_255_2_778
10
11.0395741
20
57.3355811
40
1.1491608
50
270.0064348
51
272.6477335
0
ARC
8
DEFAULT_255_2_778
10
11.0335548
20
57.1956837
40
1.0092821
50
252.6373452
51
270.3490359
0
ARC
8
DEFAULT_255_2_778
10
10.9462329
20
56.9294869
40
0.7291667
50
229.7565498
51
252.944188
0
ARC
8
DEFAULT_255_2_778
10
10.7821913
20
56.7442847
40
0.4818559
50
180.3015903
51
230.4184683
0
ARC
8
DEFAULT_255_2_778
10
10.8021667
20
56.7416717
40
0.5018246
50
176.8834249
51
179.99125
0
ARC
8
DEFAULT_255_2_778
10
14.0062906
20
56.7633559
40
1.6579168
50
2.3254815
51
4.549233
0
ARC
8
DEFAULT_255_2_778
10
14.1192662
20
56.7679444
40
1.5448481
50
0.013505
51
2.3254619
0
ARC
8
DEFAULT_255_2_778
10
14.4023934
20
56.7599346
40
1.2617484
50
346.1521993
51
0.3802608
0
ARC
8
DEFAULT_255_2_778
10
14.6752404
20
56.6924053
40
0.9806691
50
322.6361661
51
346.1675278
0
ARC
8
DEFAULT_255_2_778
10
14.5377697
20
56.8419893
40
1.1812417
50
285.4597084
51
320.9158509
0
ARC
8
DEFAULT_255_2_778
10
14.2807443
20
57.6196034
40
1.9996423
50
270.4008105
51
286.6186409
0
ARC
8
DEFAULT_255_2_778
10
14.2612907
20
57.9517634
40
2.3319931
50
269.9990432
51
270.8216789
0
ARC
8
DEFAULT_255_2_778
10
14.2615718
20
58.0014335
40
2.3816633
50
266.9002408
51
269.9923003
0
ARC
8
DEFAULT_255_2_778
10
14.2172762
20
58.543358
40
2.9213253
50
261.1836859
51
268.3426336
0
ARC
8
DEFAULT_255_2_778
10
14.0460369
20
57.4685201
40
1.832947
50
250.4695165
51
261.3236826
0
ARC
8
DEFAULT_255_2_778
10
13.8046006
20
56.8064838
40
1.1283046
50
231.1984196
51
250.7854123
0
ARC
8
DEFAULT_255_2_778
10
13.680531
20
56.629885
40
0.9130393
50
193.86473
51
230.3216437
0
ARC
8
DEFAULT_255_2_778
10
14.0486822
20
56.7420142
40
1.2974978
50
186.3257425
51
194.7762924
0
ARC
8
DEFAULT_255_2_778
10
13.9446048
20
56.7151261
40
0.4737055
50
185.6298695
51
210.2490064
0
ARC
8
DEFAULT_255_2_778
10
14.0014638
20
56.7666314
40
0.5489981
50
211.9033341
51
248.3856238
0
ARC
8
DEFAULT_255_2_778
10
14.1558042
20
57.1192835
40
0.9338045
50
247.5520157
51
268.3509246
0
ARC
8
DEFAULT_255_2_778
10
14.1717919
20
57.2867809
40
1.1017491
50
267.7705049
51
270.0031962
0
ARC
8
DEFAULT_255_2_778
10
14.1718482
20
57.2985142
40
1.1134824
50
270.0002637
51
271.3424019
0
ARC
8
DEFAULT_255_2_778
10
14.1797785
20
57.232377
40
1.0471971
50
270.9933972
51
293.0122815
0
ARC
8
DEFAULT_255_2_778
10
14.3298628
20
56.8838864
40
0.6677695
50
292.8487527
51
314.9639656
0
ARC
8
DEFAULT_255_2_778
10
14.5057547
20
56.7095314
40
0.4201101
50
314.7945147
51
357.5612004
0
ARC
8
DEFAULT_255_2_778
10
17.6226718
20
56.7462941
40
0.4865573
50
90.0065359
51
92.8376449
0
ARC
8
DEFAULT_255_2_778
10
17.6248469
20
56.7883558
40
0.4445011
50
58.4673075
51
90.287529
0
ARC
8
DEFAULT_255_2_778
10
17.5632755
20
56.7149674
40
0.5394385
50
1.255714
51
56.9696445
0
ARC
8
DEFAULT_255_2_778
10
17.5765932
20
56.7124651
40
0.5261861
50
0.0010582
51
1.5599005
0
ARC
8
DEFAULT_255_2_778
10
17.6459912
20
56.7050356
40
0.4568488
50
314.9494176
51
0.9330304
0
ARC
8
DEFAULT_255_2_778
10
17.6236175
20
56.7365708
40
0.4950157
50
294.763802
51
314.2034726
0
ARC
8
DEFAULT_255_2_778
10
17.5549937
20
56.8833664
40
0.6570579
50
281.5095634
51
294.8356365
0
ARC
8
DEFAULT_255_2_778
10
17.51703
20
57.0477904
40
0.8257622
50
277.5329385
51
281.8143448
0
ARC
8
DEFAULT_255_2_778
10
17.5587688
20
58.112526
40
0.4979322
50
90.0056728
51
92.5765965
0
ARC
8
DEFAULT_255_2_778
10
17.5615741
20
58.1639104
40
0.4465569
50
63.4349161
51
90.3662732
0
ARC
8
DEFAULT_255_2_778
10
17.5569877
20
58.1638972
40
0.4486384
50
11.6731927
51
62.9117671
0
ARC
8
DEFAULT_255_2_778
10
17.5868966
20
58.1706807
40
0.417976
50
1.746677
51
11.5920704
0
ARC
8
DEFAULT_255_2_778
10
17.6021425
20
58.171489
40
0.4027126
50
0.0002834
51
1.6978452
0
ARC
8
DEFAULT_255_2_778
10
17.6373653
20
58.1683066
40
0.3675037
50
317.2499725
51
0.4964772
0
ARC
8
DEFAULT_255_2_778
10
17.5935013
20
58.2125508
40
0.4297555
50
297.0687814
51
316.8880497
0
ARC
8
DEFAULT_255_2_778
10
17.5185128
20
58.3570779
40
0.5925763
50
283.5281564
51
297.1660465
0
ARC
8
DEFAULT_255_2_778
10
17.4671204
20
58.5554659
40
0.79749
50
276.7810381
51
283.7838521
0
ARC
8
DEFAULT_255_2_778
10
17.8612631
20
56.7994103
40
1.0799736
50
272.362648
51
287.8214171
0
ARC
8
DEFAULT_255_2_778
10
17.8942593
20
56.6950306
40
0.9705041
50
287.8528626
51
309.3736669
0
ARC
8
DEFAULT_255_2_778
10
17.9126874
20
56.6719947
40
0.9410066
50
309.3960745
51
344.5734518
0
ARC
8
DEFAULT_255_2_778
10
17.9581511
20
56.6583076
40
0.8935408
50
344.6440184
51
359.9347262
0
ARC
8
DEFAULT_255_2_778
10
17.9828153
20
56.6572976
40
0.868876
50
359.9994756
51
1.7874905
0
ARC
8
DEFAULT_255_2_778
10
18.0067589
20
56.659313
40
0.8448822
50
1.7015287
51
29.059978
0
ARC
8
DEFAULT_255_2_778
10
17.9611944
20
56.6317748
40
0.8980888
50
29.1837223
51
45.550527
0
ARC
8
DEFAULT_255_2_778
10
17.857603
20
56.5264904
40
1.045791
50
45.53836
51
57.5974183
0
ARC
8
DEFAULT_255_2_778
10
17.7381219
20
56.3391178
40
1.2680164
50
57.5760943
51
67.2123975
0
ARC
8
DEFAULT_255_2_778
10
17.650014
20
56.1379776
40
1.4875862
50
67.0842919
51
71.2784139
0
ARC
8
DEFAULT_255_2_778
10
17.7389491
20
58.6328821
40
1.1534361
50
289.6850853
51
299.7277819
0
ARC
8
DEFAULT_255_2_778
10
17.8448782
20
58.4484651
40
0.9407622
50
299.6949378
51
312.4564439
0
ARC
8
DEFAULT_255_2_778
10
17.9448733
20
58.3397855
40
0.79308
50
312.4265741
51
329.921456
0
ARC
8
DEFAULT_255_2_778
10
18.004698
20
58.3041025
40
0.7234281
50
329.9923052
51
359.5701956
0
ARC
8
DEFAULT_255_2_778
10
17.996702
20
58.3042708
40
0.7314251
50
359.5617049
51
359.9979393
0
ARC
8
DEFAULT_255_2_778
10
17.9584935
20
58.2995275
40
0.769648
50
0.3511578
51
37.2178649
0
ARC
8
DEFAULT_255_2_778
10
17.875534
20
58.2401419
40
0.871636
50
37.028121
51
57.9282742
0
ARC
8
DEFAULT_255_2_778
10
17.8002577
20
58.1209941
40
1.0125703
50
57.898691
51
73.4443108
0
ARC
8
DEFAULT_255_2_778
10
17.7402753
20
57.9215064
40
1.2208799
50
73.4137009
51
85.587455
0
ARC
8
DEFAULT_255_2_778
10
17.7228583
20
57.7586022
40
1.3846499
50
85.3875091
51
87.5195336
0
ARC
8
DEFAULT_255_2_778
10
22.651346
20
56.9507762
40
2.714498
50
184.1262787
51
186.3148919
0
ARC
8
DEFAULT_255_2_778
10
21.4411511
20
56.8174357
40
1.4969798
50
186.3371335
51
191.6372616
0
ARC
8
DEFAULT_255_2_778
10
21.0862327
20
56.7438985
40
1.1345234
50
191.615377
51
200.6630466
0
ARC
8
DEFAULT_255_2_778
10
20.9509852
20
56.6954002
40
0.9908654
50
200.798732
51
205.9790615
0
ARC
8
DEFAULT_255_2_778
10
20.8898281
20
56.6646835
40
0.9224332
50
205.9279152
51
221.3656685
0
ARC
8
DEFAULT_255_2_778
10
20.9322638
20
56.7053984
40
0.9811917
50
221.5123908
51
234.6724163
0
ARC
8
DEFAULT_255_2_778
10
21.0548273
20
56.8788472
40
1.193574
50
234.6869291
51
245.0742288
0
ARC
8
DEFAULT_255_2_778
10
21.2006545
20
57.1904782
40
1.5376364
50
245.0403519
51
253.0844199
0
ARC
8
DEFAULT_255_2_778
10
21.342093
20
57.6524078
40
2.0207339
50
253.0584764
51
259.5912397
0
ARC
8
DEFAULT_255_2_778
10
21.4604628
20
58.2902453
40
2.669461
50
259.5658249
51
264.8983582
0
ARC
8
DEFAULT_255_2_778
10
21.5192968
20
58.8865331
40
3.2686233
50
264.8005933
51
266.9781284
0
ARC
8
DEFAULT_255_2_778
10
21.5031242
20
57.5688822
40
1.9526801
50
265.4136269
51
270.0100705
0
ARC
8
DEFAULT_255_2_778
10
21.5034652
20
57.5955486
40
1.9793465
50
270.000063
51
270.8495907
0
ARC
8
DEFAULT_255_2_778
10
21.5170509
20
57.4682724
40
1.8519197
50
270.4876993
51
293.8218573
0
ARC
8
DEFAULT_255_2_778
10
21.7730451
20
56.8990364
40
1.2277923
50
293.6224194
51
318.4597218
0
ARC
8
DEFAULT_255_2_778
10
22.0197979
20
56.6698382
40
0.8911435
50
318.9688937
51
354.4044825
0
ARC
8
DEFAULT_255_2_778
10
21.9330897
20
56.6800229
40
0.9784329
50
354.3060085
51
0.03662
0
ARC
8
DEFAULT_255_2_778
10
21.8356846
20
56.6794809
40
1.0758384
50
0.0621698
51
6.6076873
0
ARC
8
DEFAULT_255_2_778
10
21.6957737
20
56.6634351
40
1.2166663
50
6.6001304
51
12.1203961
0
ARC
8
DEFAULT_255_2_778
10
21.5303861
20
56.6280957
40
1.3857873
50
12.1131932
51
16.852326
0
ARC
8
DEFAULT_255_2_778
10
21.4169994
20
56.5951213
40
1.5038647
50
16.8022963
51
17.8483892
0
ARC
8
DEFAULT_255_2_778
10
21.9667216
20
56.6890043
40
0.9551081
50
22.6004509
51
37.4100724
0
ARC
8
DEFAULT_255_2_778
10
21.8503299
20
56.5577139
40
1.1278198
50
39.1160215
51
72.1133782
0
ARC
8
DEFAULT_255_2_778
10
21.3690483
20
55.2854447
40
2.4873232
50
70.563806
51
78.5038122
0
ARC
8
DEFAULT_255_2_778
10
20.7840443
20
52.5548103
40
5.2798485
50
78.1886238
51
80.3932041
0
ARC
8
DEFAULT_255_2_778
10
17.390373
20
32.5347886
40
25.5854701
50
80.3819534
51
80.7943334
0
ARC
8
DEFAULT_255_2_778
10
24.8524279
20
78.2624128
40
20.747035
50
260.6218675
51
260.6548823
0
ARC
8
DEFAULT_255_2_778
10
22.3974342
20
63.5435395
40
5.8248966
50
258.9045892
51
260.8554766
0
ARC
8
DEFAULT_255_2_778
10
21.6616871
20
59.7981072
40
2.0078844
50
254.3777962
51
258.9391456
0
ARC
8
DEFAULT_255_2_778
10
21.3734201
20
58.774644
40
0.9446034
50
246.2542548
51
254.499493
0
ARC
8
DEFAULT_255_2_778
10
21.1796897
20
58.3408828
40
0.4695601
50
230.9828506
51
246.5791956
0
ARC
8
DEFAULT_255_2_778
10
21.0855598
20
58.2178089
40
0.3147071
50
222.7824152
51
230.1914805
0
ARC
8
DEFAULT_255_2_778
10
21.4540882
20
58.4119694
40
0.7251202
50
208.7858247
51
214.2321672
0
ARC
8
DEFAULT_255_2_778
10
21.3208392
20
58.3390346
40
0.5732165
50
202.1169763
51
208.8100473
0
ARC
8
DEFAULT_255_2_778
10
21.2105025
20
58.2943954
40
0.4541922
50
193.8903735
51
202.1405829
0
ARC
8
DEFAULT_255_2_778
10
21.1237334
20
58.273201
40
0.3648725
50
182.8769994
51
193.9305093
0
ARC
8
DEFAULT_255_2_778
10
21.0855635
20
58.2702987
40
0.3266064
50
180.0065089
51
182.7045789
0
ARC
8
DEFAULT_255_2_778
10
21.089849
20
58.2631713
40
0.3309681
50
124.0291452
51
178.7724769
0
ARC
8
DEFAULT_255_2_778
10
21.2821691
20
58.0226697
40
0.6383916
50
109.0464847
51
126.2552984
0
ARC
8
DEFAULT_255_2_778
10
21.3911467
20
57.7145975
40
0.9651644
50
92.5861435
51
109.1935119
0
ARC
8
DEFAULT_255_2_778
10
21.4011568
20
57.6187216
40
1.0614095
50
90.000138
51
92.8924259
0
ARC
8
DEFAULT_255_2_778
10
21.4011713
20
57.6220245
40
1.0581067
50
88.8628218
51
90.0009194
0
ARC
8
DEFAULT_255_2_778
10
21.4141011
20
57.7659259
40
0.9140324
50
66.5566837
51
89.4941543
0
ARC
8
DEFAULT_255_2_778
10
21.5915848
20
58.1423522
40
0.4982398
50
18.6215917
51
68.0604507
0
ARC
8
DEFAULT_255_2_778
10
21.5816084
20
58.1553327
40
0.5037872
50
359.6158216
51
16.8600243
0
ARC
8
DEFAULT_255_2_778
10
21.7887942
20
58.1699809
40
1.0104993
50
359.7547065
51
14.7362332
0
ARC
8
DEFAULT_255_2_778
10
21.8134416
20
58.158854
40
0.9896396
50
15.722267
51
58.595043
0
ARC
8
DEFAULT_255_2_778
10
21.5204445
20
57.731523
40
1.507294
50
57.5534632
51
74.408737
0
ARC
8
DEFAULT_255_2_778
10
21.3999179
20
57.3215521
40
1.9345828
50
74.2339252
51
89.811499
0
ARC
8
DEFAULT_255_2_778
10
21.3946475
20
57.2415871
40
2.014571
50
89.6690865
51
89.9999941
0
ARC
8
DEFAULT_255_2_778
10
21.3863695
20
57.366743
40
1.8894332
50
89.7489693
51
108.1933477
0
ARC
8
DEFAULT_255_2_778
10
21.2327439
20
57.8319085
40
1.3995565
50
108.1643037
51
125.2444535
0
ARC
8
DEFAULT_255_2_778
10
20.9655346
20
58.1893226
40
0.953535
50
124.5247313
51
165.3623949
0
ARC
8
DEFAULT_255_2_778
10
20.9865136
20
58.1936743
40
0.9727799
50
165.9226483
51
174.8346053
0
ARC
8
DEFAULT_255_2_778
10
21.131529
20
58.1927796
40
1.1173532
50
175.4584033
51
179.3830667
0
ARC
8
DEFAULT_255_2_778
10
21.0697428
20
58.1940351
40
1.0555571
50
179.4150997
51
179.9983268
0
ARC
8
DEFAULT_255_2_778
10
20.847432
20
58.1773163
40
0.8334145
50
178.8484167
51
230.4124903
0
ARC
8
DEFAULT_255_2_778
10
21.1560817
20
58.5264123
40
1.2992263
50
229.7334226
51
243.5884289
0
ARC
8
DEFAULT_255_2_778
10
21.4895175
20
59.1840167
40
2.0365181
50
243.4162637
51
252.442499
0
ARC
8
DEFAULT_255_2_778
10
21.8142575
20
60.1921298
40
3.0956348
50
252.3406697
51
258.6541579
0
ARC
8
DEFAULT_255_2_778
10
22.0886183
20
61.5300042
40
4.4613428
50
258.5796937
51
262.9853384
0
ARC
8
DEFAULT_255_2_778
10
21.3419397
20
55.8245887
40
1.2933138
50
72.6925384
51
81.0212748
0
ARC
8
DEFAULT_255_2_778
10
21.4537047
20
56.1793982
40
0.92132
50
62.2257557
51
72.7639892
0
ARC
8
DEFAULT_255_2_778
10
21.5884231
20
56.4319508
40
0.6350885
50
47.9881934
51
62.362062
0
ARC
8
DEFAULT_255_2_778
10
21.7297279
20
56.5859455
40
0.4261006
50
26.2513008
51
48.246949
0
ARC
8
DEFAULT_255_2_778
10
21.8200868
20
56.6330621
40
0.3242291
50
5.6894356
51
25.8465126
0
ARC
8
DEFAULT_255_2_778
10
21.8403596
20
56.6362505
40
0.3037423
50
0.0039293
51
5.4700667
0
ARC
8
DEFAULT_255_2_778
10
21.8169827
20
56.6399468
40
0.3271398
50
322.2957163
51
359.3562658
0
ARC
8
DEFAULT_255_2_778
10
21.7083125
20
56.7190703
40
0.4615241
50
304.066835
51
322.774975
0
ARC
8
DEFAULT_255_2_778
10
21.6083469
20
56.8631377
40
0.6368676
50
291.2704984
51
304.2565934
0
ARC
8
DEFAULT_255_2_778
10
21.3689976
20
57.5181609
40
1.3341781
50
281.9276481
51
290.6443801
0
ARC
8
DEFAULT_255_2_778
10
21.391163
20
57.4119742
40
1.2257027
50
272.7149011
51
281.9397756
0
ARC
8
DEFAULT_255_2_778
10
21.3961319
20
57.335684
40
1.1492638
50
270.0064438
51
272.647614
0
ARC
8
DEFAULT_255_2_778
10
21.3901071
20
57.1956442
40
1.0092427
50
252.6371022
51
270.3493752
0
ARC
8
DEFAULT_255_2_778
10
21.302765
20
56.92938
40
0.7290567
50
229.7539558
51
252.9438255
0
ARC
8
DEFAULT_255_2_778
10
21.1388009
20
56.7442695
40
0.4818656
50
180.3003051
51
230.4145483
0
ARC
8
DEFAULT_255_2_778
10
21.1586579
20
56.741671
40
0.501716
50
176.8826672
51
179.9916695
0
LINE
8
DEFAULT_255_2_778
10
11.7287842
20
58.1519548
11
12.4426842
21
58.1519548
0
LINE
8
DEFAULT_255_2_778
10
10.3010842
20
56.7689548
11
9.5872842
21
56.7689548
0
LINE
8
DEFAULT_255_2_778
10
12.7588842
20
56.6223548
11
12.7474842
21
59.1517548
0
LINE
8
DEFAULT_255_2_778
10
12.7474842
20
59.1517548
11
13.4731842
21
59.1517548
0
LINE
8
DEFAULT_255_2_778
10
13.4731842
20
59.1517548
11
13.4731842
21
56.6686548
0
LINE
8
DEFAULT_255_2_778
10
14.9254842
20
56.6916548
11
14.9188842
21
59.1515548
0
LINE
8
DEFAULT_255_2_778
10
14.9188842
20
59.1515548
11
15.6594842
21
59.1515548
0
LINE
8
DEFAULT_255_2_778
10
15.6594842
20
59.1515548
11
15.6641842
21
56.9226548
0
LINE
8
DEFAULT_255_2_778
10
17.6252842
20
56.2291548
11
16.6555842
21
56.2291548
0
LINE
8
DEFAULT_255_2_778
10
16.6555842
20
56.2291548
11
16.6553842
21
57.2319548
0
LINE
8
DEFAULT_255_2_778
10
16.6553842
20
57.2319548
11
17.6250842
21
57.2319548
0
LINE
8
DEFAULT_255_2_778
10
17.5612842
20
57.7635548
11
16.6603842
21
57.7635548
0
LINE
8
DEFAULT_255_2_778
10
16.6603842
20
57.7635548
11
16.6603842
21
58.6096548
0
LINE
8
DEFAULT_255_2_778
10
16.6603842
20
58.6096548
11
17.5612842
21
58.6096548
0
LINE
8
DEFAULT_255_2_778
10
17.7827842
20
59.1419548
11
15.9219842
21
59.1512548
0
LINE
8
DEFAULT_255_2_778
10
15.9219842
20
59.1512548
11
15.9219842
21
55.7172548
0
LINE
8
DEFAULT_255_2_778
10
15.9219842
20
55.7172548
11
17.8811842
21
55.7201548
0
LINE
8
DEFAULT_255_2_778
10
22.0853842
20
58.1519548
11
22.7992842
21
58.1519548
0
LINE
8
DEFAULT_255_2_778
10
20.6576842
20
56.7689548
11
19.9438842
21
56.7689548
0
LINE
8
DEFAULT_255_2_778
10
1.8580136
20
29.7351708
11
2.6237136
21
29.7351708
0
LINE
8
DEFAULT_255_2_778
10
2.6237136
20
29.7351708
11
3.3542136
21
27.6727708
0
LINE
8
DEFAULT_255_2_778
10
3.3542136
20
27.6727708
11
4.0808136
21
29.7351708
0
LINE
8
DEFAULT_255_2_778
10
4.0808136
20
29.7351708
11
4.8502136
21
29.7351708
0
LINE
8
DEFAULT_255_2_778
10
4.8502136
20
29.7351708
11
4.8502136
21
26.8914708
0
LINE
8
DEFAULT_255_2_778
10
4.8502136
20
26.8914708
11
4.2623136
21
26.8914708
0
LINE
8
DEFAULT_255_2_778
10
4.2623136
20
26.8914708
11
4.2623136
21
27.6687708
0
LINE
8
DEFAULT_255_2_778
10
4.2623136
20
27.6687708
11
4.3207136
21
29.0104708
0
LINE
8
DEFAULT_255_2_778
10
4.3207136
20
29.0104708
11
3.5532136
21
26.8914708
0
LINE
8
DEFAULT_255_2_778
10
3.5532136
20
26.8914708
11
3.1508136
21
26.8914708
0
LINE
8
DEFAULT_255_2_778
10
3.1508136
20
26.8914708
11
2.3850136
21
29.0086708
0
LINE
8
DEFAULT_255_2_778
10
2.3850136
20
29.0086708
11
2.4435136
21
27.6687708
0
LINE
8
DEFAULT_255_2_778
10
2.4435136
20
27.6687708
11
2.4435136
21
26.8914708
0
LINE
8
DEFAULT_255_2_778
10
2.4435136
20
26.8914708
11
1.8580136
21
26.8914708
0
LINE
8
DEFAULT_255_2_778
10
1.8580136
20
26.8914708
11
1.8580136
21
29.7351708
0
LINE
8
DEFAULT_255_2_778
10
1.8580136
20
29.7351708
11
1.8580136
21
29.7351708
0
LINE
8
DEFAULT_255_2_778
10
7.0730386
20
28.5828708
11
7.0730386
21
28.1238708
0
LINE
8
DEFAULT_255_2_778
10
7.0730386
20
28.1238708
11
5.9480386
21
28.1238708
0
LINE
8
DEFAULT_255_2_778
10
5.9480386
20
28.1238708
11
5.9480386
21
27.3621708
0
LINE
8
DEFAULT_255_2_778
10
5.9480386
20
27.3621708
11
7.2682386
21
27.3621708
0
LINE
8
DEFAULT_255_2_778
10
7.2682386
20
27.3621708
11
7.2682386
21
26.8914708
0
LINE
8
DEFAULT_255_2_778
10
7.2682386
20
26.8914708
11
5.3619386
21
26.8914708
0
LINE
8
DEFAULT_255_2_778
10
5.3619386
20
26.8914708
11
5.3619386
21
29.7351708
0
LINE
8
DEFAULT_255_2_778
10
5.3619386
20
29.7351708
11
7.2643386
21
29.7351708
0
LINE
8
DEFAULT_255_2_778
10
7.2643386
20
29.7351708
11
7.2643386
21
29.2604708
0
LINE
8
DEFAULT_255_2_778
10
7.2643386
20
29.2604708
11
5.9480386
21
29.2604708
0
LINE
8
DEFAULT_255_2_778
10
5.9480386
20
29.2604708
11
5.9480386
21
28.5826708
0
LINE
8
DEFAULT_255_2_778
10
5.9480386
20
28.5826708
11
7.0730386
21
28.5826708
0
LINE
8
DEFAULT_255_2_778
10
7.0730386
20
28.5826708
11
7.0730386
21
28.5828708
0
ARC
8
DEFAULT_255_2_778
10
10.9524217
20
27.6538071
40
0.3006338
50
356.8967745
51
52.5051164
0
ARC
8
DEFAULT_255_2_778
10
10.7007898
20
27.2937875
40
0.739699
50
54.0152501
51
65.1005815
0
ARC
8
DEFAULT_255_2_778
10
10.191159
20
26.2352411
40
1.9144916
50
64.6042734
51
70.1427309
0
ARC
8
DEFAULT_255_2_778
10
9.6471252
20
24.775512
40
3.4722603
50
69.8812155
51
72.1127058
0
ARC
8
DEFAULT_255_2_778
10
12.0211614
20
32.1581978
40
4.2827478
50
248.5619128
51
252.223452
0
ARC
8
DEFAULT_255_2_778
10
11.2802064
20
30.2826228
40
2.266126
50
243.114683
51
248.6675001
0
ARC
8
DEFAULT_255_2_778
10
10.9384253
20
29.5889001
40
1.4928563
50
241.7276731
51
242.7743835
0
ARC
8
DEFAULT_255_2_778
10
10.7862898
20
29.3280885
40
1.1911428
50
227.8110029
51
242.2303344
0
ARC
8
DEFAULT_255_2_778
10
10.4487772
20
28.9736764
40
0.7019845
50
179.546525
51
228.7952986
0
ARC
8
DEFAULT_255_2_778
10
10.433609
20
28.9883887
40
0.6868554
50
144.1730277
51
180.7638325
0
ARC
8
DEFAULT_255_2_778
10
10.5291106
20
28.9087079
40
0.810974
50
115.7661659
51
143.5581104
0
ARC
8
DEFAULT_255_2_778
10
10.6794377
20
28.6421353
40
1.11656
50
112.6297032
51
116.7669571
0
ARC
8
DEFAULT_255_2_778
10
10.761818
20
28.4176759
40
1.3554755
50
92.5091842
51
112.1931276
0
ARC
8
DEFAULT_255_2_778
10
10.7949235
20
28.0505098
40
1.7238227
50
89.9770277
51
93.0742111
0
ARC
8
DEFAULT_255_2_778
10
10.8090261
20
28.4104846
40
1.3639136
50
73.3702454
51
90.5634004
0
ARC
8
DEFAULT_255_2_778
10
10.8731744
20
28.656927
40
1.1094573
50
65.1956752
51
72.9021969
0
ARC
8
DEFAULT_255_2_778
10
10.9889322
20
28.8728008
40
0.8650578
50
33.6887701
51
66.1571045
0
ARC
8
DEFAULT_255_2_778
10
11.0255632
20
28.9081039
40
0.8150469
50
359.1232431
51
33.0521572
0
ARC
8
DEFAULT_255_2_778
10
10.8373538
20
28.909862
40
0.4173035
50
358.0458698
51
31.9184612
0
ARC
8
DEFAULT_255_2_778
10
10.9036701
20
28.9400204
40
0.3451986
50
33.4894523
51
48.7192514
0
ARC
8
DEFAULT_255_2_778
10
10.8468242
20
28.8603327
40
0.4426965
50
49.9948326
51
83.5004333
0
ARC
8
DEFAULT_255_2_778
10
10.7887943
20
28.5401415
40
0.7676972
50
81.9021265
51
90.2373097
0
ARC
8
DEFAULT_255_2_778
10
10.7731492
20
28.6065551
40
0.7013879
50
88.981654
51
106.4785927
0
ARC
8
DEFAULT_255_2_778
10
10.6904083
20
28.8975862
40
0.3988537
50
106.939815
51
126.7589026
0
ARC
8
DEFAULT_255_2_778
10
10.6189409
20
28.9846182
40
0.2864043
50
125.724032
51
181.3376505
0
ARC
8
DEFAULT_255_2_778
10
10.6003576
20
28.9824774
40
0.2677816
50
180.9725419
51
237.7467873
0
ARC
8
DEFAULT_255_2_778
10
10.7340839
20
29.1361531
40
0.470138
50
233.9561641
51
236.1657381
0
ARC
8
DEFAULT_255_2_778
10
11.0421809
20
29.6209245
40
1.0444539
50
236.9335293
51
247.2674113
0
ARC
8
DEFAULT_255_2_778
10
11.4947326
20
30.6703799
40
2.1872979
50
246.9568707
51
252.831069
0
ARC
8
DEFAULT_255_2_778
10
11.7884357
20
31.5669071
40
3.1306135
50
252.5387981
51
253.1985801
0
ARC
8
DEFAULT_255_2_778
10
10.0562016
20
25.7745585
40
2.9152292
50
67.1381011
51
73.5134619
0
ARC
8
DEFAULT_255_2_778
10
10.5145915
20
26.8512446
40
1.7450383
50
57.8417189
51
67.2719287
0
ARC
8
DEFAULT_255_2_778
10
10.8826227
20
27.4369803
40
1.0532775
50
46.1794172
51
57.8310844
0
ARC
8
DEFAULT_255_2_778
10
11.0977532
20
27.6605874
40
0.7429858
50
358.5921051
51
46.2097274
0
ARC
8
DEFAULT_255_2_778
10
11.1564441
20
27.6153309
40
0.6846033
50
306.2352719
51
2.260381
0
ARC
8
DEFAULT_255_2_778
10
10.9730831
20
27.8640159
40
0.9935772
50
283.0681156
51
306.2871734
0
ARC
8
DEFAULT_255_2_778
10
10.8343296
20
28.4209448
40
1.5674833
50
271.0126348
51
283.4056205
0
ARC
8
DEFAULT_255_2_778
10
10.8094111
20
28.9067795
40
2.0537475
50
269.9917301
51
271.4681751
0
ARC
8
DEFAULT_255_2_778
10
10.79464
20
28.3417006
40
1.4887387
50
250.6535593
51
270.5570817
0
ARC
8
DEFAULT_255_2_778
10
10.7457464
20
28.1719822
40
1.312445
50
245.9755174
51
250.2130046
0
ARC
8
DEFAULT_255_2_778
10
10.6154106
20
27.914091
40
1.0239277
50
225.9980932
51
246.7617676
0
ARC
8
DEFAULT_255_2_778
10
10.4859553
20
27.7671393
40
0.828341
50
214.1339865
51
225.377947
0
ARC
8
DEFAULT_255_2_778
10
10.5016206
20
27.770238
40
0.8430692
50
178.8721645
51
213.7109019
0
ARC
8
DEFAULT_255_2_778
10
10.7855413
20
27.773695
40
0.5390867
50
178.6035924
51
202.7435899
0
ARC
8
DEFAULT_255_2_778
10
10.6429826
20
27.7290288
40
0.3905925
50
204.7861041
51
255.3173207
0
ARC
8
DEFAULT_255_2_778
10
10.7821584
20
28.1559199
40
0.8392356
50
253.5126951
51
268.949147
0
ARC
8
DEFAULT_255_2_778
10
10.8087163
20
28.5852845
40
1.2691524
50
268.105858
51
270.0179833
0
ARC
8
DEFAULT_255_2_778
10
10.8217319
20
28.0210364
40
0.7050171
50
268.974561
51
286.3436491
0
ARC
8
DEFAULT_255_2_778
10
10.90421
20
27.7267786
40
0.3994574
50
286.8683775
51
305.3659572
0
ARC
8
DEFAULT_255_2_778
10
10.9765469
20
27.6270873
40
0.2762966
50
305.0989073
51
2.3325193
0
LINE
8
DEFAULT_255_2_778
10
8.1980146
20
29.7351323
11
8.1980146
21
27.3621323
0
LINE
8
DEFAULT_255_2_778
10
8.1980146
20
27.3621323
11
9.4420146
21
27.3621323
0
LINE
8
DEFAULT_255_2_778
10
9.4420146
20
27.3621323
11
9.4420146
21
26.8914323
0
LINE
8
DEFAULT_255_2_778
10
9.4420146
20
26.8914323
11
7.6119146
21
26.8914323
0
LINE
8
DEFAULT_255_2_778
10
7.6119146
20
26.8914323
11
7.6119146
21
29.7351323
0
LINE
8
DEFAULT_255_2_778
10
7.6119146
20
29.7351323
11
8.1980146
21
29.7351323
0
LINE
8
DEFAULT_255_2_778
10
8.1980146
20
29.7351323
11
8.1980146
21
29.7351323
0
LINE
8
DEFAULT_255_2_778
10
11.8405146
20
28.8956323
11
11.2544146
21
28.8956323
0
LINE
8
DEFAULT_255_2_778
10
9.6587146
20
27.7868323
11
10.2466146
21
27.7868323
0
LINE
8
DEFAULT_255_2_778
10
11.2526146
20
27.6383323
11
11.2526146
21
27.6375323
0
LINE
8
DEFAULT_255_2_778
10
13.9479386
20
28.5828708
11
13.9479386
21
28.1238708
0
LINE
8
DEFAULT_255_2_778
10
13.9479386
20
28.1238708
11
12.8229386
21
28.1238708
0
LINE
8
DEFAULT_255_2_778
10
12.8229386
20
28.1238708
11
12.8229386
21
27.3621708
0
LINE
8
DEFAULT_255_2_778
10
12.8229386
20
27.3621708
11
14.1431386
21
27.3621708
0
LINE
8
DEFAULT_255_2_778
10
14.1431386
20
27.3621708
11
14.1431386
21
26.8914708
0
LINE
8
DEFAULT_255_2_778
10
14.1431386
20
26.8914708
11
12.2368386
21
26.8914708
0
LINE
8
DEFAULT_255_2_778
10
12.2368386
20
26.8914708
11
12.2368386
21
29.7351708
0
LINE
8
DEFAULT_255_2_778
10
12.2368386
20
29.7351708
11
14.1392386
21
29.7351708
0
LINE
8
DEFAULT_255_2_778
10
14.1392386
20
29.7351708
11
14.1392386
21
29.2604708
0
LINE
8
DEFAULT_255_2_778
10
14.1392386
20
29.2604708
11
12.8229386
21
29.2604708
0
LINE
8
DEFAULT_255_2_778
10
12.8229386
20
29.2604708
11
12.8229386
21
28.5826708
0
LINE
8
DEFAULT_255_2_778
10
12.8229386
20
28.5826708
11
13.9479386
21
28.5826708
0
LINE
8
DEFAULT_255_2_778
10
13.9479386
20
28.5826708
11
13.9479386
21
28.5828708
0
ARC
8
DEFAULT_255_2_778
10
15.545889
20
27.9094598
40
1.1756086
50
337.6825322
51
356.5573203
0
ARC
8
DEFAULT_255_2_778
10
15.7761461
20
27.8229619
40
0.9297821
50
310.5393055
51
337.2253615
0
ARC
8
DEFAULT_255_2_778
10
15.6947063
20
27.9240563
40
1.05955
50
280.9326337
51
310.3328813
0
ARC
8
DEFAULT_255_2_778
10
15.5847251
20
28.4173125
40
1.5647791
50
269.6393668
51
281.4612579
0
ARC
8
DEFAULT_255_2_778
10
15.5614331
20
28.1545973
40
1.3021021
50
253.4416486
51
270.5915347
0
ARC
8
DEFAULT_255_2_778
10
15.4805596
20
27.864004
40
1.0005256
50
220.0234746
51
253.1383095
0
ARC
8
DEFAULT_255_2_778
10
15.6590909
20
28.011629
40
1.2321807
50
195.561021
51
219.9413891
0
ARC
8
DEFAULT_255_2_778
10
16.2153911
20
28.1766864
40
1.812395
50
183.5674371
51
195.8699378
0
ARC
8
DEFAULT_255_2_778
10
16.8203719
20
28.2289192
40
2.419497
50
179.9444595
51
183.9105188
0
ARC
8
DEFAULT_255_2_778
10
16.3284133
20
28.41806
40
1.9275811
50
167.4899488
51
180.3862812
0
ARC
8
DEFAULT_255_2_778
10
15.8902875
20
28.5100708
40
1.4799354
50
155.3350465
51
167.2934117
0
ARC
8
DEFAULT_255_2_778
10
15.5538236
20
28.6794478
40
1.1035691
50
128.309319
51
156.0366671
0
ARC
8
DEFAULT_255_2_778
10
15.5055876
20
28.7258159
40
1.0373233
50
121.8382198
51
127.8063603
0
ARC
8
DEFAULT_255_2_778
10
15.5466106
20
28.6449492
40
1.1276904
50
92.626353
51
121.4414938
0
ARC
8
DEFAULT_255_2_778
10
15.5818353
20
28.3258965
40
1.4481683
50
89.9746482
51
93.4401375
0
ARC
8
DEFAULT_255_2_778
10
15.5955566
20
28.3049563
40
1.4691665
50
76.0072371
51
90.5101318
0
ARC
8
DEFAULT_255_2_778
10
15.7061282
20
28.7392607
40
1.021016
50
49.0370803
51
76.1349587
0
ARC
8
DEFAULT_255_2_778
10
15.7128442
20
28.7645766
40
0.9975628
50
14.3238405
51
48.3751281
0
ARC
8
DEFAULT_255_2_778
10
15.2883544
20
28.6350254
40
1.4410535
50
5.3730047
51
15.1391031
0
ARC
8
DEFAULT_255_2_778
10
15.2582219
20
28.714103
40
0.8806277
50
3.6369316
51
18.1538959
0
ARC
8
DEFAULT_255_2_778
10
15.6749773
20
28.8551597
40
0.440688
50
17.6095582
51
45.4970117
0
ARC
8
DEFAULT_255_2_778
10
15.6868545
20
28.8375612
40
0.4454005
50
48.1745108
51
79.4120233
0
ARC
8
DEFAULT_255_2_778
10
15.5912313
20
28.4207333
40
0.8728753
50
78.2694799
51
90.5747067
0
ARC
8
DEFAULT_255_2_778
10
15.5687038
20
28.7118455
40
0.581882
50
88.6437634
51
115.299569
0
ARC
8
DEFAULT_255_2_778
10
15.5278826
20
28.8236703
40
0.4634657
50
116.645052
51
145.9063796
0
ARC
8
DEFAULT_255_2_778
10
15.7407404
20
28.6861561
40
0.7168419
50
146.3410438
51
165.1491562
0
ARC
8
DEFAULT_255_2_778
10
16.3861806
20
28.5041728
40
1.3874045
50
164.7165348
51
175.2758285
0
ARC
8
DEFAULT_255_2_778
10
17.2637488
20
28.4169378
40
2.2692231
50
174.9055965
51
179.6180607
0
ARC
8
DEFAULT_255_2_778
10
17.3068772
20
28.2050815
40
2.3123332
50
179.6981233
51
186.5456056
0
ARC
8
DEFAULT_255_2_778
10
16.2574892
20
28.0796464
40
1.2554969
50
186.3177216
51
197.3531763
0
ARC
8
DEFAULT_255_2_778
10
15.7018551
20
27.905271
40
0.6731437
50
197.2923435
51
212.5228788
0
ARC
8
DEFAULT_255_2_778
10
15.5243614
20
27.8002228
40
0.4670575
50
213.3635734
51
267.2766439
0
ARC
8
DEFAULT_255_2_778
10
15.5737035
20
28.1006119
40
0.7702481
50
264.671206
51
270.0872217
0
ARC
8
DEFAULT_255_2_778
10
15.5875172
20
28.1620619
40
0.8317934
50
269.1292188
51
284.7219127
0
ARC
8
DEFAULT_255_2_778
10
15.6907236
20
27.7779972
40
0.4341153
50
284.4293513
51
311.8177969
0
ARC
8
DEFAULT_255_2_778
10
15.6596121
20
27.7842771
40
0.4599322
50
314.1852902
51
346.3563218
0
ARC
8
DEFAULT_255_2_778
10
15.2846686
20
27.8948239
40
0.8505834
50
345.0774103
51
356.1940703
0
LINE
8
DEFAULT_255_2_778
10
16.1333761
20
27.8388645
11
16.7193761
21
27.8388645
0
LINE
8
DEFAULT_255_2_778
10
14.4008761
20
28.2312645
11
14.4008761
21
28.4050645
0
LINE
8
DEFAULT_255_2_778
10
16.7230761
20
28.7699645
11
16.1370761
21
28.7699645
0
LINE
8
DEFAULT_255_2_778
10
14.9945761
20
28.4320645
11
14.9945761
21
28.2172645
0
LINE
8
DEFAULT_255_2_778
10
16.1333761
20
27.8383645
11
16.1333761
21
27.8388645
0
LINE
8
DEFAULT_255_2_778
10
57.7623875
20
54.5064707
11
58.1624875
21
54.5064707
0
LINE
8
DEFAULT_255_2_778
10
58.1624875
20
54.5064707
11
58.1624875
21
46.5065707
0
LINE
8
DEFAULT_255_2_778
10
58.1624875
20
46.5065707
11
57.7623875
21
46.5065707
0
LINE
8
DEFAULT_255_2_778
10
57.7623875
20
46.5065707
11
57.7623875
21
54.5064707
0
LINE
8
DEFAULT_255_2_778
10
56.7624875
20
54.5064707
11
57.1625875
21
54.5064707
0
LINE
8
DEFAULT_255_2_778
10
57.1625875
20
54.5064707
11
57.1625875
21
46.5065707
0
LINE
8
DEFAULT_255_2_778
10
57.1625875
20
46.5065707
11
56.7624875
21
46.5065707
0
LINE
8
DEFAULT_255_2_778
10
56.7624875
20
46.5065707
11
56.7624875
21
54.5064707
0
LINE
8
DEFAULT_255_2_778
10
55.7623875
20
54.5064707
11
56.1624875
21
54.5064707
0
LINE
8
DEFAULT_255_2_778
10
56.1624875
20
54.5064707
11
56.1624875
21
46.5065707
0
LINE
8
DEFAULT_255_2_778
10
56.1624875
20
46.5065707
11
55.7623875
21
46.5065707
0
LINE
8
DEFAULT_255_2_778
10
55.7623875
20
46.5065707
11
55.7623875
21
54.5064707
0
LINE
8
DEFAULT_255_2_778
10
54.7625875
20
54.5064707
11
55.1625875
21
54.5064707
0
LINE
8
DEFAULT_255_2_778
10
55.1625875
20
54.5064707
11
55.1625875
21
46.5065707
0
LINE
8
DEFAULT_255_2_778
10
55.1625875
20
46.5065707
11
54.7625875
21
46.5065707
0
LINE
8
DEFAULT_255_2_778
10
54.7625875
20
46.5065707
11
54.7625875
21
54.5064707
0
LINE
8
DEFAULT_255_2_778
10
57.7626875
20
54.5064707
11
58.1626875
21
54.5064707
0
LINE
8
DEFAULT_255_2_778
10
58.1626875
20
54.5064707
11
58.1626875
21
46.5065707
0
LINE
8
DEFAULT_255_2_778
10
58.1626875
20
46.5065707
11
57.7626875
21
46.5065707
0
LINE
8
DEFAULT_255_2_778
10
57.7626875
20
46.5065707
11
57.7626875
21
54.5064707
0
LINE
8
DEFAULT_255_2_778
10
56.7624875
20
54.5064707
11
57.1625875
21
54.5064707
0
LINE
8
DEFAULT_255_2_778
10
57.1625875
20
54.5064707
11
57.1625875
21
46.5065707
0
LINE
8
DEFAULT_255_2_778
10
57.1625875
20
46.5065707
11
56.7624875
21
46.5065707
0
LINE
8
DEFAULT_255_2_778
10
56.7624875
20
46.5065707
11
56.7624875
21
54.5064707
0
LINE
8
DEFAULT_255_2_778
10
55.7623875
20
54.5064707
11
56.1624875
21
54.5064707
0
LINE
8
DEFAULT_255_2_778
10
56.1624875
20
54.5064707
11
56.1624875
21
46.5065707
0
LINE
8
DEFAULT_255_2_778
10
56.1624875
20
46.5065707
11
55.7623875
21
46.5065707
0
LINE
8
DEFAULT_255_2_778
10
55.7623875
20
46.5065707
11
55.7623875
21
54.5064707
0
LINE
8
DEFAULT_255_2_778
10
54.7622875
20
54.5064707
11
55.1622875
21
54.5064707
0
LINE
8
DEFAULT_255_2_778
10
55.1622875
20
54.5064707
11
55.1622875
21
46.5065707
0
LINE
8
DEFAULT_255_2_778
10
55.1622875
20
46.5065707
11
54.7622875
21
46.5065707
0
LINE
8
DEFAULT_255_2_778
10
54.7622875
20
46.5065707
11
54.7622875
21
54.5064707
0
ARC
8
DEFAULT_255_2_778
10
37.4696199
20
36.2119343
40
1.2231626
50
348.3469817
51
0.580027
0
ARC
8
DEFAULT_255_2_778
10
38.0219752
20
36.0918375
40
0.6579622
50
325.4503222
51
348.8742071
0
ARC
8
DEFAULT_255_2_778
10
38.1506112
20
36.0148517
40
0.5084423
50
322.0276109
51
324.3747576
0
ARC
8
DEFAULT_255_2_778
10
38.1817913
20
35.9952504
40
0.4718171
50
272.6635079
51
321.5743225
0
ARC
8
DEFAULT_255_2_778
10
38.1385815
20
36.2728451
40
0.7517291
50
269.9267056
51
274.9707533
0
ARC
8
DEFAULT_255_2_778
10
38.1241079
20
36.1013964
40
0.5804371
50
245.2675498
51
271.3339095
0
ARC
8
DEFAULT_255_2_778
10
38.0769256
20
35.9768467
40
0.4476678
50
218.4264971
51
244.0829451
0
ARC
8
DEFAULT_255_2_778
10
38.2260209
20
36.0839758
40
0.6311123
50
192.1539441
51
217.6331296
0
ARC
8
DEFAULT_255_2_778
10
38.7432321
20
36.2075653
40
1.1628122
50
180.0073249
51
192.7415952
0
ARC
8
DEFAULT_255_2_778
10
38.8050696
20
36.522923
40
1.2247146
50
168.3843807
51
180.589773
0
ARC
8
DEFAULT_255_2_778
10
38.2440471
20
36.644271
40
0.6507757
50
145.7741732
51
168.9041774
0
ARC
8
DEFAULT_255_2_778
10
38.1097146
20
36.7242645
40
0.4948028
50
141.2880843
51
144.683857
0
ARC
8
DEFAULT_255_2_778
10
38.0953372
20
36.7312471
40
0.4792302
50
92.0180326
51
140.8644604
0
ARC
8
DEFAULT_255_2_778
10
38.1351124
20
36.4603312
40
0.7519857
50
89.946093
51
94.3204668
0
ARC
8
DEFAULT_255_2_778
10
38.1493782
20
36.6305438
40
0.5819308
50
65.3349211
51
91.3350437
0
ARC
8
DEFAULT_255_2_778
10
38.1973468
20
36.7570677
40
0.4470276
50
38.4947163
51
64.1546413
0
ARC
8
DEFAULT_255_2_778
10
38.0504305
20
36.651022
40
0.628078
50
12.1522594
51
37.7239707
0
ARC
8
DEFAULT_255_2_778
10
37.5328525
20
36.5272876
40
1.1601674
50
359.9866171
51
12.7452087
0
ARC
8
DEFAULT_255_2_778
10
37.3974665
20
36.5687405
40
0.9686292
50
359.282834
51
9.7883657
0
ARC
8
DEFAULT_255_2_778
10
37.9884731
20
36.675122
40
0.3681662
50
9.1104243
51
29.1788167
0
ARC
8
DEFAULT_255_2_778
10
38.1466443
20
36.7586818
40
0.1893737
50
30.4369536
51
93.4282923
0
ARC
8
DEFAULT_255_2_778
10
38.1237411
20
36.7621827
40
0.1858948
50
86.4289384
51
148.5707904
0
ARC
8
DEFAULT_255_2_778
10
38.2983006
20
36.6702881
40
0.3829694
50
150.4578242
51
172.0785
0
ARC
8
DEFAULT_255_2_778
10
38.8572875
20
36.5717984
40
0.9504172
50
170.8418121
51
179.4141286
0
ARC
8
DEFAULT_255_2_778
10
38.8781673
20
36.1691984
40
0.9713218
50
179.2910613
51
189.9616775
0
ARC
8
DEFAULT_255_2_778
10
38.3111792
20
36.0666846
40
0.3951585
50
189.5433127
51
207.8280843
0
ARC
8
DEFAULT_255_2_778
10
38.1260101
20
35.970453
40
0.1864858
50
208.239194
51
273.5077221
0
ARC
8
DEFAULT_255_2_778
10
38.1499484
20
35.9674555
40
0.183567
50
266.086482
51
330.9486384
0
ARC
8
DEFAULT_255_2_778
10
37.93747
20
36.0730702
40
0.4207381
50
332.4265343
51
352.7596728
0
ARC
8
DEFAULT_255_2_778
10
37.3462362
20
36.1685327
40
1.0194887
50
351.6250654
51
359.8192523
0
ARC
8
DEFAULT_255_2_778
10
38.9830211
20
39.613307
40
0.2853643
50
267.4891867
51
297.9703954
0
ARC
8
DEFAULT_255_2_778
10
39.0309637
20
39.5076623
40
0.1697272
50
300.4038893
51
315.8857439
0
ARC
8
DEFAULT_255_2_778
10
38.9872572
20
39.5420552
40
0.22512
50
317.3445531
51
2.7399505
0
ARC
8
DEFAULT_255_2_778
10
39.013159
20
39.5644286
40
0.1992994
50
356.6598152
51
45.2697798
0
ARC
8
DEFAULT_255_2_778
10
39.0049259
20
39.5337462
40
0.2274369
50
49.2392716
51
93.2530364
0
ARC
8
DEFAULT_255_2_778
10
38.9838559
20
39.5229918
40
0.2379649
50
88.0339409
51
128.1928136
0
ARC
8
DEFAULT_255_2_778
10
38.9365191
20
39.5817026
40
0.1625557
50
127.8748261
51
181.5108589
0
ARC
8
DEFAULT_255_2_778
10
38.8477767
20
39.5826307
40
0.3968911
50
145.7476242
51
180.7527393
0
ARC
8
DEFAULT_255_2_778
10
38.8967543
20
39.5436876
40
0.4593163
50
113.7154279
51
145.170983
0
ARC
8
DEFAULT_255_2_778
10
38.9766467
20
39.3778295
40
0.6433328
50
89.3166011
51
114.2888691
0
ARC
8
DEFAULT_255_2_778
10
38.9970722
20
39.2475487
40
0.773673
50
72.7029976
51
90.9444391
0
ARC
8
DEFAULT_255_2_778
10
39.080487
20
39.5268793
40
0.4821855
50
50.2338163
51
72.2978601
0
ARC
8
DEFAULT_255_2_778
10
39.116035
20
39.5790147
40
0.4194157
50
357.9574035
51
49.4108169
0
ARC
8
DEFAULT_255_2_778
10
38.8976118
20
39.5573091
40
0.6376082
50
0.0006772
51
0.6071678
0
ARC
8
DEFAULT_255_2_778
10
39.1932348
20
39.556779
40
0.3419855
50
323.1571087
51
0.0900773
0
ARC
8
DEFAULT_255_2_778
10
39.1101097
20
39.6113139
40
0.4412531
50
293.7779513
51
323.9622399
0
ARC
8
DEFAULT_255_2_778
10
39.1638265
20
38.8177098
40
0.4091128
50
37.9187434
51
72.3279917
0
ARC
8
DEFAULT_255_2_778
10
39.2188732
20
38.8717874
40
0.3325716
50
34.4495539
51
36.3969337
0
ARC
8
DEFAULT_255_2_778
10
39.160443
20
38.8369362
40
0.4004924
50
358.6236612
51
33.8324166
0
ARC
8
DEFAULT_255_2_778
10
39.1327888
20
38.8122267
40
0.428297
50
309.0508087
51
2.0190768
0
ARC
8
DEFAULT_255_2_778
10
39.040908
20
38.9331066
40
0.5800764
50
275.8933349
51
308.5765047
0
ARC
8
DEFAULT_255_2_778
10
38.9865732
20
39.2554793
40
0.9065661
50
269.838629
51
277.217348
0
ARC
8
DEFAULT_255_2_778
10
38.9703445
20
39.0227642
40
0.6739864
50
246.7217384
51
271.1626258
0
ARC
8
DEFAULT_255_2_778
10
38.916694
20
38.8762257
40
0.518246
50
230.2949443
51
245.7677638
0
ARC
8
DEFAULT_255_2_778
10
38.8503983
20
38.803296
40
0.4198093
50
178.099765
51
230.8973834
0
ARC
8
DEFAULT_255_2_778
10
38.941116
20
38.8125104
40
0.1872553
50
178.5598636
51
230.7426051
0
ARC
8
DEFAULT_255_2_778
10
38.9843178
20
38.8625309
40
0.2533315
50
230.3358583
51
271.7422324
0
ARC
8
DEFAULT_255_2_778
10
39.0060846
20
38.8669283
40
0.2579953
50
266.8749463
51
308.6567886
0
ARC
8
DEFAULT_255_2_778
10
39.0345031
20
38.8182377
40
0.2023881
50
310.9852745
51
312.9568606
0
ARC
8
DEFAULT_255_2_778
10
39.0275531
20
38.822784
40
0.2104607
50
313.4981936
51
2.4598012
0
ARC
8
DEFAULT_255_2_778
10
38.9815329
20
38.845054
40
0.2566286
50
357.043251
51
34.1287569
0
ARC
8
DEFAULT_255_2_778
10
39.0197051
20
38.8468228
40
0.2249248
50
39.2180148
51
85.5761771
0
ARC
8
DEFAULT_255_2_778
10
38.9717364
20
38.5932888
40
0.4822329
50
82.2154165
51
90.2633583
0
ARC
8
DEFAULT_255_2_778
10
40.4902985
20
38.8075479
40
0.171775
50
356.8860038
51
52.604454
0
ARC
8
DEFAULT_255_2_778
10
40.3122817
20
38.5467581
40
0.4873697
50
54.5979614
51
67.2669518
0
ARC
8
DEFAULT_255_2_778
10
39.8891127
20
37.5847585
40
1.538277
50
66.5763077
51
72.4477221
0
ARC
8
DEFAULT_255_2_778
10
41.0224466
20
41.1609348
40
2.2131875
50
247.1905524
51
252.393877
0
ARC
8
DEFAULT_255_2_778
10
40.5914537
20
40.1288424
40
1.0947272
50
241.9709214
51
247.0429691
0
ARC
8
DEFAULT_255_2_778
10
40.3598055
20
39.7130792
40
0.6189401
50
221.3239752
51
242.8135967
0
ARC
8
DEFAULT_255_2_778
10
40.1938242
20
39.5612098
40
0.3940336
50
179.3010311
51
220.6765984
0
ARC
8
DEFAULT_255_2_778
10
40.1922067
20
39.5713968
40
0.3924237
50
144.1516429
51
180.7855621
0
ARC
8
DEFAULT_255_2_778
10
40.2621712
20
39.5106515
40
0.4847802
50
111.1040465
51
143.1748583
0
ARC
8
DEFAULT_255_2_778
10
40.3879928
20
39.218161
40
0.8030472
50
89.1347216
51
111.9650755
0
ARC
8
DEFAULT_255_2_778
10
40.4133568
20
39.2913393
40
0.7298973
50
65.9581352
51
91.0391313
0
ARC
8
DEFAULT_255_2_778
10
40.5099339
20
39.5048442
40
0.49557
50
33.6594513
51
66.0987406
0
ARC
8
DEFAULT_255_2_778
10
40.5311579
20
39.5250785
40
0.4667169
50
359.1207488
51
33.0359967
0
ARC
8
DEFAULT_255_2_778
10
40.4431846
20
39.5301897
40
0.2197782
50
356.7987729
51
47.3033525
0
ARC
8
DEFAULT_255_2_778
10
40.4197752
20
39.47921
40
0.2736718
50
50.9413907
51
89.6331512
0
ARC
8
DEFAULT_255_2_778
10
40.3946443
20
39.2654008
40
0.4882161
50
86.8434711
51
90.0380749
0
ARC
8
DEFAULT_255_2_778
10
40.3817721
20
39.402743
40
0.3510979
50
87.951888
51
114.489486
0
ARC
8
DEFAULT_255_2_778
10
40.3295398
20
39.5354775
40
0.2087873
50
116.544954
51
127.2300728
0
ARC
8
DEFAULT_255_2_778
10
40.2986693
20
39.5687256
40
0.1636985
50
125.667503
51
181.4033148
0
ARC
8
DEFAULT_255_2_778
10
40.2921367
20
39.5685019
40
0.1571624
50
181.3801222
51
240.5727093
0
ARC
8
DEFAULT_255_2_778
10
40.5758599
20
39.9941102
40
0.6683388
50
237.3125898
51
249.7236487
0
ARC
8
DEFAULT_255_2_778
10
40.8611331
20
40.7109117
40
1.4397106
50
248.9599677
51
253.4122634
0
ARC
8
DEFAULT_255_2_778
10
40.0154097
20
37.8448045
40
1.5485789
50
64.9659286
51
73.697086
0
ARC
8
DEFAULT_255_2_778
10
40.3499516
20
38.5475306
40
0.770327
50
49.7253093
51
65.3936249
0
ARC
8
DEFAULT_255_2_778
10
40.5121894
20
38.7528157
40
0.5089032
50
45.777859
51
48.7201802
0
ARC
8
DEFAULT_255_2_778
10
40.5724279
20
38.810554
40
0.4255225
50
358.5810108
51
46.1683673
0
ARC
8
DEFAULT_255_2_778
10
40.6064544
20
38.7844089
40
0.3916766
50
306.243351
51
2.2837471
0
ARC
8
DEFAULT_255_2_778
10
40.4876132
20
38.9534819
40
0.5983111
50
278.2398931
51
305.8496049
0
ARC
8
DEFAULT_255_2_778
10
40.4131218
20
39.3466698
40
0.9982671
50
269.695691
51
279.2369831
0
ARC
8
DEFAULT_255_2_778
10
40.3968265
20
39.1786796
40
0.8303358
50
246.4991713
51
270.7585988
0
ARC
8
DEFAULT_255_2_778
10
40.2730235
20
38.9172637
40
0.541315
50
215.15023
51
247.4826569
0
ARC
8
DEFAULT_255_2_778
10
40.2325101
20
38.8733741
40
0.4830845
50
178.8681441
51
213.6601994
0
ARC
8
DEFAULT_255_2_778
10
40.3548264
20
38.8692923
40
0.2691515
50
177.098486
51
216.0217352
0
ARC
8
DEFAULT_255_2_778
10
40.3339758
20
38.8800211
40
0.2594437
50
220.651042
51
262.1040345
0
ARC
8
DEFAULT_255_2_778
10
40.4030131
20
39.192426
40
0.5789312
50
259.5828812
51
270.4955217
0
ARC
8
DEFAULT_255_2_778
10
40.4205845
20
38.9653369
40
0.3520446
50
267.9546616
51
294.268919
0
ARC
8
DEFAULT_255_2_778
10
40.4724931
20
38.8316685
40
0.2089925
50
296.3581648
51
305.8253847
0
ARC
8
DEFAULT_255_2_778
10
40.5040407
20
38.7916604
40
0.158103
50
305.0420473
51
2.267804
0
LINE
8
DEFAULT_255_2_778
10
37.0499199
20
37.1919166
11
37.0499199
21
35.5436166
0
LINE
8
DEFAULT_255_2_778
10
37.0499199
20
35.5436166
11
36.7232199
21
35.5436166
0
LINE
8
DEFAULT_255_2_778
10
36.7232199
20
35.5436166
11
36.7232199
21
36.8030166
0
LINE
8
DEFAULT_255_2_778
10
36.7232199
20
36.8030166
11
36.3332199
21
36.6821166
0
LINE
8
DEFAULT_255_2_778
10
36.3332199
20
36.6821166
11
36.3332199
21
36.9477166
0
LINE
8
DEFAULT_255_2_778
10
36.3332199
20
36.9477166
11
37.0150199
21
37.1919166
0
LINE
8
DEFAULT_255_2_778
10
37.0150199
20
37.1919166
11
37.0502199
21
37.1919166
0
LINE
8
DEFAULT_255_2_778
10
37.0502199
20
37.1919166
11
37.0499199
21
37.1919166
0
LINE
8
DEFAULT_255_2_778
10
38.6927199
20
36.5273166
11
38.6927199
21
36.2243166
0
LINE
8
DEFAULT_255_2_778
10
37.5804199
20
36.2074166
11
37.5804199
21
36.5103166
0
LINE
8
DEFAULT_255_2_778
10
38.6930199
20
36.5270166
11
38.6927199
21
36.5273166
0
LINE
8
DEFAULT_255_2_778
10
38.3660199
20
36.1656166
11
38.3660199
21
36.5566166
0
LINE
8
DEFAULT_255_2_778
10
37.9069199
20
36.5815166
11
37.9069199
21
36.1812166
0
LINE
8
DEFAULT_255_2_778
10
38.3657199
20
36.1653166
11
38.3660199
21
36.1656166
0
LINE
8
DEFAULT_255_2_778
10
38.9481199
20
37.1898166
11
39.3912199
21
37.1898166
0
LINE
8
DEFAULT_255_2_778
10
39.3912199
20
37.1898166
11
39.8140199
21
35.9960166
0
LINE
8
DEFAULT_255_2_778
10
39.8140199
20
35.9960166
11
40.2345199
21
37.1898166
0
LINE
8
DEFAULT_255_2_778
10
40.2345199
20
37.1898166
11
40.6800199
21
37.1898166
0
LINE
8
DEFAULT_255_2_778
10
40.6800199
20
37.1898166
11
40.6800199
21
35.5438166
0
LINE
8
DEFAULT_255_2_778
10
40.6800199
20
35.5438166
11
40.3398199
21
35.5438166
0
LINE
8
DEFAULT_255_2_778
10
40.3398199
20
35.5438166
11
40.3398199
21
35.9939166
0
LINE
8
DEFAULT_255_2_778
10
40.3398199
20
35.9939166
11
40.3736199
21
36.7707166
0
LINE
8
DEFAULT_255_2_778
10
40.3736199
20
36.7707166
11
39.9294199
21
35.5441166
0
LINE
8
DEFAULT_255_2_778
10
39.9294199
20
35.5441166
11
39.6966199
21
35.5441166
0
LINE
8
DEFAULT_255_2_778
10
39.6966199
20
35.5441166
11
39.2534199
21
36.7696166
0
LINE
8
DEFAULT_255_2_778
10
39.2534199
20
36.7696166
11
39.2873199
21
35.9941166
0
LINE
8
DEFAULT_255_2_778
10
39.2873199
20
35.9941166
11
39.2873199
21
35.5441166
0
LINE
8
DEFAULT_255_2_778
10
39.2873199
20
35.5441166
11
38.9481199
21
35.5441166
0
LINE
8
DEFAULT_255_2_778
10
38.9481199
20
35.5441166
11
38.9481199
21
37.1901166
0
LINE
8
DEFAULT_255_2_778
10
38.9481199
20
37.1901166
11
38.9481199
21
37.1898166
0
LINE
8
DEFAULT_255_2_778
10
38.7986199
20
39.0755166
11
38.7986199
21
39.3282166
0
LINE
8
DEFAULT_255_2_778
10
38.7986199
20
39.3282166
11
38.9705199
21
39.3282166
0
LINE
8
DEFAULT_255_2_778
10
38.7740199
20
39.5774166
11
38.4509199
21
39.5774166
0
LINE
8
DEFAULT_255_2_778
10
38.4308199
20
38.8172166
11
38.7539199
21
38.8172166
0
LINE
8
DEFAULT_255_2_778
10
38.9695199
20
39.0755166
11
38.7986199
21
39.0755166
0
LINE
8
DEFAULT_255_2_778
10
38.7986199
20
39.0755166
11
38.7986199
21
39.0755166
0
LINE
8
DEFAULT_255_2_778
10
40.9978199
20
39.5179166
11
40.6626199
21
39.5179166
0
LINE
8
DEFAULT_255_2_778
10
39.7495199
20
38.8829166
11
40.0860199
21
38.8829166
0
LINE
8
DEFAULT_255_2_778
10
40.6620199
20
38.7979166
11
40.6618199
21
38.7982166
0
LINE
8
DEFAULT_255_2_778
10
36.8258199
20
39.2935166
11
36.8258199
21
39.0199166
0
LINE
8
DEFAULT_255_2_778
10
36.8258199
20
39.0199166
11
36.1747199
21
39.0199166
0
LINE
8
DEFAULT_255_2_778
10
36.1747199
20
39.0199166
11
36.1747199
21
38.3473166
0
LINE
8
DEFAULT_255_2_778
10
36.1747199
20
38.3473166
11
35.8355199
21
38.3473166
0
LINE
8
DEFAULT_255_2_778
10
35.8355199
20
38.3473166
11
35.8355199
21
39.9933166
0
LINE
8
DEFAULT_255_2_778
10
35.8355199
20
39.9933166
11
36.9073199
21
39.9933166
0
LINE
8
DEFAULT_255_2_778
10
36.9073199
20
39.9933166
11
36.9073199
21
39.7187166
0
LINE
8
DEFAULT_255_2_778
10
36.9073199
20
39.7187166
11
36.1747199
21
39.7187166
0
LINE
8
DEFAULT_255_2_778
10
36.1747199
20
39.7187166
11
36.1747199
21
39.2935166
0
LINE
8
DEFAULT_255_2_778
10
36.1747199
20
39.2935166
11
36.8258199
21
39.2935166
0
LINE
8
DEFAULT_255_2_778
10
36.8258199
20
39.2935166
11
36.8258199
21
39.2935166
0
LINE
8
DEFAULT_255_2_778
10
37.3844199
20
39.9933166
11
37.6931199
21
39.4258166
0
LINE
8
DEFAULT_255_2_778
10
37.6931199
20
39.4258166
11
38.0016199
21
39.9933166
0
LINE
8
DEFAULT_255_2_778
10
38.0016199
20
39.9933166
11
38.3916199
21
39.9933166
0
LINE
8
DEFAULT_255_2_778
10
38.3916199
20
39.9933166
11
37.9122199
21
39.1771166
0
LINE
8
DEFAULT_255_2_778
10
37.9122199
20
39.1771166
11
38.4041199
21
38.3473166
0
LINE
8
DEFAULT_255_2_778
10
38.4041199
20
38.3473166
11
38.0096199
21
38.3473166
0
LINE
8
DEFAULT_255_2_778
10
38.0096199
20
38.3473166
11
37.6931199
21
38.9239166
0
LINE
8
DEFAULT_255_2_778
10
37.6931199
20
38.9239166
11
37.3767199
21
38.3473166
0
LINE
8
DEFAULT_255_2_778
10
37.3767199
20
38.3473166
11
36.9822199
21
38.3473166
0
LINE
8
DEFAULT_255_2_778
10
36.9822199
20
38.3473166
11
37.4741199
21
39.1771166
0
LINE
8
DEFAULT_255_2_778
10
37.4741199
20
39.1771166
11
36.9946199
21
39.9933166
0
LINE
8
DEFAULT_255_2_778
10
36.9946199
20
39.9933166
11
37.3846199
21
39.9933166
0
LINE
8
DEFAULT_255_2_778
10
37.3846199
20
39.9933166
11
37.3844199
21
39.9933166
0
LINE
8
DEFAULT_255_2_778
10
41.8011199
20
39.1837166
11
41.8011199
21
38.9202166
0
LINE
8
DEFAULT_255_2_778
10
41.8011199
20
38.9202166
11
41.1645199
21
38.9202166
0
LINE
8
DEFAULT_255_2_778
10
41.1645199
20
38.9202166
11
41.1645199
21
39.1837166
0
LINE
8
DEFAULT_255_2_778
10
41.1645199
20
39.1837166
11
41.8011199
21
39.1837166
0
LINE
8
DEFAULT_255_2_778
10
41.8011199
20
39.1837166
11
41.8011199
21
39.1837166
0
ARC
8
DEFAULT_255_2_778
10
25.2347967
20
29.140275
40
0.5664906
50
268.7378747
51
288.7556844
0
ARC
8
DEFAULT_255_2_778
10
25.313687
20
28.8991195
40
0.3127879
50
289.275628
51
315.5354947
0
ARC
8
DEFAULT_255_2_778
10
25.2558261
20
28.9407689
40
0.3834086
50
317.1504044
51
1.110779
0
ARC
8
DEFAULT_255_2_778
10
25.0507051
20
28.9617611
40
0.5886138
50
358.6799904
51
0.0059158
0
ARC
8
DEFAULT_255_2_778
10
25.26742
20
28.9758744
40
0.3721643
50
357.8360475
51
32.7162967
0
ARC
8
DEFAULT_255_2_778
10
25.334621
20
29.0083321
40
0.2982178
50
34.4480688
51
46.9963579
0
ARC
8
DEFAULT_255_2_778
10
25.2928539
20
28.9502452
40
0.3692958
50
48.404184
51
87.7215113
0
ARC
8
DEFAULT_255_2_778
10
25.2598281
20
28.7126657
40
0.6084567
50
85.5029462
51
90.0667823
0
ARC
8
DEFAULT_255_2_778
10
25.2451021
20
28.9101178
40
0.411243
50
88.0467524
51
128.1941623
0
ARC
8
DEFAULT_255_2_778
10
25.1635406
20
29.0116542
40
0.2810148
50
127.9254544
51
181.4747642
0
ARC
8
DEFAULT_255_2_778
10
25.0103781
20
29.0133429
40
0.6858172
50
145.7603495
51
180.745323
0
ARC
8
DEFAULT_255_2_778
10
25.0933964
20
28.9471484
40
0.791733
50
113.679628
51
145.1805526
0
ARC
8
DEFAULT_255_2_778
10
25.2322732
20
28.6617788
40
1.1089233
50
89.3104386
51
114.3292802
0
ARC
8
DEFAULT_255_2_778
10
25.2582842
20
28.3141905
40
1.4564864
50
77.8572007
51
90.4982389
0
ARC
8
DEFAULT_255_2_778
10
25.3822481
20
28.8608767
40
0.8959774
50
53.9083758
51
78.2533964
0
ARC
8
DEFAULT_255_2_778
10
25.4518189
20
28.9727965
40
0.7646167
50
49.8713569
51
53.1806696
0
ARC
8
DEFAULT_255_2_778
10
25.4887834
20
29.0176074
40
0.7065307
50
2.5901176
51
49.8212525
0
ARC
8
DEFAULT_255_2_778
10
25.1624561
20
28.9704302
40
1.0351632
50
359.9497223
51
4.3827386
0
ARC
8
DEFAULT_255_2_778
10
25.6059203
20
28.9684219
40
0.5916996
50
323.2171606
51
0.1065084
0
ARC
8
DEFAULT_255_2_778
10
25.4624912
20
29.064255
40
0.7640113
50
293.8011867
51
323.9018135
0
ARC
8
DEFAULT_255_2_778
10
25.5190422
20
27.621327
40
0.7853477
50
49.5923595
51
71.3012293
0
ARC
8
DEFAULT_255_2_778
10
25.6402747
20
27.7762574
40
0.5888461
50
34.5754
51
48.8025892
0
ARC
8
DEFAULT_255_2_778
10
25.5501107
20
27.7258198
40
0.6917754
50
358.7336826
51
33.7771233
0
ARC
8
DEFAULT_255_2_778
10
25.4230213
20
27.7088127
40
0.8186976
50
359.9936426
51
0.1203133
0
ARC
8
DEFAULT_255_2_778
10
25.5016333
20
27.6827789
40
0.7405401
50
309.1044677
51
2.0076227
0
ARC
8
DEFAULT_255_2_778
10
25.364166
20
27.8544672
40
0.9604767
50
280.9370934
51
309.0080803
0
ARC
8
DEFAULT_255_2_778
10
25.2554634
20
28.3438142
40
1.4616254
50
269.6140903
51
281.4813465
0
ARC
8
DEFAULT_255_2_778
10
25.2322651
20
28.1436231
40
1.261472
50
254.1368431
51
270.6065349
0
ARC
8
DEFAULT_255_2_778
10
25.140715
20
27.8104387
40
0.9159566
50
230.4451763
51
253.9486098
0
ARC
8
DEFAULT_255_2_778
10
25.0143286
20
27.6668813
40
0.7248118
50
178.0913607
51
230.9215477
0
ARC
8
DEFAULT_255_2_778
10
25.1709173
20
27.6826245
40
0.3231076
50
178.5107618
51
230.8034339
0
ARC
8
DEFAULT_255_2_778
10
25.2459138
20
27.7701962
40
0.4383794
50
230.4404626
51
271.7523064
0
ARC
8
DEFAULT_255_2_778
10
25.272436
20
27.8446947
40
0.5128406
50
268.5343645
51
293.7364758
0
ARC
8
DEFAULT_255_2_778
10
25.3291513
20
27.6968828
40
0.3547841
50
294.9609083
51
312.9791066
0
ARC
8
DEFAULT_255_2_778
10
25.3212684
20
27.7008477
40
0.3630719
50
313.4626508
51
2.411091
0
ARC
8
DEFAULT_255_2_778
10
25.1715316
20
27.7288893
40
0.5126462
50
358.572898
51
21.8436929
0
ARC
8
DEFAULT_255_2_778
10
25.3338664
20
27.7813631
40
0.3426422
50
23.7996102
51
79.6728356
0
ARC
8
DEFAULT_255_2_778
10
25.2295095
20
27.3937096
40
0.7434641
50
77.1155382
51
90.6774719
0
ARC
8
DEFAULT_255_2_778
10
27.8468558
20
27.6750932
40
0.297198
50
356.9001534
51
52.5144686
0
ARC
8
DEFAULT_255_2_778
10
27.5977953
20
27.3185661
40
0.7319287
50
54.0283742
51
65.1002862
0
ARC
8
DEFAULT_255_2_778
10
27.0924093
20
26.268858
40
1.8969169
50
64.6034597
51
70.130159
0
ARC
8
DEFAULT_255_2_778
10
26.5524722
20
24.8210164
40
3.4421166
50
69.8689222
51
72.0949387
0
ARC
8
DEFAULT_255_2_778
10
28.9090395
20
32.1415334
40
4.2483602
50
248.5576947
51
252.2054275
0
ARC
8
DEFAULT_255_2_778
10
28.1757223
20
30.285615
40
2.2528262
50
243.1382494
51
248.6620762
0
ARC
8
DEFAULT_255_2_778
10
27.838255
20
29.5999061
40
1.4886506
50
241.7618614
51
242.8004824
0
ARC
8
DEFAULT_255_2_778
10
27.6829575
20
29.3305897
40
1.1779462
50
227.8047863
51
242.2186805
0
ARC
8
DEFAULT_255_2_778
10
27.348954
20
28.9799754
40
0.6939564
50
179.5503148
51
228.7920433
0
ARC
8
DEFAULT_255_2_778
10
27.3341259
20
28.9944806
40
0.6791674
50
144.1940711
51
180.7642387
0
ARC
8
DEFAULT_255_2_778
10
27.4274847
20
28.9158009
40
0.8009654
50
115.7269424
51
143.5366101
0
ARC
8
DEFAULT_255_2_778
10
27.5763293
20
28.6514933
40
1.1038535
50
112.5946411
51
116.7318146
0
ARC
8
DEFAULT_255_2_778
10
27.6582
20
28.4287959
40
1.3409506
50
92.4972508
51
112.1684075
0
ARC
8
DEFAULT_255_2_778
10
27.6912273
20
28.0620379
40
1.7088841
50
89.9768138
51
93.0677672
0
ARC
8
DEFAULT_255_2_778
10
27.7055448
20
28.4267607
40
1.3442302
50
72.9829259
51
90.5807945
0
ARC
8
DEFAULT_255_2_778
10
27.768547
20
28.6645511
40
1.0984527
50
65.2273746
51
72.4953712
0
ARC
8
DEFAULT_255_2_778
10
27.883084
20
28.8798511
40
0.8550831
50
33.6704145
51
66.15092
0
ARC
8
DEFAULT_255_2_778
10
27.9183407
20
28.9143395
40
0.8066722
50
359.1250761
51
33.020088
0
ARC
8
DEFAULT_255_2_778
10
27.7344163
20
28.916253
40
0.4115487
50
358.0183481
51
32.1522926
0
ARC
8
DEFAULT_255_2_778
10
27.7995325
20
28.9460367
40
0.3406996
50
33.7395303
51
48.7841023
0
ARC
8
DEFAULT_255_2_778
10
27.7424967
20
28.8667926
40
0.4379893
50
50.0020293
51
83.4905423
0
ARC
8
DEFAULT_255_2_778
10
27.6852543
20
28.5510327
40
0.7584958
50
81.8982463
51
90.2368485
0
ARC
8
DEFAULT_255_2_778
10
27.6695167
20
28.6196852
40
0.6899517
50
88.9534165
51
106.7548415
0
ARC
8
DEFAULT_255_2_778
10
27.5875391
20
28.9043829
40
0.3937242
50
107.2750143
51
126.7582567
0
ARC
8
DEFAULT_255_2_778
10
27.5173226
20
28.9899637
40
0.2831839
50
125.7384217
51
181.3641882
0
ARC
8
DEFAULT_255_2_778
10
27.4994649
20
28.9879208
40
0.2652876
50
181.014917
51
238.0707596
0
ARC
8
DEFAULT_255_2_778
10
27.632626
20
29.1420077
40
0.4675504
50
234.2049893
51
236.1688969
0
ARC
8
DEFAULT_255_2_778
10
27.9409688
20
29.6279582
40
1.0429894
50
236.9608735
51
247.3791064
0
ARC
8
DEFAULT_255_2_778
10
28.3916945
20
30.6760593
40
2.1838617
50
247.040183
51
252.7800313
0
ARC
8
DEFAULT_255_2_778
10
28.6788252
20
31.5510307
40
3.1046525
50
252.4989129
51
253.146729
0
ARC
8
DEFAULT_255_2_778
10
26.963246
20
25.8235533
40
2.8742757
50
67.0568371
51
73.5179939
0
ARC
8
DEFAULT_255_2_778
10
27.4232034
20
26.8987709
40
1.7048227
50
57.4780864
51
67.2057931
0
ARC
8
DEFAULT_255_2_778
10
27.7835115
20
27.4661198
40
1.0327332
50
46.1532332
51
57.4108097
0
ARC
8
DEFAULT_255_2_778
10
27.9910602
20
27.6808677
40
0.734083
50
358.5835581
51
46.2250655
0
ARC
8
DEFAULT_255_2_778
10
28.0487253
20
27.6360471
40
0.6767195
50
306.2230017
51
2.2590521
0
ARC
8
DEFAULT_255_2_778
10
27.8681069
20
27.8812023
40
0.981225
50
283.0465287
51
306.272028
0
ARC
8
DEFAULT_255_2_778
10
27.7304089
20
28.4344493
40
1.5513029
50
271.0095403
51
283.3882571
0
ARC
8
DEFAULT_255_2_778
10
27.7057124
20
28.9170965
40
2.0343748
50
269.9917335
51
271.4654892
0
ARC
8
DEFAULT_255_2_778
10
27.6909487
20
28.3531875
40
1.4705368
50
250.5563889
51
270.5638052
0
ARC
8
DEFAULT_255_2_778
10
27.6422772
20
28.1850131
40
1.2957912
50
245.9703473
51
250.1104117
0
ARC
8
DEFAULT_255_2_778
10
27.5137426
20
27.9306141
40
1.0111935
50
225.7437661
51
246.7523862
0
ARC
8
DEFAULT_255_2_778
10
27.3866977
20
27.7872363
40
0.819892
50
214.1549575
51
225.1102003
0
ARC
8
DEFAULT_255_2_778
10
27.401573
20
27.7895282
40
0.8335134
50
178.8799027
51
213.7112445
0
ARC
8
DEFAULT_255_2_778
10
27.6815991
20
27.7927544
40
0.5324406
50
178.5936801
51
202.8376156
0
ARC
8
DEFAULT_255_2_778
10
27.5413579
20
27.7488037
40
0.3863858
50
204.9029663
51
255.355248
0
ARC
8
DEFAULT_255_2_778
10
27.6788475
20
28.1712033
40
0.8302377
50
253.5448097
51
268.9491758
0
ARC
8
DEFAULT_255_2_778
10
27.7050207
20
28.5949583
40
1.2545365
50
268.1089213
51
270.0181872
0
ARC
8
DEFAULT_255_2_778
10
27.7179551
20
28.0367043
40
0.6963953
50
268.968526
51
286.3477879
0
ARC
8
DEFAULT_255_2_778
10
27.7999178
20
27.7444706
40
0.3929232
50
286.8735044
51
305.4336613
0
ARC
8
DEFAULT_255_2_778
10
27.8709648
20
27.6476831
40
0.2728774
50
305.061026
51
2.3184254
0
LINE
8
DEFAULT_255_2_778
10
24.9249189
20
28.1376218
11
24.9249189
21
28.5739218
0
LINE
8
DEFAULT_255_2_778
10
24.9249189
20
28.5739218
11
25.2223189
21
28.5739218
0
LINE
8
DEFAULT_255_2_778
10
24.8826189
20
29.0044218
11
24.3246189
21
29.0044218
0
LINE
8
DEFAULT_255_2_778
10
24.2899189
20
27.6910218
11
24.8479189
21
27.6910218
0
LINE
8
DEFAULT_255_2_778
10
25.2207189
20
28.1371218
11
24.9252189
21
28.1371218
0
LINE
8
DEFAULT_255_2_778
10
24.9252189
20
28.1371218
11
24.9249189
21
28.1376218
0
LINE
8
DEFAULT_255_2_778
10
28.7249189
20
28.9020218
11
28.1457189
21
28.9020218
0
LINE
8
DEFAULT_255_2_778
10
26.5682189
20
27.8058218
11
27.1493189
21
27.8058218
0
LINE
8
DEFAULT_255_2_778
10
28.1436189
20
27.6587218
11
28.1436189
21
27.6590218
0
LINE
8
DEFAULT_255_2_778
10
21.2618189
20
28.5157218
11
21.2618189
21
28.0432218
0
LINE
8
DEFAULT_255_2_778
10
21.2618189
20
28.0432218
11
20.1368189
21
28.0432218
0
LINE
8
DEFAULT_255_2_778
10
20.1368189
20
28.0432218
11
20.1368189
21
26.8811218
0
LINE
8
DEFAULT_255_2_778
10
20.1368189
20
26.8811218
11
19.5507189
21
26.8811218
0
LINE
8
DEFAULT_255_2_778
10
19.5507189
20
26.8811218
11
19.5507189
21
29.7249218
0
LINE
8
DEFAULT_255_2_778
10
19.5507189
20
29.7249218
11
21.4023189
21
29.7249218
0
LINE
8
DEFAULT_255_2_778
10
21.4023189
20
29.7249218
11
21.4023189
21
29.2502218
0
LINE
8
DEFAULT_255_2_778
10
21.4023189
20
29.2502218
11
20.1368189
21
29.2502218
0
LINE
8
DEFAULT_255_2_778
10
20.1368189
20
29.2502218
11
20.1368189
21
28.5157218
0
LINE
8
DEFAULT_255_2_778
10
20.1368189
20
28.5157218
11
21.2618189
21
28.5157218
0
LINE
8
DEFAULT_255_2_778
10
21.2618189
20
28.5157218
11
21.2618189
21
28.5157218
0
LINE
8
DEFAULT_255_2_778
10
22.2264189
20
29.7246218
11
22.7596189
21
28.7441218
0
LINE
8
DEFAULT_255_2_778
10
22.7596189
20
28.7441218
11
23.2927189
21
29.7246218
0
LINE
8
DEFAULT_255_2_778
10
23.2927189
20
29.7246218
11
23.9666189
21
29.7246218
0
LINE
8
DEFAULT_255_2_778
10
23.9666189
20
29.7246218
11
23.1384189
21
28.3144218
0
LINE
8
DEFAULT_255_2_778
10
23.1384189
20
28.3144218
11
23.9880189
21
26.8809218
0
LINE
8
DEFAULT_255_2_778
10
23.9880189
20
26.8809218
11
23.3065189
21
26.8809218
0
LINE
8
DEFAULT_255_2_778
10
23.3065189
20
26.8809218
11
22.7596189
21
27.8770218
0
LINE
8
DEFAULT_255_2_778
10
22.7596189
20
27.8770218
11
22.2127189
21
26.8809218
0
LINE
8
DEFAULT_255_2_778
10
22.2127189
20
26.8809218
11
21.5311189
21
26.8809218
0
LINE
8
DEFAULT_255_2_778
10
21.5311189
20
26.8809218
11
22.3807189
21
28.3144218
0
LINE
8
DEFAULT_255_2_778
10
22.3807189
20
28.3144218
11
21.5525189
21
29.7246218
0
LINE
8
DEFAULT_255_2_778
10
21.5525189
20
29.7246218
11
22.2264189
21
29.7246218
0
LINE
8
DEFAULT_255_2_778
10
22.2264189
20
29.7246218
11
22.2264189
21
29.7246218
0
LINE
8
DEFAULT_255_2_778
10
36.6623834
20
29.4566
11
41.1623834
21
29.4566
0
ARC
8
DEFAULT_255_2_778
10
37.8593291
20
30.4929372
40
0.6475259
50
336.2625747
51
1.2107792
0
ARC
8
DEFAULT_255_2_778
10
37.9879558
20
30.4468512
40
0.5113193
50
334.95813
51
335.1877897
0
ARC
8
DEFAULT_255_2_778
10
38.0683967
20
30.4026272
40
0.4197639
50
302.1728225
51
335.7795708
0
ARC
8
DEFAULT_255_2_778
10
38.0623077
20
30.4232361
40
0.4404889
50
268.9597116
51
301.4158131
0
ARC
8
DEFAULT_255_2_778
10
38.0469519
20
30.4263781
40
0.4436194
50
238.9004183
51
270.9504424
0
ARC
8
DEFAULT_255_2_778
10
38.0415703
20
30.4069977
40
0.4242792
50
204.8614701
51
238.1708302
0
ARC
8
DEFAULT_255_2_778
10
38.2243216
20
30.4916296
40
0.6256757
50
179.176706
51
204.8573986
0
ARC
8
DEFAULT_255_2_778
10
38.2384481
20
30.5664379
40
0.6398742
50
155.6248706
51
181.1836611
0
ARC
8
DEFAULT_255_2_778
10
38.041904
20
30.6556138
40
0.4240458
50
122.2047339
51
155.6399345
0
ARC
8
DEFAULT_255_2_778
10
38.0451574
20
30.6363222
40
0.4421673
50
88.9823517
51
121.2291405
0
ARC
8
DEFAULT_255_2_778
10
38.0607749
20
30.635994
40
0.4424939
50
58.7830841
51
91.0054237
0
ARC
8
DEFAULT_255_2_778
10
38.0661106
20
30.6573517
40
0.4215134
50
24.2566499
51
57.8986818
0
ARC
8
DEFAULT_255_2_778
10
37.8695443
20
30.5668807
40
0.6378958
50
358.8447565
51
24.4119871
0
ARC
8
DEFAULT_255_2_778
10
37.6866262
20
30.5673998
40
0.5975104
50
358.8223762
51
15.6525542
0
ARC
8
DEFAULT_255_2_778
10
37.9810904
20
30.6464686
40
0.292652
50
16.3007602
51
33.9297212
0
ARC
8
DEFAULT_255_2_778
10
38.0609139
20
30.7012616
40
0.1958386
50
33.664224
51
92.459333
0
ARC
8
DEFAULT_255_2_778
10
38.0441223
20
30.7011594
40
0.19594
50
87.546433
51
145.9322154
0
ARC
8
DEFAULT_255_2_778
10
38.17936
20
30.6192594
40
0.3539342
50
147.2132362
51
174.2583303
0
ARC
8
DEFAULT_255_2_778
10
38.5584738
20
30.5585411
40
0.7375633
50
172.5112962
51
180.0016527
0
ARC
8
DEFAULT_255_2_778
10
38.3950632
20
30.4941225
40
0.5742845
50
178.7730226
51
196.8984227
0
ARC
8
DEFAULT_255_2_778
10
38.1378133
20
30.4210288
40
0.3069337
50
197.8017131
51
213.2096835
0
ARC
8
DEFAULT_255_2_778
10
38.0455896
20
30.3580237
40
0.195277
50
212.5632143
51
272.4127804
0
ARC
8
DEFAULT_255_2_778
10
38.0622587
20
30.3558762
40
0.1931413
50
267.4929923
51
326.6583024
0
ARC
8
DEFAULT_255_2_778
10
37.9179116
20
30.4424204
40
0.3613659
50
327.7742569
51
354.3109931
0
ARC
8
DEFAULT_255_2_778
10
37.5359393
20
30.5027908
40
0.747771
50
352.6090792
51
359.9945586
0
LINE
8
DEFAULT_255_2_778
10
38.5067104
20
30.5543198
11
38.5067104
21
30.5066198
0
LINE
8
DEFAULT_255_2_778
10
37.5987104
20
30.5006198
11
37.5987104
21
30.5532198
0
LINE
8
DEFAULT_255_2_778
10
38.5073104
20
30.5540198
11
38.5067104
21
30.5543198
0
LINE
8
DEFAULT_255_2_778
10
38.2840104
20
30.5029198
11
38.2840104
21
30.5551198
0
LINE
8
DEFAULT_255_2_778
10
37.8209104
20
30.5585198
11
37.8209104
21
30.5064198
0
LINE
8
DEFAULT_255_2_778
10
38.2837104
20
30.5027198
11
38.2840104
21
30.5029198
0
ARC
8
DEFAULT_255_2_778
10
39.105136
20
30.3459997
40
0.3685149
50
320.4792208
51
2.433031
0
ARC
8
DEFAULT_255_2_778
10
39.1350921
20
30.3318554
40
0.336505
50
312.7979942
51
319.0910698
0
ARC
8
DEFAULT_255_2_778
10
39.0998252
20
30.3822988
40
0.3975674
50
272.4231785
51
311.5880727
0
ARC
8
DEFAULT_255_2_778
10
39.0652756
20
30.6294132
40
0.6463699
50
269.9329134
51
274.5573643
0
ARC
8
DEFAULT_255_2_778
10
39.0510338
20
30.4612023
40
0.4783487
50
243.8770494
51
271.6154235
0
ARC
8
DEFAULT_255_2_778
10
39.0019541
20
30.3417993
40
0.3496364
50
227.9816902
51
242.4828922
0
ARC
8
DEFAULT_255_2_778
10
39.0088592
20
30.3403816
40
0.3532573
50
178.2696775
51
226.9956724
0
ARC
8
DEFAULT_255_2_778
10
39.217201
20
30.3615613
40
0.5615366
50
180.7976839
51
181.0727522
0
ARC
8
DEFAULT_255_2_778
10
39.1095634
20
30.3479123
40
0.2345743
50
176.9621348
51
209.7868297
0
ARC
8
DEFAULT_255_2_778
10
39.0168394
20
30.3030991
40
0.1320339
50
212.8999839
51
226.2995289
0
ARC
8
DEFAULT_255_2_778
10
39.0532319
20
30.3527575
40
0.1932437
50
228.671586
51
273.3484068
0
ARC
8
DEFAULT_255_2_778
10
39.0780123
20
30.3462112
40
0.1868554
50
265.8588532
51
311.8434579
0
ARC
8
DEFAULT_255_2_778
10
39.0554818
20
30.3375419
40
0.1967258
50
318.4307712
51
0.9746455
0
ARC
8
DEFAULT_255_2_778
10
38.8641831
20
30.3602077
40
0.3884768
50
357.1494295
51
359.1646061
0
LINE
8
DEFAULT_255_2_778
10
39.2529188
20
31.0641437
11
39.4733188
21
31.0641437
0
LINE
8
DEFAULT_255_2_778
10
39.4733188
20
31.0641437
11
39.4733188
21
30.3616437
0
LINE
8
DEFAULT_255_2_778
10
38.6557188
20
30.3537437
11
38.6557188
21
31.0641437
0
LINE
8
DEFAULT_255_2_778
10
38.6557188
20
31.0641437
11
38.8753188
21
31.0641437
0
LINE
8
DEFAULT_255_2_778
10
38.8753188
20
31.0641437
11
38.8753188
21
30.3603437
0
LINE
8
DEFAULT_255_2_778
10
39.2526188
20
30.3545437
11
39.2526188
21
31.0641437
0
LINE
8
DEFAULT_255_2_778
10
39.2526188
20
31.0641437
11
39.2529188
21
31.0641437
0
LINE
8
DEFAULT_255_2_778
10
40.4561865
20
31.0641677
11
40.4561865
21
30.8860677
0
LINE
8
DEFAULT_255_2_778
10
40.4561865
20
30.8860677
11
40.1294865
21
30.8860677
0
LINE
8
DEFAULT_255_2_778
10
40.1294865
20
30.8860677
11
40.1294865
21
29.9976677
0
LINE
8
DEFAULT_255_2_778
10
40.1294865
20
29.9976677
11
39.9098865
21
29.9976677
0
LINE
8
DEFAULT_255_2_778
10
39.9098865
20
29.9976677
11
39.9098865
21
30.8860677
0
LINE
8
DEFAULT_255_2_778
10
39.9098865
20
30.8860677
11
39.5875865
21
30.8860677
0
LINE
8
DEFAULT_255_2_778
10
39.5875865
20
30.8860677
11
39.5875865
21
31.0641677
0
LINE
8
DEFAULT_255_2_778
10
39.5875865
20
31.0641677
11
40.4561865
21
31.0641677
0
LINE
8
DEFAULT_255_2_778
10
40.4561865
20
31.0641677
11
40.4561865
21
31.0641677
0
LINE
8
DEFAULT_255_2_778
10
40.4477281
20
29.0556614
11
40.4477281
21
27.9878614
0
LINE
8
DEFAULT_255_2_778
10
40.4477281
20
27.9878614
11
40.2361281
21
27.9878614
0
LINE
8
DEFAULT_255_2_778
10
40.2361281
20
27.9878614
11
40.2361281
21
28.8038614
0
LINE
8
DEFAULT_255_2_778
10
40.2361281
20
28.8038614
11
39.9834281
21
28.7254614
0
LINE
8
DEFAULT_255_2_778
10
39.9834281
20
28.7254614
11
39.9834281
21
28.8977614
0
LINE
8
DEFAULT_255_2_778
10
39.9834281
20
28.8977614
11
40.4250281
21
29.0559614
0
LINE
8
DEFAULT_255_2_778
10
40.4250281
20
29.0559614
11
40.4477281
21
29.0559614
0
LINE
8
DEFAULT_255_2_778
10
40.4477281
20
29.0559614
11
40.4477281
21
29.0556614
0
ARC
8
DEFAULT_255_2_778
10
37.3277487
20
28.6561822
40
0.5588141
50
358.7869517
51
12.9921022
0
ARC
8
DEFAULT_255_2_778
10
37.6682744
20
28.7325553
40
0.2098465
50
13.5758153
51
29.9285878
0
ARC
8
DEFAULT_255_2_778
10
37.7444299
20
28.7752133
40
0.122568
50
30.4082557
51
93.5045812
0
ARC
8
DEFAULT_255_2_778
10
37.7296024
20
28.7767915
40
0.1209832
50
86.5240516
51
148.4182752
0
ARC
8
DEFAULT_255_2_778
10
37.8716811
20
28.7060753
40
0.2794136
50
151.3243527
51
175.6540352
0
ARC
8
DEFAULT_255_2_778
10
38.2765253
20
28.649404
40
0.6878733
50
173.5020633
51
179.0963837
0
ARC
8
DEFAULT_255_2_778
10
38.1494439
20
28.3890706
40
0.5608322
50
178.7860693
51
193.3045862
0
ARC
8
DEFAULT_255_2_778
10
37.8225809
20
28.3149908
40
0.2257159
50
194.0987978
51
208.5104923
0
ARC
8
DEFAULT_255_2_778
10
37.7304594
20
28.2644745
40
0.1206545
50
208.3116659
51
273.5534577
0
ARC
8
DEFAULT_255_2_778
10
37.7459622
20
28.2631701
40
0.119388
50
266.1459677
51
330.7596286
0
ARC
8
DEFAULT_255_2_778
10
37.5752967
20
28.3432469
40
0.3077184
50
333.2726597
51
356.0840999
0
ARC
8
DEFAULT_255_2_778
10
37.1494811
20
28.397669
40
0.7366882
50
354.1226132
51
359.4698049
0
ARC
8
DEFAULT_255_2_778
10
37.3675308
20
28.4163893
40
0.7306148
50
344.463457
51
0.9852379
0
ARC
8
DEFAULT_255_2_778
10
37.6953891
20
28.3270042
40
0.390798
50
322.7675771
51
344.2143807
0
ARC
8
DEFAULT_255_2_778
10
37.7610642
20
28.2888621
40
0.3155693
50
268.0194538
51
321.0663607
0
ARC
8
DEFAULT_255_2_778
10
37.7385745
20
28.4918852
40
0.5185334
50
269.995915
51
271.2800467
0
ARC
8
DEFAULT_255_2_778
10
37.7237516
20
28.3138543
40
0.3408231
50
232.4607126
51
272.4864393
0
ARC
8
DEFAULT_255_2_778
10
37.7055813
20
28.2753383
40
0.2993482
50
218.6315855
51
230.7263214
0
ARC
8
DEFAULT_255_2_778
10
37.8173098
20
28.3500694
40
0.4334326
50
187.8484572
51
217.1277292
0
ARC
8
DEFAULT_255_2_778
10
38.1873065
20
28.4215352
40
0.809976
50
180.2393183
51
189.2826093
0
ARC
8
DEFAULT_255_2_778
10
38.110821
20
28.6269926
40
0.7335907
50
164.6854244
51
180.9795011
0
ARC
8
DEFAULT_255_2_778
10
37.7734219
20
28.7182729
40
0.3840653
50
142.2032321
51
164.5251505
0
ARC
8
DEFAULT_255_2_778
10
37.715983
20
28.7501437
40
0.3193024
50
87.6981501
51
140.4052675
0
ARC
8
DEFAULT_255_2_778
10
37.7369027
20
28.5524055
40
0.5168464
50
89.9961439
51
90.8974512
0
ARC
8
DEFAULT_255_2_778
10
37.7516784
20
28.7277328
40
0.3418373
50
52.7964154
51
92.4715033
0
ARC
8
DEFAULT_255_2_778
10
37.7709103
20
28.7681366
40
0.2981667
50
38.7218899
51
51.0451729
0
ARC
8
DEFAULT_255_2_778
10
37.6628912
20
28.6949271
40
0.4283655
50
8.1434639
51
37.3236298
0
ARC
8
DEFAULT_255_2_778
10
37.2945105
20
28.6224698
40
0.8035329
50
0.2197797
51
9.5372306
0
LINE
8
DEFAULT_255_2_778
10
37.8864375
20
28.3908521
11
37.8864375
21
28.6443521
0
LINE
8
DEFAULT_255_2_778
10
37.5887375
20
28.6602521
11
37.5887375
21
28.4009521
0
LINE
8
DEFAULT_255_2_778
10
37.8861375
20
28.3908521
11
37.8864375
21
28.3908521
0
LINE
8
DEFAULT_255_2_778
10
38.0980375
20
28.6252521
11
38.0980375
21
28.4289521
0
LINE
8
DEFAULT_255_2_778
10
37.3773375
20
28.4181521
11
37.3773375
21
28.6144521
0
LINE
8
DEFAULT_255_2_778
10
38.0980375
20
28.6255521
11
38.0980375
21
28.6252521
0
ARC
8
DEFAULT_255_2_778
10
37.6612175
20
26.9574825
40
0.5987939
50
89.8748857
51
180.1251076
0
ARC
8
DEFAULT_255_2_778
10
37.6640088
20
26.9577585
40
0.5985184
50
359.8484135
51
90.142038
0
ARC
8
DEFAULT_255_2_778
10
37.6640938
20
26.9546062
40
0.5984333
50
269.8498027
51
0.1501973
0
ARC
8
DEFAULT_255_2_778
10
37.6609415
20
26.9546912
40
0.5985184
50
179.857962
51
270.1515865
0
LINE
8
DEFAULT_255_2_778
10
37.062425
20
26.956175
11
37.062425
21
26.956175
0
ARC
8
DEFAULT_255_2_778
10
40.1613175
20
26.9574825
40
0.5987939
50
89.8748857
51
180.1251076
0
ARC
8
DEFAULT_255_2_778
10
40.1641088
20
26.9577585
40
0.5985184
50
359.8484135
51
90.142038
0
ARC
8
DEFAULT_255_2_778
10
40.1641938
20
26.9546062
40
0.5984333
50
269.8498027
51
0.1501973
0
ARC
8
DEFAULT_255_2_778
10
40.1610415
20
26.9546912
40
0.5985184
50
179.857962
51
270.1515865
0
LINE
8
DEFAULT_255_2_778
10
39.562525
20
26.956175
11
39.562525
21
26.956175
0
ARC
8
DEFAULT_255_2_778
10
40.1566035
20
25.7745067
40
0.1599071
50
265.3771769
51
311.1364246
0
ARC
8
DEFAULT_255_2_778
10
40.1856887
20
25.7295686
40
0.1072023
50
315.2324711
51
316.1633608
0
ARC
8
DEFAULT_255_2_778
10
40.1548785
20
25.7551976
40
0.1472047
50
317.2737398
51
2.7342286
0
ARC
8
DEFAULT_255_2_778
10
40.1715749
20
25.7699111
40
0.1305674
50
356.6229219
51
45.1762349
0
ARC
8
DEFAULT_255_2_778
10
40.1663334
20
25.7496957
40
0.1489735
50
49.2305192
51
93.3162601
0
ARC
8
DEFAULT_255_2_778
10
40.1524443
20
25.7422803
40
0.1562285
50
88.0664143
51
128.1606677
0
ARC
8
DEFAULT_255_2_778
10
40.1214141
20
25.7810984
40
0.1065347
50
127.9380258
51
181.4945362
0
ARC
8
DEFAULT_255_2_778
10
40.0634674
20
25.781799
40
0.260275
50
145.7934795
51
180.7659286
0
ARC
8
DEFAULT_255_2_778
10
40.0941693
20
25.7577888
40
0.2991753
50
113.6583533
51
145.2961367
0
ARC
8
DEFAULT_255_2_778
10
40.1474587
20
25.6480135
40
0.4211355
50
89.3255879
51
114.3059334
0
ARC
8
DEFAULT_255_2_778
10
40.1653838
20
25.6050014
40
0.4642995
50
66.513257
51
91.6005164
0
ARC
8
DEFAULT_255_2_778
10
40.2228012
20
25.7558762
40
0.3031332
50
50.00883
51
65.1014329
0
ARC
8
DEFAULT_255_2_778
10
40.2379639
20
25.7786172
40
0.275982
50
357.1967137
51
49.3863918
0
ARC
8
DEFAULT_255_2_778
10
40.2897481
20
25.7646431
40
0.2238681
50
323.161298
51
0.1220015
0
ARC
8
DEFAULT_255_2_778
10
40.2352995
20
25.8005068
40
0.2889742
50
293.7570937
51
323.9430662
0
ARC
8
DEFAULT_255_2_778
10
40.2708779
20
25.2817542
40
0.2668066
50
36.2234582
51
72.363159
0
ARC
8
DEFAULT_255_2_778
10
40.2671288
20
25.2932983
40
0.2632617
50
358.6334289
51
33.7136634
0
ARC
8
DEFAULT_255_2_778
10
40.2498162
20
25.2772065
40
0.280671
50
309.0439911
51
2.0036859
0
ARC
8
DEFAULT_255_2_778
10
40.1813715
20
25.372166
40
0.3975928
50
271.4284119
51
308.0844577
0
ARC
8
DEFAULT_255_2_778
10
40.1526534
20
25.6080436
40
0.6345239
50
269.9604732
51
273.4902769
0
ARC
8
DEFAULT_255_2_778
10
40.1376991
20
25.3802695
40
0.4070087
50
236.3640883
51
272.0439689
0
ARC
8
DEFAULT_255_2_778
10
40.1073804
20
25.3189598
40
0.339282
50
230.3784567
51
234.8917243
0
ARC
8
DEFAULT_255_2_778
10
40.06471
20
25.271022
40
0.2751549
50
178.0427052
51
230.8568289
0
ARC
8
DEFAULT_255_2_778
10
40.1242517
20
25.2772193
40
0.1228777
50
178.507508
51
230.6351076
0
ARC
8
DEFAULT_255_2_778
10
40.1521386
20
25.3097935
40
0.1657515
50
230.3241343
51
271.7552658
0
ARC
8
DEFAULT_255_2_778
10
40.1668602
20
25.310532
40
0.1666915
50
266.6830701
51
310.6801282
0
ARC
8
DEFAULT_255_2_778
10
40.180646
20
25.2840551
40
0.1377945
50
313.510415
51
2.4392907
0
ARC
8
DEFAULT_255_2_778
10
40.1784119
20
25.3065019
40
0.1408831
50
353.2405546
51
89.2538047
0
ARC
8
DEFAULT_255_2_778
10
40.1437533
20
25.1233624
40
0.3260592
50
83.5738557
51
90.182337
0
LINE
8
DEFAULT_255_2_778
10
40.0310156
20
25.4494198
11
40.0310156
21
25.6151198
0
LINE
8
DEFAULT_255_2_778
10
40.0310156
20
25.6151198
11
40.1437156
21
25.6151198
0
LINE
8
DEFAULT_255_2_778
10
40.0149156
20
25.7783198
11
39.8032156
21
25.7783198
0
LINE
8
DEFAULT_255_2_778
10
39.7897156
20
25.2804198
11
40.0014156
21
25.2804198
0
LINE
8
DEFAULT_255_2_778
10
40.1427156
20
25.4494198
11
40.0305156
21
25.4494198
0
LINE
8
DEFAULT_255_2_778
10
40.0305156
20
25.4494198
11
40.0310156
21
25.4494198
0
ARC
8
DEFAULT_255_2_778
10
36.9734964
20
26.1474393
40
0.9435217
50
316.7351377
51
325.5602328
0
ARC
8
DEFAULT_255_2_778
10
37.3625956
20
25.87262
40
0.4672487
50
326.369372
51
329.6141745
0
ARC
8
DEFAULT_255_2_778
10
37.5823325
20
25.753407
40
0.2175536
50
327.4251811
51
358.0689234
0
ARC
8
DEFAULT_255_2_778
10
37.6381981
20
25.7555649
40
0.1618428
50
356.6387993
51
39.1185939
0
ARC
8
DEFAULT_255_2_778
10
37.6692163
20
25.7693246
40
0.1294023
50
43.0601273
51
93.568318
0
ARC
8
DEFAULT_255_2_778
10
37.6548893
20
25.7584191
40
0.1401974
50
87.4354288
51
139.764951
0
ARC
8
DEFAULT_255_2_778
10
37.7028333
20
25.7283407
40
0.1963895
50
142.1014319
51
182.703944
0
ARC
8
DEFAULT_255_2_778
10
37.6439177
20
25.7227088
40
0.349774
50
150.0793683
51
180.5950855
0
ARC
8
DEFAULT_255_2_778
10
37.6240499
20
25.7340614
40
0.3268916
50
117.6672258
51
150.0670092
0
ARC
8
DEFAULT_255_2_778
10
37.6580194
20
25.6702883
40
0.3991464
50
89.0176529
51
117.735166
0
ARC
8
DEFAULT_255_2_778
10
37.677728
20
25.6243823
40
0.4451797
50
66.5630265
51
91.6560496
0
ARC
8
DEFAULT_255_2_778
10
37.7357615
20
25.7763487
40
0.2827601
50
49.1625873
51
65.1044403
0
ARC
8
DEFAULT_255_2_778
10
37.7328642
20
25.7831767
40
0.2795681
50
356.6779035
51
47.7981619
0
ARC
8
DEFAULT_255_2_778
10
37.6535273
20
25.7724306
40
0.3584767
50
332.3145172
51
359.1281497
0
ARC
8
DEFAULT_255_2_778
10
37.3362297
20
25.9392478
40
0.7169537
50
320.185503
51
332.2908303
0
ARC
8
DEFAULT_255_2_778
10
36.7694461
20
26.3850575
40
1.4379118
50
317.5517321
51
321.001499
0
LINE
8
DEFAULT_255_2_778
10
38.0466625
20
25.158676
11
38.0466625
21
24.987976
0
LINE
8
DEFAULT_255_2_778
10
38.0466625
20
24.987976
11
37.3155625
21
24.987976
0
LINE
8
DEFAULT_255_2_778
10
37.3155625
20
24.987976
11
37.3155625
21
25.132976
0
LINE
8
DEFAULT_255_2_778
10
37.3155625
20
25.132976
11
37.6605625
21
25.500776
0
LINE
8
DEFAULT_255_2_778
10
37.5066625
20
25.719076
11
37.2941625
21
25.719076
0
LINE
8
DEFAULT_255_2_778
10
37.8304625
20
25.414576
11
37.5881625
21
25.158976
0
LINE
8
DEFAULT_255_2_778
10
37.5881625
20
25.158976
11
38.0466625
21
25.158976
0
LINE
8
DEFAULT_255_2_778
10
38.0466625
20
25.158976
11
38.0466625
21
25.158676
0
ARC
8
DEFAULT_255_2_778
10
37.6612175
20
23.9576825
40
0.5987939
50
89.8748857
51
180.1251076
0
ARC
8
DEFAULT_255_2_778
10
37.6640088
20
23.9579585
40
0.5985184
50
359.8484135
51
90.142038
0
ARC
8
DEFAULT_255_2_778
10
37.6640938
20
23.9548062
40
0.5984333
50
269.8498027
51
0.1501973
0
ARC
8
DEFAULT_255_2_778
10
37.6609415
20
23.9548912
40
0.5985184
50
179.857962
51
270.1515865
0
LINE
8
DEFAULT_255_2_778
10
37.062425
20
23.956375
11
37.062425
21
23.956375
0
ARC
8
DEFAULT_255_2_778
10
40.1613175
20
23.9576825
40
0.5987939
50
89.8748857
51
180.1251076
0
ARC
8
DEFAULT_255_2_778
10
40.1641088
20
23.9579585
40
0.5985184
50
359.8484135
51
90.142038
0
ARC
8
DEFAULT_255_2_778
10
40.1641938
20
23.9548062
40
0.5984333
50
269.8498027
51
0.1501973
0
ARC
8
DEFAULT_255_2_778
10
40.1610415
20
23.9548912
40
0.5985184
50
179.857962
51
270.1515865
0
LINE
8
DEFAULT_255_2_778
10
39.562525
20
23.956375
11
39.562525
21
23.956375
0
ARC
8
DEFAULT_255_2_778
10
37.6612175
20
20.9575825
40
0.5987939
50
89.8748857
51
180.1251076
0
ARC
8
DEFAULT_255_2_778
10
37.6640088
20
20.9578585
40
0.5985184
50
359.8484135
51
90.142038
0
ARC
8
DEFAULT_255_2_778
10
37.6640938
20
20.9547062
40
0.5984333
50
269.8498027
51
0.1501973
0
ARC
8
DEFAULT_255_2_778
10
37.6609415
20
20.9547912
40
0.5985184
50
179.857962
51
270.1515865
0
LINE
8
DEFAULT_255_2_778
10
37.062425
20
20.956275
11
37.062425
21
20.956275
0
ARC
8
DEFAULT_255_2_778
10
40.1613175
20
20.9575825
40
0.5987939
50
89.8748857
51
180.1251076
0
ARC
8
DEFAULT_255_2_778
10
40.1641088
20
20.9578585
40
0.5985184
50
359.8484135
51
90.142038
0
ARC
8
DEFAULT_255_2_778
10
40.1641938
20
20.9547062
40
0.5984333
50
269.8498027
51
0.1501973
0
ARC
8
DEFAULT_255_2_778
10
40.1610415
20
20.9547912
40
0.5985184
50
179.857962
51
270.1515865
0
LINE
8
DEFAULT_255_2_778
10
39.562525
20
20.956275
11
39.562525
21
20.956275
0
ARC
8
DEFAULT_255_2_778
10
37.6767224
20
22.4036971
40
0.0975315
50
134.8889947
51
180.0595145
0
ARC
8
DEFAULT_255_2_778
10
37.6769897
20
22.4039642
40
0.0975317
50
89.9405022
51
135.1109578
0
ARC
8
DEFAULT_255_2_778
10
37.6771922
20
22.4039642
40
0.0975317
50
44.8890422
51
90.0594978
0
ARC
8
DEFAULT_255_2_778
10
37.6774594
20
22.4036971
40
0.0975316
50
359.9404856
51
45.1109636
0
ARC
8
DEFAULT_255_2_778
10
37.677286
20
22.4035664
40
0.0977049
50
314.9312896
51
0.0172405
0
ARC
8
DEFAULT_255_2_778
10
37.6771923
20
22.4032273
40
0.0975315
50
269.9404689
51
315.1110111
0
ARC
8
DEFAULT_255_2_778
10
37.6769896
20
22.4032276
40
0.0975318
50
224.8891198
51
270.0595143
0
ARC
8
DEFAULT_255_2_778
10
37.6768958
20
22.4035664
40
0.0977049
50
179.9827595
51
225.0687104
0
LINE
8
DEFAULT_255_2_778
10
37.5791909
20
22.4035958
11
37.5791909
21
22.4035958
0
ARC
8
DEFAULT_255_2_778
10
40.1476356
20
22.5501971
40
0.0975315
50
134.8889947
51
180.0595145
0
ARC
8
DEFAULT_255_2_778
10
40.1479029
20
22.5504642
40
0.0975317
50
89.9405022
51
135.1109578
0
ARC
8
DEFAULT_255_2_778
10
40.1480336
20
22.5502909
40
0.0977049
50
44.9312896
51
90.0172405
0
ARC
8
DEFAULT_255_2_778
10
40.1483726
20
22.5501971
40
0.0975316
50
359.9404856
51
45.1109636
0
ARC
8
DEFAULT_255_2_778
10
40.1483727
20
22.5499945
40
0.0975315
50
314.8889947
51
0.0595145
0
ARC
8
DEFAULT_255_2_778
10
40.1480336
20
22.5499007
40
0.0977049
50
269.9827595
51
315.0687104
0
ARC
8
DEFAULT_255_2_778
10
40.1479029
20
22.5497276
40
0.0975318
50
224.8891198
51
270.0595143
0
ARC
8
DEFAULT_255_2_778
10
40.147636
20
22.5499946
40
0.0975318
50
179.940519
51
225.1108685
0
LINE
8
DEFAULT_255_2_778
10
40.0501042
20
22.5500958
11
40.0501042
21
22.5500958
0
LINE
8
DEFAULT_255_2_778
10
36.6623834
20
57.0566
11
41.1623834
21
57.0566
0
ARC
8
DEFAULT_255_2_778
10
37.6685356
20
58.2255971
40
0.0975315
50
134.8889947
51
180.0595145
0
ARC
8
DEFAULT_255_2_778
10
37.6688029
20
58.2258642
40
0.0975317
50
89.9405022
51
135.1109578
0
ARC
8
DEFAULT_255_2_778
10
37.6689336
20
58.2256909
40
0.0977049
50
44.9312896
51
90.0172405
0
ARC
8
DEFAULT_255_2_778
10
37.6692726
20
58.2255971
40
0.0975316
50
359.9404856
51
45.1109636
0
ARC
8
DEFAULT_255_2_778
10
37.6692727
20
58.2253945
40
0.0975315
50
314.8889947
51
0.0595145
0
ARC
8
DEFAULT_255_2_778
10
37.6689336
20
58.2253007
40
0.0977049
50
269.9827595
51
315.0687104
0
ARC
8
DEFAULT_255_2_778
10
37.6688029
20
58.2251276
40
0.0975318
50
224.8891198
51
270.0595143
0
ARC
8
DEFAULT_255_2_778
10
37.668536
20
58.2253946
40
0.0975318
50
179.940519
51
225.1108685
0
LINE
8
DEFAULT_255_2_778
10
37.5710042
20
58.2254958
11
37.5710042
21
58.2254958
0
ARC
8
DEFAULT_255_2_778
10
40.2373356
20
58.2498971
40
0.0975315
50
134.8889947
51
180.0595145
0
ARC
8
DEFAULT_255_2_778
10
40.2376029
20
58.2501642
40
0.0975317
50
89.9405022
51
135.1109578
0
ARC
8
DEFAULT_255_2_778
10
40.2378054
20
58.2501642
40
0.0975317
50
44.8890422
51
90.0594978
0
ARC
8
DEFAULT_255_2_778
10
40.2380726
20
58.2498971
40
0.0975316
50
359.9404856
51
45.1109636
0
ARC
8
DEFAULT_255_2_778
10
40.2378993
20
58.2497664
40
0.0977049
50
314.9312896
51
0.0172405
0
ARC
8
DEFAULT_255_2_778
10
40.2378055
20
58.2494273
40
0.0975315
50
269.9404689
51
315.1110111
0
ARC
8
DEFAULT_255_2_778
10
40.2376029
20
58.2494276
40
0.0975318
50
224.8891198
51
270.0595143
0
ARC
8
DEFAULT_255_2_778
10
40.2375091
20
58.2497664
40
0.0977049
50
179.9827595
51
225.0687104
0
LINE
8
DEFAULT_255_2_778
10
40.1398042
20
58.2497958
11
40.1398042
21
58.2497958
0
LINE
8
DEFAULT_255_2_778
10
38.4638979
20
56.5070677
11
38.4638979
21
55.4405677
0
LINE
8
DEFAULT_255_2_778
10
38.4638979
20
55.4405677
11
38.2442979
21
55.4405677
0
LINE
8
DEFAULT_255_2_778
10
38.2442979
20
55.4405677
11
38.2442979
21
56.5070677
0
LINE
8
DEFAULT_255_2_778
10
38.2442979
20
56.5070677
11
38.4638979
21
56.5070677
0
LINE
8
DEFAULT_255_2_778
10
38.4638979
20
56.5070677
11
38.4638979
21
56.5070677
0
LINE
8
DEFAULT_255_2_778
10
39.5348802
20
56.5070677
11
39.5348802
21
55.4405677
0
LINE
8
DEFAULT_255_2_778
10
39.5348802
20
55.4405677
11
39.3152802
21
55.4405677
0
LINE
8
DEFAULT_255_2_778
10
39.3152802
20
55.4405677
11
38.8874802
21
56.1421677
0
LINE
8
DEFAULT_255_2_778
10
38.8874802
20
56.1421677
11
38.8874802
21
55.4405677
0
LINE
8
DEFAULT_255_2_778
10
38.8874802
20
55.4405677
11
38.6678802
21
55.4405677
0
LINE
8
DEFAULT_255_2_778
10
38.6678802
20
55.4405677
11
38.6678802
21
56.5070677
0
LINE
8
DEFAULT_255_2_778
10
38.6678802
20
56.5070677
11
38.8874802
21
56.5070677
0
LINE
8
DEFAULT_255_2_778
10
38.8874802
20
56.5070677
11
39.3158802
21
55.8040677
0
LINE
8
DEFAULT_255_2_778
10
39.3158802
20
55.8040677
11
39.3158802
21
56.5070677
0
LINE
8
DEFAULT_255_2_778
10
39.3158802
20
56.5070677
11
39.5348802
21
56.5070677
0
LINE
8
DEFAULT_255_2_778
10
39.5348802
20
56.5070677
11
39.5348802
21
56.5070677
0
ARC
8
DEFAULT_255_2_778
10
37.661196
20
68.5577039
40
0.5987724
50
89.8823921
51
180.1271659
0
ARC
8
DEFAULT_255_2_778
10
37.6638793
20
68.5581284
40
0.5983483
50
359.8320945
51
90.1392553
0
ARC
8
DEFAULT_255_2_778
10
37.6637938
20
68.5548062
40
0.5984333
50
269.8498027
51
0.1501973
0
ARC
8
DEFAULT_255_2_778
10
37.6606415
20
68.5548912
40
0.5985184
50
179.857962
51
270.1515865
0
LINE
8
DEFAULT_255_2_778
10
37.062125
20
68.556375
11
37.062425
21
68.556375
0
ARC
8
DEFAULT_255_2_778
10
40.1613175
20
68.5576825
40
0.5987939
50
89.8748857
51
180.1251076
0
ARC
8
DEFAULT_255_2_778
10
40.1641088
20
68.5579585
40
0.5985184
50
359.8484135
51
90.142038
0
ARC
8
DEFAULT_255_2_778
10
40.1641938
20
68.5548062
40
0.5984333
50
269.8498027
51
0.1501973
0
ARC
8
DEFAULT_255_2_778
10
40.1610415
20
68.5548912
40
0.5985184
50
179.857962
51
270.1515865
0
LINE
8
DEFAULT_255_2_778
10
39.562525
20
68.556375
11
39.562525
21
68.556375
0
LINE
8
DEFAULT_255_2_778
10
40.4477281
20
67.7369614
11
40.4477281
21
66.6691614
0
LINE
8
DEFAULT_255_2_778
10
40.4477281
20
66.6691614
11
40.2361281
21
66.6691614
0
LINE
8
DEFAULT_255_2_778
10
40.2361281
20
66.6691614
11
40.2361281
21
67.4851614
0
LINE
8
DEFAULT_255_2_778
10
40.2361281
20
67.4851614
11
39.9834281
21
67.4067614
0
LINE
8
DEFAULT_255_2_778
10
39.9834281
20
67.4067614
11
39.9834281
21
67.5790614
0
LINE
8
DEFAULT_255_2_778
10
39.9834281
20
67.5790614
11
40.4250281
21
67.7372614
0
LINE
8
DEFAULT_255_2_778
10
40.4250281
20
67.7372614
11
40.4477281
21
67.7372614
0
LINE
8
DEFAULT_255_2_778
10
40.4477281
20
67.7372614
11
40.4477281
21
67.7369614
0
ARC
8
DEFAULT_255_2_778
10
37.3675308
20
67.0973893
40
0.7306148
50
344.463457
51
0.9852379
0
ARC
8
DEFAULT_255_2_778
10
37.6953891
20
67.0080042
40
0.390798
50
322.7675771
51
344.2143807
0
ARC
8
DEFAULT_255_2_778
10
37.7610642
20
66.9698621
40
0.3155693
50
268.0194538
51
321.0663607
0
ARC
8
DEFAULT_255_2_778
10
37.7385745
20
67.1728852
40
0.5185334
50
269.995915
51
271.2800467
0
ARC
8
DEFAULT_255_2_778
10
37.7237516
20
66.9948543
40
0.3408231
50
232.4607126
51
272.4864393
0
ARC
8
DEFAULT_255_2_778
10
37.7055813
20
66.9563383
40
0.2993482
50
218.6315855
51
230.7263214
0
ARC
8
DEFAULT_255_2_778
10
37.8173098
20
67.0310694
40
0.4334326
50
187.8484572
51
217.1277292
0
ARC
8
DEFAULT_255_2_778
10
38.1873065
20
67.1025352
40
0.809976
50
180.2393183
51
189.2826093
0
ARC
8
DEFAULT_255_2_778
10
38.110821
20
67.3079926
40
0.7335907
50
164.6854244
51
180.9795011
0
ARC
8
DEFAULT_255_2_778
10
37.7734219
20
67.3992729
40
0.3840653
50
142.2032321
51
164.5251505
0
ARC
8
DEFAULT_255_2_778
10
37.715983
20
67.4311437
40
0.3193024
50
87.6981501
51
140.4052675
0
ARC
8
DEFAULT_255_2_778
10
37.7369027
20
67.2334055
40
0.5168464
50
89.9961439
51
90.8974512
0
ARC
8
DEFAULT_255_2_778
10
37.7516784
20
67.4087328
40
0.3418373
50
52.7964154
51
92.4715033
0
ARC
8
DEFAULT_255_2_778
10
37.7709103
20
67.4491366
40
0.2981667
50
38.7218899
51
51.0451729
0
ARC
8
DEFAULT_255_2_778
10
37.6628912
20
67.3759271
40
0.4283655
50
8.1434639
51
37.3236298
0
ARC
8
DEFAULT_255_2_778
10
37.2945105
20
67.3034698
40
0.8035329
50
0.2197797
51
9.5372306
0
LINE
8
DEFAULT_255_2_778
10
38.0980375
20
67.3062521
11
38.0980375
21
67.1099521
0
LINE
8
DEFAULT_255_2_778
10
37.3773375
20
67.0991521
11
37.3773375
21
67.2954521
0
LINE
8
DEFAULT_255_2_778
10
38.0980375
20
67.3065521
11
38.0980375
21
67.3062521
0
ARC
8
DEFAULT_255_2_778
10
37.3275504
20
67.3371731
40
0.5589325
50
358.7840558
51
12.9909967
0
ARC
8
DEFAULT_255_2_778
10
37.6687966
20
67.4137142
40
0.209225
50
13.5741252
51
29.9637583
0
ARC
8
DEFAULT_255_2_778
10
37.7443494
20
67.4561734
40
0.122568
50
30.4082557
51
93.5045812
0
ARC
8
DEFAULT_255_2_778
10
37.7294914
20
67.4579896
40
0.1207475
50
86.5027718
51
148.4820679
0
ARC
8
DEFAULT_255_2_778
10
37.8710016
20
67.3870181
40
0.2788088
50
151.2523009
51
175.6410209
0
ARC
8
DEFAULT_255_2_778
10
38.2744674
20
67.3304025
40
0.6858955
50
173.486473
51
179.0969853
0
ARC
8
DEFAULT_255_2_778
10
38.1493634
20
67.0700307
40
0.5608322
50
178.7860693
51
193.3045862
0
ARC
8
DEFAULT_255_2_778
10
37.8225004
20
66.9959509
40
0.2257159
50
194.0987978
51
208.5104923
0
ARC
8
DEFAULT_255_2_778
10
37.7303789
20
66.9454347
40
0.1206545
50
208.3116659
51
273.5534577
0
ARC
8
DEFAULT_255_2_778
10
37.7459575
20
66.9439904
40
0.1192536
50
266.1051287
51
330.8004676
0
ARC
8
DEFAULT_255_2_778
10
37.5752163
20
67.0242071
40
0.3077184
50
333.2726597
51
356.0840999
0
ARC
8
DEFAULT_255_2_778
10
37.1494006
20
67.0786292
40
0.7366882
50
354.1226132
51
359.4698049
0
ARC
8
DEFAULT_255_2_778
10
37.6611644
20
65.5579051
40
0.5987087
50
89.8667247
51
180.1237267
0
ARC
8
DEFAULT_255_2_778
10
37.662409
20
65.5565641
40
0.6000481
50
0.0031589
51
89.9858671
0
LINE
8
DEFAULT_255_2_778
10
38.2624571
20
65.5565972
11
38.262457
21
65.5564122
0
ARC
8
DEFAULT_255_2_778
10
37.662409
20
65.5565602
40
0.6000481
50
270.0031589
51
359.9858671
0
LINE
8
DEFAULT_255_2_778
10
37.6624421
20
64.9565122
11
37.662257
21
64.9565122
0
ARC
8
DEFAULT_255_2_778
10
37.6600518
20
65.5351144
40
0.5786064
50
269.9949407
51
270.2183764
0
ARC
8
DEFAULT_255_2_778
10
37.6599283
20
65.5541878
40
0.5976799
50
224.9935173
51
270.0069366
0
ARC
8
DEFAULT_255_2_778
10
37.6602549
20
65.5544583
40
0.5981021
50
180.0094853
51
224.9897192
0
ARC
8
DEFAULT_255_2_778
10
37.6390451
20
65.5544103
40
0.5768923
50
179.7813134
51
180.0050664
0
LINE
8
DEFAULT_255_2_778
10
37.886357
20
67.0718122
11
37.886357
21
67.3253122
0
LINE
8
DEFAULT_255_2_778
10
37.588657
20
67.3412122
11
37.588657
21
67.0819122
0
LINE
8
DEFAULT_255_2_778
10
37.886057
20
67.0718122
11
37.886357
21
67.0718122
0
LINE
8
DEFAULT_255_2_778
10
37.062157
20
65.5566122
11
37.062457
21
65.5566122
0
ARC
8
DEFAULT_255_2_778
10
40.1613175
20
65.5578825
40
0.5987939
50
89.8748857
51
180.1251076
0
ARC
8
DEFAULT_255_2_778
10
40.1641088
20
65.5581585
40
0.5985184
50
359.8484135
51
90.142038
0
ARC
8
DEFAULT_255_2_778
10
40.1641938
20
65.5550062
40
0.5984333
50
269.8498027
51
0.1501973
0
ARC
8
DEFAULT_255_2_778
10
40.1610415
20
65.5550912
40
0.5985184
50
179.857962
51
270.1515865
0
LINE
8
DEFAULT_255_2_778
10
39.562525
20
65.556575
11
39.562525
21
65.556575
0
ARC
8
DEFAULT_255_2_778
10
40.1566035
20
64.4555067
40
0.1599071
50
265.3771769
51
311.1364246
0
ARC
8
DEFAULT_255_2_778
10
40.1856887
20
64.4105686
40
0.1072023
50
315.2324711
51
316.1633608
0
ARC
8
DEFAULT_255_2_778
10
40.1548785
20
64.4361976
40
0.1472047
50
317.2737398
51
2.7342286
0
ARC
8
DEFAULT_255_2_778
10
40.1715749
20
64.4509111
40
0.1305674
50
356.6229219
51
45.1762349
0
ARC
8
DEFAULT_255_2_778
10
40.1663334
20
64.4306957
40
0.1489735
50
49.2305192
51
93.3162601
0
ARC
8
DEFAULT_255_2_778
10
40.1524443
20
64.4232803
40
0.1562285
50
88.0664143
51
128.1606677
0
ARC
8
DEFAULT_255_2_778
10
40.1214141
20
64.4620984
40
0.1065347
50
127.9380258
51
181.4945362
0
ARC
8
DEFAULT_255_2_778
10
40.0634674
20
64.462799
40
0.260275
50
145.7934795
51
180.7659286
0
ARC
8
DEFAULT_255_2_778
10
40.0941693
20
64.4387888
40
0.2991753
50
113.6583533
51
145.2961367
0
ARC
8
DEFAULT_255_2_778
10
40.1474587
20
64.3290135
40
0.4211355
50
89.3255879
51
114.3059334
0
ARC
8
DEFAULT_255_2_778
10
40.1653838
20
64.2860014
40
0.4642995
50
66.513257
51
91.6005164
0
ARC
8
DEFAULT_255_2_778
10
40.2228012
20
64.4368762
40
0.3031332
50
50.00883
51
65.1014329
0
ARC
8
DEFAULT_255_2_778
10
40.2379639
20
64.4596172
40
0.275982
50
357.1967137
51
49.3863918
0
ARC
8
DEFAULT_255_2_778
10
40.2897481
20
64.4456431
40
0.2238681
50
323.161298
51
0.1220015
0
ARC
8
DEFAULT_255_2_778
10
40.2352995
20
64.4815068
40
0.2889742
50
293.7570937
51
323.9430662
0
ARC
8
DEFAULT_255_2_778
10
40.2708779
20
63.9627542
40
0.2668066
50
36.2234582
51
72.363159
0
ARC
8
DEFAULT_255_2_778
10
40.2671288
20
63.9742983
40
0.2632617
50
358.6334289
51
33.7136634
0
ARC
8
DEFAULT_255_2_778
10
40.2498162
20
63.9582065
40
0.280671
50
309.0439911
51
2.0036859
0
ARC
8
DEFAULT_255_2_778
10
40.1813715
20
64.053166
40
0.3975928
50
271.4284119
51
308.0844577
0
ARC
8
DEFAULT_255_2_778
10
40.1526534
20
64.2890436
40
0.6345239
50
269.9604732
51
273.4902769
0
ARC
8
DEFAULT_255_2_778
10
40.1376991
20
64.0612695
40
0.4070087
50
236.3640883
51
272.0439689
0
ARC
8
DEFAULT_255_2_778
10
40.1073804
20
63.9999598
40
0.339282
50
230.3784567
51
234.8917243
0
ARC
8
DEFAULT_255_2_778
10
40.06471
20
63.952022
40
0.2751549
50
178.0427052
51
230.8568289
0
ARC
8
DEFAULT_255_2_778
10
40.1242517
20
63.9582193
40
0.1228777
50
178.507508
51
230.6351076
0
ARC
8
DEFAULT_255_2_778
10
40.1521386
20
63.9907935
40
0.1657515
50
230.3241343
51
271.7552658
0
ARC
8
DEFAULT_255_2_778
10
40.1668602
20
63.991532
40
0.1666915
50
266.6830701
51
310.6801282
0
ARC
8
DEFAULT_255_2_778
10
40.180646
20
63.9650551
40
0.1377945
50
313.510415
51
2.4392907
0
ARC
8
DEFAULT_255_2_778
10
40.1784119
20
63.9875019
40
0.1408831
50
353.2405546
51
89.2538047
0
ARC
8
DEFAULT_255_2_778
10
40.1437533
20
63.8043624
40
0.3260592
50
83.5738557
51
90.182337
0
LINE
8
DEFAULT_255_2_778
10
40.0310156
20
64.1304198
11
40.0310156
21
64.2961198
0
LINE
8
DEFAULT_255_2_778
10
40.0310156
20
64.2961198
11
40.1437156
21
64.2961198
0
LINE
8
DEFAULT_255_2_778
10
40.0149156
20
64.4593198
11
39.8032156
21
64.4593198
0
LINE
8
DEFAULT_255_2_778
10
39.7897156
20
63.9614198
11
40.0014156
21
63.9614198
0
LINE
8
DEFAULT_255_2_778
10
40.1427156
20
64.1304198
11
40.0305156
21
64.1304198
0
LINE
8
DEFAULT_255_2_778
10
40.0305156
20
64.1304198
11
40.0310156
21
64.1304198
0
ARC
8
DEFAULT_255_2_778
10
36.9734964
20
64.8284393
40
0.9435217
50
316.7351377
51
325.5602328
0
ARC
8
DEFAULT_255_2_778
10
37.3625956
20
64.55362
40
0.4672487
50
326.369372
51
329.6141745
0
ARC
8
DEFAULT_255_2_778
10
37.5823325
20
64.434407
40
0.2175536
50
327.4251811
51
358.0689234
0
ARC
8
DEFAULT_255_2_778
10
37.6381981
20
64.4365649
40
0.1618428
50
356.6387993
51
39.1185939
0
ARC
8
DEFAULT_255_2_778
10
37.6692163
20
64.4503246
40
0.1294023
50
43.0601273
51
93.568318
0
ARC
8
DEFAULT_255_2_778
10
37.6548893
20
64.4394191
40
0.1401974
50
87.4354288
51
139.764951
0
ARC
8
DEFAULT_255_2_778
10
37.7028333
20
64.4093407
40
0.1963895
50
142.1014319
51
182.703944
0
ARC
8
DEFAULT_255_2_778
10
37.6439177
20
64.4037088
40
0.349774
50
150.0793683
51
180.5950855
0
ARC
8
DEFAULT_255_2_778
10
37.6240499
20
64.4150614
40
0.3268916
50
117.6672258
51
150.0670092
0
ARC
8
DEFAULT_255_2_778
10
37.6580194
20
64.3512883
40
0.3991464
50
89.0176529
51
117.735166
0
ARC
8
DEFAULT_255_2_778
10
37.677728
20
64.3053823
40
0.4451797
50
66.5630265
51
91.6560496
0
ARC
8
DEFAULT_255_2_778
10
37.7357615
20
64.4573487
40
0.2827601
50
49.1625873
51
65.1044403
0
ARC
8
DEFAULT_255_2_778
10
37.7328642
20
64.4641767
40
0.2795681
50
356.6779035
51
47.7981619
0
ARC
8
DEFAULT_255_2_778
10
37.6535273
20
64.4534306
40
0.3584767
50
332.3145172
51
359.1281497
0
ARC
8
DEFAULT_255_2_778
10
37.3362297
20
64.6202478
40
0.7169537
50
320.185503
51
332.2908303
0
ARC
8
DEFAULT_255_2_778
10
36.7694461
20
65.0660575
40
1.4379118
50
317.5517321
51
321.001499
0
LINE
8
DEFAULT_255_2_778
10
38.0466625
20
63.839676
11
38.0466625
21
63.668976
0
LINE
8
DEFAULT_255_2_778
10
38.0466625
20
63.668976
11
37.3155625
21
63.668976
0
LINE
8
DEFAULT_255_2_778
10
37.3155625
20
63.668976
11
37.3155625
21
63.813976
0
LINE
8
DEFAULT_255_2_778
10
37.3155625
20
63.813976
11
37.6605625
21
64.181776
0
LINE
8
DEFAULT_255_2_778
10
37.5066625
20
64.400076
11
37.2941625
21
64.400076
0
LINE
8
DEFAULT_255_2_778
10
37.8304625
20
64.095576
11
37.5881625
21
63.839976
0
LINE
8
DEFAULT_255_2_778
10
37.5881625
20
63.839976
11
38.0466625
21
63.839976
0
LINE
8
DEFAULT_255_2_778
10
38.0466625
20
63.839976
11
38.0466625
21
63.839676
0
ARC
8
DEFAULT_255_2_778
10
40.2149788
20
61.0342552
40
0.33579
50
89.8324939
51
118.3240784
0
ARC
8
DEFAULT_255_2_778
10
40.2324007
20
61.0623147
40
0.3081679
50
44.5673663
51
93.0580862
0
ARC
8
DEFAULT_255_2_778
10
40.2411255
20
61.0804417
40
0.2893112
50
42.431856
51
43.2222334
0
ARC
8
DEFAULT_255_2_778
10
40.1909084
20
61.0481088
40
0.348335
50
2.7847945
51
40.7838467
0
ARC
8
DEFAULT_255_2_778
10
39.9428959
20
61.0122951
40
0.5982652
50
359.9088834
51
5.0572177
0
ARC
8
DEFAULT_255_2_778
10
40.1548067
20
61.0049454
40
0.3864067
50
332.4700843
51
0.9487748
0
ARC
8
DEFAULT_255_2_778
10
40.2254718
20
60.9695556
40
0.3073881
50
298.5882155
51
332.231583
0
ARC
8
DEFAULT_255_2_778
10
40.1905621
20
61.0441139
40
0.3895935
50
268.5583597
51
297.8494077
0
ARC
8
DEFAULT_255_2_778
10
40.1772127
20
61.0685222
40
0.4138936
50
244.8573709
51
270.491125
0
ARC
8
DEFAULT_255_2_778
10
40.1326632
20
60.9820174
40
0.3166772
50
214.1725837
51
245.5042147
0
ARC
8
DEFAULT_255_2_778
10
40.121001
20
60.9716139
40
0.3011921
50
181.0596795
51
213.7813159
0
ARC
8
DEFAULT_255_2_778
10
40.1861907
20
60.9740475
40
0.1569345
50
182.9233791
51
225.3803956
0
ARC
8
DEFAULT_255_2_778
10
40.1738244
20
60.9727075
40
0.1475043
50
228.435339
51
272.5007947
0
ARC
8
DEFAULT_255_2_778
10
40.1868843
20
60.9554767
40
0.1303015
50
267.0861243
51
322.9363181
0
ARC
8
DEFAULT_255_2_778
10
40.100313
20
61.0046611
40
0.2293906
50
326.1674309
51
1.6555938
0
ARC
8
DEFAULT_255_2_778
10
39.89031
20
61.0228688
40
0.4394506
50
358.4899811
51
0.0097673
0
ARC
8
DEFAULT_255_2_778
10
40.1320992
20
61.0362685
40
0.1981099
50
356.1434169
51
39.377425
0
LINE
8
DEFAULT_255_2_778
10
40.2852349
20
61.1619545
11
40.2850605
21
61.1621437
0
ARC
8
DEFAULT_255_2_778
10
40.1683397
20
61.0466522
40
0.1642011
50
44.6967045
51
93.5192374
0
ARC
8
DEFAULT_255_2_778
10
40.1498548
20
61.027411
40
0.1833256
50
87.3720175
51
128.3689358
0
LINE
8
DEFAULT_255_2_778
10
40.0154605
20
61.1518437
11
39.8468605
21
61.1936437
0
LINE
8
DEFAULT_255_2_778
10
39.8468605
20
61.1936437
11
39.9085605
21
61.7354437
0
LINE
8
DEFAULT_255_2_778
10
39.9085605
20
61.7354437
11
40.5062605
21
61.7354437
0
LINE
8
DEFAULT_255_2_778
10
40.5062605
20
61.7354437
11
40.5062605
21
61.5590437
0
LINE
8
DEFAULT_255_2_778
10
40.5062605
20
61.5590437
11
40.0820605
21
61.5590437
0
LINE
8
DEFAULT_255_2_778
10
40.0820605
20
61.5590437
11
40.0556605
21
61.3298437
0
LINE
8
DEFAULT_255_2_778
10
39.8198605
20
60.9660437
11
40.0294605
21
60.9660437
0
LINE
8
DEFAULT_255_2_778
10
40.0360605
20
61.1711437
11
40.0154605
21
61.1520437
0
LINE
8
DEFAULT_255_2_778
10
40.0154605
20
61.1520437
11
40.0154605
21
61.1518437
0
LINE
8
DEFAULT_255_2_778
10
37.7161605
20
61.4227437
11
37.4941605
21
61.0703437
0
LINE
8
DEFAULT_255_2_778
10
37.4941605
20
61.0703437
11
37.7299605
21
61.0703437
0
LINE
8
DEFAULT_255_2_778
10
37.7299605
20
61.0703437
11
37.7299605
21
61.4468437
0
LINE
8
DEFAULT_255_2_778
10
37.7299605
20
61.4468437
11
37.7159605
21
61.4227437
0
LINE
8
DEFAULT_255_2_778
10
37.7159605
20
61.4227437
11
37.7161605
21
61.4227437
0
LINE
8
DEFAULT_255_2_778
10
37.9415605
20
61.7354437
11
37.9415605
21
61.0705437
0
LINE
8
DEFAULT_255_2_778
10
37.9415605
20
61.0705437
11
38.0625605
21
61.0705437
0
LINE
8
DEFAULT_255_2_778
10
38.0625605
20
61.0705437
11
38.0625605
21
60.8999437
0
LINE
8
DEFAULT_255_2_778
10
38.0625605
20
60.8999437
11
37.9415605
21
60.8999437
0
LINE
8
DEFAULT_255_2_778
10
37.9415605
20
60.8999437
11
37.9415605
21
60.6692437
0
LINE
8
DEFAULT_255_2_778
10
37.9415605
20
60.6692437
11
37.7299605
21
60.6692437
0
LINE
8
DEFAULT_255_2_778
10
37.7299605
20
60.6692437
11
37.7299605
21
60.8999437
0
LINE
8
DEFAULT_255_2_778
10
37.7299605
20
60.8999437
11
37.2925605
21
60.8999437
0
LINE
8
DEFAULT_255_2_778
10
37.2925605
20
60.8999437
11
37.2830605
21
61.0332437
0
LINE
8
DEFAULT_255_2_778
10
37.2830605
20
61.0332437
11
37.7275605
21
61.7357437
0
LINE
8
DEFAULT_255_2_778
10
37.7275605
20
61.7357437
11
37.9413605
21
61.7357437
0
LINE
8
DEFAULT_255_2_778
10
37.9413605
20
61.7357437
11
37.9415605
21
61.7354437
0
ARC
8
DEFAULT_255_2_778
10
37.6612175
20
59.5575825
40
0.5987939
50
89.8748857
51
180.1251076
0
ARC
8
DEFAULT_255_2_778
10
37.6640088
20
59.5578585
40
0.5985184
50
359.8484135
51
90.142038
0
ARC
8
DEFAULT_255_2_778
10
37.6640938
20
59.5547062
40
0.5984333
50
269.8498027
51
0.1501973
0
ARC
8
DEFAULT_255_2_778
10
37.6609415
20
59.5547912
40
0.5985184
50
179.857962
51
270.1515865
0
LINE
8
DEFAULT_255_2_778
10
37.062425
20
59.556275
11
37.062425
21
59.556275
0
ARC
8
DEFAULT_255_2_778
10
40.1613175
20
59.5575825
40
0.5987939
50
89.8748857
51
180.1251076
0
ARC
8
DEFAULT_255_2_778
10
40.1641088
20
59.5578585
40
0.5985184
50
359.8484135
51
90.142038
0
ARC
8
DEFAULT_255_2_778
10
40.1641938
20
59.5547062
40
0.5984333
50
269.8498027
51
0.1501973
0
ARC
8
DEFAULT_255_2_778
10
40.1610415
20
59.5547912
40
0.5985184
50
179.857962
51
270.1515865
0
LINE
8
DEFAULT_255_2_778
10
39.562525
20
59.556275
11
39.562525
21
59.556275
0
ARC
8
DEFAULT_255_2_778
10
37.6612175
20
62.5577825
40
0.5987939
50
89.8748857
51
180.1251076
0
ARC
8
DEFAULT_255_2_778
10
37.6640088
20
62.5580585
40
0.5985184
50
359.8484135
51
90.142038
0
ARC
8
DEFAULT_255_2_778
10
37.6640938
20
62.5549062
40
0.5984333
50
269.8498027
51
0.1501973
0
ARC
8
DEFAULT_255_2_778
10
37.6609415
20
62.5549912
40
0.5985184
50
179.857962
51
270.1515865
0
LINE
8
DEFAULT_255_2_778
10
37.062425
20
62.556475
11
37.062425
21
62.556475
0
ARC
8
DEFAULT_255_2_778
10
40.1613175
20
62.5577825
40
0.5987939
50
89.8748857
51
180.1251076
0
ARC
8
DEFAULT_255_2_778
10
40.1641088
20
62.5580585
40
0.5985184
50
359.8484135
51
90.142038
0
ARC
8
DEFAULT_255_2_778
10
40.1641938
20
62.5549062
40
0.5984333
50
269.8498027
51
0.1501973
0
ARC
8
DEFAULT_255_2_778
10
40.1610415
20
62.5549912
40
0.5985184
50
179.857962
51
270.1515865
0
LINE
8
DEFAULT_255_2_778
10
39.562525
20
62.556475
11
39.562525
21
62.556475
0
ARC
8
DEFAULT_255_2_778
10
40.1610175
20
50.0574825
40
0.5987939
50
89.8748857
51
180.1251076
0
ARC
8
DEFAULT_255_2_778
10
40.1638088
20
50.0577585
40
0.5985184
50
359.8484135
51
90.142038
0
ARC
8
DEFAULT_255_2_778
10
40.1638938
20
50.0546062
40
0.5984333
50
269.8498027
51
0.1501973
0
ARC
8
DEFAULT_255_2_778
10
40.1607415
20
50.0546912
40
0.5985184
50
179.857962
51
270.1515865
0
LINE
8
DEFAULT_255_2_778
10
39.562225
20
50.056175
11
39.562225
21
50.056175
0
ARC
8
DEFAULT_255_2_778
10
40.1610175
20
47.5574825
40
0.5987939
50
89.8748857
51
180.1251076
0
ARC
8
DEFAULT_255_2_778
10
40.1638088
20
47.5577585
40
0.5985184
50
359.8484135
51
90.142038
0
ARC
8
DEFAULT_255_2_778
10
40.1638938
20
47.5546062
40
0.5984333
50
269.8498027
51
0.1501973
0
ARC
8
DEFAULT_255_2_778
10
40.1607415
20
47.5546912
40
0.5985184
50
179.857962
51
270.1515865
0
LINE
8
DEFAULT_255_2_778
10
39.562225
20
47.556175
11
39.562225
21
47.556175
0
ARC
8
DEFAULT_255_2_778
10
40.1610175
20
45.0573825
40
0.5987939
50
89.8748857
51
180.1251076
0
ARC
8
DEFAULT_255_2_778
10
40.1638088
20
45.0576585
40
0.5985184
50
359.8484135
51
90.142038
0
ARC
8
DEFAULT_255_2_778
10
40.1638938
20
45.0545062
40
0.5984333
50
269.8498027
51
0.1501973
0
ARC
8
DEFAULT_255_2_778
10
40.1607415
20
45.0545912
40
0.5985184
50
179.857962
51
270.1515865
0
LINE
8
DEFAULT_255_2_778
10
39.562225
20
45.056075
11
39.562225
21
45.056075
0
LINE
8
DEFAULT_255_2_778
10
36.8507479
20
44.9478677
11
36.8507479
21
44.7756677
0
LINE
8
DEFAULT_255_2_778
10
36.8507479
20
44.7756677
11
36.4290479
21
44.7756677
0
LINE
8
DEFAULT_255_2_778
10
36.4290479
20
44.7756677
11
36.4290479
21
44.4898677
0
LINE
8
DEFAULT_255_2_778
10
36.4290479
20
44.4898677
11
36.9240479
21
44.4898677
0
LINE
8
DEFAULT_255_2_778
10
36.9240479
20
44.4898677
11
36.9240479
21
44.3134677
0
LINE
8
DEFAULT_255_2_778
10
36.9240479
20
44.3134677
11
36.2091479
21
44.3134677
0
LINE
8
DEFAULT_255_2_778
10
36.2091479
20
44.3134677
11
36.2091479
21
45.3799677
0
LINE
8
DEFAULT_255_2_778
10
36.2091479
20
45.3799677
11
36.9224479
21
45.3799677
0
LINE
8
DEFAULT_255_2_778
10
36.9224479
20
45.3799677
11
36.9224479
21
45.2018677
0
LINE
8
DEFAULT_255_2_778
10
36.9224479
20
45.2018677
11
36.4287479
21
45.2018677
0
LINE
8
DEFAULT_255_2_778
10
36.4287479
20
45.2018677
11
36.4287479
21
44.9476677
0
LINE
8
DEFAULT_255_2_778
10
36.4287479
20
44.9476677
11
36.8504479
21
44.9476677
0
LINE
8
DEFAULT_255_2_778
10
36.8504479
20
44.9476677
11
36.8507479
21
44.9478677
0
ARC
8
DEFAULT_255_2_778
10
37.4618398
20
44.8147381
40
0.5653708
50
70.9473369
51
91.2806229
0
ARC
8
DEFAULT_255_2_778
10
37.5344909
20
45.0405217
40
0.3282784
50
51.0626449
51
70.0688888
0
ARC
8
DEFAULT_255_2_778
10
37.5533197
20
45.0737942
40
0.2906322
50
356.8191645
51
49.8274435
0
ARC
8
DEFAULT_255_2_778
10
37.5161092
20
45.0457619
40
0.3276114
50
328.7217343
51
2.0826578
0
ARC
8
DEFAULT_255_2_778
10
37.5292265
20
45.0583704
40
0.3234254
50
292.5015612
51
325.6047127
0
ARC
8
DEFAULT_255_2_778
10
37.4616308
20
45.0623292
40
0.1809355
50
266.3157299
51
310.0704351
0
ARC
8
DEFAULT_255_2_778
10
37.4736652
20
45.0317635
40
0.1501632
50
314.067297
51
3.1319265
0
ARC
8
DEFAULT_255_2_778
10
37.4632937
20
45.0489467
40
0.1605617
50
356.7942107
51
43.0088662
0
ARC
8
DEFAULT_255_2_778
10
37.4663222
20
45.0291802
40
0.1726224
50
48.500463
51
92.9564147
0
ARC
8
DEFAULT_255_2_778
10
37.4492453
20
44.8500002
40
0.3516676
50
88.6681743
51
90.0066937
0
LINE
8
DEFAULT_255_2_778
10
37.6477042
20
44.3134677
11
37.4477042
21
44.7036677
0
LINE
8
DEFAULT_255_2_778
10
37.4477042
20
44.7036677
11
37.2725042
21
44.7036677
0
LINE
8
DEFAULT_255_2_778
10
37.2725042
20
44.7036677
11
37.2725042
21
44.3134677
0
LINE
8
DEFAULT_255_2_778
10
37.2725042
20
44.3134677
11
37.0529042
21
44.3134677
0
LINE
8
DEFAULT_255_2_778
10
37.0529042
20
44.3134677
11
37.0529042
21
45.3799677
0
LINE
8
DEFAULT_255_2_778
10
37.0529042
20
45.3799677
11
37.4492042
21
45.3799677
0
LINE
8
DEFAULT_255_2_778
10
37.6530042
20
44.7595677
11
37.8837042
21
44.3237677
0
LINE
8
DEFAULT_255_2_778
10
37.8837042
20
44.3237677
11
37.8837042
21
44.3134677
0
LINE
8
DEFAULT_255_2_778
10
37.8837042
20
44.3134677
11
37.6479042
21
44.3134677
0
LINE
8
DEFAULT_255_2_778
10
37.6479042
20
44.3134677
11
37.6477042
21
44.3134677
0
LINE
8
DEFAULT_255_2_778
10
37.2728042
20
45.2018677
11
37.2728042
21
44.8817677
0
LINE
8
DEFAULT_255_2_778
10
37.2728042
20
44.8817677
11
37.4500042
21
44.8817677
0
LINE
8
DEFAULT_255_2_778
10
37.4492042
20
45.2016677
11
37.2728042
21
45.2016677
0
LINE
8
DEFAULT_255_2_778
10
37.2728042
20
45.2016677
11
37.2728042
21
45.2018677
0
ARC
8
DEFAULT_255_2_778
10
38.4191398
20
44.8147381
40
0.5653708
50
70.9473369
51
91.2806229
0
ARC
8
DEFAULT_255_2_778
10
38.4917909
20
45.0405217
40
0.3282784
50
51.0626449
51
70.0688888
0
ARC
8
DEFAULT_255_2_778
10
38.5106197
20
45.0737942
40
0.2906322
50
356.8191645
51
49.8274435
0
ARC
8
DEFAULT_255_2_778
10
38.4734092
20
45.0457619
40
0.3276114
50
328.7217343
51
2.0826578
0
ARC
8
DEFAULT_255_2_778
10
38.4865265
20
45.0583704
40
0.3234254
50
292.5015612
51
325.6047127
0
ARC
8
DEFAULT_255_2_778
10
38.4189308
20
45.0623292
40
0.1809355
50
266.3157299
51
310.0704351
0
ARC
8
DEFAULT_255_2_778
10
38.4309652
20
45.0317635
40
0.1501632
50
314.067297
51
3.1319265
0
ARC
8
DEFAULT_255_2_778
10
38.4205937
20
45.0489467
40
0.1605617
50
356.7942107
51
43.0088662
0
ARC
8
DEFAULT_255_2_778
10
38.4236222
20
45.0291802
40
0.1726224
50
48.500463
51
92.9564147
0
ARC
8
DEFAULT_255_2_778
10
38.4065453
20
44.8500002
40
0.3516676
50
88.6681743
51
90.0066937
0
LINE
8
DEFAULT_255_2_778
10
38.6050042
20
44.3134677
11
38.4050042
21
44.7036677
0
LINE
8
DEFAULT_255_2_778
10
38.4050042
20
44.7036677
11
38.2298042
21
44.7036677
0
LINE
8
DEFAULT_255_2_778
10
38.2298042
20
44.7036677
11
38.2298042
21
44.3134677
0
LINE
8
DEFAULT_255_2_778
10
38.2298042
20
44.3134677
11
38.0102042
21
44.3134677
0
LINE
8
DEFAULT_255_2_778
10
38.0102042
20
44.3134677
11
38.0102042
21
45.3799677
0
LINE
8
DEFAULT_255_2_778
10
38.0102042
20
45.3799677
11
38.4065042
21
45.3799677
0
LINE
8
DEFAULT_255_2_778
10
38.6103042
20
44.7595677
11
38.8410042
21
44.3237677
0
LINE
8
DEFAULT_255_2_778
10
38.8410042
20
44.3237677
11
38.8410042
21
44.3134677
0
LINE
8
DEFAULT_255_2_778
10
38.8410042
20
44.3134677
11
38.6052042
21
44.3134677
0
LINE
8
DEFAULT_255_2_778
10
38.6052042
20
44.3134677
11
38.6050042
21
44.3134677
0
LINE
8
DEFAULT_255_2_778
10
38.2301042
20
45.2018677
11
38.2301042
21
44.8817677
0
LINE
8
DEFAULT_255_2_778
10
38.2301042
20
44.8817677
11
38.4073042
21
44.8817677
0
LINE
8
DEFAULT_255_2_778
10
38.4065042
20
45.2016677
11
38.2301042
21
45.2016677
0
LINE
8
DEFAULT_255_2_778
10
38.2301042
20
45.2016677
11
38.2301042
21
45.2018677
0
ARC
8
DEFAULT_255_2_778
10
36.4379398
20
47.3148381
40
0.5653708
50
70.9473369
51
91.2806229
0
ARC
8
DEFAULT_255_2_778
10
36.5105909
20
47.5406217
40
0.3282784
50
51.0626449
51
70.0688888
0
ARC
8
DEFAULT_255_2_778
10
36.5294197
20
47.5738942
40
0.2906322
50
356.8191645
51
49.8274435
0
ARC
8
DEFAULT_255_2_778
10
36.4922092
20
47.5458619
40
0.3276114
50
328.7217343
51
2.0826578
0
ARC
8
DEFAULT_255_2_778
10
36.5053265
20
47.5584704
40
0.3234254
50
292.5015612
51
325.6047127
0
ARC
8
DEFAULT_255_2_778
10
36.4377308
20
47.5624292
40
0.1809355
50
266.3157299
51
310.0704351
0
ARC
8
DEFAULT_255_2_778
10
36.4497652
20
47.5318635
40
0.1501632
50
314.067297
51
3.1319265
0
ARC
8
DEFAULT_255_2_778
10
36.4393937
20
47.5490467
40
0.1605617
50
356.7942107
51
43.0088662
0
ARC
8
DEFAULT_255_2_778
10
36.4424222
20
47.5292802
40
0.1726224
50
48.500463
51
92.9564147
0
ARC
8
DEFAULT_255_2_778
10
36.4253453
20
47.3501002
40
0.3516676
50
88.6681743
51
90.0066937
0
LINE
8
DEFAULT_255_2_778
10
36.6238042
20
46.8135677
11
36.4238042
21
47.2037677
0
LINE
8
DEFAULT_255_2_778
10
36.4238042
20
47.2037677
11
36.2486042
21
47.2037677
0
LINE
8
DEFAULT_255_2_778
10
36.2486042
20
47.2037677
11
36.2486042
21
46.8135677
0
LINE
8
DEFAULT_255_2_778
10
36.2486042
20
46.8135677
11
36.0290042
21
46.8135677
0
LINE
8
DEFAULT_255_2_778
10
36.0290042
20
46.8135677
11
36.0290042
21
47.8800677
0
LINE
8
DEFAULT_255_2_778
10
36.0290042
20
47.8800677
11
36.4253042
21
47.8800677
0
LINE
8
DEFAULT_255_2_778
10
36.6291042
20
47.2596677
11
36.8598042
21
46.8238677
0
LINE
8
DEFAULT_255_2_778
10
36.8598042
20
46.8238677
11
36.8598042
21
46.8135677
0
LINE
8
DEFAULT_255_2_778
10
36.8598042
20
46.8135677
11
36.6240042
21
46.8135677
0
LINE
8
DEFAULT_255_2_778
10
36.6240042
20
46.8135677
11
36.6238042
21
46.8135677
0
LINE
8
DEFAULT_255_2_778
10
36.2489042
20
47.7019677
11
36.2489042
21
47.3818677
0
LINE
8
DEFAULT_255_2_778
10
36.2489042
20
47.3818677
11
36.4261042
21
47.3818677
0
LINE
8
DEFAULT_255_2_778
10
36.4253042
20
47.7017677
11
36.2489042
21
47.7017677
0
LINE
8
DEFAULT_255_2_778
10
36.2489042
20
47.7017677
11
36.2489042
21
47.7019677
0
ARC
8
DEFAULT_255_2_778
10
37.425036
20
47.1618997
40
0.3685149
50
320.4792208
51
2.433031
0
ARC
8
DEFAULT_255_2_778
10
37.4549921
20
47.1477554
40
0.336505
50
312.7979942
51
319.0910698
0
ARC
8
DEFAULT_255_2_778
10
37.4197252
20
47.1981988
40
0.3975674
50
272.4231785
51
311.5880727
0
ARC
8
DEFAULT_255_2_778
10
37.3851756
20
47.4453132
40
0.6463699
50
269.9329134
51
274.5573643
0
ARC
8
DEFAULT_255_2_778
10
37.3709338
20
47.2771023
40
0.4783487
50
243.8770494
51
271.6154235
0
ARC
8
DEFAULT_255_2_778
10
37.3218541
20
47.1576993
40
0.3496364
50
227.9816902
51
242.4828922
0
ARC
8
DEFAULT_255_2_778
10
37.3287592
20
47.1562816
40
0.3532573
50
178.2696775
51
226.9956724
0
ARC
8
DEFAULT_255_2_778
10
37.537101
20
47.1774613
40
0.5615366
50
180.7976839
51
181.0727522
0
ARC
8
DEFAULT_255_2_778
10
37.4294634
20
47.1638123
40
0.2345743
50
176.9621348
51
209.7868297
0
ARC
8
DEFAULT_255_2_778
10
37.3367394
20
47.1189991
40
0.1320339
50
212.8999839
51
226.2995289
0
ARC
8
DEFAULT_255_2_778
10
37.3731319
20
47.1686575
40
0.1932437
50
228.671586
51
273.3484068
0
ARC
8
DEFAULT_255_2_778
10
37.3979123
20
47.1621112
40
0.1868554
50
265.8588532
51
311.8434579
0
ARC
8
DEFAULT_255_2_778
10
37.3753818
20
47.1534419
40
0.1967258
50
318.4307712
51
0.9746455
0
ARC
8
DEFAULT_255_2_778
10
37.1840831
20
47.1761077
40
0.3884768
50
357.1494295
51
359.1646061
0
LINE
8
DEFAULT_255_2_778
10
37.5728188
20
47.8800437
11
37.7932188
21
47.8800437
0
LINE
8
DEFAULT_255_2_778
10
37.7932188
20
47.8800437
11
37.7932188
21
47.1775437
0
LINE
8
DEFAULT_255_2_778
10
36.9756188
20
47.1696437
11
36.9756188
21
47.8800437
0
LINE
8
DEFAULT_255_2_778
10
36.9756188
20
47.8800437
11
37.1952188
21
47.8800437
0
LINE
8
DEFAULT_255_2_778
10
37.1952188
20
47.8800437
11
37.1952188
21
47.1762437
0
LINE
8
DEFAULT_255_2_778
10
37.5725188
20
47.1704437
11
37.5725188
21
47.8800437
0
LINE
8
DEFAULT_255_2_778
10
37.5725188
20
47.8800437
11
37.5728188
21
47.8800437
0
LINE
8
DEFAULT_255_2_778
10
38.8408802
20
47.8800677
11
38.8408802
21
46.8135677
0
LINE
8
DEFAULT_255_2_778
10
38.8408802
20
46.8135677
11
38.6212802
21
46.8135677
0
LINE
8
DEFAULT_255_2_778
10
38.6212802
20
46.8135677
11
38.1934802
21
47.5151677
0
LINE
8
DEFAULT_255_2_778
10
38.1934802
20
47.5151677
11
38.1934802
21
46.8135677
0
LINE
8
DEFAULT_255_2_778
10
38.1934802
20
46.8135677
11
37.9738802
21
46.8135677
0
LINE
8
DEFAULT_255_2_778
10
37.9738802
20
46.8135677
11
37.9738802
21
47.8800677
0
LINE
8
DEFAULT_255_2_778
10
37.9738802
20
47.8800677
11
38.1934802
21
47.8800677
0
LINE
8
DEFAULT_255_2_778
10
38.1934802
20
47.8800677
11
38.6218802
21
47.1770677
0
LINE
8
DEFAULT_255_2_778
10
38.6218802
20
47.1770677
11
38.6218802
21
47.8800677
0
LINE
8
DEFAULT_255_2_778
10
38.6218802
20
47.8800677
11
38.8408802
21
47.8800677
0
LINE
8
DEFAULT_255_2_778
10
38.8408802
20
47.8800677
11
38.8408802
21
47.8800677
0
ARC
8
DEFAULT_255_2_778
10
36.0708442
20
49.8980392
40
0.4824342
50
65.3378633
51
91.1991662
0
ARC
8
DEFAULT_255_2_778
10
36.1369217
20
50.0433189
40
0.3228348
50
31.4101323
51
65.2366643
0
ARC
8
DEFAULT_255_2_778
10
36.1120433
20
50.0332278
40
0.3493538
50
359.0388718
51
30.6961481
0
ARC
8
DEFAULT_255_2_778
10
36.1556195
20
50.0133598
40
0.3060492
50
310.3930873
51
2.6233479
0
ARC
8
DEFAULT_255_2_778
10
36.1039417
20
50.0939302
40
0.4011075
50
274.5703919
51
308.5567655
0
ARC
8
DEFAULT_255_2_778
10
36.0586639
20
50.3803652
40
0.6906
50
269.849334
51
276.4216328
0
ARC
8
DEFAULT_255_2_778
10
36.0736823
20
50.0621299
40
0.1949917
50
266.1965973
51
307.1295297
0
ARC
8
DEFAULT_255_2_778
10
36.1074609
20
50.0045091
40
0.1289021
50
310.6210672
51
311.9012318
0
ARC
8
DEFAULT_255_2_778
10
36.0902018
20
50.0165107
40
0.1494394
50
313.7536452
51
3.5898536
0
ARC
8
DEFAULT_255_2_778
10
36.0631845
20
50.0336098
40
0.1763335
50
357.4835549
51
42.4245526
0
ARC
8
DEFAULT_255_2_778
10
36.0724013
20
50.0306859
40
0.1717069
50
45.2206504
51
92.1872862
0
LINE
8
DEFAULT_255_2_778
10
36.0570479
20
49.6895677
11
35.8644479
21
49.6895677
0
LINE
8
DEFAULT_255_2_778
10
35.8644479
20
49.6895677
11
35.8644479
21
49.3138677
0
LINE
8
DEFAULT_255_2_778
10
35.8644479
20
49.3138677
11
35.6448479
21
49.3138677
0
LINE
8
DEFAULT_255_2_778
10
35.6448479
20
49.3138677
11
35.6448479
21
50.3803677
0
LINE
8
DEFAULT_255_2_778
10
35.6448479
20
50.3803677
11
36.0607479
21
50.3803677
0
LINE
8
DEFAULT_255_2_778
10
36.0568479
20
49.6897677
11
36.0570479
21
49.6895677
0
LINE
8
DEFAULT_255_2_778
10
35.8644479
20
50.2022677
11
35.8644479
21
49.8675677
0
LINE
8
DEFAULT_255_2_778
10
35.8644479
20
49.8675677
11
36.0607479
21
49.8675677
0
LINE
8
DEFAULT_255_2_778
10
36.0658479
20
50.2022677
11
35.8644479
21
50.2022677
0
LINE
8
DEFAULT_255_2_778
10
35.8644479
20
50.2022677
11
35.8644479
21
50.2022677
0
ARC
8
DEFAULT_255_2_778
10
36.8407291
20
49.8088372
40
0.6475259
50
336.2625747
51
1.2107792
0
ARC
8
DEFAULT_255_2_778
10
36.9693558
20
49.7627512
40
0.5113193
50
334.95813
51
335.1877897
0
ARC
8
DEFAULT_255_2_778
10
37.0497967
20
49.7185272
40
0.4197639
50
302.1728225
51
335.7795708
0
ARC
8
DEFAULT_255_2_778
10
37.0437077
20
49.7391361
40
0.4404889
50
268.9597116
51
301.4158131
0
ARC
8
DEFAULT_255_2_778
10
37.0282628
20
49.7419476
40
0.4432904
50
238.8882052
51
270.9626554
0
ARC
8
DEFAULT_255_2_778
10
37.0229703
20
49.7228977
40
0.4242792
50
204.8614701
51
238.1708302
0
ARC
8
DEFAULT_255_2_778
10
37.2057216
20
49.8075296
40
0.6256757
50
179.176706
51
204.8573986
0
ARC
8
DEFAULT_255_2_778
10
37.2198481
20
49.8823379
40
0.6398742
50
155.6248706
51
181.1836611
0
ARC
8
DEFAULT_255_2_778
10
37.023304
20
49.9715138
40
0.4240458
50
122.2047339
51
155.6399345
0
ARC
8
DEFAULT_255_2_778
10
37.0265574
20
49.9522222
40
0.4421673
50
88.9823517
51
121.2291405
0
ARC
8
DEFAULT_255_2_778
10
37.0421749
20
49.951894
40
0.4424939
50
58.7830841
51
91.0054237
0
ARC
8
DEFAULT_255_2_778
10
37.0468487
20
49.9726747
40
0.422354
50
24.2911202
51
57.8642114
0
ARC
8
DEFAULT_255_2_778
10
36.8509443
20
49.8827807
40
0.6378958
50
358.8447565
51
24.4119871
0
ARC
8
DEFAULT_255_2_778
10
36.6680262
20
49.8832998
40
0.5975104
50
358.8223762
51
15.6525542
0
ARC
8
DEFAULT_255_2_778
10
36.9624904
20
49.9623686
40
0.292652
50
16.3007602
51
33.9297212
0
ARC
8
DEFAULT_255_2_778
10
37.0423139
20
50.0171616
40
0.1958386
50
33.664224
51
92.459333
0
ARC
8
DEFAULT_255_2_778
10
37.0255223
20
50.0170594
40
0.19594
50
87.546433
51
145.9322154
0
ARC
8
DEFAULT_255_2_778
10
37.16076
20
49.9351594
40
0.3539342
50
147.2132362
51
174.2583303
0
ARC
8
DEFAULT_255_2_778
10
37.5398738
20
49.8744411
40
0.7375633
50
172.5112962
51
180.0016527
0
ARC
8
DEFAULT_255_2_778
10
37.3764632
20
49.8100225
40
0.5742845
50
178.7730226
51
196.8984227
0
ARC
8
DEFAULT_255_2_778
10
37.1192133
20
49.7369288
40
0.3069337
50
197.8017131
51
213.2096835
0
ARC
8
DEFAULT_255_2_778
10
37.0269086
20
49.6737682
40
0.1951251
50
212.5375323
51
272.4384625
0
ARC
8
DEFAULT_255_2_778
10
37.0436587
20
49.6717762
40
0.1931413
50
267.4929923
51
326.6583024
0
ARC
8
DEFAULT_255_2_778
10
36.8993116
20
49.7583204
40
0.3613659
50
327.7742569
51
354.3109931
0
ARC
8
DEFAULT_255_2_778
10
36.5173393
20
49.8186908
40
0.747771
50
352.6090792
51
359.9945586
0
LINE
8
DEFAULT_255_2_778
10
37.4881104
20
49.8702198
11
37.4881104
21
49.8225198
0
LINE
8
DEFAULT_255_2_778
10
36.5801104
20
49.8165198
11
36.5801104
21
49.8691198
0
LINE
8
DEFAULT_255_2_778
10
37.4887104
20
49.8699198
11
37.4881104
21
49.8702198
0
LINE
8
DEFAULT_255_2_778
10
37.2654104
20
49.8188198
11
37.2654104
21
49.8710198
0
LINE
8
DEFAULT_255_2_778
10
36.8023104
20
49.8744198
11
36.8023104
21
49.8223198
0
LINE
8
DEFAULT_255_2_778
10
37.2651104
20
49.8186198
11
37.2654104
21
49.8188198
0
LINE
8
DEFAULT_255_2_778
10
38.3033042
20
50.3800677
11
38.4784042
21
49.6212677
0
LINE
8
DEFAULT_255_2_778
10
38.4784042
20
49.6212677
11
38.6221042
21
50.3800677
0
LINE
8
DEFAULT_255_2_778
10
38.6221042
20
50.3800677
11
38.8412042
21
50.3800677
0
LINE
8
DEFAULT_255_2_778
10
38.8412042
20
50.3800677
11
38.6047042
21
49.3135677
0
LINE
8
DEFAULT_255_2_778
10
38.6047042
20
49.3135677
11
38.3835042
21
49.3135677
0
LINE
8
DEFAULT_255_2_778
10
38.3835042
20
49.3135677
11
38.2099042
21
50.0268677
0
LINE
8
DEFAULT_255_2_778
10
38.2099042
20
50.0268677
11
38.0363042
21
49.3135677
0
LINE
8
DEFAULT_255_2_778
10
38.0363042
20
49.3135677
11
37.8151042
21
49.3135677
0
LINE
8
DEFAULT_255_2_778
10
37.8151042
20
49.3135677
11
37.5786042
21
50.3800677
0
LINE
8
DEFAULT_255_2_778
10
37.5786042
20
50.3800677
11
37.7977042
21
50.3800677
0
LINE
8
DEFAULT_255_2_778
10
37.7977042
20
50.3800677
11
37.9419042
21
49.6228677
0
LINE
8
DEFAULT_255_2_778
10
37.9419042
20
49.6228677
11
38.1176042
21
50.3800677
0
LINE
8
DEFAULT_255_2_778
10
38.1176042
20
50.3800677
11
38.3036042
21
50.3800677
0
LINE
8
DEFAULT_255_2_778
10
38.3036042
20
50.3800677
11
38.3033042
21
50.3800677
0
ARC
8
DEFAULT_255_2_778
10
4.1658964
20
85.7610012
40
2.2545229
50
269.9100005
51
291.7598393
0
ARC
8
DEFAULT_255_2_778
10
4.1669776
20
85.7514473
40
2.2452504
50
291.8245969
51
349.53818
0
ARC
8
DEFAULT_255_2_778
10
4.1325886
20
85.7552897
40
2.2797667
50
349.6001523
51
0.0299435
0
ARC
8
DEFAULT_255_2_778
10
4.157971
20
85.7600161
40
2.2543868
50
359.9101572
51
21.7613949
0
ARC
8
DEFAULT_255_2_778
10
4.1672931
20
85.7609981
40
2.2453665
50
21.826312
51
79.5454888
0
ARC
8
DEFAULT_255_2_778
10
4.1635437
20
85.7269692
40
2.2795122
50
79.6080143
51
90.0298779
0
ARC
8
DEFAULT_255_2_778
10
4.1588064
20
85.7519524
40
2.2545315
50
89.9098168
51
111.7606893
0
ARC
8
DEFAULT_255_2_778
10
4.1577495
20
85.7615077
40
2.2452669
50
111.8260389
51
169.547316
0
ARC
8
DEFAULT_255_2_778
10
4.1920832
20
85.7576687
40
2.2797285
50
169.6089824
51
180.0298467
0
ARC
8
DEFAULT_255_2_778
10
4.1670198
20
85.7529261
40
2.2546676
50
179.9096602
51
201.7591338
0
ARC
8
DEFAULT_255_2_778
10
4.1572317
20
85.7517694
40
2.2451496
50
201.8243171
51
259.5464435
0
ARC
8
DEFAULT_255_2_778
10
4.1611618
20
85.786433
40
2.2799523
50
259.6073717
51
270.0299867
0
ARC
8
DEFAULT_255_2_778
10
4.1668751
20
85.7600225
40
2.2545229
50
158.2401607
51
180.0899995
0
ARC
8
DEFAULT_255_2_778
10
4.1573212
20
85.7611037
40
2.2452504
50
100.46182
51
158.1754031
0
ARC
8
DEFAULT_255_2_778
10
4.1611636
20
85.7267147
40
2.2797667
50
89.9700565
51
100.3998477
0
ARC
8
DEFAULT_255_2_778
10
4.16589
20
85.7520971
40
2.2543868
50
68.2386051
51
90.0898428
0
ARC
8
DEFAULT_255_2_778
10
4.166872
20
85.7614192
40
2.2453665
50
10.4545112
51
68.173688
0
ARC
8
DEFAULT_255_2_778
10
4.1328431
20
85.7576698
40
2.2795122
50
359.9701221
51
10.3919857
0
ARC
8
DEFAULT_255_2_778
10
4.1578263
20
85.7529325
40
2.2545315
50
338.2393107
51
0.0901832
0
ARC
8
DEFAULT_255_2_778
10
4.1673816
20
85.7518756
40
2.2452669
50
280.452684
51
338.1739611
0
ARC
8
DEFAULT_255_2_778
10
4.1635426
20
85.7862093
40
2.2797285
50
269.9701533
51
280.3910176
0
ARC
8
DEFAULT_255_2_778
10
4.1588
20
85.7611459
40
2.2546676
50
248.2408662
51
270.0903398
0
ARC
8
DEFAULT_255_2_778
10
4.1576433
20
85.7513578
40
2.2451496
50
190.4535565
51
248.1756829
0
ARC
8
DEFAULT_255_2_778
10
4.1923069
20
85.7552878
40
2.2799523
50
179.9700133
51
190.3926283
0
ARC
8
DEFAULT_255_2_778
10
56.16579
20
3.7521971
40
2.2543868
50
68.2386051
51
90.0898428
0
ARC
8
DEFAULT_255_2_778
10
56.166772
20
3.7615192
40
2.2453665
50
10.4545112
51
68.173688
0
ARC
8
DEFAULT_255_2_778
10
56.1327431
20
3.7577698
40
2.2795122
50
359.9701221
51
10.3919857
0
ARC
8
DEFAULT_255_2_778
10
56.1576183
20
3.7530389
40
2.2546395
50
338.2398393
51
0.0900165
0
ARC
8
DEFAULT_255_2_778
10
56.1671896
20
3.7519417
40
2.245345
50
280.4547019
51
338.1752974
0
ARC
8
DEFAULT_255_2_778
10
56.1634437
20
3.7859931
40
2.2795122
50
269.9701222
51
280.3919859
0
ARC
8
DEFAULT_255_2_778
10
56.1587113
20
3.7610919
40
2.2546136
50
248.2396172
51
270.0900543
0
ARC
8
DEFAULT_255_2_778
10
56.1576509
20
3.7515599
40
2.2453693
50
190.4531251
51
248.1745766
0
ARC
8
DEFAULT_255_2_778
10
56.1919809
20
3.7553907
40
2.2798261
50
179.9700844
51
190.3912689
0
ARC
8
DEFAULT_255_2_778
10
56.1665132
20
3.7601175
40
2.2543609
50
158.2383831
51
180.0898806
0
ARC
8
DEFAULT_255_2_778
10
56.1572324
20
3.7610613
40
2.2453933
50
100.4700843
51
158.172949
0
ARC
8
DEFAULT_255_2_778
10
56.1610617
20
3.7268005
40
2.2797808
50
89.9700099
51
100.4082491
0
ARC
8
DEFAULT_255_2_778
10
56.1665132
20
3.7601175
40
2.2543609
50
158.2383831
51
180.0898806
0
ARC
8
DEFAULT_255_2_778
10
56.1572324
20
3.7610613
40
2.2453933
50
100.4700843
51
158.172949
0
ARC
8
DEFAULT_255_2_778
10
56.1610617
20
3.7268005
40
2.2797808
50
89.9700099
51
100.4082491
0
ARC
8
DEFAULT_255_2_778
10
56.16579
20
3.7521971
40
2.2543868
50
68.2386051
51
90.0898428
0
ARC
8
DEFAULT_255_2_778
10
56.166772
20
3.7615192
40
2.2453665
50
10.4545112
51
68.173688
0
ARC
8
DEFAULT_255_2_778
10
56.1327431
20
3.7577698
40
2.2795122
50
359.9701221
51
10.3919857
0
ARC
8
DEFAULT_255_2_778
10
56.1576183
20
3.7530389
40
2.2546395
50
338.2398393
51
0.0900165
0
ARC
8
DEFAULT_255_2_778
10
56.1671896
20
3.7519417
40
2.245345
50
280.4547019
51
338.1752974
0
ARC
8
DEFAULT_255_2_778
10
56.1634437
20
3.7859931
40
2.2795122
50
269.9701222
51
280.3919859
0
ARC
8
DEFAULT_255_2_778
10
56.1587113
20
3.7610919
40
2.2546136
50
248.2396172
51
270.0900543
0
ARC
8
DEFAULT_255_2_778
10
56.1576509
20
3.7515599
40
2.2453693
50
190.4531251
51
248.1745766
0
ARC
8
DEFAULT_255_2_778
10
56.1919809
20
3.7553907
40
2.2798261
50
179.9700844
51
190.3912689
0
ARC
8
DEFAULT_255_2_778
10
34.6621796
20
19.7564566
40
0.5000754
50
269.9971846
51
359.9913517
0
ARC
8
DEFAULT_255_2_778
10
0.6624304
20
19.7564566
40
0.5000755
50
180.0086483
51
270.0028154
0
ARC
8
DEFAULT_255_2_778
10
0.662276
20
69.756307
40
0.499921
50
134.9875937
51
180.0029687
0
ARC
8
DEFAULT_255_2_778
10
0.6623571
20
69.7566337
40
0.4997474
50
89.9887792
51
135.0206486
0
ARC
8
DEFAULT_255_2_778
10
34.6624434
20
69.7563695
40
0.5000116
50
359.9898688
51
89.9986732
0
ARC
8
DEFAULT_255_2_778
10
4.4618209
20
77.6562282
40
3.1998471
50
238.949376
51
270.0041922
0
ARC
8
DEFAULT_255_2_778
10
4.4623646
20
77.6563167
40
3.1999356
50
269.9944574
51
301.0501839
0
ARC
8
DEFAULT_255_2_778
10
57.9628168
20
74.6566498
40
0.2994383
50
359.9485929
51
45.0531964
0
ARC
8
DEFAULT_255_2_778
10
57.9624237
20
74.6570429
40
0.2994383
50
44.9468036
51
90.0514071
0
ARC
8
DEFAULT_255_2_778
10
45.6115746
20
68.2089384
40
2.2474428
50
89.9826547
51
103.706283
0
ARC
8
DEFAULT_255_2_778
10
54.511879
20
68.2062182
40
2.2501629
50
73.1066881
51
89.9904256
0
ARC
8
DEFAULT_255_2_778
10
47.572078
20
12.1561949
40
2.5000612
50
89.9993813
51
106.2579575
0
ARC
8
DEFAULT_255_2_778
10
47.572132
20
12.1561949
40
2.5000612
50
73.7420425
51
90.0006187
0
ARC
8
DEFAULT_255_2_778
10
47.572132
20
12.1561949
40
2.5000612
50
73.7420425
51
90.0006187
0
ARC
8
DEFAULT_255_2_778
10
47.572078
20
12.1561949
40
2.5000612
50
89.9993813
51
106.2579575
0
ARC
8
DEFAULT_255_2_778
10
39.952078
20
12.1561949
40
2.5000612
50
89.9993813
51
106.2579575
0
ARC
8
DEFAULT_255_2_778
10
39.952132
20
12.1561949
40
2.5000612
50
73.7420425
51
90.0006187
0
ARC
8
DEFAULT_255_2_778
10
39.952132
20
12.1561949
40
2.5000612
50
73.7420425
51
90.0006187
0
ARC
8
DEFAULT_255_2_778
10
39.952078
20
12.1561949
40
2.5000612
50
89.9993813
51
106.2579575
0
ARC
8
DEFAULT_255_2_778
10
32.332432
20
12.1561949
40
2.5000612
50
73.7420425
51
90.0006187
0
ARC
8
DEFAULT_255_2_778
10
32.332378
20
12.1561949
40
2.5000612
50
89.9993813
51
106.2579575
0
ARC
8
DEFAULT_255_2_778
10
24.712432
20
12.1561949
40
2.5000612
50
73.7420425
51
90.0006187
0
ARC
8
DEFAULT_255_2_778
10
24.712378
20
12.1561949
40
2.5000612
50
89.9993813
51
106.2579575
0
ARC
8
DEFAULT_255_2_778
10
17.092432
20
12.1561949
40
2.5000612
50
73.7420425
51
90.0006187
0
ARC
8
DEFAULT_255_2_778
10
17.092378
20
12.1561949
40
2.5000612
50
89.9993813
51
106.2579575
0
ARC
8
DEFAULT_255_2_778
10
9.472432
20
12.1561949
40
2.5000612
50
73.7420425
51
90.0006187
0
ARC
8
DEFAULT_255_2_778
10
9.472378
20
12.1561949
40
2.5000612
50
89.9993813
51
106.2579575
0
ARC
8
DEFAULT_255_2_778
10
55.8632427
20
11.857478
40
3.1985614
50
57.5822313
51
73.4448457
0
ARC
8
DEFAULT_255_2_778
10
55.8626971
20
11.8535313
40
3.2024999
50
73.4556086
51
90.0045542
0
LINE
8
DEFAULT_255_2_778
10
55.8624425
20
15.0560311
11
55.8621339
21
15.0560311
0
ARC
8
DEFAULT_255_2_778
10
55.8618806
20
11.8560132
40
3.2000178
50
89.9954648
51
113.6540679
0
ARC
8
DEFAULT_255_2_778
10
55.8645347
20
11.8517561
40
3.2049823
50
113.6669941
51
122.4077117
0
ARC
8
DEFAULT_255_2_778
10
54.5121359
20
21.3059861
40
2.249905
50
270.0030328
51
286.4684374
0
ARC
8
DEFAULT_255_2_778
10
44.4124457
20
21.3099405
40
2.2538594
50
256.3133238
51
269.997694
0
ARC
8
DEFAULT_255_2_778
10
59.6623581
20
19.556378
40
0.5000969
50
269.9996485
51
0.0003515
0
ARC
8
DEFAULT_255_2_778
10
59.6623794
20
69.9563055
40
0.5000757
50
0.0086621
51
90.0027902
0
ARC
8
DEFAULT_255_2_778
10
42.8632047
20
56.9561942
40
0.7008497
50
179.9928961
51
209.5562044
0
ARC
8
DEFAULT_255_2_778
10
42.8612814
20
67.3564563
40
0.6989266
50
150.7862251
51
180.0143662
0
ARC
8
DEFAULT_255_2_778
10
57.9620389
20
14.8564972
40
0.3002161
50
270.0221513
51
359.9778391
0
ARC
8
DEFAULT_255_2_778
10
2.3622301
20
14.8560664
40
0.2997853
50
224.9743446
51
270.023866
0
ARC
8
DEFAULT_255_2_778
10
2.3621166
20
14.8561465
40
0.2997616
50
179.9551655
51
225.0005248
0
ARC
8
DEFAULT_255_2_778
10
2.3621174
20
74.6566153
40
0.2997625
50
134.9995408
51
180.0447635
0
ARC
8
DEFAULT_255_2_778
10
2.3622301
20
74.6566958
40
0.2997853
50
89.976134
51
135.0256554
0
ARC
8
DEFAULT_255_2_778
10
59.6623581
20
69.8562842
40
0.5000969
50
359.9996485
51
90.0003515
0
ARC
8
DEFAULT_255_2_778
10
59.662101
20
19.6564351
40
0.500054
50
270.0061838
51
359.9938162
0
LINE
8
DEFAULT_255_2_778
10
4.162355
20
83.5064811
11
4.162355
21
83.5064811
0
LINE
8
DEFAULT_255_2_778
10
1.912355
20
85.7564811
11
1.912355
21
85.7564811
0
LINE
8
DEFAULT_255_2_778
10
56.162255
20
6.0065811
11
56.162255
21
6.0065811
0
LINE
8
DEFAULT_255_2_778
10
53.912155
20
3.7565811
11
53.912155
21
3.7565811
0
LINE
8
DEFAULT_255_2_778
10
34.662155
20
19.2563811
11
0.662455
21
19.2563811
0
LINE
8
DEFAULT_255_2_778
10
2.062355
20
19.0562811
11
0.162355
21
19.0562811
0
LINE
8
DEFAULT_255_2_778
10
0.162355
20
19.0562811
11
0.162355
21
69.7562811
0
LINE
8
DEFAULT_255_2_778
10
17.662455
20
67.5242811
11
16.662255
21
69.2562811
0
LINE
8
DEFAULT_255_2_778
10
16.662255
20
69.2562811
11
18.662255
21
69.2562811
0
LINE
8
DEFAULT_255_2_778
10
18.662255
20
69.2562811
11
17.662455
21
67.5242811
0
LINE
8
DEFAULT_255_2_778
10
35.162455
20
19.0562811
11
35.162455
21
69.7562811
0
LINE
8
DEFAULT_255_2_778
10
34.662455
20
70.2563811
11
0.662455
21
70.2563811
0
LINE
8
DEFAULT_255_2_778
10
0.662455
20
70.2563811
11
0.662455
21
70.4563811
0
LINE
8
DEFAULT_255_2_778
10
0.162355
20
69.7562811
11
0.162355
21
70.4563811
0
LINE
8
DEFAULT_255_2_778
10
0.162355
20
70.4563811
11
2.062355
21
70.4563811
0
LINE
8
DEFAULT_255_2_778
10
1.762255
20
70.4563811
11
1.762255
21
70.2563811
0
LINE
8
DEFAULT_255_2_778
10
12.752255
20
74.4563811
11
12.752255
21
72.4563811
0
LINE
8
DEFAULT_255_2_778
10
27.992255
20
72.4563811
11
27.992255
21
74.4563811
0
LINE
8
DEFAULT_255_2_778
10
27.992255
20
74.4563811
11
27.992255
21
72.4563811
0
LINE
8
DEFAULT_255_2_778
10
35.612255
20
72.4563811
11
35.612255
21
74.4563811
0
LINE
8
DEFAULT_255_2_778
10
35.612255
20
74.4563811
11
35.612255
21
72.4563811
0
LINE
8
DEFAULT_255_2_778
10
43.232255
20
72.4563811
11
43.232255
21
74.4563811
0
LINE
8
DEFAULT_255_2_778
10
43.232255
20
74.4563811
11
43.232255
21
72.4563811
0
LINE
8
DEFAULT_255_2_778
10
50.852255
20
72.4563811
11
50.852255
21
74.4563811
0
LINE
8
DEFAULT_255_2_778
10
50.852255
20
74.4563811
11
50.852255
21
72.4563811
0
LINE
8
DEFAULT_255_2_778
10
31.802255
20
70.4563811
11
31.802255
21
72.4563811
0
LINE
8
DEFAULT_255_2_778
10
31.802255
20
72.4563811
11
31.802255
21
70.4563811
0
LINE
8
DEFAULT_255_2_778
10
57.662355
20
72.4563811
11
8.942255
21
72.4563811
0
LINE
8
DEFAULT_255_2_778
10
8.942255
20
72.4563811
11
8.942255
21
70.4563811
0
LINE
8
DEFAULT_255_2_778
10
19.162355
20
70.4563811
11
19.162355
21
70.2563811
0
LINE
8
DEFAULT_255_2_778
10
19.162355
20
70.2563811
11
19.162355
21
70.4563811
0
LINE
8
DEFAULT_255_2_778
10
16.162255
20
70.2563811
11
16.162255
21
70.4563811
0
LINE
8
DEFAULT_255_2_778
10
16.162255
20
70.4563811
11
16.162255
21
70.2563811
0
LINE
8
DEFAULT_255_2_778
10
9.252355
20
74.9564811
11
9.252355
21
74.4563811
0
LINE
8
DEFAULT_255_2_778
10
9.252355
20
74.4563811
11
9.252355
21
74.9564811
0
LINE
8
DEFAULT_255_2_778
10
9.402355
20
74.9564811
11
9.402355
21
74.4563811
0
LINE
8
DEFAULT_255_2_778
10
9.402355
20
74.4563811
11
9.402355
21
74.9564811
0
LINE
8
DEFAULT_255_2_778
10
17.172455
20
74.9564811
11
17.172455
21
74.4563811
0
LINE
8
DEFAULT_255_2_778
10
17.172455
20
74.4563811
11
17.172455
21
74.9564811
0
LINE
8
DEFAULT_255_2_778
10
15.952455
20
74.4563811
11
15.952455
21
74.9564811
0
LINE
8
DEFAULT_255_2_778
10
15.952455
20
74.9564811
11
15.952455
21
74.4563811
0
LINE
8
DEFAULT_255_2_778
10
24.792455
20
74.9564811
11
24.792455
21
74.4563811
0
LINE
8
DEFAULT_255_2_778
10
24.792455
20
74.4563811
11
24.792455
21
74.9564811
0
LINE
8
DEFAULT_255_2_778
10
23.572455
20
74.4563811
11
23.572455
21
74.9564811
0
LINE
8
DEFAULT_255_2_778
10
23.572455
20
74.9564811
11
23.572455
21
74.4563811
0
LINE
8
DEFAULT_255_2_778
10
32.412455
20
74.9564811
11
32.412455
21
74.4563811
0
LINE
8
DEFAULT_255_2_778
10
32.412455
20
74.4563811
11
32.412455
21
74.9564811
0
LINE
8
DEFAULT_255_2_778
10
31.192455
20
74.4563811
11
31.192455
21
74.9564811
0
LINE
8
DEFAULT_255_2_778
10
31.192455
20
74.9564811
11
31.192455
21
74.4563811
0
LINE
8
DEFAULT_255_2_778
10
40.032455
20
74.9564811
11
40.032455
21
74.4563811
0
LINE
8
DEFAULT_255_2_778
10
40.032455
20
74.4563811
11
40.032455
21
74.9564811
0
LINE
8
DEFAULT_255_2_778
10
38.812455
20
74.4563811
11
38.812455
21
74.9564811
0
LINE
8
DEFAULT_255_2_778
10
38.812455
20
74.9564811
11
38.812455
21
74.4563811
0
LINE
8
DEFAULT_255_2_778
10
47.652455
20
74.9564811
11
47.652455
21
74.4563811
0
LINE
8
DEFAULT_255_2_778
10
47.652455
20
74.4563811
11
47.652455
21
74.9564811
0
LINE
8
DEFAULT_255_2_778
10
46.432455
20
74.4563811
11
46.432455
21
74.9564811
0
LINE
8
DEFAULT_255_2_778
10
46.432455
20
74.9564811
11
46.432455
21
74.4563811
0
LINE
8
DEFAULT_255_2_778
10
55.272455
20
74.9564811
11
55.272455
21
74.4563811
0
LINE
8
DEFAULT_255_2_778
10
55.272455
20
74.4563811
11
55.272455
21
74.9564811
0
LINE
8
DEFAULT_255_2_778
10
54.052455
20
74.4563811
11
54.052455
21
74.9564811
0
LINE
8
DEFAULT_255_2_778
10
54.052455
20
74.9564811
11
54.052455
21
74.4563811
0
LINE
8
DEFAULT_255_2_778
10
26.462455
20
70.4563811
11
26.462455
21
70.2563811
0
LINE
8
DEFAULT_255_2_778
10
26.462455
20
70.2563811
11
26.462455
21
70.4563811
0
LINE
8
DEFAULT_255_2_778
10
29.462355
20
70.2563811
11
29.462355
21
70.4563811
0
LINE
8
DEFAULT_255_2_778
10
29.462355
20
70.4563811
11
29.462355
21
70.2563811
0
LINE
8
DEFAULT_255_2_778
10
32.442355
20
70.2563811
11
32.442355
21
70.4563811
0
LINE
8
DEFAULT_255_2_778
10
32.442355
20
70.4563811
11
32.442355
21
70.2563811
0
LINE
8
DEFAULT_255_2_778
10
31.442455
20
70.4563811
11
31.442455
21
70.2563811
0
LINE
8
DEFAULT_255_2_778
10
31.442455
20
70.2563811
11
31.442455
21
70.4563811
0
LINE
8
DEFAULT_255_2_778
10
20.372255
20
74.4563811
11
20.372255
21
72.4563811
0
LINE
8
DEFAULT_255_2_778
10
20.372255
20
72.4563811
11
24.182255
21
72.4563811
0
LINE
8
DEFAULT_255_2_778
10
24.182255
20
72.4563811
11
24.182255
21
70.4563811
0
LINE
8
DEFAULT_255_2_778
10
58.060855
20
70.3563811
11
58.162155
21
70.4563811
0
LINE
8
DEFAULT_255_2_778
10
2.662355
20
70.4563811
11
2.662355
21
74.4563811
0
LINE
8
DEFAULT_255_2_778
10
57.662355
20
74.4563811
11
57.662355
21
70.3563811
0
LINE
8
DEFAULT_255_2_778
10
16.562255
20
72.4563811
11
16.562255
21
70.4563811
0
LINE
8
DEFAULT_255_2_778
10
39.422255
20
72.4563811
11
39.422255
21
70.4563811
0
LINE
8
DEFAULT_255_2_778
10
47.042255
20
72.4563811
11
47.042255
21
70.4563811
0
LINE
8
DEFAULT_255_2_778
10
54.662255
20
72.4563811
11
54.662255
21
70.4563811
0
LINE
8
DEFAULT_255_2_778
10
58.262255
20
70.4563811
11
58.262255
21
74.6563811
0
LINE
8
DEFAULT_255_2_778
10
58.012155
20
74.9521811
11
58.012155
21
74.4563811
0
LINE
8
DEFAULT_255_2_778
10
45.612255
20
70.4563811
11
54.512255
21
70.4563811
0
LINE
8
DEFAULT_255_2_778
10
46.762355
20
70.4563811
11
46.762355
21
70.3563811
0
LINE
8
DEFAULT_255_2_778
10
58.012455
20
74.7563811
11
58.162455
21
74.7563811
0
LINE
8
DEFAULT_255_2_778
10
5.662255
20
19.0562811
11
5.662255
21
17.0563811
0
LINE
8
DEFAULT_255_2_778
10
47.572255
20
17.0563811
11
47.572255
21
15.0563811
0
LINE
8
DEFAULT_255_2_778
10
46.872155
20
14.5562811
11
46.872155
21
14.5562811
0
LINE
8
DEFAULT_255_2_778
10
39.952255
20
17.0563811
11
39.952255
21
15.0563811
0
LINE
8
DEFAULT_255_2_778
10
39.252155
20
14.5562811
11
39.252155
21
14.5562811
0
LINE
8
DEFAULT_255_2_778
10
2.162055
20
15.0563811
11
2.162055
21
19.0562811
0
LINE
8
DEFAULT_255_2_778
10
2.162055
20
19.0562811
11
2.162055
21
15.0563811
0
LINE
8
DEFAULT_255_2_778
10
2.662155
20
19.0562811
11
2.662155
21
15.0563811
0
LINE
8
DEFAULT_255_2_778
10
2.662155
20
15.0563811
11
2.662155
21
19.0562811
0
LINE
8
DEFAULT_255_2_778
10
5.862255
20
19.0562811
11
5.862255
21
19.2563811
0
LINE
8
DEFAULT_255_2_778
10
5.862255
20
19.2563811
11
5.862255
21
19.0562811
0
LINE
8
DEFAULT_255_2_778
10
8.862355
20
19.0562811
11
8.862355
21
19.2563811
0
LINE
8
DEFAULT_255_2_778
10
8.862355
20
19.2563811
11
8.862355
21
19.0562811
0
LINE
8
DEFAULT_255_2_778
10
4.662355
20
19.2563811
11
4.662355
21
19.0562811
0
LINE
8
DEFAULT_255_2_778
10
4.662355
20
19.0562811
11
4.662355
21
19.2563811
0
LINE
8
DEFAULT_255_2_778
10
29.462355
20
19.0562811
11
29.462355
21
19.2563811
0
LINE
8
DEFAULT_255_2_778
10
29.462355
20
19.2563811
11
29.462355
21
19.0562811
0
LINE
8
DEFAULT_255_2_778
10
26.462155
20
19.2563811
11
26.462155
21
19.0562811
0
LINE
8
DEFAULT_255_2_778
10
26.462155
20
19.0562811
11
26.462155
21
19.2563811
0
LINE
8
DEFAULT_255_2_778
10
30.662155
20
19.0562811
11
30.662155
21
19.2563811
0
LINE
8
DEFAULT_255_2_778
10
30.662155
20
19.2563811
11
30.662155
21
19.0562811
0
LINE
8
DEFAULT_255_2_778
10
51.072155
20
14.5562811
11
51.072155
21
15.0563811
0
LINE
8
DEFAULT_255_2_778
10
51.072155
20
15.0563811
11
51.072155
21
14.5562811
0
LINE
8
DEFAULT_255_2_778
10
50.922155
20
14.5562811
11
50.922155
21
15.0563811
0
LINE
8
DEFAULT_255_2_778
10
50.922155
20
15.0563811
11
50.922155
21
14.5562811
0
LINE
8
DEFAULT_255_2_778
10
43.152155
20
14.5562811
11
43.152155
21
15.0563811
0
LINE
8
DEFAULT_255_2_778
10
43.152155
20
15.0563811
11
43.152155
21
14.5562811
0
LINE
8
DEFAULT_255_2_778
10
44.372155
20
15.0563811
11
44.372155
21
14.5562811
0
LINE
8
DEFAULT_255_2_778
10
44.372155
20
14.5562811
11
44.372155
21
15.0563811
0
LINE
8
DEFAULT_255_2_778
10
35.532155
20
14.5562811
11
35.532155
21
15.0563811
0
LINE
8
DEFAULT_255_2_778
10
35.532155
20
15.0563811
11
35.532155
21
14.5562811
0
LINE
8
DEFAULT_255_2_778
10
36.752155
20
15.0563811
11
36.752155
21
14.5562811
0
LINE
8
DEFAULT_255_2_778
10
36.752155
20
14.5562811
11
36.752155
21
15.0563811
0
LINE
8
DEFAULT_255_2_778
10
27.912155
20
14.5562811
11
27.912155
21
15.0563811
0
LINE
8
DEFAULT_255_2_778
10
27.912155
20
15.0563811
11
27.912155
21
14.5562811
0
LINE
8
DEFAULT_255_2_778
10
29.132155
20
15.0563811
11
29.132155
21
14.5562811
0
LINE
8
DEFAULT_255_2_778
10
29.132155
20
14.5562811
11
29.132155
21
15.0563811
0
LINE
8
DEFAULT_255_2_778
10
20.292155
20
14.5562811
11
20.292155
21
15.0563811
0
LINE
8
DEFAULT_255_2_778
10
20.292155
20
15.0563811
11
20.292155
21
14.5562811
0
LINE
8
DEFAULT_255_2_778
10
21.512155
20
15.0563811
11
21.512155
21
14.5562811
0
LINE
8
DEFAULT_255_2_778
10
21.512155
20
14.5562811
11
21.512155
21
15.0563811
0
LINE
8
DEFAULT_255_2_778
10
12.672155
20
14.5562811
11
12.672155
21
15.0563811
0
LINE
8
DEFAULT_255_2_778
10
12.672155
20
15.0563811
11
12.672155
21
14.5562811
0
LINE
8
DEFAULT_255_2_778
10
13.892155
20
15.0563811
11
13.892155
21
14.5562811
0
LINE
8
DEFAULT_255_2_778
10
13.892155
20
14.5562811
11
13.892155
21
15.0563811
0
LINE
8
DEFAULT_255_2_778
10
5.052155
20
14.5562811
11
5.052155
21
15.0563811
0
LINE
8
DEFAULT_255_2_778
10
5.052155
20
15.0563811
11
5.052155
21
14.5562811
0
LINE
8
DEFAULT_255_2_778
10
6.272155
20
15.0563811
11
6.272155
21
14.5562811
0
LINE
8
DEFAULT_255_2_778
10
6.272155
20
14.5562811
11
6.272155
21
15.0563811
0
LINE
8
DEFAULT_255_2_778
10
20.262255
20
19.2563811
11
20.262255
21
19.0562811
0
LINE
8
DEFAULT_255_2_778
10
20.262255
20
19.0562811
11
20.262255
21
19.2563811
0
LINE
8
DEFAULT_255_2_778
10
18.107155
20
19.0562811
11
17.977255
21
19.2563811
0
LINE
8
DEFAULT_255_2_778
10
17.977255
20
19.2563811
11
18.107155
21
19.0562811
0
LINE
8
DEFAULT_255_2_778
10
22.662255
20
19.2563811
11
22.662255
21
19.0562811
0
LINE
8
DEFAULT_255_2_778
10
22.662255
20
19.0562811
11
22.662255
21
19.2563811
0
LINE
8
DEFAULT_255_2_778
10
20.162255
20
19.2563811
11
20.162255
21
19.0562811
0
LINE
8
DEFAULT_255_2_778
10
20.162255
20
19.0562811
11
20.162255
21
19.2563811
0
LINE
8
DEFAULT_255_2_778
10
18.562255
20
19.0562811
11
18.562255
21
19.2563811
0
LINE
8
DEFAULT_255_2_778
10
18.562255
20
19.2563811
11
18.562255
21
19.0562811
0
LINE
8
DEFAULT_255_2_778
10
9.472255
20
15.0563811
11
9.472255
21
17.0563811
0
LINE
8
DEFAULT_255_2_778
10
9.472255
20
17.0563811
11
13.282255
21
17.0563811
0
LINE
8
DEFAULT_255_2_778
10
13.282255
20
17.0563811
11
13.282255
21
19.0562811
0
LINE
8
DEFAULT_255_2_778
10
20.902255
20
19.0562811
11
20.902255
21
17.0563811
0
LINE
8
DEFAULT_255_2_778
10
20.902255
20
17.0563811
11
17.092255
21
17.0563811
0
LINE
8
DEFAULT_255_2_778
10
17.092255
20
17.0563811
11
17.092255
21
15.0563811
0
LINE
8
DEFAULT_255_2_778
10
28.522255
20
19.0562811
11
28.522255
21
17.0563811
0
LINE
8
DEFAULT_255_2_778
10
28.522255
20
17.0563811
11
24.712255
21
17.0563811
0
LINE
8
DEFAULT_255_2_778
10
24.712255
20
17.0563811
11
24.712255
21
15.0563811
0
LINE
8
DEFAULT_255_2_778
10
36.142255
20
19.0562811
11
36.142255
21
17.0563811
0
LINE
8
DEFAULT_255_2_778
10
36.142255
20
17.0563811
11
32.332255
21
17.0563811
0
LINE
8
DEFAULT_255_2_778
10
32.332255
20
17.0563811
11
32.332255
21
15.0563811
0
LINE
8
DEFAULT_255_2_778
10
53.062355
20
19.0562811
11
53.335355
21
19.1414811
0
LINE
8
DEFAULT_255_2_778
10
48.617355
20
19.1322811
11
48.862655
21
19.0560811
0
LINE
8
DEFAULT_255_2_778
10
43.762555
20
19.0560811
11
43.762555
21
17.0560811
0
LINE
8
DEFAULT_255_2_778
10
51.382555
20
19.0560811
11
51.382555
21
17.0560811
0
LINE
8
DEFAULT_255_2_778
10
51.382555
20
17.0560811
11
2.662355
21
17.0560811
0
LINE
8
DEFAULT_255_2_778
10
2.312355
20
14.5602811
11
2.312355
21
15.0560811
0
LINE
8
DEFAULT_255_2_778
10
58.162455
20
19.5560811
11
57.662355
21
19.5560811
0
LINE
8
DEFAULT_255_2_778
10
57.662355
20
19.5560811
11
57.662355
21
15.0560811
0
LINE
8
DEFAULT_255_2_778
10
54.512255
20
19.0560811
11
44.412355
21
19.0560811
0
LINE
8
DEFAULT_255_2_778
10
12.662355
20
19.2560811
11
12.662355
21
19.0560811
0
LINE
8
DEFAULT_255_2_778
10
42.262355
20
44.5060811
11
43.062455
21
44.5060811
0
LINE
8
DEFAULT_255_2_778
10
43.062455
20
44.5060811
11
43.062455
21
56.5059811
0
LINE
8
DEFAULT_255_2_778
10
43.062455
20
56.5059811
11
42.262355
21
56.5059811
0
LINE
8
DEFAULT_255_2_778
10
42.262355
20
56.5059811
11
43.062455
21
56.5059811
0
LINE
8
DEFAULT_255_2_778
10
43.062455
20
56.5059811
11
43.062455
21
44.5060811
0
LINE
8
DEFAULT_255_2_778
10
43.062455
20
44.5060811
11
42.262355
21
44.5060811
0
LINE
8
DEFAULT_255_2_778
10
44.262355
20
42.3060811
11
44.262355
21
43.0061811
0
LINE
8
DEFAULT_255_2_778
10
44.262355
20
43.0061811
11
44.262355
21
42.3060811
0
LINE
8
DEFAULT_255_2_778
10
45.862255
20
43.0061811
11
45.862255
21
42.3060811
0
LINE
8
DEFAULT_255_2_778
10
45.862255
20
42.3060811
11
45.862255
21
43.0061811
0
LINE
8
DEFAULT_255_2_778
10
54.262255
20
42.3060811
11
54.262255
21
43.0061811
0
LINE
8
DEFAULT_255_2_778
10
54.262255
20
43.0061811
11
54.262255
21
42.3060811
0
LINE
8
DEFAULT_255_2_778
10
55.862155
20
43.0061811
11
55.862155
21
42.3060811
0
LINE
8
DEFAULT_255_2_778
10
55.862155
20
42.3060811
11
55.862155
21
43.0061811
0
LINE
8
DEFAULT_255_2_778
10
59.981755
20
19.1732811
11
59.868255
21
19.2052811
0
LINE
8
DEFAULT_255_2_778
10
59.868455
20
70.3063811
11
59.981255
21
70.3394811
0
LINE
8
DEFAULT_255_2_778
10
58.262255
20
19.0562811
11
58.262255
21
14.8563811
0
LINE
8
DEFAULT_255_2_778
10
57.962155
20
14.5562811
11
2.362355
21
14.5562811
0
LINE
8
DEFAULT_255_2_778
10
2.062355
20
14.8563811
11
2.062355
21
17.3563811
0
LINE
8
DEFAULT_255_2_778
10
2.062355
20
17.3563811
11
2.062355
21
19.0562811
0
LINE
8
DEFAULT_255_2_778
10
2.062355
20
19.0562811
11
35.262255
21
19.0562811
0
LINE
8
DEFAULT_255_2_778
10
35.262255
20
19.0562811
11
35.262255
21
70.4563811
0
LINE
8
DEFAULT_255_2_778
10
35.262255
20
70.4563811
11
2.062355
21
70.4563811
0
LINE
8
DEFAULT_255_2_778
10
2.062355
20
70.4563811
11
2.062355
21
74.6563811
0
LINE
8
DEFAULT_255_2_778
10
2.362355
20
74.9564811
11
58.162455
21
74.9564811
0
LINE
8
DEFAULT_255_2_778
10
58.162455
20
74.9564811
11
58.162455
21
74.4563811
0
LINE
8
DEFAULT_255_2_778
10
57.462355
20
19.6563811
11
57.462355
21
42.3062811
0
LINE
8
DEFAULT_255_2_778
10
57.462355
20
42.3062811
11
42.262355
21
42.3062811
0
LINE
8
DEFAULT_255_2_778
10
42.262355
20
42.3062811
11
42.262355
21
19.1563811
0
LINE
8
DEFAULT_255_2_778
10
42.262355
20
19.1563811
11
57.462355
21
19.1563811
0
LINE
8
DEFAULT_255_2_778
10
57.462355
20
19.1563811
11
57.462355
21
19.6563811
0
LINE
8
DEFAULT_255_2_778
10
42.162355
20
43.0063811
11
42.262355
21
43.0063811
0
LINE
8
DEFAULT_255_2_778
10
35.262255
20
19.0562811
11
42.162355
21
19.0562811
0
LINE
8
DEFAULT_255_2_778
10
42.162355
20
19.0562811
11
42.162355
21
70.4563811
0
LINE
8
DEFAULT_255_2_778
10
42.162355
20
70.4563811
11
35.262255
21
70.4563811
0
LINE
8
DEFAULT_255_2_778
10
2.162355
20
14.6361811
11
2.162355
21
15.0563811
0
LINE
8
DEFAULT_255_2_778
10
2.162355
20
15.0563811
11
58.162455
21
15.0563811
0
LINE
8
DEFAULT_255_2_778
10
58.162455
20
15.0563811
11
58.162455
21
19.0562811
0
LINE
8
DEFAULT_255_2_778
10
58.162455
20
19.0562811
11
60.162455
21
19.0562811
0
LINE
8
DEFAULT_255_2_778
10
60.162455
20
19.0562811
11
60.162455
21
19.6563811
0
LINE
8
DEFAULT_255_2_778
10
59.662355
20
70.3563811
11
42.262355
21
70.3563811
0
LINE
8
DEFAULT_255_2_778
10
42.262355
20
70.3563811
11
42.262355
21
43.0063811
0
LINE
8
DEFAULT_255_2_778
10
42.262355
20
43.0063811
11
58.162155
21
43.0063811
0
LINE
8
DEFAULT_255_2_778
10
58.162155
20
43.0063811
11
58.162155
21
19.1563811
0
LINE
8
DEFAULT_255_2_778
10
58.162155
20
19.1563811
11
59.662155
21
19.1563811
0
LINE
8
DEFAULT_255_2_778
10
60.162155
20
19.6563811
11
60.162155
21
70.4563811
0
LINE
8
DEFAULT_255_2_778
10
60.162155
20
70.4563811
11
58.162155
21
70.4563811
0
LINE
8
DEFAULT_255_2_778
10
58.162155
20
70.4563811
11
58.162155
21
74.4563811
0
LINE
8
DEFAULT_255_2_778
10
58.162155
20
74.4563811
11
2.162355
21
74.4563811
0
LINE
8
DEFAULT_255_2_778
10
2.162355
20
74.4563811
11
2.162355
21
70.4563811
0
LINE
8
DEFAULT_255_2_778
10
51.764555
20
18.5750811
11
52.051655
21
18.5750811
0
LINE
8
DEFAULT_255_2_778
10
52.051655
20
18.5750811
11
52.325455
21
17.8016811
0
LINE
8
DEFAULT_255_2_778
10
52.325455
20
17.8016811
11
52.598055
21
18.5750811
0
LINE
8
DEFAULT_255_2_778
10
52.598055
20
18.5750811
11
52.886655
21
18.5750811
0
LINE
8
DEFAULT_255_2_778
10
52.886655
20
18.5750811
11
52.886655
21
17.5084811
0
LINE
8
DEFAULT_255_2_778
10
52.886655
20
17.5084811
11
52.666255
21
17.5084811
0
LINE
8
DEFAULT_255_2_778
10
52.666255
20
17.5084811
11
52.666255
21
17.8000811
0
LINE
8
DEFAULT_255_2_778
10
52.666255
20
17.8000811
11
52.688255
21
18.3032811
0
LINE
8
DEFAULT_255_2_778
10
52.688255
20
18.3032811
11
52.400355
21
17.5084811
0
LINE
8
DEFAULT_255_2_778
10
52.400355
20
17.5084811
11
52.249555
21
17.5084811
0
LINE
8
DEFAULT_255_2_778
10
52.249555
20
17.5084811
11
51.962455
21
18.3025811
0
LINE
8
DEFAULT_255_2_778
10
51.962455
20
18.3025811
11
51.984455
21
17.8000811
0
LINE
8
DEFAULT_255_2_778
10
51.984455
20
17.8000811
11
51.984455
21
17.5084811
0
LINE
8
DEFAULT_255_2_778
10
51.984455
20
17.5084811
11
51.764555
21
17.5084811
0
LINE
8
DEFAULT_255_2_778
10
51.764555
20
17.5084811
11
51.764555
21
18.5750811
0
LINE
8
DEFAULT_255_2_778
10
51.764555
20
18.5750811
11
51.764555
21
18.5750811
0
ARC
8
DEFAULT_255_2_778
10
54.866418
20
18.0777043
40
0.497407
50
60.7148044
51
90.9664598
0
ARC
8
DEFAULT_255_2_778
10
54.8905099
20
18.1272843
40
0.4423908
50
27.4683226
51
60.2952379
0
ARC
8
DEFAULT_255_2_778
10
54.787849
20
18.0755029
40
0.5573646
50
358.9964129
51
27.3234541
0
ARC
8
DEFAULT_255_2_778
10
54.7881895
20
18.0062794
40
0.5570369
50
332.8903561
51
1.0760834
0
ARC
8
DEFAULT_255_2_778
10
54.8949179
20
17.9539524
40
0.4381937
50
299.6252658
51
332.6213396
0
ARC
8
DEFAULT_255_2_778
10
54.8650303
20
18.0116288
40
0.5031111
50
269.4531088
51
299.3371059
0
ARC
8
DEFAULT_255_2_778
10
54.8706059
20
17.9233733
40
0.2388841
50
266.4773507
51
319.7864456
0
ARC
8
DEFAULT_255_2_778
10
54.7881449
20
17.9679985
40
0.3312214
50
323.1030521
51
355.2538328
0
ARC
8
DEFAULT_255_2_778
10
54.4988436
20
18.0146686
40
0.6238009
50
353.1800839
51
359.5841061
0
ARC
8
DEFAULT_255_2_778
10
54.6248048
20
18.078906
40
0.4979769
50
358.5771225
51
18.7693124
0
ARC
8
DEFAULT_255_2_778
10
54.848264
20
18.14988
40
0.2636061
50
19.7909841
51
38.2676249
0
ARC
8
DEFAULT_255_2_778
10
54.8733832
20
18.1591469
40
0.238289
50
40.2592992
51
93.6946388
0
LINE
8
DEFAULT_255_2_778
10
54.4149281
20
18.5750406
11
54.0222281
21
17.4169406
0
LINE
8
DEFAULT_255_2_778
10
54.0222281
20
17.4169406
11
53.8648281
21
17.4169406
0
LINE
8
DEFAULT_255_2_778
10
53.8648281
20
17.4169406
11
54.2574281
21
18.5750406
0
LINE
8
DEFAULT_255_2_778
10
54.2574281
20
18.5750406
11
54.4149281
21
18.5750406
0
LINE
8
DEFAULT_255_2_778
10
54.4149281
20
18.5750406
11
54.4149281
21
18.5750406
0
LINE
8
DEFAULT_255_2_778
10
54.8605281
20
17.5085406
11
54.5300281
21
17.5085406
0
LINE
8
DEFAULT_255_2_778
10
54.5300281
20
17.5085406
11
54.5300281
21
18.5750406
0
LINE
8
DEFAULT_255_2_778
10
54.5300281
20
18.5750406
11
54.8580281
21
18.5750406
0
LINE
8
DEFAULT_255_2_778
10
55.3451281
20
18.0657406
11
55.3451281
21
18.0167406
0
LINE
8
DEFAULT_255_2_778
10
54.8602281
20
17.5085406
11
54.8605281
21
17.5085406
0
LINE
8
DEFAULT_255_2_778
10
54.8583281
20
18.3969406
11
54.7498281
21
18.3969406
0
LINE
8
DEFAULT_255_2_778
10
54.7498281
20
18.3969406
11
54.7498281
21
17.6849406
0
LINE
8
DEFAULT_255_2_778
10
54.7498281
20
17.6849406
11
54.8559281
21
17.6849406
0
LINE
8
DEFAULT_255_2_778
10
55.1226281
20
18.0101406
11
55.1226281
21
18.0665406
0
LINE
8
DEFAULT_255_2_778
10
54.8580281
20
18.3969406
11
54.8583281
21
18.3969406
0
ARC
8
DEFAULT_255_2_778
10
55.9451414
20
17.7945099
40
0.1129448
50
356.9090229
51
52.4206267
0
ARC
8
DEFAULT_255_2_778
10
55.8020109
20
17.5788422
40
0.3715939
50
55.2117678
51
69.582111
0
ARC
8
DEFAULT_255_2_778
10
55.5111604
20
16.8753754
40
1.1326574
50
68.2079541
51
72.2842686
0
ARC
8
DEFAULT_255_2_778
10
56.2645255
20
19.2502768
40
1.3588757
50
245.9688882
51
252.4963846
0
ARC
8
DEFAULT_255_2_778
10
55.9859426
20
18.6114202
40
0.6619692
50
241.9661732
51
245.4732179
0
ARC
8
DEFAULT_255_2_778
10
55.8388402
20
18.3585022
40
0.3697516
50
213.8410216
51
243.66681
0
ARC
8
DEFAULT_255_2_778
10
55.7503925
20
18.2883684
40
0.2573887
50
179.320742
51
211.8379791
0
ARC
8
DEFAULT_255_2_778
10
55.750878
20
18.2948708
40
0.2578792
50
144.1998548
51
180.7667807
0
ARC
8
DEFAULT_255_2_778
10
55.7959065
20
18.2548972
40
0.3178413
50
111.0541736
51
143.1035512
0
ARC
8
DEFAULT_255_2_778
10
55.8784914
20
18.0632815
40
0.526398
50
89.1367775
51
111.9503981
0
ARC
8
DEFAULT_255_2_778
10
55.8950149
20
18.1085349
40
0.4811616
50
66.0650388
51
91.0232953
0
ARC
8
DEFAULT_255_2_778
10
55.9601055
20
18.2524395
40
0.3232265
50
33.66587
51
66.2620037
0
ARC
8
DEFAULT_255_2_778
10
55.973349
20
18.2649053
40
0.3053088
50
359.1206559
51
33.0965815
0
ARC
8
DEFAULT_255_2_778
10
55.9154827
20
18.2684316
40
0.1434743
50
356.7188746
51
47.3865357
0
ARC
8
DEFAULT_255_2_778
10
55.8949359
20
18.2259661
40
0.1891293
50
51.5192455
51
93.6116702
0
ARC
8
DEFAULT_255_2_778
10
55.8708559
20
18.2128299
40
0.2022561
50
86.5514935
51
123.9432418
0
ARC
8
DEFAULT_255_2_778
10
55.8206433
20
18.2932565
40
0.1075468
50
125.6760174
51
181.2449915
0
ARC
8
DEFAULT_255_2_778
10
55.8156739
20
18.2933037
40
0.1025797
50
181.3316522
51
240.7311976
0
ARC
8
DEFAULT_255_2_778
10
56.0293006
20
18.623853
40
0.4959911
50
237.8713916
51
252.1916139
0
ARC
8
DEFAULT_255_2_778
10
56.2208624
20
19.1441663
40
1.0502173
50
250.9229047
51
253.3427396
0
ARC
8
DEFAULT_255_2_778
10
55.665486
20
17.2494497
40
0.9242529
50
62.0961401
51
74.0272631
0
ARC
8
DEFAULT_255_2_778
10
55.8950801
20
17.684284
40
0.4325278
50
46.4983038
51
62.0169656
0
ARC
8
DEFAULT_255_2_778
10
56.0000741
20
17.7968151
40
0.2786307
50
358.6025254
51
46.2297696
0
ARC
8
DEFAULT_255_2_778
10
56.0219258
20
17.7799936
40
0.2568918
50
306.248197
51
2.2367566
0
ARC
8
DEFAULT_255_2_778
10
55.9351645
20
17.9086085
40
0.4119605
50
274.2677259
51
305.4027992
0
ARC
8
DEFAULT_255_2_778
10
55.8933314
20
18.1923734
40
0.6983553
50
269.8679515
51
275.9580949
0
ARC
8
DEFAULT_255_2_778
10
55.8845762
20
18.0400567
40
0.5460837
50
246.5910466
51
270.7497573
0
ARC
8
DEFAULT_255_2_778
10
55.8036807
20
17.867148
40
0.3553108
50
215.2228134
51
247.4847631
0
ARC
8
DEFAULT_255_2_778
10
55.7761489
20
17.8377853
40
0.3159885
50
178.8694809
51
213.7525597
0
ARC
8
DEFAULT_255_2_778
10
55.8374677
20
17.8293679
40
0.1575287
50
174.6631428
51
267.0561977
0
ARC
8
DEFAULT_255_2_778
10
55.8890933
20
18.0629708
40
0.3954585
50
261.3148963
51
270.351865
0
ARC
8
DEFAULT_255_2_778
10
55.9034666
20
17.872312
40
0.2051403
50
266.661943
51
302.5110821
0
ARC
8
DEFAULT_255_2_778
10
55.9543682
20
17.7839186
40
0.1033432
50
305.0531109
51
2.3853464
0
LINE
8
DEFAULT_255_2_778
10
56.2786219
20
18.2602198
11
56.0587219
21
18.2602198
0
LINE
8
DEFAULT_255_2_778
10
55.4602219
20
17.8440198
11
55.6806219
21
17.8440198
0
LINE
8
DEFAULT_255_2_778
10
56.0576219
20
17.7882198
11
56.0579219
21
17.7884198
0
LINE
8
DEFAULT_255_2_778
10
53.830925
20
18.5768667
11
53.830925
21
18.4101667
0
LINE
8
DEFAULT_255_2_778
10
53.830925
20
18.4101667
11
53.518225
21
18.4101667
0
LINE
8
DEFAULT_255_2_778
10
53.518225
20
18.4101667
11
53.518225
21
17.5185667
0
LINE
8
DEFAULT_255_2_778
10
53.518225
20
17.5185667
11
53.299125
21
17.5185667
0
LINE
8
DEFAULT_255_2_778
10
53.299125
20
17.5185667
11
53.299125
21
18.4101667
0
LINE
8
DEFAULT_255_2_778
10
53.299125
20
18.4101667
11
52.986425
21
18.4101667
0
LINE
8
DEFAULT_255_2_778
10
52.986425
20
18.4101667
11
52.986425
21
18.5768667
0
LINE
8
DEFAULT_255_2_778
10
52.986425
20
18.5768667
11
53.830925
21
18.5768667
0
ARC
8
DEFAULT_255_2_778
10
56.8865414
20
17.7863099
40
0.1129448
50
356.9090229
51
52.4206267
0
ARC
8
DEFAULT_255_2_778
10
56.7434109
20
17.5706422
40
0.3715939
50
55.2117678
51
69.582111
0
ARC
8
DEFAULT_255_2_778
10
56.4525604
20
16.8671754
40
1.1326574
50
68.2079541
51
72.2842686
0
ARC
8
DEFAULT_255_2_778
10
57.2059255
20
19.2420768
40
1.3588757
50
245.9688882
51
252.4963846
0
ARC
8
DEFAULT_255_2_778
10
56.9273426
20
18.6032202
40
0.6619692
50
241.9661732
51
245.4732179
0
ARC
8
DEFAULT_255_2_778
10
56.7802402
20
18.3503022
40
0.3697516
50
213.8410216
51
243.66681
0
ARC
8
DEFAULT_255_2_778
10
56.6917925
20
18.2801684
40
0.2573887
50
179.320742
51
211.8379791
0
ARC
8
DEFAULT_255_2_778
10
56.692278
20
18.2866708
40
0.2578792
50
144.1998548
51
180.7667807
0
ARC
8
DEFAULT_255_2_778
10
56.7373065
20
18.2466972
40
0.3178413
50
111.0541736
51
143.1035512
0
ARC
8
DEFAULT_255_2_778
10
56.8198914
20
18.0550815
40
0.526398
50
89.1367775
51
111.9503981
0
ARC
8
DEFAULT_255_2_778
10
56.8364149
20
18.1003349
40
0.4811616
50
66.0650388
51
91.0232953
0
ARC
8
DEFAULT_255_2_778
10
56.9015055
20
18.2442395
40
0.3232265
50
33.66587
51
66.2620037
0
ARC
8
DEFAULT_255_2_778
10
56.914749
20
18.2567053
40
0.3053088
50
359.1206559
51
33.0965815
0
ARC
8
DEFAULT_255_2_778
10
56.8568827
20
18.2602316
40
0.1434743
50
356.7188746
51
47.3865357
0
ARC
8
DEFAULT_255_2_778
10
56.8363359
20
18.2177661
40
0.1891293
50
51.5192455
51
93.6116702
0
ARC
8
DEFAULT_255_2_778
10
56.8122559
20
18.2046299
40
0.2022561
50
86.5514935
51
123.9432418
0
ARC
8
DEFAULT_255_2_778
10
56.7620433
20
18.2850565
40
0.1075468
50
125.6760174
51
181.2449915
0
ARC
8
DEFAULT_255_2_778
10
56.7570411
20
18.2851414
40
0.1025478
50
181.3531652
51
240.806236
0
ARC
8
DEFAULT_255_2_778
10
56.9701278
20
18.6139326
40
0.4941764
50
237.8313716
51
252.1943701
0
ARC
8
DEFAULT_255_2_778
10
57.1616998
20
19.1341002
40
1.0482681
50
250.9188763
51
253.3429623
0
ARC
8
DEFAULT_255_2_778
10
56.606886
20
17.2412497
40
0.9242529
50
62.0961401
51
74.0272631
0
ARC
8
DEFAULT_255_2_778
10
56.8364801
20
17.676084
40
0.4325278
50
46.4983038
51
62.0169656
0
ARC
8
DEFAULT_255_2_778
10
56.9414741
20
17.7886151
40
0.2786307
50
358.6025254
51
46.2297696
0
ARC
8
DEFAULT_255_2_778
10
56.9633258
20
17.7717936
40
0.2568918
50
306.248197
51
2.2367566
0
ARC
8
DEFAULT_255_2_778
10
56.8765645
20
17.9004085
40
0.4119605
50
274.2677259
51
305.4027992
0
ARC
8
DEFAULT_255_2_778
10
56.8347314
20
18.1841734
40
0.6983553
50
269.8679515
51
275.9580949
0
ARC
8
DEFAULT_255_2_778
10
56.8259762
20
18.0318567
40
0.5460837
50
246.5910466
51
270.7497573
0
ARC
8
DEFAULT_255_2_778
10
56.7450807
20
17.858948
40
0.3553108
50
215.2228134
51
247.4847631
0
ARC
8
DEFAULT_255_2_778
10
56.7175489
20
17.8295853
40
0.3159885
50
178.8694809
51
213.7525597
0
ARC
8
DEFAULT_255_2_778
10
56.7788677
20
17.8211679
40
0.1575287
50
174.6631428
51
267.0561977
0
ARC
8
DEFAULT_255_2_778
10
56.8304933
20
18.0547708
40
0.3954585
50
261.3148963
51
270.351865
0
ARC
8
DEFAULT_255_2_778
10
56.8448666
20
17.864112
40
0.2051403
50
266.661943
51
302.5110821
0
ARC
8
DEFAULT_255_2_778
10
56.8957682
20
17.7757186
40
0.1033432
50
305.0531109
51
2.3853464
0
LINE
8
DEFAULT_255_2_778
10
57.2200219
20
18.2520198
11
57.0001219
21
18.2520198
0
LINE
8
DEFAULT_255_2_778
10
56.4016219
20
17.8358198
11
56.6220219
21
17.8358198
0
LINE
8
DEFAULT_255_2_778
10
56.9990219
20
17.7800198
11
56.9993219
21
17.7802198
0
ENDSEC
0
EOF