0
SECTION
2
HEADER
9
$MEASUREMENT
70
1
0
ENDSEC
0
SECTION
2
TABLES
0
TABLE
2
LTYPE
0
LTYPE
72
65
70
64
2
CONTINUOUS
3
______
73
0
40
0
0
ENDTAB
0
TABLE
2
LAYER
0
LAYER
2
DEFAULT_255_2_778
70
0
62
255
6
CONTINUOUS
0
LAYER
2
DEFAULT_255_1_234
70
0
62
255
6
CONTINUOUS
0
ENDTAB
0
ENDSEC
0
SECTION
2
ENTITIES
0
ARC
8
DEFAULT_255_2_778
10
3.5700693
20
178.9926516
40
0.7914215
50
129.1312896
51
180.1450914
0
ARC
8
DEFAULT_255_2_778
10
3.5703345
20
178.9931387
40
0.7912112
50
89.854026
51
129.1684493
0
ARC
8
DEFAULT_255_2_778
10
25.7993937
20
178.9928252
40
0.7915249
50
39.4792447
51
90.147911
0
ARC
8
DEFAULT_255_2_778
10
25.7999935
20
178.9926719
40
0.7911595
50
359.8533901
51
39.5154338
0
ARC
8
DEFAULT_255_2_778
10
25.7996693
20
-1.9864007
40
0.7914836
50
309.4761667
51
0.1482649
0
ARC
8
DEFAULT_255_2_778
10
25.799398
20
-1.9868318
40
0.7913235
50
269.8517415
51
309.511178
0
ARC
8
DEFAULT_255_2_778
10
3.570342
20
-1.9867736
40
0.7913815
50
219.1282118
51
270.1454017
0
ARC
8
DEFAULT_255_2_778
10
3.5700247
20
-1.9863911
40
0.7913769
50
179.8524075
51
219.1641908
0
LINE
8
DEFAULT_255_2_778
10
3.5723503
20
179.7843475
11
25.7973503
21
179.7843475
0
LINE
8
DEFAULT_255_2_778
10
26.5911503
20
178.9906475
11
26.5911503
21
-1.9843525
0
LINE
8
DEFAULT_255_2_778
10
25.7973503
20
-2.7781525
11
3.5723503
21
-2.7781525
0
LINE
8
DEFAULT_255_2_778
10
2.7786503
20
-1.9843525
11
2.7786503
21
178.9906475
0
LINE
8
DEFAULT_255_1_234
10
9.380185
20
-0.0087609
11
9.380185
21
-0.1348592
0
LINE
8
DEFAULT_255_1_234
10
9.380185
20
-0.1348592
11
8.8894458
21
-0.1348592
0
LINE
8
DEFAULT_255_1_234
10
8.8894458
20
-0.1348592
11
8.8894458
21
-0.6513
0
LINE
8
DEFAULT_255_1_234
10
8.8894458
20
-0.6513
11
8.7352364
21
-0.6513
0
LINE
8
DEFAULT_255_1_234
10
8.7352364
20
-0.6513
11
8.7352364
21
0.5181211
0
LINE
8
DEFAULT_255_1_234
10
8.7352364
20
0.5181211
11
9.4596992
21
0.5181211
0
LINE
8
DEFAULT_255_1_234
10
9.4596992
20
0.5181211
11
9.4596992
21
0.3912196
0
LINE
8
DEFAULT_255_1_234
10
9.4596992
20
0.3912196
11
8.8894458
21
0.3912196
0
LINE
8
DEFAULT_255_1_234
10
8.8894458
20
0.3912196
11
8.8894458
21
-0.0087609
0
LINE
8
DEFAULT_255_1_234
10
8.8894458
20
-0.0087609
11
9.380185
21
-0.0087609
0
LINE
8
DEFAULT_255_1_234
10
9.7440227
20
0.5181211
11
10.0259367
21
0.0699501
0
LINE
8
DEFAULT_255_1_234
10
10.0259367
20
0.0699501
11
10.3062444
21
0.5181211
0
LINE
8
DEFAULT_255_1_234
10
10.3062444
20
0.5181211
11
10.4877617
21
0.5181211
0
LINE
8
DEFAULT_255_1_234
10
10.4877617
20
0.5181211
11
10.1183017
21
-0.0617704
0
LINE
8
DEFAULT_255_1_234
10
10.1183017
20
-0.0617704
11
10.4965966
21
-0.6513
0
LINE
8
DEFAULT_255_1_234
10
10.4965966
20
-0.6513
11
10.3134729
21
-0.6513
0
LINE
8
DEFAULT_255_1_234
10
10.3134729
20
-0.6513
11
10.0259367
21
-0.1950973
0
LINE
8
DEFAULT_255_1_234
10
10.0259367
20
-0.1950973
11
9.7367941
21
-0.6513
0
LINE
8
DEFAULT_255_1_234
10
9.7367941
20
-0.6513
11
9.5544737
21
-0.6513
0
LINE
8
DEFAULT_255_1_234
10
9.5544737
20
-0.6513
11
9.9335717
21
-0.0617704
0
LINE
8
DEFAULT_255_1_234
10
9.9335717
20
-0.0617704
11
9.5633086
21
0.5181211
0
LINE
8
DEFAULT_255_1_234
10
9.5633086
20
0.5181211
11
9.7440227
21
0.5181211
0
LINE
8
DEFAULT_255_1_234
10
10.8532058
20
-0.1155831
11
10.8532058
21
0.0056962
0
LINE
8
DEFAULT_255_1_234
10
10.8532058
20
0.0056962
11
10.9648469
21
0.0056962
0
LINE
8
DEFAULT_255_1_234
10
10.7744947
20
0.2113087
11
10.6259076
21
0.2113087
0
LINE
8
DEFAULT_255_1_234
10
10.6154663
20
-0.3428812
11
10.7648566
21
-0.3428812
0
LINE
8
DEFAULT_255_1_234
10
10.9648469
20
-0.1155831
11
10.8532058
21
-0.1155831
0
ARC
8
DEFAULT_255_1_234
10
10.9619336
20
0.3449713
40
0.3392876
50
270.4919872
51
281.8951556
0
ARC
8
DEFAULT_255_1_234
10
10.9860597
20
0.2347702
40
0.2264817
50
281.6691735
51
301.2943132
0
ARC
8
DEFAULT_255_1_234
10
11.0030808
20
0.2036304
40
0.1910381
50
301.7833094
51
311.7545298
0
ARC
8
DEFAULT_255_1_234
10
11.0122383
20
0.1934748
40
0.1773635
50
311.7323931
51
354.2802411
0
ARC
8
DEFAULT_255_1_234
10
10.9396009
20
0.2059722
40
0.2509385
50
353.0937916
51
0.1181479
0
ARC
8
DEFAULT_255_1_234
10
10.8934793
20
0.2107386
40
0.2970898
50
359.1805295
51
15.0453146
0
ARC
8
DEFAULT_255_1_234
10
11.028063
20
0.2499992
40
0.1569564
50
13.9577229
51
77.6713066
0
ARC
8
DEFAULT_255_1_234
10
10.989416
20
0.1114949
40
0.3006298
50
76.1116566
51
90.7026153
0
ARC
8
DEFAULT_255_1_234
10
10.9834998
20
0.1388545
40
0.2732568
50
89.5324876
51
103.531937
0
ARC
8
DEFAULT_255_1_234
10
10.9634442
20
0.2187884
40
0.1908508
50
103.2931773
51
133.5619022
0
ARC
8
DEFAULT_255_1_234
10
10.958993
20
0.2247375
40
0.1834746
50
133.8349307
51
173.5344437
0
ARC
8
DEFAULT_255_1_234
10
11.0312973
20
0.2119213
40
0.2568033
50
172.5096846
51
180.1366907
0
ARC
8
DEFAULT_255_1_234
10
10.9361867
20
0.2153622
40
0.3103056
50
155.3484492
51
180.7484736
0
ARC
8
DEFAULT_255_1_234
10
10.9312956
20
0.2124846
40
0.3070957
50
131.5744599
51
154.4798489
0
ARC
8
DEFAULT_255_1_234
10
10.9626104
20
0.180831
40
0.3515643
50
96.9875458
51
131.9690667
0
ARC
8
DEFAULT_255_1_234
10
10.9845584
20
0.0562636
40
0.4779224
50
89.8596053
51
97.7825159
0
ARC
8
DEFAULT_255_1_234
10
10.9893647
20
0.0300616
40
0.5041361
50
78.3655447
51
90.4131539
0
ARC
8
DEFAULT_255_1_234
10
11.0251565
20
0.1959887
40
0.3344039
50
56.6229102
51
78.638727
0
ARC
8
DEFAULT_255_1_234
10
11.0466508
20
0.2335805
40
0.2912001
50
47.0253525
51
56.0854072
0
ARC
8
DEFAULT_255_1_234
10
11.0486288
20
0.2375223
40
0.2869704
50
10.9208013
51
46.7778124
0
ARC
8
DEFAULT_255_1_234
10
10.9122355
20
0.2059857
40
0.426899
50
359.6364486
51
11.6087304
0
ARC
8
DEFAULT_255_1_234
10
11.0957199
20
0.2044752
40
0.243409
50
332.3549906
51
359.7179418
0
ARC
8
DEFAULT_255_1_234
10
11.03068
20
0.2353142
40
0.3153459
50
325.2333722
51
332.8745602
0
ARC
8
DEFAULT_255_1_234
10
11.0459424
20
0.2246828
40
0.2967456
50
292.9802137
51
325.2392345
0
ARC
8
DEFAULT_255_1_234
10
11.0184798
20
0.2780863
40
0.3566604
50
292.5402179
51
293.6924929
0
ARC
8
DEFAULT_255_1_234
10
11.0577394
20
-0.3673909
40
0.3307468
50
57.6435486
51
72.8625112
0
ARC
8
DEFAULT_255_1_234
10
11.0931894
20
-0.3099451
40
0.2632492
50
36.7248896
51
57.4697979
0
ARC
8
DEFAULT_255_1_234
10
11.0920526
20
-0.308678
40
0.2634081
50
8.0545065
51
36.356114
0
ARC
8
DEFAULT_255_1_234
10
11.0057712
20
-0.3241826
40
0.3510261
50
359.8320645
51
8.5869982
0
ARC
8
DEFAULT_255_1_234
10
10.9682488
20
-0.3289899
40
0.3885653
50
343.9829931
51
0.5571613
0
ARC
8
DEFAULT_255_1_234
10
11.0568685
20
-0.3532562
40
0.2966924
50
311.6359546
51
343.7651759
0
ARC
8
DEFAULT_255_1_234
10
11.0190254
20
-0.3105898
40
0.3537231
50
279.7829875
51
311.6255694
0
ARC
8
DEFAULT_255_1_234
10
10.988903
20
-0.166872
40
0.5004971
50
269.7286406
51
280.3856417
0
ARC
8
DEFAULT_255_1_234
10
10.9827103
20
-0.1710004
40
0.4963778
50
256.6828919
51
270.4412052
0
ARC
8
DEFAULT_255_1_234
10
10.9488399
20
-0.3094606
40
0.3538406
50
229.4223008
51
256.8556159
0
ARC
8
DEFAULT_255_1_234
10
10.9073792
20
-0.3561264
40
0.2914296
50
181.818294
51
229.6455059
0
ARC
8
DEFAULT_255_1_234
10
11.0113748
20
-0.3430504
40
0.3959084
50
179.9755256
51
183.2323064
0
ARC
8
DEFAULT_255_1_234
10
10.9941494
20
-0.3450963
40
0.2293034
50
179.4465117
51
196.2869258
0
ARC
8
DEFAULT_255_1_234
10
10.9453902
20
-0.3584349
40
0.1787621
50
196.5661473
51
227.705904
0
ARC
8
DEFAULT_255_1_234
10
10.9617996
20
-0.3400845
40
0.2033784
50
227.7652068
51
257.8762805
0
ARC
8
DEFAULT_255_1_234
10
10.9842967
20
-0.2457844
40
0.3003081
50
257.4584385
51
270.426602
0
ARC
8
DEFAULT_255_1_234
10
10.9888533
20
-0.2168004
40
0.329292
50
269.5962073
51
280.8789248
0
ARC
8
DEFAULT_255_1_234
10
11.0118062
20
-0.3314315
40
0.2123908
50
280.6346389
51
299.8595945
0
ARC
8
DEFAULT_255_1_234
10
11.0308968
20
-0.3676788
40
0.171457
50
300.3576302
51
314.5517981
0
ARC
8
DEFAULT_255_1_234
10
11.0226028
20
-0.3616081
40
0.1816095
50
315.0728369
51
345.0431014
0
ARC
8
DEFAULT_255_1_234
10
10.9302843
20
-0.3347159
40
0.2777492
50
344.5986631
51
357.9269593
0
ARC
8
DEFAULT_255_1_234
10
10.8407169
20
-0.3285724
40
0.3674917
50
357.4748886
51
0.0231117
0
ARC
8
DEFAULT_255_1_234
10
10.9430278
20
-0.3261321
40
0.2651907
50
359.5047933
51
13.4239635
0
ARC
8
DEFAULT_255_1_234
10
11.0296922
20
-0.3039522
40
0.1757509
50
12.9498199
51
48.7551375
0
ARC
8
DEFAULT_255_1_234
10
11.0114656
20
-0.32886
40
0.2065134
50
49.5088623
51
72.1836453
0
ARC
8
DEFAULT_255_1_234
10
10.9756808
20
-0.4350709
40
0.3185836
50
71.9010081
51
84.3554254
0
ARC
8
DEFAULT_255_1_234
10
10.959544
20
-0.5711674
40
0.4556151
50
84.0193428
51
89.333121
0
LINE
8
DEFAULT_255_1_234
10
12.3752202
20
0.1799849
11
12.2202076
21
0.1799849
0
LINE
8
DEFAULT_255_1_234
10
11.5278718
20
-0.3123606
11
11.6828843
21
-0.3123606
0
ARC
8
DEFAULT_255_1_234
10
12.2860889
20
1.0746768
40
1.252368
50
248.9199003
51
254.1439814
0
ARC
8
DEFAULT_255_1_234
10
12.1180384
20
0.6420234
40
0.788226
50
241.633709
51
249.0064503
0
ARC
8
DEFAULT_255_1_234
10
11.9651778
20
0.3619317
40
0.4691427
50
230.498225
51
241.8087113
0
ARC
8
DEFAULT_255_1_234
10
11.8867353
20
0.2619906
40
0.3421437
50
227.4064532
51
229.9881192
0
ARC
8
DEFAULT_255_1_234
10
11.8379873
20
0.2144088
40
0.2741476
50
200.6781896
51
228.1763934
0
ARC
8
DEFAULT_255_1_234
10
11.8452184
20
0.2129077
40
0.2804109
50
179.5061581
51
199.8694617
0
ARC
8
DEFAULT_255_1_234
10
11.8442935
20
0.220321
40
0.2795204
50
132.4834203
51
181.0242172
0
ARC
8
DEFAULT_255_1_234
10
11.9038518
20
0.1640704
40
0.3612768
50
129.2532479
51
133.4242687
0
ARC
8
DEFAULT_255_1_234
10
11.9184967
20
0.1420965
40
0.3875675
50
101.98776
51
128.8742646
0
ARC
8
DEFAULT_255_1_234
10
11.9583578
20
-0.0300259
40
0.5642249
50
89.5906553
51
102.3169264
0
ARC
8
DEFAULT_255_1_234
10
11.965407
20
0.0018148
40
0.5323783
50
77.2360837
51
90.3248275
0
ARC
8
DEFAULT_255_1_234
10
11.9861149
20
0.09854
40
0.4334697
50
63.837784
51
77.0809408
0
ARC
8
DEFAULT_255_1_234
10
12.0138911
20
0.1502911
40
0.3747796
50
45.9864267
51
64.1607727
0
ARC
8
DEFAULT_255_1_234
10
12.0399792
20
0.1800866
40
0.3352302
50
32.2747395
51
45.6547121
0
ARC
8
DEFAULT_255_1_234
10
12.0466233
20
0.181988
40
0.328603
50
359.6507365
51
32.6130309
0
ARC
8
DEFAULT_255_1_234
10
11.9523328
20
0.182466
40
0.2678863
50
359.469343
51
14.9832209
0
ARC
8
DEFAULT_255_1_234
10
12.0228391
20
0.2013539
40
0.1948938
50
14.9781179
51
48.2004265
0
ARC
8
DEFAULT_255_1_234
10
12.0064035
20
0.1806983
40
0.2212521
50
48.5927837
51
74.1241538
0
ARC
8
DEFAULT_255_1_234
10
11.9730524
20
0.0706248
40
0.3362561
50
73.7888341
51
86.6652678
0
ARC
8
DEFAULT_255_1_234
10
11.962809
20
-0.0501119
40
0.4573953
50
86.2640471
51
90.0526343
0
ARC
8
DEFAULT_255_1_234
10
11.9599803
20
-0.0105808
40
0.4178709
50
89.6697524
51
99.2309573
0
ARC
8
DEFAULT_255_1_234
10
11.9357253
20
0.1338964
40
0.2713749
50
99.069534
51
113.7658566
0
ARC
8
DEFAULT_255_1_234
10
11.9083445
20
0.1984677
40
0.2012469
50
114.0401004
51
127.9850673
0
ARC
8
DEFAULT_255_1_234
10
11.8843009
20
0.228073
40
0.1631167
50
127.7287463
51
176.7105154
0
ARC
8
DEFAULT_255_1_234
10
11.9521726
20
0.2179693
40
0.2315392
50
175.1779447
51
180.0581938
0
ARC
8
DEFAULT_255_1_234
10
11.8678573
20
0.2167428
40
0.1472271
50
179.6142195
51
228.1246017
0
ARC
8
DEFAULT_255_1_234
10
11.9120241
20
0.2576308
40
0.2072299
50
226.5779593
51
230.8800004
0
ARC
8
DEFAULT_255_1_234
10
11.959132
20
0.3201636
40
0.2854818
50
231.4635071
51
241.9260842
0
ARC
8
DEFAULT_255_1_234
10
12.0788498
20
0.54048
40
0.53622
50
241.7178533
51
248.3259551
0
ARC
8
DEFAULT_255_1_234
10
12.217387
20
0.8837064
40
0.9063478
50
248.2007737
51
252.4528373
0
ARC
8
DEFAULT_255_1_234
10
12.3377595
20
1.2558441
40
1.2974635
50
252.3391078
51
254.3469452
0
ARC
8
DEFAULT_255_1_234
10
11.5835297
20
-1.4418852
40
1.5037162
50
71.0197183
51
74.4087047
0
ARC
8
DEFAULT_255_1_234
10
11.7529983
20
-0.9526889
40
0.9859993
50
66.1847285
51
71.086374
0
ARC
8
DEFAULT_255_1_234
10
11.9086295
20
-0.60228
40
0.6025855
50
59.3536294
51
66.2691831
0
ARC
8
DEFAULT_255_1_234
10
11.9974947
20
-0.4519391
40
0.4279449
50
49.1020879
51
59.3293958
0
ARC
8
DEFAULT_255_1_234
10
12.0793687
20
-0.3586166
40
0.3038015
50
32.7919921
51
49.2505539
0
ARC
8
DEFAULT_255_1_234
10
12.1114777
20
-0.3357809
40
0.264448
50
31.1181161
51
32.4005348
0
ARC
8
DEFAULT_255_1_234
10
12.1026315
20
-0.3393221
40
0.2738556
50
8.1116974
51
30.7958831
0
ARC
8
DEFAULT_255_1_234
10
12.0215983
20
-0.3531247
40
0.3560327
50
359.8389159
51
8.4706516
0
ARC
8
DEFAULT_255_1_234
10
12.0841775
20
-0.3579863
40
0.2934776
50
337.4731098
51
0.7537279
0
ARC
8
DEFAULT_255_1_234
10
12.1020469
20
-0.3599613
40
0.2762607
50
307.5917067
51
336.4315538
0
ARC
8
DEFAULT_255_1_234
10
12.0560297
20
-0.3086898
40
0.3449979
50
307.6551545
51
308.4529766
0
ARC
8
DEFAULT_255_1_234
10
12.0330016
20
-0.273175
40
0.3871988
50
284.3734338
51
307.1424381
0
ARC
8
DEFAULT_255_1_234
10
11.9834846
20
-0.0910068
40
0.5759636
50
272.4382747
51
284.646547
0
ARC
8
DEFAULT_255_1_234
10
11.9708055
20
0.0889893
40
0.7563528
50
269.9708387
51
272.8178037
0
ARC
8
DEFAULT_255_1_234
10
11.9665095
20
-0.1148284
40
0.5525489
50
248.2707594
51
270.4055579
0
ARC
8
DEFAULT_255_1_234
10
11.9610836
20
-0.1338808
40
0.5328452
50
246.1383403
51
248.0542782
0
ARC
8
DEFAULT_255_1_234
10
11.9192215
20
-0.2218157
40
0.4355005
50
233.1670131
51
246.4950969
0
ARC
8
DEFAULT_255_1_234
10
11.863812
20
-0.2966188
40
0.3424126
50
215.3403242
51
233.0843104
0
ARC
8
DEFAULT_255_1_234
10
11.8365551
20
-0.3164451
40
0.3087104
50
179.2419209
51
215.2648451
0
ARC
8
DEFAULT_255_1_234
10
11.9133145
20
-0.3150334
40
0.2304457
50
179.335461
51
199.1045811
0
ARC
8
DEFAULT_255_1_234
10
11.8800821
20
-0.3237234
40
0.1962176
50
199.8828939
51
232.7063202
0
ARC
8
DEFAULT_255_1_234
10
11.927309
20
-0.2643212
40
0.2720938
50
232.3738199
51
255.5136649
0
ARC
8
DEFAULT_255_1_234
10
11.9613957
20
-0.1399165
40
0.4010747
50
255.2446292
51
267.5320849
0
ARC
8
DEFAULT_255_1_234
10
11.970158
20
-0.0166298
40
0.5246356
50
267.1557994
51
270.0286766
0
ARC
8
DEFAULT_255_1_234
10
11.9729352
20
-0.061005
40
0.4802668
50
269.7000017
51
278.1660162
0
ARC
8
DEFAULT_255_1_234
10
11.9985357
20
-0.2340485
40
0.3053425
50
278.0231263
51
290.625471
0
ARC
8
DEFAULT_255_1_234
10
12.0333044
20
-0.3267975
40
0.206291
50
290.6619762
51
307.0370976
0
ARC
8
DEFAULT_255_1_234
10
12.0633433
20
-0.3636496
40
0.1587906
50
306.3943566
51
355.3030547
0
ARC
8
DEFAULT_255_1_234
10
12.0121365
20
-0.3559887
40
0.2104809
50
354.3660432
51
0.0698737
0
ARC
8
DEFAULT_255_1_234
10
12.026371
20
-0.3537383
40
0.1962563
50
359.417946
51
16.1971788
0
ARC
8
DEFAULT_255_1_234
10
12.071902
20
-0.3412582
40
0.149053
50
16.4723299
51
52.6262157
0
ARC
8
DEFAULT_255_1_234
10
11.9898074
20
-0.4496567
40
0.2850296
50
52.7386432
51
62.4979148
0
ARC
8
DEFAULT_255_1_234
10
11.8513151
20
-0.7102717
40
0.5801521
50
62.2515216
51
68.1220564
0
ARC
8
DEFAULT_255_1_234
10
11.6793062
20
-1.1330128
40
1.0365451
50
68.0062803
51
71.8053402
0
ARC
8
DEFAULT_255_1_234
10
11.4997433
20
-1.6715242
40
1.6042013
50
71.7183119
51
73.9258742
0
LINE
8
DEFAULT_255_1_234
10
12.8611403
20
-0.0938974
11
12.8611403
21
-0.2151766
0
LINE
8
DEFAULT_255_1_234
10
12.8611403
20
-0.2151766
11
12.4691915
21
-0.2151766
0
LINE
8
DEFAULT_255_1_234
10
12.4691915
20
-0.2151766
11
12.4691915
21
-0.0938974
0
LINE
8
DEFAULT_255_1_234
10
12.4691915
20
-0.0938974
11
12.8611403
21
-0.0938974
0
LINE
8
DEFAULT_255_1_234
10
13.2065051
20
-0.1155831
11
13.2065051
21
0.0056962
0
LINE
8
DEFAULT_255_1_234
10
13.2065051
20
0.0056962
11
13.3181462
21
0.0056962
0
LINE
8
DEFAULT_255_1_234
10
13.127794
20
0.2113087
11
12.9792069
21
0.2113087
0
LINE
8
DEFAULT_255_1_234
10
12.9687656
20
-0.3428812
11
13.118156
21
-0.3428812
0
LINE
8
DEFAULT_255_1_234
10
13.3181462
20
-0.1155831
11
13.2065051
21
-0.1155831
0
ARC
8
DEFAULT_255_1_234
10
13.3152329
20
0.3449713
40
0.3392876
50
270.4919872
51
281.8951556
0
ARC
8
DEFAULT_255_1_234
10
13.339359
20
0.2347702
40
0.2264817
50
281.6691735
51
301.2943132
0
ARC
8
DEFAULT_255_1_234
10
13.3563801
20
0.2036304
40
0.1910381
50
301.7833094
51
311.7545298
0
ARC
8
DEFAULT_255_1_234
10
13.3655376
20
0.1934748
40
0.1773635
50
311.7323931
51
354.2802411
0
ARC
8
DEFAULT_255_1_234
10
13.2929002
20
0.2059722
40
0.2509385
50
353.0937916
51
0.1181479
0
ARC
8
DEFAULT_255_1_234
10
13.2467787
20
0.2107386
40
0.2970898
50
359.1805295
51
15.0453146
0
ARC
8
DEFAULT_255_1_234
10
13.3813624
20
0.2499992
40
0.1569564
50
13.9577229
51
77.6713066
0
ARC
8
DEFAULT_255_1_234
10
13.3427153
20
0.1114949
40
0.3006298
50
76.1116566
51
90.7026153
0
ARC
8
DEFAULT_255_1_234
10
13.3367991
20
0.1388545
40
0.2732568
50
89.5324876
51
103.531937
0
ARC
8
DEFAULT_255_1_234
10
13.3167435
20
0.2187884
40
0.1908508
50
103.2931773
51
133.5619022
0
ARC
8
DEFAULT_255_1_234
10
13.3122923
20
0.2247375
40
0.1834746
50
133.8349307
51
173.5344437
0
ARC
8
DEFAULT_255_1_234
10
13.3845967
20
0.2119213
40
0.2568033
50
172.5096846
51
180.1366907
0
ARC
8
DEFAULT_255_1_234
10
13.289486
20
0.2153622
40
0.3103056
50
155.3484492
51
180.7484736
0
ARC
8
DEFAULT_255_1_234
10
13.284595
20
0.2124846
40
0.3070957
50
131.5744599
51
154.4798489
0
ARC
8
DEFAULT_255_1_234
10
13.3159097
20
0.180831
40
0.3515643
50
96.9875458
51
131.9690667
0
ARC
8
DEFAULT_255_1_234
10
13.3378577
20
0.0562636
40
0.4779224
50
89.8596053
51
97.7825159
0
ARC
8
DEFAULT_255_1_234
10
13.342664
20
0.0300616
40
0.5041361
50
78.3655447
51
90.4131539
0
ARC
8
DEFAULT_255_1_234
10
13.3784558
20
0.1959887
40
0.3344039
50
56.6229102
51
78.638727
0
ARC
8
DEFAULT_255_1_234
10
13.3999501
20
0.2335805
40
0.2912001
50
47.0253525
51
56.0854072
0
ARC
8
DEFAULT_255_1_234
10
13.4019281
20
0.2375223
40
0.2869704
50
10.9208013
51
46.7778124
0
ARC
8
DEFAULT_255_1_234
10
13.2655348
20
0.2059857
40
0.426899
50
359.6364486
51
11.6087304
0
ARC
8
DEFAULT_255_1_234
10
13.4490192
20
0.2044752
40
0.243409
50
332.3549906
51
359.7179418
0
ARC
8
DEFAULT_255_1_234
10
13.3839793
20
0.2353142
40
0.3153459
50
325.2333722
51
332.8745602
0
ARC
8
DEFAULT_255_1_234
10
13.3992417
20
0.2246828
40
0.2967456
50
292.9802137
51
325.2392345
0
ARC
8
DEFAULT_255_1_234
10
13.3717791
20
0.2780863
40
0.3566604
50
292.5402179
51
293.6924929
0
ARC
8
DEFAULT_255_1_234
10
13.4110387
20
-0.3673909
40
0.3307468
50
57.6435486
51
72.8625112
0
ARC
8
DEFAULT_255_1_234
10
13.4464887
20
-0.3099451
40
0.2632492
50
36.7248896
51
57.4697979
0
ARC
8
DEFAULT_255_1_234
10
13.4453519
20
-0.308678
40
0.2634081
50
8.0545065
51
36.356114
0
ARC
8
DEFAULT_255_1_234
10
13.3590705
20
-0.3241826
40
0.3510261
50
359.8320645
51
8.5869982
0
ARC
8
DEFAULT_255_1_234
10
13.3215481
20
-0.3289899
40
0.3885653
50
343.9829931
51
0.5571613
0
ARC
8
DEFAULT_255_1_234
10
13.4101678
20
-0.3532562
40
0.2966924
50
311.6359546
51
343.7651759
0
ARC
8
DEFAULT_255_1_234
10
13.3723247
20
-0.3105898
40
0.3537231
50
279.7829875
51
311.6255694
0
ARC
8
DEFAULT_255_1_234
10
13.3422023
20
-0.166872
40
0.5004971
50
269.7286406
51
280.3856417
0
ARC
8
DEFAULT_255_1_234
10
13.3360096
20
-0.1710004
40
0.4963778
50
256.6828919
51
270.4412052
0
ARC
8
DEFAULT_255_1_234
10
13.3021392
20
-0.3094606
40
0.3538406
50
229.4223008
51
256.8556159
0
ARC
8
DEFAULT_255_1_234
10
13.2606785
20
-0.3561264
40
0.2914296
50
181.818294
51
229.6455059
0
ARC
8
DEFAULT_255_1_234
10
13.3646741
20
-0.3430504
40
0.3959084
50
179.9755256
51
183.2323064
0
ARC
8
DEFAULT_255_1_234
10
13.3474487
20
-0.3450963
40
0.2293034
50
179.4465117
51
196.2869258
0
ARC
8
DEFAULT_255_1_234
10
13.2986895
20
-0.3584349
40
0.1787621
50
196.5661473
51
227.705904
0
ARC
8
DEFAULT_255_1_234
10
13.315099
20
-0.3400845
40
0.2033784
50
227.7652068
51
257.8762805
0
ARC
8
DEFAULT_255_1_234
10
13.337596
20
-0.2457844
40
0.3003081
50
257.4584385
51
270.426602
0
ARC
8
DEFAULT_255_1_234
10
13.3421526
20
-0.2168004
40
0.329292
50
269.5962073
51
280.8789248
0
ARC
8
DEFAULT_255_1_234
10
13.3651055
20
-0.3314315
40
0.2123908
50
280.6346389
51
299.8595945
0
ARC
8
DEFAULT_255_1_234
10
13.3841961
20
-0.3676788
40
0.171457
50
300.3576302
51
314.5517981
0
ARC
8
DEFAULT_255_1_234
10
13.3759021
20
-0.3616081
40
0.1816095
50
315.0728369
51
345.0431014
0
ARC
8
DEFAULT_255_1_234
10
13.2835836
20
-0.3347159
40
0.2777492
50
344.5986631
51
357.9269593
0
ARC
8
DEFAULT_255_1_234
10
13.1940162
20
-0.3285724
40
0.3674917
50
357.4748886
51
0.0231117
0
ARC
8
DEFAULT_255_1_234
10
13.2963271
20
-0.3261321
40
0.2651907
50
359.5047933
51
13.4239635
0
ARC
8
DEFAULT_255_1_234
10
13.3829915
20
-0.3039522
40
0.1757509
50
12.9498199
51
48.7551375
0
ARC
8
DEFAULT_255_1_234
10
13.3647649
20
-0.32886
40
0.2065134
50
49.5088623
51
72.1836453
0
ARC
8
DEFAULT_255_1_234
10
13.3289802
20
-0.4350709
40
0.3185836
50
71.9010081
51
84.3554254
0
ARC
8
DEFAULT_255_1_234
10
13.3128433
20
-0.5711674
40
0.4556151
50
84.0193428
51
89.333121
0
LINE
8
DEFAULT_255_1_234
10
14.6473989
20
0.0402327
11
14.6473989
21
-0.1525291
0
LINE
8
DEFAULT_255_1_234
10
13.9092822
20
-0.1726084
11
13.9092822
21
0.0257755
0
LINE
8
DEFAULT_255_1_234
10
14.4988118
20
-0.1926877
11
14.4988118
21
0.0506739
0
LINE
8
DEFAULT_255_1_234
10
14.0578693
20
0.0619184
11
14.0578693
21
-0.1758211
0
ARC
8
DEFAULT_255_1_234
10
13.4226879
20
-0.1574195
40
1.2247208
50
353.8441951
51
0.2287902
0
ARC
8
DEFAULT_255_1_234
10
13.8866382
20
-0.2092194
40
0.7578929
50
344.4934747
51
353.9765454
0
ARC
8
DEFAULT_255_1_234
10
14.1858973
20
-0.2943019
40
0.4467846
50
329.2803592
51
344.7472793
0
ARC
8
DEFAULT_255_1_234
10
14.2851798
20
-0.3487982
40
0.3336173
50
324.9352394
51
328.6160465
0
ARC
8
DEFAULT_255_1_234
10
14.3228906
20
-0.3751573
40
0.2876076
50
280.580143
51
324.9173126
0
ARC
8
DEFAULT_255_1_234
10
14.2827699
20
-0.2080901
40
0.4592847
50
269.5977311
51
281.6734359
0
ARC
8
DEFAULT_255_1_234
10
14.2755604
20
-0.2200827
40
0.4472986
50
256.6228859
51
270.51044
0
ARC
8
DEFAULT_255_1_234
10
14.2353582
20
-0.3749123
40
0.2873874
50
215.8618325
51
257.2788573
0
ARC
8
DEFAULT_255_1_234
10
14.3374614
20
-0.3064023
40
0.4102928
50
197.9693508
51
215.2623606
0
ARC
8
DEFAULT_255_1_234
10
14.585973
20
-0.2225291
40
0.6725652
50
187.8816417
51
198.2346507
0
ARC
8
DEFAULT_255_1_234
10
14.9817938
20
-0.1653921
40
1.0724845
50
180.8976217
51
188.0055519
0
ARC
8
DEFAULT_255_1_234
10
15.2618126
20
-0.1550223
40
1.3526448
50
180.7449369
51
181.1510016
0
ARC
8
DEFAULT_255_1_234
10
15.1040855
20
0.0306042
40
1.1948131
50
173.7675579
51
180.231553
0
ARC
8
DEFAULT_255_1_234
10
14.6523002
20
0.0816666
40
0.7401564
50
164.3058563
51
173.9002247
0
ARC
8
DEFAULT_255_1_234
10
14.361107
20
0.1655656
40
0.4371288
50
148.7922025
51
164.568378
0
ARC
8
DEFAULT_255_1_234
10
14.2659523
20
0.2186929
40
0.3282386
50
144.5883898
51
148.1176286
0
ARC
8
DEFAULT_255_1_234
10
14.231642
20
0.2426315
40
0.2864044
50
101.6440918
51
144.514236
0
ARC
8
DEFAULT_255_1_234
10
14.2741487
20
0.0737069
40
0.4604934
50
89.5284041
51
102.5819763
0
ARC
8
DEFAULT_255_1_234
10
14.2820575
20
0.0698018
40
0.464401
50
77.0437873
51
90.5081339
0
ARC
8
DEFAULT_255_1_234
10
14.3222577
20
0.2340615
40
0.2953195
50
48.2778575
51
77.4994676
0
ARC
8
DEFAULT_255_1_234
10
14.3295208
20
0.2469746
40
0.2808655
50
36.3142134
51
47.6305865
0
ARC
8
DEFAULT_255_1_234
10
14.2426515
20
0.1884515
40
0.3855453
50
18.2931786
51
35.6769206
0
ARC
8
DEFAULT_255_1_234
10
13.9883274
20
0.1011593
40
0.654423
50
8.024666
51
18.5605216
0
ARC
8
DEFAULT_255_1_234
10
13.5720194
20
0.0396792
40
1.0752407
50
1.1274072
51
8.1718305
0
ARC
8
DEFAULT_255_1_234
10
13.2484384
20
0.0269885
40
1.3990231
50
0.5424119
51
1.3863029
0
ARC
8
DEFAULT_255_1_234
10
13.4305762
20
0.0542342
40
1.0682415
50
359.8090433
51
4.9407866
0
ARC
8
DEFAULT_255_1_234
10
13.8515776
20
0.0918113
40
0.6455691
50
4.8362157
51
12.2904523
0
ARC
8
DEFAULT_255_1_234
10
14.1270891
20
0.1531965
40
0.3633074
50
12.0805627
51
23.8173984
0
ARC
8
DEFAULT_255_1_234
10
14.2444596
20
0.2028919
40
0.2358723
50
24.2871213
51
31.3935614
0
ARC
8
DEFAULT_255_1_234
10
14.2969294
20
0.2372233
40
0.1732111
50
30.7407893
51
82.4657128
0
ARC
8
DEFAULT_255_1_234
10
14.2789428
20
0.1488691
40
0.263235
50
81.1060089
51
90.2184952
0
ARC
8
DEFAULT_255_1_234
10
14.2753727
20
0.1746924
40
0.2374236
50
89.3806855
51
105.6762551
0
ARC
8
DEFAULT_255_1_234
10
14.2570357
20
0.2413567
40
0.1682847
50
105.7981136
51
149.7388061
0
ARC
8
DEFAULT_255_1_234
10
14.3634436
20
0.177395
40
0.2924306
50
149.4208916
51
163.6286378
0
ARC
8
DEFAULT_255_1_234
10
14.5725324
20
0.113625
40
0.5110213
50
163.3763315
51
172.1410975
0
ARC
8
DEFAULT_255_1_234
10
14.9026043
20
0.0663518
40
0.8444586
50
172.0259487
51
178.0703232
0
ARC
8
DEFAULT_255_1_234
10
15.2056132
20
0.0519906
40
1.1477868
50
177.8631668
51
179.5044149
0
ARC
8
DEFAULT_255_1_234
10
15.0983537
20
-0.1794611
40
1.0404907
50
179.7995573
51
185.2460446
0
ARC
8
DEFAULT_255_1_234
10
14.6940576
20
-0.2177487
40
0.6343885
50
185.1411642
51
193.0079639
0
ARC
8
DEFAULT_255_1_234
10
14.4297049
20
-0.2802359
40
0.3627568
50
192.7897626
51
205.2507664
0
ARC
8
DEFAULT_255_1_234
10
14.3250596
20
-0.3269585
40
0.2481908
50
205.8005384
51
211.2537509
0
ARC
8
DEFAULT_255_1_234
10
14.2727036
20
-0.362042
40
0.1852521
50
210.3789793
51
238.4008143
0
ARC
8
DEFAULT_255_1_234
10
14.2707558
20
-0.3573624
40
0.1882621
50
239.6520629
51
265.9793761
0
ARC
8
DEFAULT_255_1_234
10
14.2792758
20
-0.2901573
40
0.2559272
50
265.1315437
51
270.060332
0
ARC
8
DEFAULT_255_1_234
10
14.2821537
20
-0.3225466
40
0.2235528
50
269.3314664
51
287.2178029
0
ARC
8
DEFAULT_255_1_234
10
14.2959389
20
-0.3728721
40
0.1714108
50
287.7958004
51
329.080874
0
ARC
8
DEFAULT_255_1_234
10
14.2001846
20
-0.313107
40
0.2842745
50
328.6634704
51
343.3325132
0
ARC
8
DEFAULT_255_1_234
10
13.9828866
20
-0.2454137
40
0.5118644
50
343.0499468
51
351.9393422
0
ARC
8
DEFAULT_255_1_234
10
13.6362166
20
-0.1943051
40
0.8622784
50
351.8069023
51
357.7959224
0
ARC
8
DEFAULT_255_1_234
10
13.3126722
20
-0.1775279
40
1.1862365
50
357.5871873
51
359.2677531
0
LINE
8
DEFAULT_255_1_234
10
14.8763035
20
0.5181211
11
15.0754906
21
0.5181211
0
LINE
8
DEFAULT_255_1_234
10
15.0754906
20
0.5181211
11
15.4578013
21
-0.4360494
0
LINE
8
DEFAULT_255_1_234
10
15.4578013
20
-0.4360494
11
15.8401121
21
0.5181211
0
LINE
8
DEFAULT_255_1_234
10
15.8401121
20
0.5181211
11
16.0401023
21
0.5181211
0
LINE
8
DEFAULT_255_1_234
10
16.0401023
20
0.5181211
11
16.0401023
21
-0.6513
0
LINE
8
DEFAULT_255_1_234
10
16.0401023
20
-0.6513
11
15.885893
21
-0.6513
0
LINE
8
DEFAULT_255_1_234
10
15.885893
20
-0.6513
11
15.885893
21
-0.1959004
0
LINE
8
DEFAULT_255_1_234
10
15.885893
20
-0.1959004
11
15.9003501
21
0.2956419
0
LINE
8
DEFAULT_255_1_234
10
15.9003501
20
0.2956419
11
15.516433
21
-0.6513
0
LINE
8
DEFAULT_255_1_234
10
15.516433
20
-0.6513
11
15.3983665
21
-0.6513
0
LINE
8
DEFAULT_255_1_234
10
15.3983665
20
-0.6513
11
15.0152525
21
0.2932324
0
LINE
8
DEFAULT_255_1_234
10
15.0152525
20
0.2932324
11
15.0305128
21
-0.1959004
0
LINE
8
DEFAULT_255_1_234
10
15.0305128
20
-0.1959004
11
15.0305128
21
-0.6513
0
LINE
8
DEFAULT_255_1_234
10
15.0305128
20
-0.6513
11
14.8763035
21
-0.6513
0
LINE
8
DEFAULT_255_1_234
10
14.8763035
20
-0.6513
11
14.8763035
21
0.5181211
0
LINE
8
DEFAULT_255_1_234
10
17.0970791
20
0.5181211
11
17.0970791
21
0.3912196
0
LINE
8
DEFAULT_255_1_234
10
17.0970791
20
0.3912196
11
16.7211938
21
0.3912196
0
LINE
8
DEFAULT_255_1_234
10
16.7211938
20
0.3912196
11
16.7211938
21
-0.6513
0
LINE
8
DEFAULT_255_1_234
10
16.7211938
20
-0.6513
11
16.5677875
21
-0.6513
0
LINE
8
DEFAULT_255_1_234
10
16.5677875
20
-0.6513
11
16.5677875
21
0.3912196
0
LINE
8
DEFAULT_255_1_234
10
16.5677875
20
0.3912196
11
16.1927054
21
0.3912196
0
LINE
8
DEFAULT_255_1_234
10
16.1927054
20
0.3912196
11
16.1927054
21
0.5181211
0
LINE
8
DEFAULT_255_1_234
10
16.1927054
20
0.5181211
11
17.0970791
21
0.5181211
0
LINE
8
DEFAULT_255_1_234
10
17.7645166
20
0.5181211
11
17.27699
21
-0.7516967
0
LINE
8
DEFAULT_255_1_234
10
17.27699
20
-0.7516967
11
17.1492854
21
-0.7516967
0
LINE
8
DEFAULT_255_1_234
10
17.1492854
20
-0.7516967
11
17.6376151
21
0.5181211
0
LINE
8
DEFAULT_255_1_234
10
17.6376151
20
0.5181211
11
17.7645166
21
0.5181211
0
LINE
8
DEFAULT_255_1_234
10
18.6094554
20
0.0153343
11
18.6094554
21
-0.110764
0
LINE
8
DEFAULT_255_1_234
10
18.6094554
20
-0.110764
11
18.1026527
21
-0.110764
0
LINE
8
DEFAULT_255_1_234
10
18.1026527
20
-0.110764
11
18.1026527
21
-0.5252017
0
LINE
8
DEFAULT_255_1_234
10
18.1026527
20
-0.5252017
11
18.6913792
21
-0.5252017
0
LINE
8
DEFAULT_255_1_234
10
18.6913792
20
-0.5252017
11
18.6913792
21
-0.6513
0
LINE
8
DEFAULT_255_1_234
10
18.6913792
20
-0.6513
11
17.9484434
21
-0.6513
0
LINE
8
DEFAULT_255_1_234
10
17.9484434
20
-0.6513
11
17.9484434
21
0.5181211
0
LINE
8
DEFAULT_255_1_234
10
17.9484434
20
0.5181211
11
18.6833474
21
0.5181211
0
LINE
8
DEFAULT_255_1_234
10
18.6833474
20
0.5181211
11
18.6833474
21
0.3912196
0
LINE
8
DEFAULT_255_1_234
10
18.6833474
20
0.3912196
11
18.1026527
21
0.3912196
0
LINE
8
DEFAULT_255_1_234
10
18.1026527
20
0.3912196
11
18.1026527
21
0.0153343
0
LINE
8
DEFAULT_255_1_234
10
18.1026527
20
0.0153343
11
18.6094554
21
0.0153343
0
LINE
8
DEFAULT_255_1_234
10
19.6592036
20
0.1799849
11
19.5041911
21
0.1799849
0
LINE
8
DEFAULT_255_1_234
10
18.8118552
20
-0.3123606
11
18.9668678
21
-0.3123606
0
ARC
8
DEFAULT_255_1_234
10
19.5700724
20
1.0746768
40
1.252368
50
248.9199003
51
254.1439814
0
ARC
8
DEFAULT_255_1_234
10
19.4020218
20
0.6420234
40
0.788226
50
241.633709
51
249.0064503
0
ARC
8
DEFAULT_255_1_234
10
19.2491613
20
0.3619317
40
0.4691427
50
230.498225
51
241.8087113
0
ARC
8
DEFAULT_255_1_234
10
19.1707187
20
0.2619906
40
0.3421437
50
227.4064532
51
229.9881192
0
ARC
8
DEFAULT_255_1_234
10
19.1219708
20
0.2144088
40
0.2741476
50
200.6781896
51
228.1763934
0
ARC
8
DEFAULT_255_1_234
10
19.1292018
20
0.2129077
40
0.2804109
50
179.5061581
51
199.8694617
0
ARC
8
DEFAULT_255_1_234
10
19.128277
20
0.220321
40
0.2795204
50
132.4834203
51
181.0242172
0
ARC
8
DEFAULT_255_1_234
10
19.1878352
20
0.1640704
40
0.3612768
50
129.2532479
51
133.4242687
0
ARC
8
DEFAULT_255_1_234
10
19.2024802
20
0.1420965
40
0.3875675
50
101.98776
51
128.8742646
0
ARC
8
DEFAULT_255_1_234
10
19.2423412
20
-0.0300259
40
0.5642249
50
89.5906553
51
102.3169264
0
ARC
8
DEFAULT_255_1_234
10
19.2493905
20
0.0018148
40
0.5323783
50
77.2360837
51
90.3248275
0
ARC
8
DEFAULT_255_1_234
10
19.2700984
20
0.09854
40
0.4334697
50
63.837784
51
77.0809408
0
ARC
8
DEFAULT_255_1_234
10
19.2978745
20
0.1502911
40
0.3747796
50
45.9864267
51
64.1607727
0
ARC
8
DEFAULT_255_1_234
10
19.3239627
20
0.1800866
40
0.3352302
50
32.2747395
51
45.6547121
0
ARC
8
DEFAULT_255_1_234
10
19.3306067
20
0.181988
40
0.328603
50
359.6507365
51
32.6130309
0
ARC
8
DEFAULT_255_1_234
10
19.2363163
20
0.182466
40
0.2678863
50
359.469343
51
14.9832209
0
ARC
8
DEFAULT_255_1_234
10
19.3068225
20
0.2013539
40
0.1948938
50
14.9781179
51
48.2004265
0
ARC
8
DEFAULT_255_1_234
10
19.2903869
20
0.1806983
40
0.2212521
50
48.5927837
51
74.1241538
0
ARC
8
DEFAULT_255_1_234
10
19.2570359
20
0.0706248
40
0.3362561
50
73.7888341
51
86.6652678
0
ARC
8
DEFAULT_255_1_234
10
19.2467924
20
-0.0501119
40
0.4573953
50
86.2640471
51
90.0526343
0
ARC
8
DEFAULT_255_1_234
10
19.2439637
20
-0.0105808
40
0.4178709
50
89.6697524
51
99.2309573
0
ARC
8
DEFAULT_255_1_234
10
19.2197088
20
0.1338964
40
0.2713749
50
99.069534
51
113.7658566
0
ARC
8
DEFAULT_255_1_234
10
19.1923279
20
0.1984677
40
0.2012469
50
114.0401004
51
127.9850673
0
ARC
8
DEFAULT_255_1_234
10
19.1682843
20
0.228073
40
0.1631167
50
127.7287463
51
176.7105154
0
ARC
8
DEFAULT_255_1_234
10
19.236156
20
0.2179693
40
0.2315392
50
175.1779447
51
180.0581938
0
ARC
8
DEFAULT_255_1_234
10
19.1518407
20
0.2167428
40
0.1472271
50
179.6142195
51
228.1246017
0
ARC
8
DEFAULT_255_1_234
10
19.1960076
20
0.2576308
40
0.2072299
50
226.5779593
51
230.8800004
0
ARC
8
DEFAULT_255_1_234
10
19.2431155
20
0.3201636
40
0.2854818
50
231.4635071
51
241.9260842
0
ARC
8
DEFAULT_255_1_234
10
19.3628333
20
0.54048
40
0.53622
50
241.7178533
51
248.3259551
0
ARC
8
DEFAULT_255_1_234
10
19.5013704
20
0.8837064
40
0.9063478
50
248.2007737
51
252.4528373
0
ARC
8
DEFAULT_255_1_234
10
19.6217429
20
1.2558441
40
1.2974635
50
252.3391078
51
254.3469452
0
ARC
8
DEFAULT_255_1_234
10
18.8675132
20
-1.4418852
40
1.5037162
50
71.0197183
51
74.4087047
0
ARC
8
DEFAULT_255_1_234
10
19.0369817
20
-0.9526889
40
0.9859993
50
66.1847285
51
71.086374
0
ARC
8
DEFAULT_255_1_234
10
19.1926129
20
-0.60228
40
0.6025855
50
59.3536294
51
66.2691831
0
ARC
8
DEFAULT_255_1_234
10
19.2814782
20
-0.4519391
40
0.4279449
50
49.1020879
51
59.3293958
0
ARC
8
DEFAULT_255_1_234
10
19.3633522
20
-0.3586166
40
0.3038015
50
32.7919921
51
49.2505539
0
ARC
8
DEFAULT_255_1_234
10
19.3954612
20
-0.3357809
40
0.264448
50
31.1181161
51
32.4005348
0
ARC
8
DEFAULT_255_1_234
10
19.3866149
20
-0.3393221
40
0.2738556
50
8.1116974
51
30.7958831
0
ARC
8
DEFAULT_255_1_234
10
19.3055817
20
-0.3531247
40
0.3560327
50
359.8389159
51
8.4706516
0
ARC
8
DEFAULT_255_1_234
10
19.3681609
20
-0.3579863
40
0.2934776
50
337.4731098
51
0.7537279
0
ARC
8
DEFAULT_255_1_234
10
19.3860304
20
-0.3599613
40
0.2762607
50
307.5917067
51
336.4315538
0
ARC
8
DEFAULT_255_1_234
10
19.3400132
20
-0.3086898
40
0.3449979
50
307.6551545
51
308.4529766
0
ARC
8
DEFAULT_255_1_234
10
19.3169851
20
-0.273175
40
0.3871988
50
284.3734338
51
307.1424381
0
ARC
8
DEFAULT_255_1_234
10
19.2674681
20
-0.0910068
40
0.5759636
50
272.4382747
51
284.646547
0
ARC
8
DEFAULT_255_1_234
10
19.254789
20
0.0889893
40
0.7563528
50
269.9708387
51
272.8178037
0
ARC
8
DEFAULT_255_1_234
10
19.2504929
20
-0.1148284
40
0.5525489
50
248.2707594
51
270.4055579
0
ARC
8
DEFAULT_255_1_234
10
19.245067
20
-0.1338808
40
0.5328452
50
246.1383403
51
248.0542782
0
ARC
8
DEFAULT_255_1_234
10
19.2032049
20
-0.2218157
40
0.4355005
50
233.1670131
51
246.4950969
0
ARC
8
DEFAULT_255_1_234
10
19.1477954
20
-0.2966188
40
0.3424126
50
215.3403242
51
233.0843104
0
ARC
8
DEFAULT_255_1_234
10
19.1205386
20
-0.3164451
40
0.3087104
50
179.2419209
51
215.2648451
0
ARC
8
DEFAULT_255_1_234
10
19.1972979
20
-0.3150334
40
0.2304457
50
179.335461
51
199.1045811
0
ARC
8
DEFAULT_255_1_234
10
19.1640656
20
-0.3237234
40
0.1962176
50
199.8828939
51
232.7063202
0
ARC
8
DEFAULT_255_1_234
10
19.2112924
20
-0.2643212
40
0.2720938
50
232.3738199
51
255.5136649
0
ARC
8
DEFAULT_255_1_234
10
19.2453791
20
-0.1399165
40
0.4010747
50
255.2446292
51
267.5320849
0
ARC
8
DEFAULT_255_1_234
10
19.2541414
20
-0.0166298
40
0.5246356
50
267.1557994
51
270.0286766
0
ARC
8
DEFAULT_255_1_234
10
19.2569186
20
-0.061005
40
0.4802668
50
269.7000017
51
278.1660162
0
ARC
8
DEFAULT_255_1_234
10
19.2825191
20
-0.2340485
40
0.3053425
50
278.0231263
51
290.625471
0
ARC
8
DEFAULT_255_1_234
10
19.3172878
20
-0.3267975
40
0.206291
50
290.6619762
51
307.0370976
0
ARC
8
DEFAULT_255_1_234
10
19.3473268
20
-0.3636496
40
0.1587906
50
306.3943566
51
355.3030547
0
ARC
8
DEFAULT_255_1_234
10
19.2961199
20
-0.3559887
40
0.2104809
50
354.3660432
51
0.0698737
0
ARC
8
DEFAULT_255_1_234
10
19.3103544
20
-0.3537383
40
0.1962563
50
359.417946
51
16.1971788
0
ARC
8
DEFAULT_255_1_234
10
19.3558855
20
-0.3412582
40
0.149053
50
16.4723299
51
52.6262157
0
ARC
8
DEFAULT_255_1_234
10
19.2737909
20
-0.4496567
40
0.2850296
50
52.7386432
51
62.4979148
0
ARC
8
DEFAULT_255_1_234
10
19.1352985
20
-0.7102717
40
0.5801521
50
62.2515216
51
68.1220564
0
ARC
8
DEFAULT_255_1_234
10
18.9632896
20
-1.1330128
40
1.0365451
50
68.0062803
51
71.8053402
0
ARC
8
DEFAULT_255_1_234
10
18.7837268
20
-1.6715242
40
1.6042013
50
71.7183119
51
73.9258742
0
LINE
8
DEFAULT_255_1_234
10
12.019385
20
173.9547391
11
12.019385
21
173.8286408
0
LINE
8
DEFAULT_255_1_234
10
12.019385
20
173.8286408
11
11.5286458
21
173.8286408
0
LINE
8
DEFAULT_255_1_234
10
11.5286458
20
173.8286408
11
11.5286458
21
173.3122
0
LINE
8
DEFAULT_255_1_234
10
11.5286458
20
173.3122
11
11.3744364
21
173.3122
0
LINE
8
DEFAULT_255_1_234
10
11.3744364
20
173.3122
11
11.3744364
21
174.4816211
0
LINE
8
DEFAULT_255_1_234
10
11.3744364
20
174.4816211
11
12.0988992
21
174.4816211
0
LINE
8
DEFAULT_255_1_234
10
12.0988992
20
174.4816211
11
12.0988992
21
174.3547196
0
LINE
8
DEFAULT_255_1_234
10
12.0988992
20
174.3547196
11
11.5286458
21
174.3547196
0
LINE
8
DEFAULT_255_1_234
10
11.5286458
20
174.3547196
11
11.5286458
21
173.9547391
0
LINE
8
DEFAULT_255_1_234
10
11.5286458
20
173.9547391
11
12.019385
21
173.9547391
0
LINE
8
DEFAULT_255_1_234
10
13.4667042
20
174.1434849
11
13.3116917
21
174.1434849
0
LINE
8
DEFAULT_255_1_234
10
12.6193558
20
173.6511394
11
12.7743684
21
173.6511394
0
ARC
8
DEFAULT_255_1_234
10
13.3775729
20
175.0381768
40
1.252368
50
248.9199003
51
254.1439814
0
ARC
8
DEFAULT_255_1_234
10
13.2095224
20
174.6055234
40
0.788226
50
241.633709
51
249.0064503
0
ARC
8
DEFAULT_255_1_234
10
13.0566619
20
174.3254317
40
0.4691427
50
230.498225
51
241.8087113
0
ARC
8
DEFAULT_255_1_234
10
12.9782193
20
174.2254906
40
0.3421437
50
227.4064532
51
229.9881192
0
ARC
8
DEFAULT_255_1_234
10
12.9294713
20
174.1779088
40
0.2741476
50
200.6781896
51
228.1763934
0
ARC
8
DEFAULT_255_1_234
10
12.9367024
20
174.1764077
40
0.2804109
50
179.5061581
51
199.8694617
0
ARC
8
DEFAULT_255_1_234
10
12.9357776
20
174.183821
40
0.2795204
50
132.4834203
51
181.0242172
0
ARC
8
DEFAULT_255_1_234
10
12.9953358
20
174.1275704
40
0.3612768
50
129.2532479
51
133.4242687
0
ARC
8
DEFAULT_255_1_234
10
13.0099808
20
174.1055965
40
0.3875675
50
101.98776
51
128.8742646
0
ARC
8
DEFAULT_255_1_234
10
13.0498418
20
173.9334741
40
0.5642249
50
89.5906553
51
102.3169264
0
ARC
8
DEFAULT_255_1_234
10
13.0568911
20
173.9653148
40
0.5323783
50
77.2360837
51
90.3248275
0
ARC
8
DEFAULT_255_1_234
10
13.077599
20
174.06204
40
0.4334697
50
63.837784
51
77.0809408
0
ARC
8
DEFAULT_255_1_234
10
13.1053751
20
174.1137911
40
0.3747796
50
45.9864267
51
64.1607727
0
ARC
8
DEFAULT_255_1_234
10
13.1314633
20
174.1435866
40
0.3352302
50
32.2747395
51
45.6547121
0
ARC
8
DEFAULT_255_1_234
10
13.1381073
20
174.145488
40
0.328603
50
359.6507365
51
32.6130309
0
ARC
8
DEFAULT_255_1_234
10
13.0438169
20
174.145966
40
0.2678863
50
359.469343
51
14.9832209
0
ARC
8
DEFAULT_255_1_234
10
13.1143231
20
174.1648539
40
0.1948938
50
14.9781179
51
48.2004265
0
ARC
8
DEFAULT_255_1_234
10
13.0978875
20
174.1441983
40
0.2212521
50
48.5927837
51
74.1241538
0
ARC
8
DEFAULT_255_1_234
10
13.0645365
20
174.0341248
40
0.3362561
50
73.7888341
51
86.6652678
0
ARC
8
DEFAULT_255_1_234
10
13.054293
20
173.9133881
40
0.4573953
50
86.2640471
51
90.0526343
0
ARC
8
DEFAULT_255_1_234
10
13.0514643
20
173.9529192
40
0.4178709
50
89.6697524
51
99.2309573
0
ARC
8
DEFAULT_255_1_234
10
13.0272094
20
174.0973964
40
0.2713749
50
99.069534
51
113.7658566
0
ARC
8
DEFAULT_255_1_234
10
12.9998285
20
174.1619677
40
0.2012469
50
114.0401004
51
127.9850673
0
ARC
8
DEFAULT_255_1_234
10
12.9757849
20
174.191573
40
0.1631167
50
127.7287463
51
176.7105154
0
ARC
8
DEFAULT_255_1_234
10
13.0436566
20
174.1814693
40
0.2315392
50
175.1779447
51
180.0581938
0
ARC
8
DEFAULT_255_1_234
10
12.9593413
20
174.1802428
40
0.1472271
50
179.6142195
51
228.1246017
0
ARC
8
DEFAULT_255_1_234
10
13.0035082
20
174.2211308
40
0.2072299
50
226.5779593
51
230.8800004
0
ARC
8
DEFAULT_255_1_234
10
13.050616
20
174.2836636
40
0.2854818
50
231.4635071
51
241.9260842
0
ARC
8
DEFAULT_255_1_234
10
13.1703338
20
174.50398
40
0.53622
50
241.7178533
51
248.3259551
0
ARC
8
DEFAULT_255_1_234
10
13.308871
20
174.8472064
40
0.9063478
50
248.2007737
51
252.4528373
0
ARC
8
DEFAULT_255_1_234
10
13.4292435
20
175.2193441
40
1.2974635
50
252.3391078
51
254.3469452
0
ARC
8
DEFAULT_255_1_234
10
12.6750138
20
172.5216148
40
1.5037162
50
71.0197183
51
74.4087047
0
ARC
8
DEFAULT_255_1_234
10
12.8444823
20
173.0108111
40
0.9859993
50
66.1847285
51
71.086374
0
ARC
8
DEFAULT_255_1_234
10
13.0001135
20
173.36122
40
0.6025855
50
59.3536294
51
66.2691831
0
ARC
8
DEFAULT_255_1_234
10
13.0889788
20
173.5115609
40
0.4279449
50
49.1020879
51
59.3293958
0
ARC
8
DEFAULT_255_1_234
10
13.1708528
20
173.6048834
40
0.3038015
50
32.7919921
51
49.2505539
0
ARC
8
DEFAULT_255_1_234
10
13.2029618
20
173.6277191
40
0.264448
50
31.1181161
51
32.4005348
0
ARC
8
DEFAULT_255_1_234
10
13.1941155
20
173.6241779
40
0.2738556
50
8.1116974
51
30.7958831
0
ARC
8
DEFAULT_255_1_234
10
13.1130823
20
173.6103753
40
0.3560327
50
359.8389159
51
8.4706516
0
ARC
8
DEFAULT_255_1_234
10
13.1756615
20
173.6055137
40
0.2934776
50
337.4731098
51
0.7537279
0
ARC
8
DEFAULT_255_1_234
10
13.193531
20
173.6035387
40
0.2762607
50
307.5917067
51
336.4315538
0
ARC
8
DEFAULT_255_1_234
10
13.1475138
20
173.6548102
40
0.3449979
50
307.6551545
51
308.4529766
0
ARC
8
DEFAULT_255_1_234
10
13.1244857
20
173.690325
40
0.3871988
50
284.3734338
51
307.1424381
0
ARC
8
DEFAULT_255_1_234
10
13.0749687
20
173.8724932
40
0.5759636
50
272.4382747
51
284.646547
0
ARC
8
DEFAULT_255_1_234
10
13.0622895
20
174.0524893
40
0.7563528
50
269.9708387
51
272.8178037
0
ARC
8
DEFAULT_255_1_234
10
13.0579935
20
173.8486716
40
0.5525489
50
248.2707594
51
270.4055579
0
ARC
8
DEFAULT_255_1_234
10
13.0525676
20
173.8296192
40
0.5328452
50
246.1383403
51
248.0542782
0
ARC
8
DEFAULT_255_1_234
10
13.0107055
20
173.7416843
40
0.4355005
50
233.1670131
51
246.4950969
0
ARC
8
DEFAULT_255_1_234
10
12.955296
20
173.6668812
40
0.3424126
50
215.3403242
51
233.0843104
0
ARC
8
DEFAULT_255_1_234
10
12.9280391
20
173.6470549
40
0.3087104
50
179.2419209
51
215.2648451
0
ARC
8
DEFAULT_255_1_234
10
13.0047985
20
173.6484666
40
0.2304457
50
179.335461
51
199.1045811
0
ARC
8
DEFAULT_255_1_234
10
12.9715662
20
173.6397766
40
0.1962176
50
199.8828939
51
232.7063202
0
ARC
8
DEFAULT_255_1_234
10
13.018793
20
173.6991788
40
0.2720938
50
232.3738199
51
255.5136649
0
ARC
8
DEFAULT_255_1_234
10
13.0528797
20
173.8235835
40
0.4010747
50
255.2446292
51
267.5320849
0
ARC
8
DEFAULT_255_1_234
10
13.061642
20
173.9468702
40
0.5246356
50
267.1557994
51
270.0286766
0
ARC
8
DEFAULT_255_1_234
10
13.0644192
20
173.902495
40
0.4802668
50
269.7000017
51
278.1660162
0
ARC
8
DEFAULT_255_1_234
10
13.0900197
20
173.7294515
40
0.3053425
50
278.0231263
51
290.625471
0
ARC
8
DEFAULT_255_1_234
10
13.1247884
20
173.6367025
40
0.206291
50
290.6619762
51
307.0370976
0
ARC
8
DEFAULT_255_1_234
10
13.1548274
20
173.5998504
40
0.1587906
50
306.3943566
51
355.3030547
0
ARC
8
DEFAULT_255_1_234
10
13.1036205
20
173.6075113
40
0.2104809
50
354.3660432
51
0.0698737
0
ARC
8
DEFAULT_255_1_234
10
13.117855
20
173.6097617
40
0.1962563
50
359.417946
51
16.1971788
0
ARC
8
DEFAULT_255_1_234
10
13.163386
20
173.6222418
40
0.149053
50
16.4723299
51
52.6262157
0
ARC
8
DEFAULT_255_1_234
10
13.0812914
20
173.5138433
40
0.2850296
50
52.7386432
51
62.4979148
0
ARC
8
DEFAULT_255_1_234
10
12.9427991
20
173.2532283
40
0.5801521
50
62.2515216
51
68.1220564
0
ARC
8
DEFAULT_255_1_234
10
12.7707902
20
172.8304872
40
1.0365451
50
68.0062803
51
71.8053402
0
ARC
8
DEFAULT_255_1_234
10
12.5912274
20
172.2919758
40
1.6042013
50
71.7183119
51
73.9258742
0
LINE
8
DEFAULT_255_1_234
10
13.6056533
20
173.7226218
11
13.6056533
21
173.7499297
0
LINE
8
DEFAULT_255_1_234
10
14.3429668
20
173.7659932
11
14.3429668
21
173.7041488
0
LINE
8
DEFAULT_255_1_234
10
14.3429668
20
173.7041488
11
13.7542404
21
173.7041488
0
LINE
8
DEFAULT_255_1_234
10
14.2409638
20
173.5346792
11
14.3317224
21
173.4639999
0
LINE
8
DEFAULT_255_1_234
10
13.7590595
20
173.8262313
11
14.1943797
21
173.8262313
0
LINE
8
DEFAULT_255_1_234
10
14.1943797
20
173.8262313
11
14.1943797
21
173.8374757
0
ARC
8
DEFAULT_255_1_234
10
13.9995898
20
173.7337332
40
0.4376191
50
252.3266134
51
270.5810217
0
ARC
8
DEFAULT_255_1_234
10
13.9790987
20
173.6596644
40
0.3608374
50
223.3000567
51
251.8561855
0
ARC
8
DEFAULT_255_1_234
10
14.0002348
20
173.6801937
40
0.3902993
50
190.9374509
51
223.3654032
0
ARC
8
DEFAULT_255_1_234
10
14.172732
20
173.7191885
40
0.5670891
50
179.6531105
51
191.4989439
0
ARC
8
DEFAULT_255_1_234
10
14.1849332
20
173.7531417
40
0.5792888
50
167.4007466
51
180.3176909
0
ARC
8
DEFAULT_255_1_234
10
14.0797394
20
173.7753885
40
0.471777
50
154.1835823
51
167.250763
0
ARC
8
DEFAULT_255_1_234
10
14.0165861
20
173.8086417
40
0.4004528
50
134.3149965
51
154.5315275
0
ARC
8
DEFAULT_255_1_234
10
13.9948356
20
173.8277228
40
0.371612
50
122.8616532
51
133.9707695
0
ARC
8
DEFAULT_255_1_234
10
13.984493
20
173.8499703
40
0.3473289
50
89.8249009
51
123.4199222
0
ARC
8
DEFAULT_255_1_234
10
13.9894971
20
173.7852967
40
0.4120197
50
74.7876118
51
90.5482747
0
ARC
8
DEFAULT_255_1_234
10
14.0188715
20
173.893803
40
0.2996077
50
39.8178249
51
74.7633718
0
ARC
8
DEFAULT_255_1_234
10
13.9676035
20
173.8538351
40
0.3645855
50
16.8990863
51
39.4829761
0
ARC
8
DEFAULT_255_1_234
10
13.7781331
20
173.7931526
40
0.5635218
50
4.9636328
51
17.2026414
0
ARC
8
DEFAULT_255_1_234
10
13.5363401
20
173.767634
40
0.8066286
50
359.8834553
51
5.2834307
0
ARC
8
DEFAULT_255_1_234
10
14.1400926
20
173.7107803
40
0.3859091
50
180.9846213
51
194.9401313
0
ARC
8
DEFAULT_255_1_234
10
14.0351204
20
173.6820849
40
0.2770883
50
194.80314
51
222.0412631
0
ARC
8
DEFAULT_255_1_234
10
14.0047085
20
173.6519116
40
0.2343055
50
221.5417084
51
268.8614402
0
ARC
8
DEFAULT_255_1_234
10
14.012008
20
173.7195686
40
0.3021528
50
267.732405
51
270.0097136
0
ARC
8
DEFAULT_255_1_234
10
14.013789
20
173.7397105
40
0.3222994
50
269.6924892
51
280.4117579
0
ARC
8
DEFAULT_255_1_234
10
14.0314297
20
173.6478193
40
0.2287344
50
280.2255091
51
298.6338936
0
ARC
8
DEFAULT_255_1_234
10
14.0431089
20
173.6234223
40
0.2017294
50
299.0430333
51
300.4643464
0
ARC
8
DEFAULT_255_1_234
10
13.9751094
20
173.7368038
40
0.3339357
50
300.6577328
51
322.0378878
0
ARC
8
DEFAULT_255_1_234
10
13.9400633
20
173.7672021
40
0.3802736
50
321.6750233
51
322.3046845
0
ARC
8
DEFAULT_255_1_234
10
14.0331595
20
173.650537
40
0.3520454
50
276.9728461
51
328.0035423
0
ARC
8
DEFAULT_255_1_234
10
14.0054648
20
173.7985841
40
0.5024498
50
269.8361028
51
278.0581756
0
ARC
8
DEFAULT_255_1_234
10
13.9827385
20
173.8730757
40
0.202159
50
89.2018686
51
117.2851756
0
ARC
8
DEFAULT_255_1_234
10
13.9880554
20
173.8688752
40
0.2083484
50
118.0551165
51
137.4540413
0
ARC
8
DEFAULT_255_1_234
10
14.0255294
20
173.8348304
40
0.2589774
50
137.5109581
51
158.8516286
0
ARC
8
DEFAULT_255_1_234
10
14.139313
20
173.7889074
40
0.38167
50
158.5845963
51
170.1721436
0
ARC
8
DEFAULT_255_1_234
10
14.2562519
20
173.7656823
40
0.5008657
50
169.8376422
51
173.0566086
0
ARC
8
DEFAULT_255_1_234
10
13.7865593
20
173.8167509
40
0.4083467
50
2.9091802
51
12.8847116
0
ARC
8
DEFAULT_255_1_234
10
13.9236269
20
173.8490101
40
0.2675383
50
12.6957781
51
28.6404489
0
ARC
8
DEFAULT_255_1_234
10
13.977794
20
173.8770458
40
0.2065654
50
29.0169854
51
41.1487595
0
ARC
8
DEFAULT_255_1_234
10
13.9980725
20
173.8947003
40
0.1796786
50
41.1646065
51
85.0013516
0
ARC
8
DEFAULT_255_1_234
10
13.9859822
20
173.8212431
40
0.2539726
50
83.7280015
51
90.0964893
0
LINE
8
DEFAULT_255_1_234
10
14.934906
20
174.1860531
11
14.934906
21
174.0479072
0
LINE
8
DEFAULT_255_1_234
10
14.6634332
20
173.9290375
11
14.6634332
21
173.3122
0
LINE
8
DEFAULT_255_1_234
10
14.6634332
20
173.3122
11
14.514846
21
173.3122
0
LINE
8
DEFAULT_255_1_234
10
14.514846
20
173.3122
11
14.514846
21
174.1812341
0
LINE
8
DEFAULT_255_1_234
10
14.514846
20
174.1812341
11
14.6594173
21
174.1812341
0
LINE
8
DEFAULT_255_1_234
10
14.6594173
20
174.1812341
11
14.6618269
21
174.0808374
0
ARC
8
DEFAULT_255_1_234
10
14.8682465
20
173.6419342
40
0.4114092
50
80.6754243
51
86.8932892
0
ARC
8
DEFAULT_255_1_234
10
14.8621999
20
173.54517
40
0.5083596
50
86.8038578
51
90.0431435
0
ARC
8
DEFAULT_255_1_234
10
14.858498
20
173.7908866
40
0.2626638
50
89.2759698
51
106.6213787
0
ARC
8
DEFAULT_255_1_234
10
14.8380544
20
173.865183
40
0.1856317
50
107.1346045
51
157.6458115
0
ARC
8
DEFAULT_255_1_234
10
14.9072146
20
173.8268311
40
0.2643398
50
155.6586782
51
157.2539184
0
ARC
8
DEFAULT_255_1_234
10
14.8867348
20
173.9437157
40
0.2634121
50
127.8165941
51
148.6302098
0
ARC
8
DEFAULT_255_1_234
10
14.8613817
20
173.9697218
40
0.2273596
50
91.3329982
51
126.7875809
0
ARC
8
DEFAULT_255_1_234
10
14.8689757
20
173.8982195
40
0.299078
50
89.986594
51
92.4688449
0
ARC
8
DEFAULT_255_1_234
10
14.8698152
20
173.9257078
40
0.2715908
50
85.3589899
51
90.1623399
0
ARC
8
DEFAULT_255_1_234
10
14.8782668
20
174.0261164
40
0.1708278
50
78.401942
51
85.4594656
0
ARC
8
DEFAULT_255_1_234
10
14.8927552
20
174.0952236
40
0.1002194
50
67.7858312
51
78.5728455
0
ARC
8
DEFAULT_255_1_234
10
14.9035404
20
174.1231887
40
0.0702548
50
63.4835954
51
67.3062642
0
LINE
8
DEFAULT_255_1_234
10
15.2328834
20
174.1812341
11
15.2328834
21
173.3122
0
LINE
8
DEFAULT_255_1_234
10
15.2328834
20
173.3122
11
15.0842963
21
173.3122
0
LINE
8
DEFAULT_255_1_234
10
15.0842963
20
173.3122
11
15.0842963
21
174.1812341
0
LINE
8
DEFAULT_255_1_234
10
15.0842963
20
174.1812341
11
15.2328834
21
174.1812341
0
ARC
8
DEFAULT_255_1_234
10
15.1701112
20
174.4126889
40
0.097867
50
161.415052
51
180.5526306
0
ARC
8
DEFAULT_255_1_234
10
15.157689
20
174.4161077
40
0.0850062
50
138.1827368
51
160.9307106
0
ARC
8
DEFAULT_255_1_234
10
15.1466835
20
174.4256588
40
0.0704362
50
104.6368899
51
138.0039868
0
ARC
8
DEFAULT_255_1_234
10
15.157399
20
174.3889963
40
0.1086221
50
92.0600725
51
105.2189128
0
ARC
8
DEFAULT_255_1_234
10
15.1597338
20
174.3547117
40
0.1429728
50
89.9756393
51
92.5012496
0
ARC
8
DEFAULT_255_1_234
10
15.1607358
20
174.3772731
40
0.1204151
50
78.0235316
51
90.4478182
0
ARC
8
DEFAULT_255_1_234
10
15.169945
20
174.4186295
40
0.0780493
50
55.051506
51
78.3369085
0
ARC
8
DEFAULT_255_1_234
10
15.1749724
20
174.4270711
40
0.0682538
50
42.0501187
51
54.4513741
0
ARC
8
DEFAULT_255_1_234
10
15.1614591
20
174.4146798
40
0.0865878
50
1.7497075
51
42.1496013
0
ARC
8
DEFAULT_255_1_234
10
15.1359924
20
174.4117738
40
0.1121515
50
359.9852656
51
2.8364544
0
ARC
8
DEFAULT_255_1_234
10
15.1525916
20
174.4108229
40
0.0955566
50
342.1070653
51
0.552888
0
ARC
8
DEFAULT_255_1_234
10
15.1668614
20
174.4068904
40
0.0807713
50
316.7107116
51
341.6516965
0
ARC
8
DEFAULT_255_1_234
10
15.1735651
20
174.4008823
40
0.0717724
50
285.4397031
51
316.5324284
0
ARC
8
DEFAULT_255_1_234
10
15.1625568
20
174.4374554
40
0.1099597
50
272.3547054
51
285.8953117
0
ARC
8
DEFAULT_255_1_234
10
15.1598726
20
174.4740048
40
0.1465932
50
269.9695369
51
272.8160237
0
ARC
8
DEFAULT_255_1_234
10
15.1588907
20
174.4520863
40
0.1246779
50
258.8431134
51
270.4153935
0
ARC
8
DEFAULT_255_1_234
10
15.1498949
20
174.4085414
40
0.0802162
50
238.5431189
51
259.1288175
0
ARC
8
DEFAULT_255_1_234
10
15.1430834
20
174.3961856
40
0.0661247
50
222.5062634
51
237.9906969
0
ARC
8
DEFAULT_255_1_234
10
15.1558422
20
174.4077889
40
0.0833707
50
184.1069131
51
222.460413
0
ARC
8
DEFAULT_255_1_234
10
15.1827662
20
174.4116349
40
0.1105176
50
179.9429482
51
185.0960898
0
LINE
8
DEFAULT_255_1_234
10
15.4328737
20
173.7226218
11
15.4328737
21
173.7499297
0
LINE
8
DEFAULT_255_1_234
10
16.1701873
20
173.7659932
11
16.1701873
21
173.7041488
0
LINE
8
DEFAULT_255_1_234
10
16.1701873
20
173.7041488
11
15.5814609
21
173.7041488
0
LINE
8
DEFAULT_255_1_234
10
16.0681842
20
173.5346792
11
16.1589429
21
173.4639999
0
LINE
8
DEFAULT_255_1_234
10
15.5862799
20
173.8262313
11
16.0216001
21
173.8262313
0
LINE
8
DEFAULT_255_1_234
10
16.0216001
20
173.8262313
11
16.0216001
21
173.8374757
0
ARC
8
DEFAULT_255_1_234
10
15.8268102
20
173.7337332
40
0.4376191
50
252.3266134
51
270.5810217
0
ARC
8
DEFAULT_255_1_234
10
15.8063192
20
173.6596644
40
0.3608374
50
223.3000567
51
251.8561855
0
ARC
8
DEFAULT_255_1_234
10
15.8274552
20
173.6801937
40
0.3902993
50
190.9374509
51
223.3654032
0
ARC
8
DEFAULT_255_1_234
10
15.9999524
20
173.7191885
40
0.5670891
50
179.6531105
51
191.4989439
0
ARC
8
DEFAULT_255_1_234
10
16.0121537
20
173.7531417
40
0.5792888
50
167.4007466
51
180.3176909
0
ARC
8
DEFAULT_255_1_234
10
15.9069598
20
173.7753885
40
0.471777
50
154.1835823
51
167.250763
0
ARC
8
DEFAULT_255_1_234
10
15.8438066
20
173.8086417
40
0.4004528
50
134.3149965
51
154.5315275
0
ARC
8
DEFAULT_255_1_234
10
15.8220561
20
173.8277228
40
0.371612
50
122.8616532
51
133.9707695
0
ARC
8
DEFAULT_255_1_234
10
15.8117135
20
173.8499703
40
0.3473289
50
89.8249009
51
123.4199222
0
ARC
8
DEFAULT_255_1_234
10
15.8167176
20
173.7852967
40
0.4120197
50
74.7876118
51
90.5482747
0
ARC
8
DEFAULT_255_1_234
10
15.8460919
20
173.893803
40
0.2996077
50
39.8178249
51
74.7633718
0
ARC
8
DEFAULT_255_1_234
10
15.7948239
20
173.8538351
40
0.3645855
50
16.8990863
51
39.4829761
0
ARC
8
DEFAULT_255_1_234
10
15.6053536
20
173.7931526
40
0.5635218
50
4.9636328
51
17.2026414
0
ARC
8
DEFAULT_255_1_234
10
15.3635606
20
173.767634
40
0.8066286
50
359.8834553
51
5.2834307
0
ARC
8
DEFAULT_255_1_234
10
15.9673131
20
173.7107803
40
0.3859091
50
180.9846213
51
194.9401313
0
ARC
8
DEFAULT_255_1_234
10
15.8623408
20
173.6820849
40
0.2770883
50
194.80314
51
222.0412631
0
ARC
8
DEFAULT_255_1_234
10
15.831929
20
173.6519116
40
0.2343055
50
221.5417084
51
268.8614402
0
ARC
8
DEFAULT_255_1_234
10
15.8392285
20
173.7195686
40
0.3021528
50
267.732405
51
270.0097136
0
ARC
8
DEFAULT_255_1_234
10
15.8410095
20
173.7397105
40
0.3222994
50
269.6924892
51
280.4117579
0
ARC
8
DEFAULT_255_1_234
10
15.8586502
20
173.6478193
40
0.2287344
50
280.2255091
51
298.6338936
0
ARC
8
DEFAULT_255_1_234
10
15.8703294
20
173.6234223
40
0.2017294
50
299.0430333
51
300.4643464
0
ARC
8
DEFAULT_255_1_234
10
15.8023299
20
173.7368038
40
0.3339357
50
300.6577328
51
322.0378878
0
ARC
8
DEFAULT_255_1_234
10
15.7672838
20
173.7672021
40
0.3802736
50
321.6750233
51
322.3046845
0
ARC
8
DEFAULT_255_1_234
10
15.8603799
20
173.650537
40
0.3520454
50
276.9728461
51
328.0035423
0
ARC
8
DEFAULT_255_1_234
10
15.8326852
20
173.7985841
40
0.5024498
50
269.8361028
51
278.0581756
0
ARC
8
DEFAULT_255_1_234
10
15.809959
20
173.8730757
40
0.202159
50
89.2018686
51
117.2851756
0
ARC
8
DEFAULT_255_1_234
10
15.8152759
20
173.8688752
40
0.2083484
50
118.0551165
51
137.4540413
0
ARC
8
DEFAULT_255_1_234
10
15.8527499
20
173.8348304
40
0.2589774
50
137.5109581
51
158.8516286
0
ARC
8
DEFAULT_255_1_234
10
15.9665334
20
173.7889074
40
0.38167
50
158.5845963
51
170.1721436
0
ARC
8
DEFAULT_255_1_234
10
16.0834723
20
173.7656823
40
0.5008657
50
169.8376422
51
173.0566086
0
ARC
8
DEFAULT_255_1_234
10
15.6137797
20
173.8167509
40
0.4083467
50
2.9091802
51
12.8847116
0
ARC
8
DEFAULT_255_1_234
10
15.7508474
20
173.8490101
40
0.2675383
50
12.6957781
51
28.6404489
0
ARC
8
DEFAULT_255_1_234
10
15.8050145
20
173.8770458
40
0.2065654
50
29.0169854
51
41.1487595
0
ARC
8
DEFAULT_255_1_234
10
15.825293
20
173.8947003
40
0.1796786
50
41.1646065
51
85.0013516
0
ARC
8
DEFAULT_255_1_234
10
15.8132027
20
173.8212431
40
0.2539726
50
83.7280015
51
90.0964893
0
LINE
8
DEFAULT_255_1_234
10
16.9886214
20
173.9258248
11
16.8392311
21
173.9258248
0
LINE
8
DEFAULT_255_1_234
10
16.3059237
20
173.5796569
11
16.4545108
21
173.5796569
0
ARC
8
DEFAULT_255_1_234
10
16.720413
20
173.5441959
40
0.1276617
50
359.3334982
51
18.5871358
0
ARC
8
DEFAULT_255_1_234
10
16.7412767
20
173.5497133
40
0.1061371
50
19.3540742
51
54.6485071
0
ARC
8
DEFAULT_255_1_234
10
16.6908669
20
173.4801919
40
0.1920087
50
54.3827097
51
65.0622807
0
ARC
8
DEFAULT_255_1_234
10
16.6140065
20
173.31849
40
0.3710447
50
64.8282493
51
71.4200025
0
ARC
8
DEFAULT_255_1_234
10
16.5237941
20
173.0538107
40
0.6506741
50
71.3164301
51
75.8006402
0
ARC
8
DEFAULT_255_1_234
10
16.4396761
20
172.7297561
40
0.9854641
50
75.6809531
51
78.0061883
0
ARC
8
DEFAULT_255_1_234
10
16.8845294
20
174.827677
40
1.1591028
50
254.6901892
51
258.0466452
0
ARC
8
DEFAULT_255_1_234
10
16.7807202
20
174.4517781
40
0.7691345
50
249.9010773
51
254.755261
0
ARC
8
DEFAULT_255_1_234
10
16.6803544
20
174.1791982
40
0.478665
50
243.3097214
51
249.9709442
0
ARC
8
DEFAULT_255_1_234
10
16.6174565
20
174.0537778
40
0.3383568
50
234.4047477
51
243.2862168
0
ARC
8
DEFAULT_255_1_234
10
16.5552089
20
173.9678232
40
0.2322322
50
220.8667099
51
234.5493881
0
ARC
8
DEFAULT_255_1_234
10
16.521003
20
173.9366817
40
0.1859923
50
214.3062465
51
220.5065136
0
ARC
8
DEFAULT_255_1_234
10
16.5184109
20
173.933588
40
0.1821108
50
186.912965
51
213.9618616
0
ARC
8
DEFAULT_255_1_234
10
16.5716204
20
173.9422009
40
0.2359799
50
179.8808832
51
187.4339886
0
ARC
8
DEFAULT_255_1_234
10
16.5561337
20
173.9442088
40
0.2204978
50
132.005434
51
180.3942919
0
ARC
8
DEFAULT_255_1_234
10
16.6217951
20
173.8836083
40
0.3095791
50
129.2319861
51
133.5302299
0
ARC
8
DEFAULT_255_1_234
10
16.6271459
20
173.8741928
40
0.3202615
50
100.4410011
51
128.9081242
0
ARC
8
DEFAULT_255_1_234
10
16.6545343
20
173.7456455
40
0.4516583
50
89.6985377
51
100.9026564
0
ARC
8
DEFAULT_255_1_234
10
16.6602384
20
173.7296166
40
0.4676928
50
77.6965325
51
90.4076836
0
ARC
8
DEFAULT_255_1_234
10
16.6933369
20
173.8723413
40
0.3211988
50
50.7276602
51
78.0399361
0
ARC
8
DEFAULT_255_1_234
10
16.7377827
20
173.9241296
40
0.2529778
50
25.7545084
51
51.0957453
0
ARC
8
DEFAULT_255_1_234
10
16.7379052
20
173.9291206
40
0.250738
50
359.2468627
51
24.7394243
0
ARC
8
DEFAULT_255_1_234
10
16.7094504
20
173.9262664
40
0.1297815
50
359.8050318
51
45.1544908
0
ARC
8
DEFAULT_255_1_234
10
16.6687646
20
173.8914794
40
0.1831883
50
43.8047702
51
49.6271585
0
ARC
8
DEFAULT_255_1_234
10
16.6695547
20
173.8915678
40
0.18261
50
49.7980766
51
82.1218353
0
ARC
8
DEFAULT_255_1_234
10
16.6576519
20
173.8268998
40
0.2483163
50
81.4465357
51
90.1710293
0
ARC
8
DEFAULT_255_1_234
10
16.6552122
20
173.774288
40
0.300932
50
89.6766211
51
99.1264602
0
ARC
8
DEFAULT_255_1_234
10
16.6380584
20
173.8776537
40
0.1961547
50
98.968313
51
113.4570237
0
ARC
8
DEFAULT_255_1_234
10
16.6184669
20
173.9244965
40
0.1453859
50
113.722589
51
127.4763106
0
ARC
8
DEFAULT_255_1_234
10
16.6016315
20
173.9445124
40
0.1192639
50
126.9083309
51
150.3165862
0
ARC
8
DEFAULT_255_1_234
10
16.5968648
20
173.9495981
40
0.112623
50
151.3635175
51
180.0701457
0
ARC
8
DEFAULT_255_1_234
10
16.6277432
20
173.947499
40
0.1435149
50
179.2169974
51
179.9954013
0
ARC
8
DEFAULT_255_1_234
10
16.5916489
20
173.9462056
40
0.1074286
50
179.3040112
51
198.4225446
0
ARC
8
DEFAULT_255_1_234
10
16.5724623
20
173.9412127
40
0.0876573
50
199.2895851
51
238.6034594
0
ARC
8
DEFAULT_255_1_234
10
16.632747
20
174.035845
40
0.1998512
50
237.9846301
51
246.8744712
0
ARC
8
DEFAULT_255_1_234
10
16.7185415
20
174.2321205
40
0.4140547
50
246.6234531
51
251.8168941
0
ARC
8
DEFAULT_255_1_234
10
16.8215958
20
174.5415905
40
0.7402308
50
251.713434
51
255.0778414
0
ARC
8
DEFAULT_255_1_234
10
16.9415221
20
174.9882563
40
1.2027155
50
255.0367487
51
257.4705983
0
ARC
8
DEFAULT_255_1_234
10
16.4307231
20
172.6868863
40
1.1546601
50
73.6837552
51
77.5016755
0
ARC
8
DEFAULT_255_1_234
10
16.5396005
20
173.0568581
40
0.7690009
50
68.7044154
51
73.7249639
0
ARC
8
DEFAULT_255_1_234
10
16.6299026
20
173.2895654
40
0.5193873
50
63.590599
51
68.6626804
0
ARC
8
DEFAULT_255_1_234
10
16.7070045
20
173.4433123
40
0.3473927
50
54.7106439
51
63.7013633
0
ARC
8
DEFAULT_255_1_234
10
16.76945
20
173.53054
40
0.2401192
50
41.0622434
51
54.8487496
0
ARC
8
DEFAULT_255_1_234
10
16.8035886
20
173.5618592
40
0.1938094
50
34.4950568
51
40.7105546
0
ARC
8
DEFAULT_255_1_234
10
16.8082693
20
173.5667078
40
0.1872106
50
9.3763373
51
34.0833615
0
ARC
8
DEFAULT_255_1_234
10
16.7429564
20
173.5541728
40
0.2536988
50
359.7694872
51
9.7663171
0
ARC
8
DEFAULT_255_1_234
10
16.7627065
20
173.5498764
40
0.2339696
50
335.8654732
51
0.8022045
0
ARC
8
DEFAULT_255_1_234
10
16.7702109
20
173.5512197
40
0.2277108
50
307.7357725
51
334.7849066
0
ARC
8
DEFAULT_255_1_234
10
16.7301285
20
173.5962645
40
0.2878951
50
307.0241536
51
308.5578354
0
ARC
8
DEFAULT_255_1_234
10
16.7043616
20
173.6348801
40
0.3342515
50
282.9362969
51
306.5646424
0
ARC
8
DEFAULT_255_1_234
10
16.6681914
20
173.7816108
40
0.4853615
50
271.1026298
51
283.2200835
0
ARC
8
DEFAULT_255_1_234
10
16.6618157
20
173.9057418
40
0.6096052
50
269.9919117
51
271.4772449
0
ARC
8
DEFAULT_255_1_234
10
16.6591913
20
173.7979436
40
0.5018135
50
259.0723564
51
270.289833
0
ARC
8
DEFAULT_255_1_234
10
16.6379645
20
173.6862271
40
0.388099
50
245.4963068
51
259.0227342
0
ARC
8
DEFAULT_255_1_234
10
16.6101601
20
173.6280615
40
0.3236422
50
228.9684658
51
245.7044727
0
ARC
8
DEFAULT_255_1_234
10
16.5836045
20
173.5953575
40
0.2815426
50
214.4011705
51
228.6759915
0
ARC
8
DEFAULT_255_1_234
10
16.5546785
20
173.579529
40
0.2487548
50
179.9705531
51
215.1572795
0
ARC
8
DEFAULT_255_1_234
10
16.6247385
20
173.5868806
40
0.1703809
50
182.4299387
51
203.0329699
0
ARC
8
DEFAULT_255_1_234
10
16.6063043
20
173.5812396
40
0.1512226
50
203.798802
51
232.548466
0
ARC
8
DEFAULT_255_1_234
10
16.6339564
20
173.6163826
40
0.1959374
50
232.3782728
51
256.3934612
0
ARC
8
DEFAULT_255_1_234
10
16.6569926
20
173.7053842
40
0.2878639
50
256.104506
51
268.4626716
0
ARC
8
DEFAULT_255_1_234
10
16.661641
20
173.7850487
40
0.3676329
50
268.0715632
51
270.0138206
0
ARC
8
DEFAULT_255_1_234
10
16.6634935
20
173.7578083
40
0.3403971
50
269.7031147
51
278.8341955
0
ARC
8
DEFAULT_255_1_234
10
16.6817028
20
173.6447876
40
0.2259217
50
278.6728789
51
292.8232582
0
ARC
8
DEFAULT_255_1_234
10
16.7017566
20
173.5946449
40
0.171929
50
293.1452328
51
303.6655899
0
ARC
8
DEFAULT_255_1_234
10
16.7282445
20
173.5570204
40
0.1259367
50
303.1248165
51
321.742847
0
ARC
8
DEFAULT_255_1_234
10
16.7468325
20
173.5407156
40
0.1012531
50
322.4748573
51
1.1291126
0
LINE
8
DEFAULT_255_2_778
10
10.5738396
20
175.8368073
11
9.3932396
21
175.8368073
0
LINE
8
DEFAULT_255_2_778
10
9.3932396
20
175.8368073
11
9.9837396
21
176.8594073
0
LINE
8
DEFAULT_255_2_778
10
9.9837396
20
176.8594073
11
11.1643396
21
176.8594073
0
LINE
8
DEFAULT_255_2_778
10
11.1643396
20
176.8594073
11
10.5738396
21
175.8368073
0
LINE
8
DEFAULT_255_2_778
10
10.5738396
20
175.8368073
11
10.5738396
21
175.8368073
0
LINE
8
DEFAULT_255_2_778
10
11.7546396
20
175.8368073
11
12.9354396
21
175.8368073
0
LINE
8
DEFAULT_255_2_778
10
12.9354396
20
175.8368073
11
12.3451396
21
176.8594073
0
LINE
8
DEFAULT_255_2_778
10
12.3451396
20
176.8594073
11
11.1643396
21
176.8594073
0
LINE
8
DEFAULT_255_2_778
10
11.1643396
20
176.8594073
11
11.7546396
21
175.8368073
0
LINE
8
DEFAULT_255_2_778
10
11.7546396
20
175.8368073
11
11.7546396
21
175.8368073
0
LINE
8
DEFAULT_255_2_778
10
11.7545823
20
177.8820146
11
11.1642823
21
178.9046146
0
LINE
8
DEFAULT_255_2_778
10
11.1642823
20
178.9046146
11
10.5737823
21
177.8820146
0
LINE
8
DEFAULT_255_2_778
10
10.5737823
20
177.8820146
11
11.1642823
21
176.8594146
0
LINE
8
DEFAULT_255_2_778
10
11.1642823
20
176.8594146
11
11.7545823
21
177.8820146
0
LINE
8
DEFAULT_255_2_778
10
11.7545823
20
177.8820146
11
11.7545823
21
177.8820146
0
ARC
8
DEFAULT_255_2_778
10
16.5183731
20
177.5282426
40
0.5650491
50
268.7543645
51
289.1417717
0
ARC
8
DEFAULT_255_2_778
10
16.606208
20
177.2730531
40
0.2951681
50
289.2776255
51
3.7648372
0
ARC
8
DEFAULT_255_2_778
10
16.3901618
20
177.2996085
40
0.5106278
50
359.1949826
51
0.0020862
0
ARC
8
DEFAULT_255_2_778
10
16.547449
20
177.2855832
40
0.1541914
50
280.2616216
51
358.5297855
0
ARC
8
DEFAULT_255_2_778
10
16.5080075
20
177.398155
40
0.2726346
50
269.5969454
51
284.2065679
0
ARC
8
DEFAULT_255_2_778
10
16.4981967
20
177.3825316
40
0.2571258
50
246.5290903
51
271.7590909
0
ARC
8
DEFAULT_255_2_778
10
16.4527148
20
177.2745009
40
0.1399248
50
188.1071678
51
245.9934684
0
ARC
8
DEFAULT_255_2_778
10
16.4829007
20
177.2814617
40
0.1708111
50
179.9445314
51
188.990814
0
ARC
8
DEFAULT_255_2_778
10
16.4924507
20
177.2882849
40
0.3763411
50
178.2272621
51
205.8283807
0
ARC
8
DEFAULT_255_2_778
10
16.4132476
20
177.2705833
40
0.2979176
50
209.4028057
51
263.0375728
0
ARC
8
DEFAULT_255_2_778
10
16.5005111
20
177.6452629
40
0.6816586
50
259.5722942
51
270.4689037
0
ARC
8
DEFAULT_255_2_778
10
17.411252
20
177.7014767
40
0.1217154
50
2.0482843
51
87.015299
0
ARC
8
DEFAULT_255_2_778
10
17.4060617
20
177.7058852
40
0.126828
50
353.0600847
51
359.9737428
0
ARC
8
DEFAULT_255_2_778
10
17.4110442
20
177.7027555
40
0.1215295
50
270.5739762
51
354.2410513
0
ARC
8
DEFAULT_255_2_778
10
17.4065059
20
177.7389297
40
0.1578027
50
269.9941256
51
272.0902921
0
ARC
8
DEFAULT_255_2_778
10
17.414084
20
177.2880295
40
0.1400686
50
358.2807293
51
95.6106825
0
ARC
8
DEFAULT_255_2_778
10
17.4103233
20
177.2841963
40
0.1437669
50
266.9962473
51
359.8528392
0
ARC
8
DEFAULT_255_2_778
10
17.4725249
20
177.3244988
40
0.3335288
50
268.2414507
51
302.0223478
0
ARC
8
DEFAULT_255_2_778
10
17.5091261
20
177.249183
40
0.2504234
50
304.0600275
51
2.0468005
0
ARC
8
DEFAULT_255_2_778
10
17.4832788
20
177.2558521
40
0.2761203
50
0.4720601
51
65.8403529
0
ARC
8
DEFAULT_255_2_778
10
17.5191655
20
177.3206061
40
0.2024466
50
67.606893
51
75.8693222
0
ARC
8
DEFAULT_255_2_778
10
17.5042026
20
177.728222
40
0.2208874
50
286.9473417
51
358.0074963
0
ARC
8
DEFAULT_255_2_778
10
17.4710866
20
177.7370045
40
0.2544031
50
356.2897886
51
0.0050857
0
ARC
8
DEFAULT_255_2_778
10
17.497262
20
177.7420946
40
0.2282839
50
358.7280137
51
81.8073164
0
ARC
8
DEFAULT_255_2_778
10
17.4216369
20
177.4906283
40
0.4895182
50
77.2355086
51
90.5088275
0
ARC
8
DEFAULT_255_2_778
10
17.5842742
20
176.5261263
40
0.130243
50
89.9974494
51
92.6776592
0
ARC
8
DEFAULT_255_2_778
10
17.5843316
20
176.5266872
40
0.129682
50
45.0880141
51
90.022782
0
ARC
8
DEFAULT_255_2_778
10
17.5844118
20
176.526719
40
0.1296029
50
0.001866
51
45.1031959
0
ARC
8
DEFAULT_255_2_778
10
17.5845123
20
176.5267202
40
0.1295026
50
357.4803735
51
0.0013544
0
ARC
8
DEFAULT_255_2_778
10
17.5901979
20
176.5228512
40
0.1237052
50
339.8672523
51
359.1550732
0
ARC
8
DEFAULT_255_2_778
10
17.5794513
20
176.5200079
40
0.1329691
50
272.0853006
51
342.6124646
0
ARC
8
DEFAULT_255_2_778
10
17.6596145
20
176.5582661
40
0.2575135
50
286.787355
51
290.6121696
0
ARC
8
DEFAULT_255_2_778
10
17.6689461
20
176.5439533
40
0.24086
50
289.7330405
51
342.3216972
0
ARC
8
DEFAULT_255_2_778
10
17.641261
20
176.5487954
40
0.268735
50
343.130572
51
0.3905272
0
ARC
8
DEFAULT_255_2_778
10
17.6578783
20
176.5661767
40
0.2525904
50
356.4706028
51
80.1788963
0
ARC
8
DEFAULT_255_2_778
10
17.5921649
20
176.3392163
40
0.4881286
50
77.1212301
51
90.4900821
0
ARC
8
DEFAULT_255_2_778
10
17.5166337
20
176.041536
40
0.1865405
50
50.1507009
51
92.9634648
0
ARC
8
DEFAULT_255_2_778
10
17.5301354
20
176.0698678
40
0.1563319
50
12.621233
51
47.2950617
0
ARC
8
DEFAULT_255_2_778
10
16.8485884
20
175.9369726
40
0.8506657
50
2.8173892
51
11.3253986
0
ARC
8
DEFAULT_255_2_778
10
-29.2295733
20
172.4406175
40
47.060992
50
4.3048394
51
4.3117143
0
ARC
8
DEFAULT_255_2_778
10
18.5500859
20
176.013084
40
0.8523717
50
182.6850102
51
191.2954256
0
ARC
8
DEFAULT_255_2_778
10
17.9656837
20
175.9067399
40
0.2586603
50
193.5512904
51
195.3825538
0
ARC
8
DEFAULT_255_2_778
10
19.3415679
20
176.1643916
40
1.4608773
50
182.5958701
51
192.9049706
0
ARC
8
DEFAULT_255_2_778
10
17.6207606
20
176.0927215
40
0.261487
50
1.2064311
51
30.4123358
0
ARC
8
DEFAULT_255_2_778
10
17.6663626
20
176.107776
40
0.2147766
50
33.1081154
51
71.7312197
0
LINE
8
DEFAULT_255_2_778
10
13.4657897
20
176.2723271
11
13.9385897
21
176.2723271
0
LINE
8
DEFAULT_255_2_778
10
13.9385897
20
176.2723271
11
13.9385897
21
176.4437271
0
LINE
8
DEFAULT_255_2_778
10
13.9385897
20
176.4437271
11
13.4657897
21
176.4437271
0
LINE
8
DEFAULT_255_2_778
10
13.4657897
20
176.4437271
11
13.4657897
21
176.6546271
0
LINE
8
DEFAULT_255_2_778
10
13.4657897
20
176.6546271
11
13.9977897
21
176.6546271
0
LINE
8
DEFAULT_255_2_778
10
13.9977897
20
176.6546271
11
13.9977897
21
176.8260271
0
LINE
8
DEFAULT_255_2_778
10
13.9977897
20
176.8260271
11
13.4657897
21
176.8260271
0
LINE
8
DEFAULT_255_2_778
10
13.4657897
20
176.8260271
11
13.2651897
21
176.8260271
0
LINE
8
DEFAULT_255_2_778
10
13.2651897
20
176.8260271
11
13.2651897
21
176.6546271
0
LINE
8
DEFAULT_255_2_778
10
13.2651897
20
176.6546271
11
13.2651897
21
176.0082271
0
LINE
8
DEFAULT_255_2_778
10
13.2651897
20
176.0082271
11
13.2651897
21
175.8367271
0
LINE
8
DEFAULT_255_2_778
10
13.2651897
20
175.8367271
11
13.4657897
21
175.8367271
0
LINE
8
DEFAULT_255_2_778
10
13.4657897
20
175.8367271
11
14.0118897
21
175.8367271
0
LINE
8
DEFAULT_255_2_778
10
14.0118897
20
175.8367271
11
14.0118897
21
176.0082271
0
LINE
8
DEFAULT_255_2_778
10
14.0118897
20
176.0082271
11
13.4657897
21
176.0082271
0
LINE
8
DEFAULT_255_2_778
10
13.4657897
20
176.0082271
11
13.4657897
21
176.2720271
0
LINE
8
DEFAULT_255_2_778
10
13.4657897
20
176.2720271
11
13.4657897
21
176.2723271
0
LINE
8
DEFAULT_255_2_778
10
13.4519897
20
177.7264271
11
13.6620897
21
176.9911271
0
LINE
8
DEFAULT_255_2_778
10
13.6620897
20
176.9911271
11
13.6704897
21
176.9911271
0
LINE
8
DEFAULT_255_2_778
10
13.6704897
20
176.9911271
11
13.8464897
21
176.9911271
0
LINE
8
DEFAULT_255_2_778
10
13.8464897
20
176.9911271
11
13.8546897
21
176.9911271
0
LINE
8
DEFAULT_255_2_778
10
13.8546897
20
176.9911271
11
14.0647897
21
177.7264271
0
LINE
8
DEFAULT_255_2_778
10
14.0647897
20
177.7264271
11
14.0647897
21
176.9911271
0
LINE
8
DEFAULT_255_2_778
10
14.0647897
20
176.9911271
11
14.2515897
21
176.9911271
0
LINE
8
DEFAULT_255_2_778
10
14.2515897
20
176.9911271
11
14.2515897
21
177.9804271
0
LINE
8
DEFAULT_255_2_778
10
14.2515897
20
177.9804271
11
14.1496897
21
177.9804271
0
LINE
8
DEFAULT_255_2_778
10
14.1496897
20
177.9804271
11
14.0615897
21
177.9804271
0
LINE
8
DEFAULT_255_2_778
10
14.0615897
20
177.9804271
11
13.9655897
21
177.9804271
0
LINE
8
DEFAULT_255_2_778
10
13.9655897
20
177.9804271
11
13.7583897
21
177.2861271
0
LINE
8
DEFAULT_255_2_778
10
13.7583897
20
177.2861271
11
13.5511897
21
177.9804271
0
LINE
8
DEFAULT_255_2_778
10
13.5511897
20
177.9804271
11
13.4551897
21
177.9804271
0
LINE
8
DEFAULT_255_2_778
10
13.4551897
20
177.9804271
11
13.3669897
21
177.9804271
0
LINE
8
DEFAULT_255_2_778
10
13.3669897
20
177.9804271
11
13.2651897
21
177.9804271
0
LINE
8
DEFAULT_255_2_778
10
13.2651897
20
177.9804271
11
13.2651897
21
176.9911271
0
LINE
8
DEFAULT_255_2_778
10
13.2651897
20
176.9911271
11
13.4519897
21
176.9911271
0
LINE
8
DEFAULT_255_2_778
10
13.4519897
20
176.9911271
11
13.4519897
21
177.7264271
0
LINE
8
DEFAULT_255_2_778
10
13.4519897
20
177.7264271
11
13.4519897
21
177.7264271
0
LINE
8
DEFAULT_255_2_778
10
18.0056897
20
177.9804271
11
17.8064897
21
177.9804271
0
LINE
8
DEFAULT_255_2_778
10
17.8064897
20
177.9804271
11
17.8064897
21
176.9911271
0
LINE
8
DEFAULT_255_2_778
10
17.8064897
20
176.9911271
11
18.0056897
21
176.9911271
0
LINE
8
DEFAULT_255_2_778
10
18.0056897
20
176.9911271
11
18.0056897
21
177.9804271
0
LINE
8
DEFAULT_255_2_778
10
18.0056897
20
177.9804271
11
18.0056897
21
177.9804271
0
LINE
8
DEFAULT_255_2_778
10
18.1681897
20
176.8263271
11
17.9689897
21
176.8263271
0
LINE
8
DEFAULT_255_2_778
10
17.9689897
20
176.8263271
11
17.9689897
21
175.8370271
0
LINE
8
DEFAULT_255_2_778
10
17.9689897
20
175.8370271
11
18.1681897
21
175.8370271
0
LINE
8
DEFAULT_255_2_778
10
18.1681897
20
175.8370271
11
18.1681897
21
176.8263271
0
LINE
8
DEFAULT_255_2_778
10
18.1681897
20
176.8263271
11
18.1681897
21
176.8263271
0
LINE
8
DEFAULT_255_2_778
10
19.9765897
20
177.9804271
11
19.7773897
21
177.9804271
0
LINE
8
DEFAULT_255_2_778
10
19.7773897
20
177.9804271
11
19.7773897
21
176.9911271
0
LINE
8
DEFAULT_255_2_778
10
19.7773897
20
176.9911271
11
19.9765897
21
176.9911271
0
LINE
8
DEFAULT_255_2_778
10
19.9765897
20
176.9911271
11
19.9765897
21
177.9804271
0
LINE
8
DEFAULT_255_2_778
10
19.9765897
20
177.9804271
11
19.9765897
21
177.9804271
0
LINE
8
DEFAULT_255_2_778
10
14.5298897
20
177.9804271
11
14.3306897
21
177.9804271
0
LINE
8
DEFAULT_255_2_778
10
14.3306897
20
177.9804271
11
14.3306897
21
176.9911271
0
LINE
8
DEFAULT_255_2_778
10
14.3306897
20
176.9911271
11
14.5298897
21
176.9911271
0
LINE
8
DEFAULT_255_2_778
10
14.5298897
20
176.9911271
11
14.5298897
21
177.9804271
0
LINE
8
DEFAULT_255_2_778
10
14.5298897
20
177.9804271
11
14.5298897
21
177.9804271
0
LINE
8
DEFAULT_255_2_778
10
19.4989897
20
177.5944271
11
19.1029897
21
177.5944271
0
LINE
8
DEFAULT_255_2_778
10
19.1029897
20
177.5944271
11
19.1029897
21
177.9801271
0
LINE
8
DEFAULT_255_2_778
10
19.1029897
20
177.9801271
11
18.9068897
21
177.9801271
0
LINE
8
DEFAULT_255_2_778
10
18.9068897
20
177.9801271
11
18.9068897
21
176.9911271
0
LINE
8
DEFAULT_255_2_778
10
18.9068897
20
176.9911271
11
19.1029897
21
176.9911271
0
LINE
8
DEFAULT_255_2_778
10
19.1029897
20
176.9911271
11
19.1029897
21
177.4229271
0
LINE
8
DEFAULT_255_2_778
10
19.1029897
20
177.4229271
11
19.4989897
21
177.4229271
0
LINE
8
DEFAULT_255_2_778
10
19.4989897
20
177.4229271
11
19.4989897
21
176.9911271
0
LINE
8
DEFAULT_255_2_778
10
19.4989897
20
176.9911271
11
19.6950897
21
176.9911271
0
LINE
8
DEFAULT_255_2_778
10
19.6950897
20
176.9911271
11
19.6950897
21
177.9801271
0
LINE
8
DEFAULT_255_2_778
10
19.6950897
20
177.9801271
11
19.4989897
21
177.9801271
0
LINE
8
DEFAULT_255_2_778
10
19.4989897
20
177.9801271
11
19.4989897
21
177.5944271
0
LINE
8
DEFAULT_255_2_778
10
19.4989897
20
177.5944271
11
19.4989897
21
177.5944271
0
LINE
8
DEFAULT_255_2_778
10
14.8246897
20
176.9911271
11
15.0280897
21
176.9911271
0
LINE
8
DEFAULT_255_2_778
10
15.0280897
20
176.9911271
11
15.0280897
21
177.8090271
0
LINE
8
DEFAULT_255_2_778
10
15.0280897
20
177.8090271
11
15.2696897
21
177.8090271
0
LINE
8
DEFAULT_255_2_778
10
15.2696897
20
177.8090271
11
15.2696897
21
177.9804271
0
LINE
8
DEFAULT_255_2_778
10
15.2696897
20
177.9804271
11
15.0280897
21
177.9804271
0
LINE
8
DEFAULT_255_2_778
10
15.0280897
20
177.9804271
11
14.8246897
21
177.9804271
0
LINE
8
DEFAULT_255_2_778
10
14.8246897
20
177.9804271
11
14.5830897
21
177.9804271
0
LINE
8
DEFAULT_255_2_778
10
14.5830897
20
177.9804271
11
14.5830897
21
177.8090271
0
LINE
8
DEFAULT_255_2_778
10
14.5830897
20
177.8090271
11
14.8246897
21
177.8090271
0
LINE
8
DEFAULT_255_2_778
10
14.8246897
20
177.8090271
11
14.8246897
21
176.9911271
0
LINE
8
DEFAULT_255_2_778
10
14.8246897
20
176.9911271
11
14.8246897
21
176.9911271
0
LINE
8
DEFAULT_255_2_778
10
16.6422897
20
175.8370271
11
16.8454897
21
175.8370271
0
LINE
8
DEFAULT_255_2_778
10
16.8454897
20
175.8370271
11
16.8454897
21
176.6548271
0
LINE
8
DEFAULT_255_2_778
10
16.8454897
20
176.6548271
11
17.0873897
21
176.6548271
0
LINE
8
DEFAULT_255_2_778
10
17.0873897
20
176.6548271
11
17.0873897
21
176.8266271
0
LINE
8
DEFAULT_255_2_778
10
17.0873897
20
176.8266271
11
16.8454897
21
176.8266271
0
LINE
8
DEFAULT_255_2_778
10
16.8454897
20
176.8266271
11
16.6422897
21
176.8266271
0
LINE
8
DEFAULT_255_2_778
10
16.6422897
20
176.8266271
11
16.4004897
21
176.8266271
0
LINE
8
DEFAULT_255_2_778
10
16.4004897
20
176.8266271
11
16.4004897
21
176.6548271
0
LINE
8
DEFAULT_255_2_778
10
16.4004897
20
176.6548271
11
16.6422897
21
176.6548271
0
LINE
8
DEFAULT_255_2_778
10
16.6422897
20
176.6548271
11
16.6422897
21
175.8370271
0
LINE
8
DEFAULT_255_2_778
10
16.6422897
20
175.8370271
11
16.6422897
21
175.8370271
0
LINE
8
DEFAULT_255_2_778
10
16.9007897
20
177.2996271
11
16.9007897
21
177.9801271
0
LINE
8
DEFAULT_255_2_778
10
16.9007897
20
177.9801271
11
16.7015897
21
177.9801271
0
LINE
8
DEFAULT_255_2_778
10
16.7015897
20
177.9801271
11
16.7015897
21
177.2816271
0
LINE
8
DEFAULT_255_2_778
10
16.3120897
20
177.2816271
11
16.3120897
21
177.9801271
0
LINE
8
DEFAULT_255_2_778
10
16.3120897
20
177.9801271
11
16.1162897
21
177.9801271
0
LINE
8
DEFAULT_255_2_778
10
16.1162897
20
177.9801271
11
16.1162897
21
177.2999271
0
LINE
8
DEFAULT_255_2_778
10
15.0000897
20
176.2723271
11
15.4730897
21
176.2723271
0
LINE
8
DEFAULT_255_2_778
10
15.4730897
20
176.2723271
11
15.4730897
21
176.4437271
0
LINE
8
DEFAULT_255_2_778
10
15.4730897
20
176.4437271
11
15.0000897
21
176.4437271
0
LINE
8
DEFAULT_255_2_778
10
15.0000897
20
176.4437271
11
15.0000897
21
176.6546271
0
LINE
8
DEFAULT_255_2_778
10
15.0000897
20
176.6546271
11
15.5320897
21
176.6546271
0
LINE
8
DEFAULT_255_2_778
10
15.5320897
20
176.6546271
11
15.5320897
21
176.8260271
0
LINE
8
DEFAULT_255_2_778
10
15.5320897
20
176.8260271
11
15.0000897
21
176.8260271
0
LINE
8
DEFAULT_255_2_778
10
15.0000897
20
176.8260271
11
14.7997897
21
176.8260271
0
LINE
8
DEFAULT_255_2_778
10
14.7997897
20
176.8260271
11
14.7997897
21
176.6546271
0
LINE
8
DEFAULT_255_2_778
10
14.7997897
20
176.6546271
11
14.7997897
21
176.0082271
0
LINE
8
DEFAULT_255_2_778
10
14.7997897
20
176.0082271
11
14.7997897
21
175.8367271
0
LINE
8
DEFAULT_255_2_778
10
14.7997897
20
175.8367271
11
15.0000897
21
175.8367271
0
LINE
8
DEFAULT_255_2_778
10
15.0000897
20
175.8367271
11
15.5461897
21
175.8367271
0
LINE
8
DEFAULT_255_2_778
10
15.5461897
20
175.8367271
11
15.5461897
21
176.0082271
0
LINE
8
DEFAULT_255_2_778
10
15.5461897
20
176.0082271
11
15.0000897
21
176.0082271
0
LINE
8
DEFAULT_255_2_778
10
15.0000897
20
176.0082271
11
15.0000897
21
176.2720271
0
LINE
8
DEFAULT_255_2_778
10
15.0000897
20
176.2720271
11
15.0000897
21
176.2723271
0
LINE
8
DEFAULT_255_2_778
10
17.4064897
20
177.5811271
11
17.1690897
21
177.5811271
0
LINE
8
DEFAULT_255_2_778
10
17.1690897
20
177.5811271
11
17.1690897
21
177.8227271
0
LINE
8
DEFAULT_255_2_778
10
17.1690897
20
177.8227271
11
17.4175897
21
177.8227271
0
LINE
8
DEFAULT_255_2_778
10
17.4175897
20
177.8227271
11
17.4175897
21
177.8230271
0
LINE
8
DEFAULT_255_2_778
10
17.4027897
20
177.1403271
11
17.1690897
21
177.1403271
0
LINE
8
DEFAULT_255_2_778
10
17.1690897
20
177.1403271
11
17.1690897
21
177.4274271
0
LINE
8
DEFAULT_255_2_778
10
17.1690897
20
177.4274271
11
17.4003897
21
177.4274271
0
LINE
8
DEFAULT_255_2_778
10
17.1767897
20
176.9911271
11
17.4622897
21
176.9911271
0
LINE
8
DEFAULT_255_2_778
10
17.4172897
20
177.9801271
11
17.1770897
21
177.9801271
0
LINE
8
DEFAULT_255_2_778
10
17.1770897
20
177.9801271
11
16.9722897
21
177.9801271
0
LINE
8
DEFAULT_255_2_778
10
16.9722897
20
177.9801271
11
16.9711897
21
177.9801271
0
LINE
8
DEFAULT_255_2_778
10
16.9711897
20
177.9801271
11
16.9711897
21
176.9911271
0
LINE
8
DEFAULT_255_2_778
10
16.9711897
20
176.9911271
11
16.9722897
21
176.9911271
0
LINE
8
DEFAULT_255_2_778
10
16.9722897
20
176.9911271
11
17.1770897
21
176.9911271
0
LINE
8
DEFAULT_255_2_778
10
17.1770897
20
176.9911271
11
17.1767897
21
176.9911271
0
LINE
8
DEFAULT_255_2_778
10
17.3368897
20
176.3868271
11
17.3368897
21
176.6562271
0
LINE
8
DEFAULT_255_2_778
10
17.3368897
20
176.6562271
11
17.5781897
21
176.6562271
0
LINE
8
DEFAULT_255_2_778
10
17.5842897
20
176.3871271
11
17.3370897
21
176.3871271
0
LINE
8
DEFAULT_255_2_778
10
17.3370897
20
176.3871271
11
17.3368897
21
176.3868271
0
LINE
8
DEFAULT_255_2_778
10
17.5879897
20
176.8273271
11
17.3368897
21
176.8273271
0
LINE
8
DEFAULT_255_2_778
10
17.3368897
20
176.8273271
11
17.1383897
21
176.8273271
0
LINE
8
DEFAULT_255_2_778
10
17.1383897
20
176.8273271
11
17.1362897
21
176.8273271
0
LINE
8
DEFAULT_255_2_778
10
17.1362897
20
176.8273271
11
17.1362897
21
175.8381271
0
LINE
8
DEFAULT_255_2_778
10
17.1362897
20
175.8381271
11
17.3368897
21
175.8381271
0
LINE
8
DEFAULT_255_2_778
10
17.3368897
20
175.8381271
11
17.3368897
21
176.2278271
0
LINE
8
DEFAULT_255_2_778
10
17.3368897
20
176.2278271
11
17.5069897
21
176.2278271
0
LINE
8
DEFAULT_255_2_778
10
17.7162897
20
175.8381271
11
17.9175897
21
175.8381271
0
LINE
8
DEFAULT_255_2_778
10
14.2763897
20
176.8263271
11
14.0760897
21
176.8263271
0
LINE
8
DEFAULT_255_2_778
10
14.0760897
20
176.8263271
11
14.0760897
21
176.0085271
0
LINE
8
DEFAULT_255_2_778
10
14.0760897
20
176.0085271
11
14.0760897
21
175.8370271
0
LINE
8
DEFAULT_255_2_778
10
14.0760897
20
175.8370271
11
14.2763897
21
175.8370271
0
LINE
8
DEFAULT_255_2_778
10
14.2763897
20
175.8370271
11
14.7428897
21
175.8370271
0
LINE
8
DEFAULT_255_2_778
10
14.7428897
20
175.8370271
11
14.7428897
21
176.0085271
0
LINE
8
DEFAULT_255_2_778
10
14.7428897
20
176.0085271
11
14.2763897
21
176.0085271
0
LINE
8
DEFAULT_255_2_778
10
14.2763897
20
176.0085271
11
14.2763897
21
176.8263271
0
LINE
8
DEFAULT_255_2_778
10
14.2763897
20
176.8263271
11
14.2763897
21
176.8263271
0
ARC
8
DEFAULT_255_2_778
10
15.4584271
20
176.4521969
40
0.9681224
50
72.4822103
51
81.3184214
0
ARC
8
DEFAULT_255_2_778
10
15.7160297
20
177.2288918
40
0.1503783
50
28.8883513
51
77.0092434
0
ARC
8
DEFAULT_255_2_778
10
15.7432379
20
177.2578196
40
0.113238
50
358.9917455
51
22.7117017
0
ARC
8
DEFAULT_255_2_778
10
15.7394861
20
177.2619918
40
0.1171346
50
289.2958104
51
356.9831562
0
ARC
8
DEFAULT_255_2_778
10
15.6668261
20
177.4194882
40
0.2902651
50
268.4665462
51
292.5613311
0
ARC
8
DEFAULT_255_2_778
10
15.6496856
20
177.3604179
40
0.2312808
50
236.4956947
51
272.3225735
0
ARC
8
DEFAULT_255_2_778
10
15.6106646
20
177.2921839
40
0.1529307
50
178.9722202
51
234.5742435
0
ARC
8
DEFAULT_255_2_778
10
15.5656113
20
177.2826079
40
0.3002058
50
177.6481608
51
245.5596397
0
ARC
8
DEFAULT_255_2_778
10
15.6409971
20
177.4548561
40
0.488217
50
245.8690375
51
267.169035
0
ARC
8
DEFAULT_255_2_778
10
15.6671503
20
177.7058916
40
0.7403648
50
266.1069867
51
270.0547972
0
ARC
8
DEFAULT_255_2_778
10
15.6772894
20
177.5371135
40
0.5716642
50
269.0547216
51
287.7147747
0
ARC
8
DEFAULT_255_2_778
10
15.7598889
20
177.2914091
40
0.3125017
50
286.995984
51
325.1221533
0
ARC
8
DEFAULT_255_2_778
10
15.7678294
20
177.274861
40
0.2966627
50
326.8673922
51
0.8625726
0
ARC
8
DEFAULT_255_2_778
10
15.7898286
20
177.2834409
40
0.2746606
50
359.1417932
51
76.9739731
0
ARC
8
DEFAULT_255_2_778
10
15.6705461
20
177.0025719
40
0.577616
50
71.7185727
51
79.1315439
0
ARC
8
DEFAULT_255_2_778
10
14.2492968
20
169.648967
40
8.0673056
50
79.0662148
51
79.6216572
0
ARC
8
DEFAULT_255_2_778
10
16.4356585
20
181.5266581
40
4.0099443
50
259.1227669
51
259.4665204
0
ARC
8
DEFAULT_255_2_778
10
15.7836732
20
178.2316142
40
0.6513291
50
249.9945768
51
260.7485895
0
ARC
8
DEFAULT_255_2_778
10
15.5880401
20
177.7205999
40
0.1046098
50
178.6705173
51
254.9333545
0
ARC
8
DEFAULT_255_2_778
10
15.6049957
20
177.7171688
40
0.1216785
50
93.288632
51
177.2403935
0
ARC
8
DEFAULT_255_2_778
10
15.6585677
20
177.5301752
40
0.3143588
50
89.6189463
51
101.1057977
0
ARC
8
DEFAULT_255_2_778
10
15.6722733
20
177.642016
40
0.2028439
50
53.5634072
51
93.2825843
0
ARC
8
DEFAULT_255_2_778
10
15.7018505
20
177.7002144
40
0.1388739
50
357.1985816
51
49.1152298
0
ARC
8
DEFAULT_255_2_778
10
15.7254907
20
177.6934274
40
0.3087677
50
359.9999335
51
2.3703878
0
ARC
8
DEFAULT_255_2_778
10
15.7353555
20
177.6949337
40
0.298851
50
2.1600756
51
60.1092229
0
ARC
8
DEFAULT_255_2_778
10
15.6766212
20
177.5883133
40
0.4205645
50
60.4106856
51
86.1444419
0
ARC
8
DEFAULT_255_2_778
10
15.6536151
20
177.4116228
40
0.5985046
50
85.0843314
51
90.0628677
0
ARC
8
DEFAULT_255_2_778
10
15.6529718
20
177.5350466
40
0.4750804
50
90.001616
51
92.2300394
0
ARC
8
DEFAULT_255_2_778
10
15.6281193
20
177.640187
40
0.3696351
50
89.0131319
51
149.6364996
0
ARC
8
DEFAULT_255_2_778
10
15.5505461
20
177.7124055
40
0.2671974
50
154.5962367
51
180.4885883
0
ARC
8
DEFAULT_255_2_778
10
15.5651524
20
177.710884
40
0.281795
50
180.1539064
51
255.1120325
0
ARC
8
DEFAULT_255_2_778
10
15.7094242
20
178.033732
40
0.6333958
50
249.9962237
51
260.4976723
0
ARC
8
DEFAULT_255_2_778
10
18.2470963
20
176.4533351
40
0.967002
50
72.4685023
51
81.3064395
0
ARC
8
DEFAULT_255_2_778
10
18.5045397
20
177.228927
40
0.1503535
50
28.8782248
51
76.9904304
0
ARC
8
DEFAULT_255_2_778
10
18.5317197
20
177.2578189
40
0.1132561
50
358.9922779
51
22.7082666
0
ARC
8
DEFAULT_255_2_778
10
18.5280402
20
177.2619088
40
0.1170763
50
289.2761556
51
357.0223042
0
ARC
8
DEFAULT_255_2_778
10
18.4553612
20
177.4197836
40
0.2905613
50
268.4611814
51
292.5289055
0
ARC
8
DEFAULT_255_2_778
10
18.4381801
20
177.3613175
40
0.2321799
50
236.6698634
51
272.3149402
0
ARC
8
DEFAULT_255_2_778
10
18.39878
20
177.2921762
40
0.1528464
50
178.9687581
51
234.7686008
0
ARC
8
DEFAULT_255_2_778
10
18.3540113
20
177.2826079
40
0.3002058
50
177.6481608
51
245.5596397
0
ARC
8
DEFAULT_255_2_778
10
18.4293971
20
177.4548561
40
0.488217
50
245.8690375
51
267.169035
0
ARC
8
DEFAULT_255_2_778
10
18.4555503
20
177.7058916
40
0.7403648
50
266.1069867
51
270.0547972
0
ARC
8
DEFAULT_255_2_778
10
18.4656836
20
177.5377451
40
0.5722957
50
269.0563423
51
287.7048702
0
ARC
8
DEFAULT_255_2_778
10
18.548344
20
177.2917682
40
0.312856
50
286.9832601
51
325.0871916
0
ARC
8
DEFAULT_255_2_778
10
18.5567708
20
177.2748856
40
0.2964208
50
326.8311942
51
0.8585267
0
ARC
8
DEFAULT_255_2_778
10
18.5785756
20
177.2835282
40
0.2746149
50
359.1234265
51
76.9343785
0
ARC
8
DEFAULT_255_2_778
10
18.4596421
20
177.0036965
40
0.5764934
50
71.6999697
51
79.1198353
0
ARC
8
DEFAULT_255_2_778
10
17.0173657
20
169.5269392
40
8.1910887
50
79.0843627
51
79.6321368
0
ARC
8
DEFAULT_255_2_778
10
19.2200266
20
181.5064177
40
3.9892176
50
259.1314419
51
259.4772924
0
ARC
8
DEFAULT_255_2_778
10
18.5723251
20
178.2310131
40
0.6507003
50
249.9919323
51
260.7592458
0
ARC
8
DEFAULT_255_2_778
10
18.376901
20
177.7205546
40
0.1045718
50
178.6452075
51
254.9151907
0
ARC
8
DEFAULT_255_2_778
10
18.3939581
20
177.7171016
40
0.121744
50
93.2745253
51
177.21023
0
ARC
8
DEFAULT_255_2_778
10
18.4475726
20
177.5300052
40
0.3145287
50
89.6200387
51
101.1027534
0
ARC
8
DEFAULT_255_2_778
10
18.4613489
20
177.6433453
40
0.2015212
50
53.1490002
51
93.3256649
0
ARC
8
DEFAULT_255_2_778
10
18.4902753
20
177.7001519
40
0.1391457
50
357.2298288
51
48.6469881
0
ARC
8
DEFAULT_255_2_778
10
18.5137232
20
177.6934226
40
0.3092351
50
0.0008291
51
2.3676985
0
ARC
8
DEFAULT_255_2_778
10
18.5240744
20
177.6949868
40
0.2988304
50
2.1500394
51
60.0956838
0
ARC
8
DEFAULT_255_2_778
10
18.4654399
20
177.5884909
40
0.4203859
50
60.40452
51
86.1455285
0
ARC
8
DEFAULT_255_2_778
10
18.4424157
20
177.4116686
40
0.5984588
50
85.0841409
51
90.0629301
0
ARC
8
DEFAULT_255_2_778
10
18.4417778
20
177.5346392
40
0.4754878
50
90.0023409
51
92.3231329
0
ARC
8
DEFAULT_255_2_778
10
18.4167555
20
177.6399604
40
0.3698206
50
89.1093915
51
149.6400816
0
ARC
8
DEFAULT_255_2_778
10
18.338761
20
177.7123917
40
0.2669122
50
154.6001925
51
180.486137
0
ARC
8
DEFAULT_255_2_778
10
18.3537607
20
177.7110152
40
0.2819037
50
180.1805176
51
255.132702
0
ARC
8
DEFAULT_255_2_778
10
18.4982264
20
178.0342784
40
0.6339516
50
250.0026216
51
260.4967164
0
ARC
8
DEFAULT_255_2_778
10
16.008917
20
176.2414283
40
0.2519711
50
190.2626864
51
267.3480013
0
ARC
8
DEFAULT_255_2_778
10
16.2443543
20
176.3327548
40
0.5022041
50
179.6723028
51
195.7380858
0
ARC
8
DEFAULT_255_2_778
10
16.1790511
20
176.3482671
40
0.4370755
50
148.7005643
51
181.6572045
0
ARC
8
DEFAULT_255_2_778
10
15.9957576
20
176.4583723
40
0.2232598
50
89.6148479
51
148.4074796
0
ARC
8
DEFAULT_255_2_778
10
16.0060936
20
176.480449
40
0.201372
50
41.9769772
51
92.5146611
0
ARC
8
DEFAULT_255_2_778
10
15.9522078
20
176.4427523
40
0.2667646
50
15.1848537
51
40.2549591
0
ARC
8
DEFAULT_255_2_778
10
16.028123
20
176.4530326
40
0.3935735
50
8.7091682
51
82.0550801
0
ARC
8
DEFAULT_255_2_778
10
15.9931241
20
176.3065871
40
0.543642
50
80.5350289
51
90.1544743
0
ARC
8
DEFAULT_255_2_778
10
15.9818804
20
176.3952192
40
0.4551129
50
88.7689246
51
119.6437418
0
ARC
8
DEFAULT_255_2_778
10
16.0077717
20
176.3989647
40
0.4653013
50
122.644121
51
173.3997839
0
ARC
8
DEFAULT_255_2_778
10
16.2711934
20
176.3346568
40
0.7351371
50
170.7798304
51
180.1348114
0
ARC
8
DEFAULT_255_2_778
10
16.1377257
20
176.3192615
40
0.6018225
50
178.6988735
51
210.5289552
0
ARC
8
DEFAULT_255_2_778
10
15.970325
20
176.2284953
40
0.4115783
50
211.4828222
51
265.8686737
0
ARC
8
DEFAULT_255_2_778
10
15.9909864
20
176.3532011
40
0.5375742
50
264.6297133
51
270.0503073
0
ARC
8
DEFAULT_255_2_778
10
16.0020995
20
176.2850749
40
0.4695684
50
268.7014824
51
300.1403067
0
ARC
8
DEFAULT_255_2_778
10
16.0350333
20
176.2066852
40
0.385394
50
301.7580058
51
353.77968
0
ARC
8
DEFAULT_255_2_778
10
16.0012256
20
176.2010219
40
0.2113379
50
268.8430278
51
350.1661143
0
ARC
8
DEFAULT_255_2_778
10
18.6896799
20
176.2413824
40
0.2519281
50
190.2538303
51
267.3332171
0
ARC
8
DEFAULT_255_2_778
10
18.9252249
20
176.3327581
40
0.5022746
50
179.672724
51
195.7362088
0
ARC
8
DEFAULT_255_2_778
10
18.8600432
20
176.3482917
40
0.4372682
50
148.7196987
51
181.6596982
0
ARC
8
DEFAULT_255_2_778
10
18.676443
20
176.4584906
40
0.2231415
50
89.6108896
51
148.4244661
0
ARC
8
DEFAULT_255_2_778
10
18.686876
20
176.480467
40
0.2013576
50
42.5913083
51
92.5383066
0
ARC
8
DEFAULT_255_2_778
10
18.6345542
20
176.4440973
40
0.2646316
50
15.0085433
51
40.7215892
0
ARC
8
DEFAULT_255_2_778
10
18.708623
20
176.4530326
40
0.3935735
50
8.7091682
51
82.0550801
0
ARC
8
DEFAULT_255_2_778
10
18.6736241
20
176.3065871
40
0.543642
50
80.5350289
51
90.1544743
0
ARC
8
DEFAULT_255_2_778
10
18.6623804
20
176.3952192
40
0.4551129
50
88.7689246
51
119.6437418
0
ARC
8
DEFAULT_255_2_778
10
18.6882717
20
176.3989647
40
0.4653013
50
122.644121
51
173.3997839
0
ARC
8
DEFAULT_255_2_778
10
18.9516934
20
176.3346568
40
0.7351371
50
170.7798304
51
180.1348114
0
ARC
8
DEFAULT_255_2_778
10
18.8177822
20
176.31932
40
0.6013778
50
178.7034849
51
210.5604279
0
ARC
8
DEFAULT_255_2_778
10
18.6511312
20
176.2288377
40
0.4119265
50
211.5090145
51
265.8592607
0
ARC
8
DEFAULT_255_2_778
10
18.6716883
20
176.3529521
40
0.5373252
50
264.628472
51
270.0501277
0
ARC
8
DEFAULT_255_2_778
10
18.682837
20
176.2848685
40
0.4693629
50
268.6963312
51
300.2191972
0
ARC
8
DEFAULT_255_2_778
10
18.7155684
20
176.2069124
40
0.3856821
50
301.8465101
51
353.7503927
0
ARC
8
DEFAULT_255_2_778
10
18.6820648
20
176.2008604
40
0.2111733
50
268.8857714
51
350.2028431
0
LINE
8
DEFAULT_255_2_778
10
15.4577584
20
177.2949271
11
15.2656584
21
177.2949271
0
LINE
8
DEFAULT_255_2_778
10
15.8405584
20
177.6934271
11
16.0342584
21
177.6934271
0
LINE
8
DEFAULT_255_2_778
10
18.2459584
20
177.2949271
11
18.0540584
21
177.2949271
0
LINE
8
DEFAULT_255_2_778
10
18.6292584
20
177.6934271
11
18.8229584
21
177.6934271
0
LINE
8
DEFAULT_255_2_778
10
16.2096584
20
176.5126271
11
16.4171584
21
176.5126271
0
LINE
8
DEFAULT_255_2_778
10
16.4181584
20
176.1649271
11
16.2094584
21
176.1649271
0
LINE
8
DEFAULT_255_2_778
10
18.8901584
20
176.5126271
11
19.0976584
21
176.5126271
0
LINE
8
DEFAULT_255_2_778
10
19.0989584
20
176.1649271
11
18.8901584
21
176.1649271
0
LINE
8
DEFAULT_255_2_778
10
18.6536335
20
109.6697987
11
18.6536335
21
60.7218987
0
LINE
8
DEFAULT_255_2_778
10
18.6536335
20
60.7218987
11
19.9765335
21
60.7218987
0
LINE
8
DEFAULT_255_2_778
10
9.3932335
20
155.9718987
11
10.7161335
21
155.9718987
0
LINE
8
DEFAULT_255_2_778
10
10.7161335
20
155.9718987
11
10.7161335
21
99.0864987
0
LINE
8
DEFAULT_255_2_778
10
9.3932834
20
99.0864333
11
12.0390834
21
99.0864333
0
LINE
8
DEFAULT_255_2_778
10
12.0390834
20
99.0864333
11
12.0390834
21
93.7947333
0
LINE
8
DEFAULT_255_2_778
10
12.0390834
20
93.7947333
11
9.3932834
21
93.7947333
0
LINE
8
DEFAULT_255_2_778
10
9.3932834
20
93.7947333
11
9.3932834
21
99.0864333
0
LINE
8
DEFAULT_255_2_778
10
10.187
20
94.3239666
11
10.187
21
98.5572666
0
LINE
8
DEFAULT_255_2_778
10
9.9224167
20
97.763575
11
10.1870167
21
98.557275
0
LINE
8
DEFAULT_255_2_778
10
10.1870167
20
98.557275
11
10.4516167
21
97.763575
0
LINE
8
DEFAULT_255_2_778
10
10.4516167
20
97.763575
11
9.9224167
21
97.763575
0
LINE
8
DEFAULT_255_2_778
10
11.2453
20
98.5572666
11
11.2453
21
94.3239666
0
LINE
8
DEFAULT_255_2_778
10
10.9807167
20
95.117675
11
11.2453167
21
94.323975
0
LINE
8
DEFAULT_255_2_778
10
11.2453167
20
94.323975
11
11.5099167
21
95.117675
0
LINE
8
DEFAULT_255_2_778
10
11.5099167
20
95.117675
11
10.9807167
21
95.117675
0
LINE
8
DEFAULT_255_2_778
10
10.7161335
20
93.7947982
11
10.7161335
21
36.9093982
0
LINE
8
DEFAULT_255_2_778
10
10.7161335
20
36.9093982
11
9.3932335
21
36.9093982
0
LINE
8
DEFAULT_255_2_778
10
19.9765335
20
163.9093982
11
18.6536335
21
163.9093982
0
LINE
8
DEFAULT_255_2_778
10
18.6536335
20
163.9093982
11
18.6536335
21
114.9614982
0
LINE
8
DEFAULT_255_2_778
10
17.3307834
20
114.9614333
11
19.9765834
21
114.9614333
0
LINE
8
DEFAULT_255_2_778
10
19.9765834
20
114.9614333
11
19.9765834
21
109.6697333
0
LINE
8
DEFAULT_255_2_778
10
19.9765834
20
109.6697333
11
17.3307834
21
109.6697333
0
LINE
8
DEFAULT_255_2_778
10
17.3307834
20
109.6697333
11
17.3307834
21
114.9614333
0
LINE
8
DEFAULT_255_2_778
10
18.1245
20
110.1989666
11
18.1245
21
114.4322666
0
LINE
8
DEFAULT_255_2_778
10
17.8599167
20
113.638575
11
18.1245167
21
114.432275
0
LINE
8
DEFAULT_255_2_778
10
18.1245167
20
114.432275
11
18.3891167
21
113.638575
0
LINE
8
DEFAULT_255_2_778
10
18.3891167
20
113.638575
11
17.8599167
21
113.638575
0
LINE
8
DEFAULT_255_2_778
10
19.1828
20
114.4322666
11
19.1828
21
110.1989666
0
LINE
8
DEFAULT_255_2_778
10
18.9182167
20
110.992675
11
19.1828167
21
110.198975
0
LINE
8
DEFAULT_255_2_778
10
19.1828167
20
110.198975
11
19.4474167
21
110.992675
0
LINE
8
DEFAULT_255_2_778
10
19.4474167
20
110.992675
11
18.9182167
21
110.992675
0
LINE
8
DEFAULT_255_1_234
10
4.2126489
20
172.4973211
11
4.2126489
21
171.4539983
0
LINE
8
DEFAULT_255_1_234
10
4.2126489
20
171.4539983
11
4.7668389
21
171.4539983
0
LINE
8
DEFAULT_255_1_234
10
4.7668389
20
171.4539983
11
4.7668389
21
171.3279
0
LINE
8
DEFAULT_255_1_234
10
4.7668389
20
171.3279
11
4.0576364
21
171.3279
0
LINE
8
DEFAULT_255_1_234
10
4.0576364
20
171.3279
11
4.0576364
21
172.4973211
0
LINE
8
DEFAULT_255_1_234
10
4.0576364
20
172.4973211
11
4.2126489
21
172.4973211
0
LINE
8
DEFAULT_255_1_234
10
5.0743482
20
5.222701
11
5.0743482
21
4.7938062
0
LINE
8
DEFAULT_255_1_234
10
4.1731872
20
5.1688884
11
4.1731872
21
5.2708915
0
LINE
8
DEFAULT_255_1_234
10
5.0743482
20
5.4668659
11
4.9201389
21
5.4668659
0
LINE
8
DEFAULT_255_1_234
10
4.3281998
20
5.2749073
11
4.3281998
21
5.1793296
0
LINE
8
DEFAULT_255_1_234
10
4.920942
20
4.8347681
11
4.920942
21
5.0974059
0
LINE
8
DEFAULT_255_1_234
10
4.920942
20
5.0974059
11
4.6502725
21
5.0974059
0
LINE
8
DEFAULT_255_1_234
10
4.6502725
20
5.0974059
11
4.6502725
21
5.222701
0
LINE
8
DEFAULT_255_1_234
10
4.6502725
20
5.222701
11
5.0743482
21
5.222701
0
ARC
8
DEFAULT_255_1_234
10
4.7911989
20
4.9931396
40
0.3462765
50
295.8437914
51
324.8549609
0
ARC
8
DEFAULT_255_1_234
10
4.7495956
20
5.0684567
40
0.4322211
50
291.5695085
51
296.4549398
0
ARC
8
DEFAULT_255_1_234
10
4.6985207
20
5.2049275
40
0.5779178
50
278.6622409
51
291.3045483
0
ARC
8
DEFAULT_255_1_234
10
4.6645699
20
5.4197408
40
0.7953952
50
270.020006
51
278.7494541
0
ARC
8
DEFAULT_255_1_234
10
4.6607623
20
5.5514036
40
0.927067
50
269.9969998
51
270.2524872
0
ARC
8
DEFAULT_255_1_234
10
4.6569336
20
5.1430589
40
0.5187361
50
253.5786322
51
270.4175299
0
ARC
8
DEFAULT_255_1_234
10
4.6395992
20
5.0759236
40
0.4494451
50
238.8203306
51
253.2788235
0
ARC
8
DEFAULT_255_1_234
10
4.6376365
20
5.0708231
40
0.4440665
50
206.7883783
51
238.6962764
0
ARC
8
DEFAULT_255_1_234
10
4.7150275
20
5.1172405
40
0.5341121
50
206.1129412
51
207.4916643
0
ARC
8
DEFAULT_255_1_234
10
4.774719
20
5.1426488
40
0.5989041
50
188.6921119
51
205.7821245
0
ARC
8
DEFAULT_255_1_234
10
4.9603552
20
5.174223
40
0.7871862
50
180.3882829
51
188.9219216
0
ARC
8
DEFAULT_255_1_234
10
5.0831366
20
5.2765464
40
0.909967
50
170.2024264
51
180.3560651
0
ARC
8
DEFAULT_255_1_234
10
4.7667884
20
5.3331237
40
0.5886083
50
154.2857445
51
170.3893044
0
ARC
8
DEFAULT_255_1_234
10
4.6386087
20
5.391795
40
0.4476743
50
139.8401567
51
153.9332699
0
ARC
8
DEFAULT_255_1_234
10
4.6026823
20
5.4205577
40
0.4016697
50
98.4190291
51
139.6707122
0
ARC
8
DEFAULT_255_1_234
10
4.6406341
20
5.2360328
40
0.5898566
50
89.7659205
51
99.4415478
0
ARC
8
DEFAULT_255_1_234
10
4.647159
20
5.2425844
40
0.5833147
50
78.0551672
51
90.4042112
0
ARC
8
DEFAULT_255_1_234
10
4.68761
20
5.4244644
40
0.3970055
50
54.6380464
51
78.3339173
0
ARC
8
DEFAULT_255_1_234
10
4.7066156
20
5.4564795
40
0.3599102
50
50.031736
51
54.1558201
0
ARC
8
DEFAULT_255_1_234
10
4.6958944
20
5.4468766
40
0.3741624
50
18.1092409
51
49.7180913
0
ARC
8
DEFAULT_255_1_234
10
4.5502144
20
5.3935089
40
0.5292424
50
7.9672797
51
18.6984571
0
ARC
8
DEFAULT_255_1_234
10
4.5652622
20
5.4058504
40
0.3600838
50
9.7557294
51
27.3215714
0
ARC
8
DEFAULT_255_1_234
10
4.6780094
20
5.4621912
40
0.2340608
50
27.7361077
51
84.5257964
0
ARC
8
DEFAULT_255_1_234
10
4.6452481
20
5.297864
40
0.4011215
50
82.106034
51
90.2001166
0
ARC
8
DEFAULT_255_1_234
10
4.6402698
20
5.3486215
40
0.3503799
50
89.4150119
51
105.5823402
0
ARC
8
DEFAULT_255_1_234
10
4.6145696
20
5.4421867
40
0.2533503
50
105.6678618
51
144.2648758
0
ARC
8
DEFAULT_255_1_234
10
4.7038951
20
5.3786289
40
0.3629787
50
144.3561283
51
162.8564086
0
ARC
8
DEFAULT_255_1_234
10
4.912286
20
5.3117017
40
0.5818441
50
162.6076014
51
173.6780284
0
ARC
8
DEFAULT_255_1_234
10
5.2184004
20
5.274489
40
0.8902007
50
173.4670142
51
179.9730753
0
ARC
8
DEFAULT_255_1_234
10
5.0275675
20
5.175126
40
0.6993804
50
179.6556203
51
190.0080463
0
ARC
8
DEFAULT_255_1_234
10
4.7959504
20
5.1326375
40
0.4639066
50
189.8116607
51
206.6796816
0
ARC
8
DEFAULT_255_1_234
10
4.7114656
20
5.0932503
40
0.3707421
50
207.1031645
51
217.7074368
0
ARC
8
DEFAULT_255_1_234
10
4.6480345
20
5.0380559
40
0.2868417
50
216.7345547
51
265.6812148
0
ARC
8
DEFAULT_255_1_234
10
4.6611136
20
5.1284855
40
0.3780509
50
264.7366618
51
270.0611241
0
ARC
8
DEFAULT_255_1_234
10
4.6634399
20
5.4125111
40
0.662079
50
269.8335834
51
276.0539546
0
ARC
8
DEFAULT_255_1_234
10
4.6841404
20
5.222356
40
0.4708016
50
275.9894168
51
284.4615085
0
ARC
8
DEFAULT_255_1_234
10
4.7039411
20
5.1390663
40
0.3852094
50
284.7034461
51
286.4953897
0
ARC
8
DEFAULT_255_1_234
10
4.7446424
20
5.0079965
40
0.2479842
50
286.0770838
51
304.2625829
0
ARC
8
DEFAULT_255_1_234
10
4.7579838
20
4.9861594
40
0.2224291
50
304.5891602
51
317.1073298
0
LINE
8
DEFAULT_255_1_234
10
6.2301154
20
5.8098211
11
6.2301154
21
4.6404
0
LINE
8
DEFAULT_255_1_234
10
6.2301154
20
4.6404
11
6.0751028
21
4.6404
0
LINE
8
DEFAULT_255_1_234
10
6.0751028
20
4.6404
11
5.4863764
21
5.541561
0
LINE
8
DEFAULT_255_1_234
10
5.4863764
20
5.541561
11
5.4863764
21
4.6404
0
LINE
8
DEFAULT_255_1_234
10
5.4863764
20
4.6404
11
5.3313639
21
4.6404
0
LINE
8
DEFAULT_255_1_234
10
5.3313639
20
4.6404
11
5.3313639
21
5.8098211
0
LINE
8
DEFAULT_255_1_234
10
5.3313639
20
5.8098211
11
5.4863764
21
5.8098211
0
LINE
8
DEFAULT_255_1_234
10
5.4863764
20
5.8098211
11
6.0767092
21
4.9046442
0
LINE
8
DEFAULT_255_1_234
10
6.0767092
20
4.9046442
11
6.0767092
21
5.8098211
0
LINE
8
DEFAULT_255_1_234
10
6.0767092
20
5.8098211
11
6.2301154
21
5.8098211
0
LINE
8
DEFAULT_255_1_234
10
6.8276767
20
4.6404
11
6.5039977
21
4.6404
0
LINE
8
DEFAULT_255_1_234
10
6.5039977
20
4.6404
11
6.5039977
21
5.8098211
0
LINE
8
DEFAULT_255_1_234
10
6.5039977
20
5.8098211
11
6.8341021
21
5.8098211
0
LINE
8
DEFAULT_255_1_234
10
7.3497397
20
5.2644661
11
7.3497397
21
5.1897709
0
LINE
8
DEFAULT_255_1_234
10
6.838118
20
5.6829196
11
6.658207
21
5.6829196
0
LINE
8
DEFAULT_255_1_234
10
6.658207
20
5.6829196
11
6.658207
21
4.7664983
0
LINE
8
DEFAULT_255_1_234
10
6.658207
20
4.7664983
11
6.8204481
21
4.7664983
0
LINE
8
DEFAULT_255_1_234
10
7.1971367
20
5.1929836
11
7.1971367
21
5.2612534
0
ARC
8
DEFAULT_255_1_234
10
6.8379963
20
5.2232894
40
0.5865446
50
75.4101064
51
90.3804066
0
ARC
8
DEFAULT_255_1_234
10
6.8609477
20
5.3189492
40
0.4881916
50
60.145586
51
75.1888407
0
ARC
8
DEFAULT_255_1_234
10
6.8768252
20
5.3466199
40
0.4562893
50
26.5253612
51
60.1450928
0
ARC
8
DEFAULT_255_1_234
10
6.7648002
20
5.2872158
40
0.5830602
50
7.4030428
51
26.8320788
0
ARC
8
DEFAULT_255_1_234
10
6.6053758
20
5.2623804
40
0.7443669
50
0.1605367
51
7.7176192
0
ARC
8
DEFAULT_255_1_234
10
6.6217663
20
5.1859434
40
0.7279835
50
348.7289388
51
0.3012466
0
ARC
8
DEFAULT_255_1_234
10
6.7874093
20
5.1530386
40
0.559104
50
333.0706509
51
348.7181832
0
ARC
8
DEFAULT_255_1_234
10
6.8840851
20
5.1005319
40
0.4491417
50
299.2531685
51
333.4571258
0
ARC
8
DEFAULT_255_1_234
10
6.8479991
20
5.1690828
40
0.5265881
50
278.107187
51
299.0339503
0
ARC
8
DEFAULT_255_1_234
10
6.822407
20
5.3198216
40
0.679442
50
270.4443897
51
278.4511052
0
ARC
8
DEFAULT_255_1_234
10
6.82449
20
5.2269213
40
0.4604407
50
269.4970433
51
284.0205042
0
ARC
8
DEFAULT_255_1_234
10
6.8600201
20
5.0903978
40
0.3193797
50
283.7700273
51
318.1555492
0
ARC
8
DEFAULT_255_1_234
10
6.8262959
20
5.1156367
40
0.3613588
50
318.7415601
51
343.6873628
0
ARC
8
DEFAULT_255_1_234
10
6.6458982
20
5.1719832
40
0.5503313
50
343.3325091
51
355.8548958
0
ARC
8
DEFAULT_255_1_234
10
6.4360666
20
5.1919319
40
0.7610708
50
355.4988528
51
0.0791727
0
ARC
8
DEFAULT_255_1_234
10
6.5143289
20
5.265478
40
0.6828208
50
359.6455037
51
9.8607896
0
ARC
8
DEFAULT_255_1_234
10
6.7503987
20
5.3081099
40
0.4429406
50
9.6571907
51
26.1932807
0
ARC
8
DEFAULT_255_1_234
10
6.8431975
20
5.3512118
40
0.3406537
50
26.5777228
51
40.1532208
0
ARC
8
DEFAULT_255_1_234
10
6.8687702
20
5.3711619
40
0.308246
50
40.3840491
51
80.1431104
0
ARC
8
DEFAULT_255_1_234
10
6.836082
20
5.2262333
40
0.4566909
50
79.2152159
51
89.7445637
0
LINE
8
DEFAULT_255_1_234
10
5.0006023
20
13.4091849
11
4.8455897
21
13.4091849
0
LINE
8
DEFAULT_255_1_234
10
4.1532539
20
12.9168394
11
4.3082665
21
12.9168394
0
ARC
8
DEFAULT_255_1_234
10
4.911471
20
14.3038768
40
1.252368
50
248.9199003
51
254.1439814
0
ARC
8
DEFAULT_255_1_234
10
4.7434205
20
13.8712234
40
0.788226
50
241.633709
51
249.0064503
0
ARC
8
DEFAULT_255_1_234
10
4.59056
20
13.5911317
40
0.4691427
50
230.498225
51
241.8087113
0
ARC
8
DEFAULT_255_1_234
10
4.5121174
20
13.4911906
40
0.3421437
50
227.4064532
51
229.9881192
0
ARC
8
DEFAULT_255_1_234
10
4.4633694
20
13.4436088
40
0.2741476
50
200.6781896
51
228.1763934
0
ARC
8
DEFAULT_255_1_234
10
4.4706005
20
13.4421077
40
0.2804109
50
179.5061581
51
199.8694617
0
ARC
8
DEFAULT_255_1_234
10
4.4696757
20
13.449521
40
0.2795204
50
132.4834203
51
181.0242172
0
ARC
8
DEFAULT_255_1_234
10
4.5292339
20
13.3932704
40
0.3612768
50
129.2532479
51
133.4242687
0
ARC
8
DEFAULT_255_1_234
10
4.5438789
20
13.3712965
40
0.3875675
50
101.98776
51
128.8742646
0
ARC
8
DEFAULT_255_1_234
10
4.5837399
20
13.1991741
40
0.5642249
50
89.5906553
51
102.3169264
0
ARC
8
DEFAULT_255_1_234
10
4.5907891
20
13.2310148
40
0.5323783
50
77.2360837
51
90.3248275
0
ARC
8
DEFAULT_255_1_234
10
4.6114971
20
13.32774
40
0.4334697
50
63.837784
51
77.0809408
0
ARC
8
DEFAULT_255_1_234
10
4.6392732
20
13.3794911
40
0.3747796
50
45.9864267
51
64.1607727
0
ARC
8
DEFAULT_255_1_234
10
4.6653614
20
13.4092866
40
0.3352302
50
32.2747395
51
45.6547121
0
ARC
8
DEFAULT_255_1_234
10
4.6720054
20
13.411188
40
0.328603
50
359.6507365
51
32.6130309
0
ARC
8
DEFAULT_255_1_234
10
4.577715
20
13.411666
40
0.2678863
50
359.469343
51
14.9832209
0
ARC
8
DEFAULT_255_1_234
10
4.6482212
20
13.4305539
40
0.1948938
50
14.9781179
51
48.2004265
0
ARC
8
DEFAULT_255_1_234
10
4.6317856
20
13.4098983
40
0.2212521
50
48.5927837
51
74.1241538
0
ARC
8
DEFAULT_255_1_234
10
4.5984346
20
13.2998248
40
0.3362561
50
73.7888341
51
86.6652678
0
ARC
8
DEFAULT_255_1_234
10
4.5881911
20
13.1790881
40
0.4573953
50
86.2640471
51
90.0526343
0
ARC
8
DEFAULT_255_1_234
10
4.5853624
20
13.2186192
40
0.4178709
50
89.6697524
51
99.2309573
0
ARC
8
DEFAULT_255_1_234
10
4.5611075
20
13.3630964
40
0.2713749
50
99.069534
51
113.7658566
0
ARC
8
DEFAULT_255_1_234
10
4.5337266
20
13.4276677
40
0.2012469
50
114.0401004
51
127.9850673
0
ARC
8
DEFAULT_255_1_234
10
4.509683
20
13.457273
40
0.1631167
50
127.7287463
51
176.7105154
0
ARC
8
DEFAULT_255_1_234
10
4.5775547
20
13.4471693
40
0.2315392
50
175.1779447
51
180.0581938
0
ARC
8
DEFAULT_255_1_234
10
4.4932394
20
13.4459428
40
0.1472271
50
179.6142195
51
228.1246017
0
ARC
8
DEFAULT_255_1_234
10
4.5374063
20
13.4868308
40
0.2072299
50
226.5779593
51
230.8800004
0
ARC
8
DEFAULT_255_1_234
10
4.5845141
20
13.5493636
40
0.2854818
50
231.4635071
51
241.9260842
0
ARC
8
DEFAULT_255_1_234
10
4.7042319
20
13.76968
40
0.53622
50
241.7178533
51
248.3259551
0
ARC
8
DEFAULT_255_1_234
10
4.8427691
20
14.1129064
40
0.9063478
50
248.2007737
51
252.4528373
0
ARC
8
DEFAULT_255_1_234
10
4.9631416
20
14.4850441
40
1.2974635
50
252.3391078
51
254.3469452
0
ARC
8
DEFAULT_255_1_234
10
4.2089119
20
11.7873148
40
1.5037162
50
71.0197183
51
74.4087047
0
ARC
8
DEFAULT_255_1_234
10
4.3783804
20
12.2765111
40
0.9859993
50
66.1847285
51
71.086374
0
ARC
8
DEFAULT_255_1_234
10
4.5340116
20
12.62692
40
0.6025855
50
59.3536294
51
66.2691831
0
ARC
8
DEFAULT_255_1_234
10
4.6228769
20
12.7772609
40
0.4279449
50
49.1020879
51
59.3293958
0
ARC
8
DEFAULT_255_1_234
10
4.7047509
20
12.8705834
40
0.3038015
50
32.7919921
51
49.2505539
0
ARC
8
DEFAULT_255_1_234
10
4.7368599
20
12.8934191
40
0.264448
50
31.1181161
51
32.4005348
0
ARC
8
DEFAULT_255_1_234
10
4.7280136
20
12.8898779
40
0.2738556
50
8.1116974
51
30.7958831
0
ARC
8
DEFAULT_255_1_234
10
4.6469804
20
12.8760753
40
0.3560327
50
359.8389159
51
8.4706516
0
ARC
8
DEFAULT_255_1_234
10
4.7095596
20
12.8712137
40
0.2934776
50
337.4731098
51
0.7537279
0
ARC
8
DEFAULT_255_1_234
10
4.7274291
20
12.8692387
40
0.2762607
50
307.5917067
51
336.4315538
0
ARC
8
DEFAULT_255_1_234
10
4.6814119
20
12.9205102
40
0.3449979
50
307.6551545
51
308.4529766
0
ARC
8
DEFAULT_255_1_234
10
4.6583838
20
12.956025
40
0.3871988
50
284.3734338
51
307.1424381
0
ARC
8
DEFAULT_255_1_234
10
4.6088668
20
13.1381932
40
0.5759636
50
272.4382747
51
284.646547
0
ARC
8
DEFAULT_255_1_234
10
4.5961876
20
13.3181893
40
0.7563528
50
269.9708387
51
272.8178037
0
ARC
8
DEFAULT_255_1_234
10
4.5918916
20
13.1143716
40
0.5525489
50
248.2707594
51
270.4055579
0
ARC
8
DEFAULT_255_1_234
10
4.5864657
20
13.0953192
40
0.5328452
50
246.1383403
51
248.0542782
0
ARC
8
DEFAULT_255_1_234
10
4.5446036
20
13.0073843
40
0.4355005
50
233.1670131
51
246.4950969
0
ARC
8
DEFAULT_255_1_234
10
4.4891941
20
12.9325812
40
0.3424126
50
215.3403242
51
233.0843104
0
ARC
8
DEFAULT_255_1_234
10
4.4619372
20
12.9127549
40
0.3087104
50
179.2419209
51
215.2648451
0
ARC
8
DEFAULT_255_1_234
10
4.5386966
20
12.9141666
40
0.2304457
50
179.335461
51
199.1045811
0
ARC
8
DEFAULT_255_1_234
10
4.5054643
20
12.9054766
40
0.1962176
50
199.8828939
51
232.7063202
0
ARC
8
DEFAULT_255_1_234
10
4.5526911
20
12.9648788
40
0.2720938
50
232.3738199
51
255.5136649
0
ARC
8
DEFAULT_255_1_234
10
4.5867778
20
13.0892835
40
0.4010747
50
255.2446292
51
267.5320849
0
ARC
8
DEFAULT_255_1_234
10
4.5955401
20
13.2125702
40
0.5246356
50
267.1557994
51
270.0286766
0
ARC
8
DEFAULT_255_1_234
10
4.5983173
20
13.168195
40
0.4802668
50
269.7000017
51
278.1660162
0
ARC
8
DEFAULT_255_1_234
10
4.6239178
20
12.9951515
40
0.3053425
50
278.0231263
51
290.625471
0
ARC
8
DEFAULT_255_1_234
10
4.6586865
20
12.9024025
40
0.206291
50
290.6619762
51
307.0370976
0
ARC
8
DEFAULT_255_1_234
10
4.6887254
20
12.8655504
40
0.1587906
50
306.3943566
51
355.3030547
0
ARC
8
DEFAULT_255_1_234
10
4.6375186
20
12.8732113
40
0.2104809
50
354.3660432
51
0.0698737
0
ARC
8
DEFAULT_255_1_234
10
4.6517531
20
12.8754617
40
0.1962563
50
359.417946
51
16.1971788
0
ARC
8
DEFAULT_255_1_234
10
4.6972841
20
12.8879418
40
0.149053
50
16.4723299
51
52.6262157
0
ARC
8
DEFAULT_255_1_234
10
4.6151895
20
12.7795433
40
0.2850296
50
52.7386432
51
62.4979148
0
ARC
8
DEFAULT_255_1_234
10
4.4766972
20
12.5189283
40
0.5801521
50
62.2515216
51
68.1220564
0
ARC
8
DEFAULT_255_1_234
10
4.3046883
20
12.0961872
40
1.0365451
50
68.0062803
51
71.8053402
0
ARC
8
DEFAULT_255_1_234
10
4.1251255
20
11.5576758
40
1.6042013
50
71.7183119
51
73.9258742
0
LINE
8
DEFAULT_255_1_234
10
5.6945445
20
13.7473211
11
5.207018
21
12.4775033
0
LINE
8
DEFAULT_255_1_234
10
5.207018
20
12.4775033
11
5.0793133
21
12.4775033
0
LINE
8
DEFAULT_255_1_234
10
5.0793133
20
12.4775033
11
5.567643
21
13.7473211
0
LINE
8
DEFAULT_255_1_234
10
5.567643
20
13.7473211
11
5.6945445
21
13.7473211
0
LINE
8
DEFAULT_255_1_234
10
6.6543372
20
13.4091849
11
6.4993247
21
13.4091849
0
LINE
8
DEFAULT_255_1_234
10
5.8069888
20
12.9168394
11
5.9620014
21
12.9168394
0
ARC
8
DEFAULT_255_1_234
10
6.5652059
20
14.3038768
40
1.252368
50
248.9199003
51
254.1439814
0
ARC
8
DEFAULT_255_1_234
10
6.3971554
20
13.8712234
40
0.788226
50
241.633709
51
249.0064503
0
ARC
8
DEFAULT_255_1_234
10
6.2442949
20
13.5911317
40
0.4691427
50
230.498225
51
241.8087113
0
ARC
8
DEFAULT_255_1_234
10
6.1658523
20
13.4911906
40
0.3421437
50
227.4064532
51
229.9881192
0
ARC
8
DEFAULT_255_1_234
10
6.1171044
20
13.4436088
40
0.2741476
50
200.6781896
51
228.1763934
0
ARC
8
DEFAULT_255_1_234
10
6.1243354
20
13.4421077
40
0.2804109
50
179.5061581
51
199.8694617
0
ARC
8
DEFAULT_255_1_234
10
6.1234106
20
13.449521
40
0.2795204
50
132.4834203
51
181.0242172
0
ARC
8
DEFAULT_255_1_234
10
6.1829688
20
13.3932704
40
0.3612768
50
129.2532479
51
133.4242687
0
ARC
8
DEFAULT_255_1_234
10
6.1976138
20
13.3712965
40
0.3875675
50
101.98776
51
128.8742646
0
ARC
8
DEFAULT_255_1_234
10
6.2374748
20
13.1991741
40
0.5642249
50
89.5906553
51
102.3169264
0
ARC
8
DEFAULT_255_1_234
10
6.2445241
20
13.2310148
40
0.5323783
50
77.2360837
51
90.3248275
0
ARC
8
DEFAULT_255_1_234
10
6.265232
20
13.32774
40
0.4334697
50
63.837784
51
77.0809408
0
ARC
8
DEFAULT_255_1_234
10
6.2930081
20
13.3794911
40
0.3747796
50
45.9864267
51
64.1607727
0
ARC
8
DEFAULT_255_1_234
10
6.3190963
20
13.4092866
40
0.3352302
50
32.2747395
51
45.6547121
0
ARC
8
DEFAULT_255_1_234
10
6.3257403
20
13.411188
40
0.328603
50
359.6507365
51
32.6130309
0
ARC
8
DEFAULT_255_1_234
10
6.2314499
20
13.411666
40
0.2678863
50
359.469343
51
14.9832209
0
ARC
8
DEFAULT_255_1_234
10
6.3019561
20
13.4305539
40
0.1948938
50
14.9781179
51
48.2004265
0
ARC
8
DEFAULT_255_1_234
10
6.2855205
20
13.4098983
40
0.2212521
50
48.5927837
51
74.1241538
0
ARC
8
DEFAULT_255_1_234
10
6.2521695
20
13.2998248
40
0.3362561
50
73.7888341
51
86.6652678
0
ARC
8
DEFAULT_255_1_234
10
6.241926
20
13.1790881
40
0.4573953
50
86.2640471
51
90.0526343
0
ARC
8
DEFAULT_255_1_234
10
6.2390973
20
13.2186192
40
0.4178709
50
89.6697524
51
99.2309573
0
ARC
8
DEFAULT_255_1_234
10
6.2148424
20
13.3630964
40
0.2713749
50
99.069534
51
113.7658566
0
ARC
8
DEFAULT_255_1_234
10
6.1874615
20
13.4276677
40
0.2012469
50
114.0401004
51
127.9850673
0
ARC
8
DEFAULT_255_1_234
10
6.1634179
20
13.457273
40
0.1631167
50
127.7287463
51
176.7105154
0
ARC
8
DEFAULT_255_1_234
10
6.2312896
20
13.4471693
40
0.2315392
50
175.1779447
51
180.0581938
0
ARC
8
DEFAULT_255_1_234
10
6.1469743
20
13.4459428
40
0.1472271
50
179.6142195
51
228.1246017
0
ARC
8
DEFAULT_255_1_234
10
6.1911412
20
13.4868308
40
0.2072299
50
226.5779593
51
230.8800004
0
ARC
8
DEFAULT_255_1_234
10
6.238249
20
13.5493636
40
0.2854818
50
231.4635071
51
241.9260842
0
ARC
8
DEFAULT_255_1_234
10
6.3579668
20
13.76968
40
0.53622
50
241.7178533
51
248.3259551
0
ARC
8
DEFAULT_255_1_234
10
6.496504
20
14.1129064
40
0.9063478
50
248.2007737
51
252.4528373
0
ARC
8
DEFAULT_255_1_234
10
6.6168765
20
14.4850441
40
1.2974635
50
252.3391078
51
254.3469452
0
ARC
8
DEFAULT_255_1_234
10
5.8626468
20
11.7873148
40
1.5037162
50
71.0197183
51
74.4087047
0
ARC
8
DEFAULT_255_1_234
10
6.0321153
20
12.2765111
40
0.9859993
50
66.1847285
51
71.086374
0
ARC
8
DEFAULT_255_1_234
10
6.1877465
20
12.62692
40
0.6025855
50
59.3536294
51
66.2691831
0
ARC
8
DEFAULT_255_1_234
10
6.2766118
20
12.7772609
40
0.4279449
50
49.1020879
51
59.3293958
0
ARC
8
DEFAULT_255_1_234
10
6.3584858
20
12.8705834
40
0.3038015
50
32.7919921
51
49.2505539
0
ARC
8
DEFAULT_255_1_234
10
6.3905948
20
12.8934191
40
0.264448
50
31.1181161
51
32.4005348
0
ARC
8
DEFAULT_255_1_234
10
6.3817485
20
12.8898779
40
0.2738556
50
8.1116974
51
30.7958831
0
ARC
8
DEFAULT_255_1_234
10
6.3007153
20
12.8760753
40
0.3560327
50
359.8389159
51
8.4706516
0
ARC
8
DEFAULT_255_1_234
10
6.3632945
20
12.8712137
40
0.2934776
50
337.4731098
51
0.7537279
0
ARC
8
DEFAULT_255_1_234
10
6.381164
20
12.8692387
40
0.2762607
50
307.5917067
51
336.4315538
0
ARC
8
DEFAULT_255_1_234
10
6.3351468
20
12.9205102
40
0.3449979
50
307.6551545
51
308.4529766
0
ARC
8
DEFAULT_255_1_234
10
6.3121187
20
12.956025
40
0.3871988
50
284.3734338
51
307.1424381
0
ARC
8
DEFAULT_255_1_234
10
6.2626017
20
13.1381932
40
0.5759636
50
272.4382747
51
284.646547
0
ARC
8
DEFAULT_255_1_234
10
6.2499226
20
13.3181893
40
0.7563528
50
269.9708387
51
272.8178037
0
ARC
8
DEFAULT_255_1_234
10
6.2456265
20
13.1143716
40
0.5525489
50
248.2707594
51
270.4055579
0
ARC
8
DEFAULT_255_1_234
10
6.2402006
20
13.0953192
40
0.5328452
50
246.1383403
51
248.0542782
0
ARC
8
DEFAULT_255_1_234
10
6.1983385
20
13.0073843
40
0.4355005
50
233.1670131
51
246.4950969
0
ARC
8
DEFAULT_255_1_234
10
6.142929
20
12.9325812
40
0.3424126
50
215.3403242
51
233.0843104
0
ARC
8
DEFAULT_255_1_234
10
6.1156721
20
12.9127549
40
0.3087104
50
179.2419209
51
215.2648451
0
ARC
8
DEFAULT_255_1_234
10
6.1924315
20
12.9141666
40
0.2304457
50
179.335461
51
199.1045811
0
ARC
8
DEFAULT_255_1_234
10
6.1591992
20
12.9054766
40
0.1962176
50
199.8828939
51
232.7063202
0
ARC
8
DEFAULT_255_1_234
10
6.206426
20
12.9648788
40
0.2720938
50
232.3738199
51
255.5136649
0
ARC
8
DEFAULT_255_1_234
10
6.2405127
20
13.0892835
40
0.4010747
50
255.2446292
51
267.5320849
0
ARC
8
DEFAULT_255_1_234
10
6.249275
20
13.2125702
40
0.5246356
50
267.1557994
51
270.0286766
0
ARC
8
DEFAULT_255_1_234
10
6.2520522
20
13.168195
40
0.4802668
50
269.7000017
51
278.1660162
0
ARC
8
DEFAULT_255_1_234
10
6.2776527
20
12.9951515
40
0.3053425
50
278.0231263
51
290.625471
0
ARC
8
DEFAULT_255_1_234
10
6.3124214
20
12.9024025
40
0.206291
50
290.6619762
51
307.0370976
0
ARC
8
DEFAULT_255_1_234
10
6.3424604
20
12.8655504
40
0.1587906
50
306.3943566
51
355.3030547
0
ARC
8
DEFAULT_255_1_234
10
6.2912535
20
12.8732113
40
0.2104809
50
354.3660432
51
0.0698737
0
ARC
8
DEFAULT_255_1_234
10
6.305488
20
12.8754617
40
0.1962563
50
359.417946
51
16.1971788
0
ARC
8
DEFAULT_255_1_234
10
6.3510191
20
12.8879418
40
0.149053
50
16.4723299
51
52.6262157
0
ARC
8
DEFAULT_255_1_234
10
6.2689244
20
12.7795433
40
0.2850296
50
52.7386432
51
62.4979148
0
ARC
8
DEFAULT_255_1_234
10
6.1304321
20
12.5189283
40
0.5801521
50
62.2515216
51
68.1220564
0
ARC
8
DEFAULT_255_1_234
10
5.9584232
20
12.0961872
40
1.0365451
50
68.0062803
51
71.8053402
0
ARC
8
DEFAULT_255_1_234
10
5.7788604
20
11.5576758
40
1.6042013
50
71.7183119
51
73.9258742
0
LINE
8
DEFAULT_255_1_234
10
5.0006023
20
21.3466849
11
4.8455897
21
21.3466849
0
LINE
8
DEFAULT_255_1_234
10
4.1532539
20
20.8543394
11
4.3082665
21
20.8543394
0
ARC
8
DEFAULT_255_1_234
10
4.911471
20
22.2413768
40
1.252368
50
248.9199003
51
254.1439814
0
ARC
8
DEFAULT_255_1_234
10
4.7434205
20
21.8087234
40
0.788226
50
241.633709
51
249.0064503
0
ARC
8
DEFAULT_255_1_234
10
4.59056
20
21.5286317
40
0.4691427
50
230.498225
51
241.8087113
0
ARC
8
DEFAULT_255_1_234
10
4.5121174
20
21.4286906
40
0.3421437
50
227.4064532
51
229.9881192
0
ARC
8
DEFAULT_255_1_234
10
4.4633694
20
21.3811088
40
0.2741476
50
200.6781896
51
228.1763934
0
ARC
8
DEFAULT_255_1_234
10
4.4706005
20
21.3796077
40
0.2804109
50
179.5061581
51
199.8694617
0
ARC
8
DEFAULT_255_1_234
10
4.4696757
20
21.387021
40
0.2795204
50
132.4834203
51
181.0242172
0
ARC
8
DEFAULT_255_1_234
10
4.5292339
20
21.3307704
40
0.3612768
50
129.2532479
51
133.4242687
0
ARC
8
DEFAULT_255_1_234
10
4.5438789
20
21.3087965
40
0.3875675
50
101.98776
51
128.8742646
0
ARC
8
DEFAULT_255_1_234
10
4.5837399
20
21.1366741
40
0.5642249
50
89.5906553
51
102.3169264
0
ARC
8
DEFAULT_255_1_234
10
4.5907891
20
21.1685148
40
0.5323783
50
77.2360837
51
90.3248275
0
ARC
8
DEFAULT_255_1_234
10
4.6114971
20
21.26524
40
0.4334697
50
63.837784
51
77.0809408
0
ARC
8
DEFAULT_255_1_234
10
4.6392732
20
21.3169911
40
0.3747796
50
45.9864267
51
64.1607727
0
ARC
8
DEFAULT_255_1_234
10
4.6653614
20
21.3467866
40
0.3352302
50
32.2747395
51
45.6547121
0
ARC
8
DEFAULT_255_1_234
10
4.6720054
20
21.348688
40
0.328603
50
359.6507365
51
32.6130309
0
ARC
8
DEFAULT_255_1_234
10
4.577715
20
21.349166
40
0.2678863
50
359.469343
51
14.9832209
0
ARC
8
DEFAULT_255_1_234
10
4.6482212
20
21.3680539
40
0.1948938
50
14.9781179
51
48.2004265
0
ARC
8
DEFAULT_255_1_234
10
4.6317856
20
21.3473983
40
0.2212521
50
48.5927837
51
74.1241538
0
ARC
8
DEFAULT_255_1_234
10
4.5984346
20
21.2373248
40
0.3362561
50
73.7888341
51
86.6652678
0
ARC
8
DEFAULT_255_1_234
10
4.5881911
20
21.1165881
40
0.4573953
50
86.2640471
51
90.0526343
0
ARC
8
DEFAULT_255_1_234
10
4.5853624
20
21.1561192
40
0.4178709
50
89.6697524
51
99.2309573
0
ARC
8
DEFAULT_255_1_234
10
4.5611075
20
21.3005964
40
0.2713749
50
99.069534
51
113.7658566
0
ARC
8
DEFAULT_255_1_234
10
4.5337266
20
21.3651677
40
0.2012469
50
114.0401004
51
127.9850673
0
ARC
8
DEFAULT_255_1_234
10
4.509683
20
21.394773
40
0.1631167
50
127.7287463
51
176.7105154
0
ARC
8
DEFAULT_255_1_234
10
4.5775547
20
21.3846693
40
0.2315392
50
175.1779447
51
180.0581938
0
ARC
8
DEFAULT_255_1_234
10
4.4932394
20
21.3834428
40
0.1472271
50
179.6142195
51
228.1246017
0
ARC
8
DEFAULT_255_1_234
10
4.5374063
20
21.4243308
40
0.2072299
50
226.5779593
51
230.8800004
0
ARC
8
DEFAULT_255_1_234
10
4.5845141
20
21.4868636
40
0.2854818
50
231.4635071
51
241.9260842
0
ARC
8
DEFAULT_255_1_234
10
4.7042319
20
21.70718
40
0.53622
50
241.7178533
51
248.3259551
0
ARC
8
DEFAULT_255_1_234
10
4.8427691
20
22.0504064
40
0.9063478
50
248.2007737
51
252.4528373
0
ARC
8
DEFAULT_255_1_234
10
4.9631416
20
22.4225441
40
1.2974635
50
252.3391078
51
254.3469452
0
ARC
8
DEFAULT_255_1_234
10
4.2089119
20
19.7248148
40
1.5037162
50
71.0197183
51
74.4087047
0
ARC
8
DEFAULT_255_1_234
10
4.3783804
20
20.2140111
40
0.9859993
50
66.1847285
51
71.086374
0
ARC
8
DEFAULT_255_1_234
10
4.5340116
20
20.56442
40
0.6025855
50
59.3536294
51
66.2691831
0
ARC
8
DEFAULT_255_1_234
10
4.6228769
20
20.7147609
40
0.4279449
50
49.1020879
51
59.3293958
0
ARC
8
DEFAULT_255_1_234
10
4.7047509
20
20.8080834
40
0.3038015
50
32.7919921
51
49.2505539
0
ARC
8
DEFAULT_255_1_234
10
4.7368599
20
20.8309191
40
0.264448
50
31.1181161
51
32.4005348
0
ARC
8
DEFAULT_255_1_234
10
4.7280136
20
20.8273779
40
0.2738556
50
8.1116974
51
30.7958831
0
ARC
8
DEFAULT_255_1_234
10
4.6469804
20
20.8135753
40
0.3560327
50
359.8389159
51
8.4706516
0
ARC
8
DEFAULT_255_1_234
10
4.7095596
20
20.8087137
40
0.2934776
50
337.4731098
51
0.7537279
0
ARC
8
DEFAULT_255_1_234
10
4.7274291
20
20.8067387
40
0.2762607
50
307.5917067
51
336.4315538
0
ARC
8
DEFAULT_255_1_234
10
4.6814119
20
20.8580102
40
0.3449979
50
307.6551545
51
308.4529766
0
ARC
8
DEFAULT_255_1_234
10
4.6583838
20
20.893525
40
0.3871988
50
284.3734338
51
307.1424381
0
ARC
8
DEFAULT_255_1_234
10
4.6088668
20
21.0756932
40
0.5759636
50
272.4382747
51
284.646547
0
ARC
8
DEFAULT_255_1_234
10
4.5961876
20
21.2556893
40
0.7563528
50
269.9708387
51
272.8178037
0
ARC
8
DEFAULT_255_1_234
10
4.5918916
20
21.0518716
40
0.5525489
50
248.2707594
51
270.4055579
0
ARC
8
DEFAULT_255_1_234
10
4.5864657
20
21.0328192
40
0.5328452
50
246.1383403
51
248.0542782
0
ARC
8
DEFAULT_255_1_234
10
4.5446036
20
20.9448843
40
0.4355005
50
233.1670131
51
246.4950969
0
ARC
8
DEFAULT_255_1_234
10
4.4891941
20
20.8700812
40
0.3424126
50
215.3403242
51
233.0843104
0
ARC
8
DEFAULT_255_1_234
10
4.4619372
20
20.8502549
40
0.3087104
50
179.2419209
51
215.2648451
0
ARC
8
DEFAULT_255_1_234
10
4.5386966
20
20.8516666
40
0.2304457
50
179.335461
51
199.1045811
0
ARC
8
DEFAULT_255_1_234
10
4.5054643
20
20.8429766
40
0.1962176
50
199.8828939
51
232.7063202
0
ARC
8
DEFAULT_255_1_234
10
4.5526911
20
20.9023788
40
0.2720938
50
232.3738199
51
255.5136649
0
ARC
8
DEFAULT_255_1_234
10
4.5867778
20
21.0267835
40
0.4010747
50
255.2446292
51
267.5320849
0
ARC
8
DEFAULT_255_1_234
10
4.5955401
20
21.1500702
40
0.5246356
50
267.1557994
51
270.0286766
0
ARC
8
DEFAULT_255_1_234
10
4.5983173
20
21.105695
40
0.4802668
50
269.7000017
51
278.1660162
0
ARC
8
DEFAULT_255_1_234
10
4.6239178
20
20.9326515
40
0.3053425
50
278.0231263
51
290.625471
0
ARC
8
DEFAULT_255_1_234
10
4.6586865
20
20.8399025
40
0.206291
50
290.6619762
51
307.0370976
0
ARC
8
DEFAULT_255_1_234
10
4.6887254
20
20.8030504
40
0.1587906
50
306.3943566
51
355.3030547
0
ARC
8
DEFAULT_255_1_234
10
4.6375186
20
20.8107113
40
0.2104809
50
354.3660432
51
0.0698737
0
ARC
8
DEFAULT_255_1_234
10
4.6517531
20
20.8129617
40
0.1962563
50
359.417946
51
16.1971788
0
ARC
8
DEFAULT_255_1_234
10
4.6972841
20
20.8254418
40
0.149053
50
16.4723299
51
52.6262157
0
ARC
8
DEFAULT_255_1_234
10
4.6151895
20
20.7170433
40
0.2850296
50
52.7386432
51
62.4979148
0
ARC
8
DEFAULT_255_1_234
10
4.4766972
20
20.4564283
40
0.5801521
50
62.2515216
51
68.1220564
0
ARC
8
DEFAULT_255_1_234
10
4.3046883
20
20.0336872
40
1.0365451
50
68.0062803
51
71.8053402
0
ARC
8
DEFAULT_255_1_234
10
4.1251255
20
19.4951758
40
1.6042013
50
71.7183119
51
73.9258742
0
LINE
8
DEFAULT_255_1_234
10
5.6945445
20
21.6848211
11
5.207018
21
20.4150033
0
LINE
8
DEFAULT_255_1_234
10
5.207018
20
20.4150033
11
5.0793133
21
20.4150033
0
LINE
8
DEFAULT_255_1_234
10
5.0793133
20
20.4150033
11
5.567643
21
21.6848211
0
LINE
8
DEFAULT_255_1_234
10
5.567643
20
21.6848211
11
5.6945445
21
21.6848211
0
LINE
8
DEFAULT_255_1_234
10
6.6543372
20
21.3466849
11
6.4993247
21
21.3466849
0
LINE
8
DEFAULT_255_1_234
10
5.8069888
20
20.8543394
11
5.9620014
21
20.8543394
0
ARC
8
DEFAULT_255_1_234
10
6.5652059
20
22.2413768
40
1.252368
50
248.9199003
51
254.1439814
0
ARC
8
DEFAULT_255_1_234
10
6.3971554
20
21.8087234
40
0.788226
50
241.633709
51
249.0064503
0
ARC
8
DEFAULT_255_1_234
10
6.2442949
20
21.5286317
40
0.4691427
50
230.498225
51
241.8087113
0
ARC
8
DEFAULT_255_1_234
10
6.1658523
20
21.4286906
40
0.3421437
50
227.4064532
51
229.9881192
0
ARC
8
DEFAULT_255_1_234
10
6.1171044
20
21.3811088
40
0.2741476
50
200.6781896
51
228.1763934
0
ARC
8
DEFAULT_255_1_234
10
6.1243354
20
21.3796077
40
0.2804109
50
179.5061581
51
199.8694617
0
ARC
8
DEFAULT_255_1_234
10
6.1234106
20
21.387021
40
0.2795204
50
132.4834203
51
181.0242172
0
ARC
8
DEFAULT_255_1_234
10
6.1829688
20
21.3307704
40
0.3612768
50
129.2532479
51
133.4242687
0
ARC
8
DEFAULT_255_1_234
10
6.1976138
20
21.3087965
40
0.3875675
50
101.98776
51
128.8742646
0
ARC
8
DEFAULT_255_1_234
10
6.2374748
20
21.1366741
40
0.5642249
50
89.5906553
51
102.3169264
0
ARC
8
DEFAULT_255_1_234
10
6.2445241
20
21.1685148
40
0.5323783
50
77.2360837
51
90.3248275
0
ARC
8
DEFAULT_255_1_234
10
6.265232
20
21.26524
40
0.4334697
50
63.837784
51
77.0809408
0
ARC
8
DEFAULT_255_1_234
10
6.2930081
20
21.3169911
40
0.3747796
50
45.9864267
51
64.1607727
0
ARC
8
DEFAULT_255_1_234
10
6.3190963
20
21.3467866
40
0.3352302
50
32.2747395
51
45.6547121
0
ARC
8
DEFAULT_255_1_234
10
6.3257403
20
21.348688
40
0.328603
50
359.6507365
51
32.6130309
0
ARC
8
DEFAULT_255_1_234
10
6.2314499
20
21.349166
40
0.2678863
50
359.469343
51
14.9832209
0
ARC
8
DEFAULT_255_1_234
10
6.3019561
20
21.3680539
40
0.1948938
50
14.9781179
51
48.2004265
0
ARC
8
DEFAULT_255_1_234
10
6.2855205
20
21.3473983
40
0.2212521
50
48.5927837
51
74.1241538
0
ARC
8
DEFAULT_255_1_234
10
6.2521695
20
21.2373248
40
0.3362561
50
73.7888341
51
86.6652678
0
ARC
8
DEFAULT_255_1_234
10
6.241926
20
21.1165881
40
0.4573953
50
86.2640471
51
90.0526343
0
ARC
8
DEFAULT_255_1_234
10
6.2390973
20
21.1561192
40
0.4178709
50
89.6697524
51
99.2309573
0
ARC
8
DEFAULT_255_1_234
10
6.2148424
20
21.3005964
40
0.2713749
50
99.069534
51
113.7658566
0
ARC
8
DEFAULT_255_1_234
10
6.1874615
20
21.3651677
40
0.2012469
50
114.0401004
51
127.9850673
0
ARC
8
DEFAULT_255_1_234
10
6.1634179
20
21.394773
40
0.1631167
50
127.7287463
51
176.7105154
0
ARC
8
DEFAULT_255_1_234
10
6.2312896
20
21.3846693
40
0.2315392
50
175.1779447
51
180.0581938
0
ARC
8
DEFAULT_255_1_234
10
6.1469743
20
21.3834428
40
0.1472271
50
179.6142195
51
228.1246017
0
ARC
8
DEFAULT_255_1_234
10
6.1911412
20
21.4243308
40
0.2072299
50
226.5779593
51
230.8800004
0
ARC
8
DEFAULT_255_1_234
10
6.238249
20
21.4868636
40
0.2854818
50
231.4635071
51
241.9260842
0
ARC
8
DEFAULT_255_1_234
10
6.3579668
20
21.70718
40
0.53622
50
241.7178533
51
248.3259551
0
ARC
8
DEFAULT_255_1_234
10
6.496504
20
22.0504064
40
0.9063478
50
248.2007737
51
252.4528373
0
ARC
8
DEFAULT_255_1_234
10
6.6168765
20
22.4225441
40
1.2974635
50
252.3391078
51
254.3469452
0
ARC
8
DEFAULT_255_1_234
10
5.8626468
20
19.7248148
40
1.5037162
50
71.0197183
51
74.4087047
0
ARC
8
DEFAULT_255_1_234
10
6.0321153
20
20.2140111
40
0.9859993
50
66.1847285
51
71.086374
0
ARC
8
DEFAULT_255_1_234
10
6.1877465
20
20.56442
40
0.6025855
50
59.3536294
51
66.2691831
0
ARC
8
DEFAULT_255_1_234
10
6.2766118
20
20.7147609
40
0.4279449
50
49.1020879
51
59.3293958
0
ARC
8
DEFAULT_255_1_234
10
6.3584858
20
20.8080834
40
0.3038015
50
32.7919921
51
49.2505539
0
ARC
8
DEFAULT_255_1_234
10
6.3905948
20
20.8309191
40
0.264448
50
31.1181161
51
32.4005348
0
ARC
8
DEFAULT_255_1_234
10
6.3817485
20
20.8273779
40
0.2738556
50
8.1116974
51
30.7958831
0
ARC
8
DEFAULT_255_1_234
10
6.3007153
20
20.8135753
40
0.3560327
50
359.8389159
51
8.4706516
0
ARC
8
DEFAULT_255_1_234
10
6.3632945
20
20.8087137
40
0.2934776
50
337.4731098
51
0.7537279
0
ARC
8
DEFAULT_255_1_234
10
6.381164
20
20.8067387
40
0.2762607
50
307.5917067
51
336.4315538
0
ARC
8
DEFAULT_255_1_234
10
6.3351468
20
20.8580102
40
0.3449979
50
307.6551545
51
308.4529766
0
ARC
8
DEFAULT_255_1_234
10
6.3121187
20
20.893525
40
0.3871988
50
284.3734338
51
307.1424381
0
ARC
8
DEFAULT_255_1_234
10
6.2626017
20
21.0756932
40
0.5759636
50
272.4382747
51
284.646547
0
ARC
8
DEFAULT_255_1_234
10
6.2499226
20
21.2556893
40
0.7563528
50
269.9708387
51
272.8178037
0
ARC
8
DEFAULT_255_1_234
10
6.2456265
20
21.0518716
40
0.5525489
50
248.2707594
51
270.4055579
0
ARC
8
DEFAULT_255_1_234
10
6.2402006
20
21.0328192
40
0.5328452
50
246.1383403
51
248.0542782
0
ARC
8
DEFAULT_255_1_234
10
6.1983385
20
20.9448843
40
0.4355005
50
233.1670131
51
246.4950969
0
ARC
8
DEFAULT_255_1_234
10
6.142929
20
20.8700812
40
0.3424126
50
215.3403242
51
233.0843104
0
ARC
8
DEFAULT_255_1_234
10
6.1156721
20
20.8502549
40
0.3087104
50
179.2419209
51
215.2648451
0
ARC
8
DEFAULT_255_1_234
10
6.1924315
20
20.8516666
40
0.2304457
50
179.335461
51
199.1045811
0
ARC
8
DEFAULT_255_1_234
10
6.1591992
20
20.8429766
40
0.1962176
50
199.8828939
51
232.7063202
0
ARC
8
DEFAULT_255_1_234
10
6.206426
20
20.9023788
40
0.2720938
50
232.3738199
51
255.5136649
0
ARC
8
DEFAULT_255_1_234
10
6.2405127
20
21.0267835
40
0.4010747
50
255.2446292
51
267.5320849
0
ARC
8
DEFAULT_255_1_234
10
6.249275
20
21.1500702
40
0.5246356
50
267.1557994
51
270.0286766
0
ARC
8
DEFAULT_255_1_234
10
6.2520522
20
21.105695
40
0.4802668
50
269.7000017
51
278.1660162
0
ARC
8
DEFAULT_255_1_234
10
6.2776527
20
20.9326515
40
0.3053425
50
278.0231263
51
290.625471
0
ARC
8
DEFAULT_255_1_234
10
6.3124214
20
20.8399025
40
0.206291
50
290.6619762
51
307.0370976
0
ARC
8
DEFAULT_255_1_234
10
6.3424604
20
20.8030504
40
0.1587906
50
306.3943566
51
355.3030547
0
ARC
8
DEFAULT_255_1_234
10
6.2912535
20
20.8107113
40
0.2104809
50
354.3660432
51
0.0698737
0
ARC
8
DEFAULT_255_1_234
10
6.305488
20
20.8129617
40
0.1962563
50
359.417946
51
16.1971788
0
ARC
8
DEFAULT_255_1_234
10
6.3510191
20
20.8254418
40
0.149053
50
16.4723299
51
52.6262157
0
ARC
8
DEFAULT_255_1_234
10
6.2689244
20
20.7170433
40
0.2850296
50
52.7386432
51
62.4979148
0
ARC
8
DEFAULT_255_1_234
10
6.1304321
20
20.4564283
40
0.5801521
50
62.2515216
51
68.1220564
0
ARC
8
DEFAULT_255_1_234
10
5.9584232
20
20.0336872
40
1.0365451
50
68.0062803
51
71.8053402
0
ARC
8
DEFAULT_255_1_234
10
5.7788604
20
19.4951758
40
1.6042013
50
71.7183119
51
73.9258742
0
LINE
8
DEFAULT_255_1_234
10
5.0006023
20
29.2841849
11
4.8455897
21
29.2841849
0
LINE
8
DEFAULT_255_1_234
10
4.1532539
20
28.7918394
11
4.3082665
21
28.7918394
0
ARC
8
DEFAULT_255_1_234
10
4.911471
20
30.1788768
40
1.252368
50
248.9199003
51
254.1439814
0
ARC
8
DEFAULT_255_1_234
10
4.7434205
20
29.7462234
40
0.788226
50
241.633709
51
249.0064503
0
ARC
8
DEFAULT_255_1_234
10
4.59056
20
29.4661317
40
0.4691427
50
230.498225
51
241.8087113
0
ARC
8
DEFAULT_255_1_234
10
4.5121174
20
29.3661906
40
0.3421437
50
227.4064532
51
229.9881192
0
ARC
8
DEFAULT_255_1_234
10
4.4633694
20
29.3186088
40
0.2741476
50
200.6781896
51
228.1763934
0
ARC
8
DEFAULT_255_1_234
10
4.4706005
20
29.3171077
40
0.2804109
50
179.5061581
51
199.8694617
0
ARC
8
DEFAULT_255_1_234
10
4.4696757
20
29.324521
40
0.2795204
50
132.4834203
51
181.0242172
0
ARC
8
DEFAULT_255_1_234
10
4.5292339
20
29.2682704
40
0.3612768
50
129.2532479
51
133.4242687
0
ARC
8
DEFAULT_255_1_234
10
4.5438789
20
29.2462965
40
0.3875675
50
101.98776
51
128.8742646
0
ARC
8
DEFAULT_255_1_234
10
4.5837399
20
29.0741741
40
0.5642249
50
89.5906553
51
102.3169264
0
ARC
8
DEFAULT_255_1_234
10
4.5907891
20
29.1060148
40
0.5323783
50
77.2360837
51
90.3248275
0
ARC
8
DEFAULT_255_1_234
10
4.6114971
20
29.20274
40
0.4334697
50
63.837784
51
77.0809408
0
ARC
8
DEFAULT_255_1_234
10
4.6392732
20
29.2544911
40
0.3747796
50
45.9864267
51
64.1607727
0
ARC
8
DEFAULT_255_1_234
10
4.6653614
20
29.2842866
40
0.3352302
50
32.2747395
51
45.6547121
0
ARC
8
DEFAULT_255_1_234
10
4.6720054
20
29.286188
40
0.328603
50
359.6507365
51
32.6130309
0
ARC
8
DEFAULT_255_1_234
10
4.577715
20
29.286666
40
0.2678863
50
359.469343
51
14.9832209
0
ARC
8
DEFAULT_255_1_234
10
4.6482212
20
29.3055539
40
0.1948938
50
14.9781179
51
48.2004265
0
ARC
8
DEFAULT_255_1_234
10
4.6317856
20
29.2848983
40
0.2212521
50
48.5927837
51
74.1241538
0
ARC
8
DEFAULT_255_1_234
10
4.5984346
20
29.1748248
40
0.3362561
50
73.7888341
51
86.6652678
0
ARC
8
DEFAULT_255_1_234
10
4.5881911
20
29.0540881
40
0.4573953
50
86.2640471
51
90.0526343
0
ARC
8
DEFAULT_255_1_234
10
4.5853624
20
29.0936192
40
0.4178709
50
89.6697524
51
99.2309573
0
ARC
8
DEFAULT_255_1_234
10
4.5611075
20
29.2380964
40
0.2713749
50
99.069534
51
113.7658566
0
ARC
8
DEFAULT_255_1_234
10
4.5337266
20
29.3026677
40
0.2012469
50
114.0401004
51
127.9850673
0
ARC
8
DEFAULT_255_1_234
10
4.509683
20
29.332273
40
0.1631167
50
127.7287463
51
176.7105154
0
ARC
8
DEFAULT_255_1_234
10
4.5775547
20
29.3221693
40
0.2315392
50
175.1779447
51
180.0581938
0
ARC
8
DEFAULT_255_1_234
10
4.4932394
20
29.3209428
40
0.1472271
50
179.6142195
51
228.1246017
0
ARC
8
DEFAULT_255_1_234
10
4.5374063
20
29.3618308
40
0.2072299
50
226.5779593
51
230.8800004
0
ARC
8
DEFAULT_255_1_234
10
4.5845141
20
29.4243636
40
0.2854818
50
231.4635071
51
241.9260842
0
ARC
8
DEFAULT_255_1_234
10
4.7042319
20
29.64468
40
0.53622
50
241.7178533
51
248.3259551
0
ARC
8
DEFAULT_255_1_234
10
4.8427691
20
29.9879064
40
0.9063478
50
248.2007737
51
252.4528373
0
ARC
8
DEFAULT_255_1_234
10
4.9631416
20
30.3600441
40
1.2974635
50
252.3391078
51
254.3469452
0
ARC
8
DEFAULT_255_1_234
10
4.2089119
20
27.6623148
40
1.5037162
50
71.0197183
51
74.4087047
0
ARC
8
DEFAULT_255_1_234
10
4.3783804
20
28.1515111
40
0.9859993
50
66.1847285
51
71.086374
0
ARC
8
DEFAULT_255_1_234
10
4.5340116
20
28.50192
40
0.6025855
50
59.3536294
51
66.2691831
0
ARC
8
DEFAULT_255_1_234
10
4.6228769
20
28.6522609
40
0.4279449
50
49.1020879
51
59.3293958
0
ARC
8
DEFAULT_255_1_234
10
4.7047509
20
28.7455834
40
0.3038015
50
32.7919921
51
49.2505539
0
ARC
8
DEFAULT_255_1_234
10
4.7368599
20
28.7684191
40
0.264448
50
31.1181161
51
32.4005348
0
ARC
8
DEFAULT_255_1_234
10
4.7280136
20
28.7648779
40
0.2738556
50
8.1116974
51
30.7958831
0
ARC
8
DEFAULT_255_1_234
10
4.6469804
20
28.7510753
40
0.3560327
50
359.8389159
51
8.4706516
0
ARC
8
DEFAULT_255_1_234
10
4.7095596
20
28.7462137
40
0.2934776
50
337.4731098
51
0.7537279
0
ARC
8
DEFAULT_255_1_234
10
4.7274291
20
28.7442387
40
0.2762607
50
307.5917067
51
336.4315538
0
ARC
8
DEFAULT_255_1_234
10
4.6814119
20
28.7955102
40
0.3449979
50
307.6551545
51
308.4529766
0
ARC
8
DEFAULT_255_1_234
10
4.6583838
20
28.831025
40
0.3871988
50
284.3734338
51
307.1424381
0
ARC
8
DEFAULT_255_1_234
10
4.6088668
20
29.0131932
40
0.5759636
50
272.4382747
51
284.646547
0
ARC
8
DEFAULT_255_1_234
10
4.5961876
20
29.1931893
40
0.7563528
50
269.9708387
51
272.8178037
0
ARC
8
DEFAULT_255_1_234
10
4.5918916
20
28.9893716
40
0.5525489
50
248.2707594
51
270.4055579
0
ARC
8
DEFAULT_255_1_234
10
4.5864657
20
28.9703192
40
0.5328452
50
246.1383403
51
248.0542782
0
ARC
8
DEFAULT_255_1_234
10
4.5446036
20
28.8823843
40
0.4355005
50
233.1670131
51
246.4950969
0
ARC
8
DEFAULT_255_1_234
10
4.4891941
20
28.8075812
40
0.3424126
50
215.3403242
51
233.0843104
0
ARC
8
DEFAULT_255_1_234
10
4.4619372
20
28.7877549
40
0.3087104
50
179.2419209
51
215.2648451
0
ARC
8
DEFAULT_255_1_234
10
4.5386966
20
28.7891666
40
0.2304457
50
179.335461
51
199.1045811
0
ARC
8
DEFAULT_255_1_234
10
4.5054643
20
28.7804766
40
0.1962176
50
199.8828939
51
232.7063202
0
ARC
8
DEFAULT_255_1_234
10
4.5526911
20
28.8398788
40
0.2720938
50
232.3738199
51
255.5136649
0
ARC
8
DEFAULT_255_1_234
10
4.5867778
20
28.9642835
40
0.4010747
50
255.2446292
51
267.5320849
0
ARC
8
DEFAULT_255_1_234
10
4.5955401
20
29.0875702
40
0.5246356
50
267.1557994
51
270.0286766
0
ARC
8
DEFAULT_255_1_234
10
4.5983173
20
29.043195
40
0.4802668
50
269.7000017
51
278.1660162
0
ARC
8
DEFAULT_255_1_234
10
4.6239178
20
28.8701515
40
0.3053425
50
278.0231263
51
290.625471
0
ARC
8
DEFAULT_255_1_234
10
4.6586865
20
28.7774025
40
0.206291
50
290.6619762
51
307.0370976
0
ARC
8
DEFAULT_255_1_234
10
4.6887254
20
28.7405504
40
0.1587906
50
306.3943566
51
355.3030547
0
ARC
8
DEFAULT_255_1_234
10
4.6375186
20
28.7482113
40
0.2104809
50
354.3660432
51
0.0698737
0
ARC
8
DEFAULT_255_1_234
10
4.6517531
20
28.7504617
40
0.1962563
50
359.417946
51
16.1971788
0
ARC
8
DEFAULT_255_1_234
10
4.6972841
20
28.7629418
40
0.149053
50
16.4723299
51
52.6262157
0
ARC
8
DEFAULT_255_1_234
10
4.6151895
20
28.6545433
40
0.2850296
50
52.7386432
51
62.4979148
0
ARC
8
DEFAULT_255_1_234
10
4.4766972
20
28.3939283
40
0.5801521
50
62.2515216
51
68.1220564
0
ARC
8
DEFAULT_255_1_234
10
4.3046883
20
27.9711872
40
1.0365451
50
68.0062803
51
71.8053402
0
ARC
8
DEFAULT_255_1_234
10
4.1251255
20
27.4326758
40
1.6042013
50
71.7183119
51
73.9258742
0
LINE
8
DEFAULT_255_1_234
10
5.6945445
20
29.6223211
11
5.207018
21
28.3525033
0
LINE
8
DEFAULT_255_1_234
10
5.207018
20
28.3525033
11
5.0793133
21
28.3525033
0
LINE
8
DEFAULT_255_1_234
10
5.0793133
20
28.3525033
11
5.567643
21
29.6223211
0
LINE
8
DEFAULT_255_1_234
10
5.567643
20
29.6223211
11
5.6945445
21
29.6223211
0
LINE
8
DEFAULT_255_1_234
10
6.6543372
20
29.2841849
11
6.4993247
21
29.2841849
0
LINE
8
DEFAULT_255_1_234
10
5.8069888
20
28.7918394
11
5.9620014
21
28.7918394
0
ARC
8
DEFAULT_255_1_234
10
6.5652059
20
30.1788768
40
1.252368
50
248.9199003
51
254.1439814
0
ARC
8
DEFAULT_255_1_234
10
6.3971554
20
29.7462234
40
0.788226
50
241.633709
51
249.0064503
0
ARC
8
DEFAULT_255_1_234
10
6.2442949
20
29.4661317
40
0.4691427
50
230.498225
51
241.8087113
0
ARC
8
DEFAULT_255_1_234
10
6.1658523
20
29.3661906
40
0.3421437
50
227.4064532
51
229.9881192
0
ARC
8
DEFAULT_255_1_234
10
6.1171044
20
29.3186088
40
0.2741476
50
200.6781896
51
228.1763934
0
ARC
8
DEFAULT_255_1_234
10
6.1243354
20
29.3171077
40
0.2804109
50
179.5061581
51
199.8694617
0
ARC
8
DEFAULT_255_1_234
10
6.1234106
20
29.324521
40
0.2795204
50
132.4834203
51
181.0242172
0
ARC
8
DEFAULT_255_1_234
10
6.1829688
20
29.2682704
40
0.3612768
50
129.2532479
51
133.4242687
0
ARC
8
DEFAULT_255_1_234
10
6.1976138
20
29.2462965
40
0.3875675
50
101.98776
51
128.8742646
0
ARC
8
DEFAULT_255_1_234
10
6.2374748
20
29.0741741
40
0.5642249
50
89.5906553
51
102.3169264
0
ARC
8
DEFAULT_255_1_234
10
6.2445241
20
29.1060148
40
0.5323783
50
77.2360837
51
90.3248275
0
ARC
8
DEFAULT_255_1_234
10
6.265232
20
29.20274
40
0.4334697
50
63.837784
51
77.0809408
0
ARC
8
DEFAULT_255_1_234
10
6.2930081
20
29.2544911
40
0.3747796
50
45.9864267
51
64.1607727
0
ARC
8
DEFAULT_255_1_234
10
6.3190963
20
29.2842866
40
0.3352302
50
32.2747395
51
45.6547121
0
ARC
8
DEFAULT_255_1_234
10
6.3257403
20
29.286188
40
0.328603
50
359.6507365
51
32.6130309
0
ARC
8
DEFAULT_255_1_234
10
6.2314499
20
29.286666
40
0.2678863
50
359.469343
51
14.9832209
0
ARC
8
DEFAULT_255_1_234
10
6.3019561
20
29.3055539
40
0.1948938
50
14.9781179
51
48.2004265
0
ARC
8
DEFAULT_255_1_234
10
6.2855205
20
29.2848983
40
0.2212521
50
48.5927837
51
74.1241538
0
ARC
8
DEFAULT_255_1_234
10
6.2521695
20
29.1748248
40
0.3362561
50
73.7888341
51
86.6652678
0
ARC
8
DEFAULT_255_1_234
10
6.241926
20
29.0540881
40
0.4573953
50
86.2640471
51
90.0526343
0
ARC
8
DEFAULT_255_1_234
10
6.2390973
20
29.0936192
40
0.4178709
50
89.6697524
51
99.2309573
0
ARC
8
DEFAULT_255_1_234
10
6.2148424
20
29.2380964
40
0.2713749
50
99.069534
51
113.7658566
0
ARC
8
DEFAULT_255_1_234
10
6.1874615
20
29.3026677
40
0.2012469
50
114.0401004
51
127.9850673
0
ARC
8
DEFAULT_255_1_234
10
6.1634179
20
29.332273
40
0.1631167
50
127.7287463
51
176.7105154
0
ARC
8
DEFAULT_255_1_234
10
6.2312896
20
29.3221693
40
0.2315392
50
175.1779447
51
180.0581938
0
ARC
8
DEFAULT_255_1_234
10
6.1469743
20
29.3209428
40
0.1472271
50
179.6142195
51
228.1246017
0
ARC
8
DEFAULT_255_1_234
10
6.1911412
20
29.3618308
40
0.2072299
50
226.5779593
51
230.8800004
0
ARC
8
DEFAULT_255_1_234
10
6.238249
20
29.4243636
40
0.2854818
50
231.4635071
51
241.9260842
0
ARC
8
DEFAULT_255_1_234
10
6.3579668
20
29.64468
40
0.53622
50
241.7178533
51
248.3259551
0
ARC
8
DEFAULT_255_1_234
10
6.496504
20
29.9879064
40
0.9063478
50
248.2007737
51
252.4528373
0
ARC
8
DEFAULT_255_1_234
10
6.6168765
20
30.3600441
40
1.2974635
50
252.3391078
51
254.3469452
0
ARC
8
DEFAULT_255_1_234
10
5.8626468
20
27.6623148
40
1.5037162
50
71.0197183
51
74.4087047
0
ARC
8
DEFAULT_255_1_234
10
6.0321153
20
28.1515111
40
0.9859993
50
66.1847285
51
71.086374
0
ARC
8
DEFAULT_255_1_234
10
6.1877465
20
28.50192
40
0.6025855
50
59.3536294
51
66.2691831
0
ARC
8
DEFAULT_255_1_234
10
6.2766118
20
28.6522609
40
0.4279449
50
49.1020879
51
59.3293958
0
ARC
8
DEFAULT_255_1_234
10
6.3584858
20
28.7455834
40
0.3038015
50
32.7919921
51
49.2505539
0
ARC
8
DEFAULT_255_1_234
10
6.3905948
20
28.7684191
40
0.264448
50
31.1181161
51
32.4005348
0
ARC
8
DEFAULT_255_1_234
10
6.3817485
20
28.7648779
40
0.2738556
50
8.1116974
51
30.7958831
0
ARC
8
DEFAULT_255_1_234
10
6.3007153
20
28.7510753
40
0.3560327
50
359.8389159
51
8.4706516
0
ARC
8
DEFAULT_255_1_234
10
6.3632945
20
28.7462137
40
0.2934776
50
337.4731098
51
0.7537279
0
ARC
8
DEFAULT_255_1_234
10
6.381164
20
28.7442387
40
0.2762607
50
307.5917067
51
336.4315538
0
ARC
8
DEFAULT_255_1_234
10
6.3351468
20
28.7955102
40
0.3449979
50
307.6551545
51
308.4529766
0
ARC
8
DEFAULT_255_1_234
10
6.3121187
20
28.831025
40
0.3871988
50
284.3734338
51
307.1424381
0
ARC
8
DEFAULT_255_1_234
10
6.2626017
20
29.0131932
40
0.5759636
50
272.4382747
51
284.646547
0
ARC
8
DEFAULT_255_1_234
10
6.2499226
20
29.1931893
40
0.7563528
50
269.9708387
51
272.8178037
0
ARC
8
DEFAULT_255_1_234
10
6.2456265
20
28.9893716
40
0.5525489
50
248.2707594
51
270.4055579
0
ARC
8
DEFAULT_255_1_234
10
6.2402006
20
28.9703192
40
0.5328452
50
246.1383403
51
248.0542782
0
ARC
8
DEFAULT_255_1_234
10
6.1983385
20
28.8823843
40
0.4355005
50
233.1670131
51
246.4950969
0
ARC
8
DEFAULT_255_1_234
10
6.142929
20
28.8075812
40
0.3424126
50
215.3403242
51
233.0843104
0
ARC
8
DEFAULT_255_1_234
10
6.1156721
20
28.7877549
40
0.3087104
50
179.2419209
51
215.2648451
0
ARC
8
DEFAULT_255_1_234
10
6.1924315
20
28.7891666
40
0.2304457
50
179.335461
51
199.1045811
0
ARC
8
DEFAULT_255_1_234
10
6.1591992
20
28.7804766
40
0.1962176
50
199.8828939
51
232.7063202
0
ARC
8
DEFAULT_255_1_234
10
6.206426
20
28.8398788
40
0.2720938
50
232.3738199
51
255.5136649
0
ARC
8
DEFAULT_255_1_234
10
6.2405127
20
28.9642835
40
0.4010747
50
255.2446292
51
267.5320849
0
ARC
8
DEFAULT_255_1_234
10
6.249275
20
29.0875702
40
0.5246356
50
267.1557994
51
270.0286766
0
ARC
8
DEFAULT_255_1_234
10
6.2520522
20
29.043195
40
0.4802668
50
269.7000017
51
278.1660162
0
ARC
8
DEFAULT_255_1_234
10
6.2776527
20
28.8701515
40
0.3053425
50
278.0231263
51
290.625471
0
ARC
8
DEFAULT_255_1_234
10
6.3124214
20
28.7774025
40
0.206291
50
290.6619762
51
307.0370976
0
ARC
8
DEFAULT_255_1_234
10
6.3424604
20
28.7405504
40
0.1587906
50
306.3943566
51
355.3030547
0
ARC
8
DEFAULT_255_1_234
10
6.2912535
20
28.7482113
40
0.2104809
50
354.3660432
51
0.0698737
0
ARC
8
DEFAULT_255_1_234
10
6.305488
20
28.7504617
40
0.1962563
50
359.417946
51
16.1971788
0
ARC
8
DEFAULT_255_1_234
10
6.3510191
20
28.7629418
40
0.149053
50
16.4723299
51
52.6262157
0
ARC
8
DEFAULT_255_1_234
10
6.2689244
20
28.6545433
40
0.2850296
50
52.7386432
51
62.4979148
0
ARC
8
DEFAULT_255_1_234
10
6.1304321
20
28.3939283
40
0.5801521
50
62.2515216
51
68.1220564
0
ARC
8
DEFAULT_255_1_234
10
5.9584232
20
27.9711872
40
1.0365451
50
68.0062803
51
71.8053402
0
ARC
8
DEFAULT_255_1_234
10
5.7788604
20
27.4326758
40
1.6042013
50
71.7183119
51
73.9258742
0
LINE
8
DEFAULT_255_1_234
10
4.3681299
20
37.5598211
11
4.6500439
21
37.1116501
0
LINE
8
DEFAULT_255_1_234
10
4.6500439
20
37.1116501
11
4.9303516
21
37.5598211
0
LINE
8
DEFAULT_255_1_234
10
4.9303516
20
37.5598211
11
5.1118689
21
37.5598211
0
LINE
8
DEFAULT_255_1_234
10
5.1118689
20
37.5598211
11
4.7424089
21
36.9799296
0
LINE
8
DEFAULT_255_1_234
10
4.7424089
20
36.9799296
11
5.1207038
21
36.3904
0
LINE
8
DEFAULT_255_1_234
10
5.1207038
20
36.3904
11
4.9375802
21
36.3904
0
LINE
8
DEFAULT_255_1_234
10
4.9375802
20
36.3904
11
4.6500439
21
36.8466027
0
LINE
8
DEFAULT_255_1_234
10
4.6500439
20
36.8466027
11
4.3609014
21
36.3904
0
LINE
8
DEFAULT_255_1_234
10
4.3609014
20
36.3904
11
4.1785809
21
36.3904
0
LINE
8
DEFAULT_255_1_234
10
4.1785809
20
36.3904
11
4.557679
21
36.9799296
0
LINE
8
DEFAULT_255_1_234
10
4.557679
20
36.9799296
11
4.1874158
21
37.5598211
0
LINE
8
DEFAULT_255_1_234
10
4.1874158
20
37.5598211
11
4.3681299
21
37.5598211
0
LINE
8
DEFAULT_255_1_234
10
5.7495889
20
37.5654433
11
5.7495889
21
36.3904
0
LINE
8
DEFAULT_255_1_234
10
5.7495889
20
36.3904
11
5.6001986
21
36.3904
0
LINE
8
DEFAULT_255_1_234
10
5.6001986
20
36.3904
11
5.6001986
21
37.3807133
0
LINE
8
DEFAULT_255_1_234
10
5.6001986
20
37.3807133
11
5.3006147
21
37.2706785
0
LINE
8
DEFAULT_255_1_234
10
5.3006147
20
37.2706785
11
5.3006147
21
37.4056117
0
LINE
8
DEFAULT_255_1_234
10
5.3006147
20
37.4056117
11
5.7262969
21
37.5654433
0
LINE
8
DEFAULT_255_1_234
10
5.7262969
20
37.5654433
11
5.7495889
21
37.5654433
0
LINE
8
DEFAULT_255_1_234
10
6.9398925
20
37.5598211
11
6.9398925
21
37.476291
0
LINE
8
DEFAULT_255_1_234
10
6.9398925
20
37.476291
11
6.4555787
21
36.3904
0
LINE
8
DEFAULT_255_1_234
10
6.4555787
20
36.3904
11
6.299763
21
36.3904
0
LINE
8
DEFAULT_255_1_234
10
6.299763
20
36.3904
11
6.7824705
21
37.4377387
0
LINE
8
DEFAULT_255_1_234
10
6.7824705
20
37.4377387
11
6.1495695
21
37.4377387
0
LINE
8
DEFAULT_255_1_234
10
6.1495695
20
37.4377387
11
6.1495695
21
37.5598211
0
LINE
8
DEFAULT_255_1_234
10
6.1495695
20
37.5598211
11
6.9398925
21
37.5598211
0
LINE
8
DEFAULT_255_1_234
10
4.3681299
20
45.4973211
11
4.6500439
21
45.0491501
0
LINE
8
DEFAULT_255_1_234
10
4.6500439
20
45.0491501
11
4.9303516
21
45.4973211
0
LINE
8
DEFAULT_255_1_234
10
4.9303516
20
45.4973211
11
5.1118689
21
45.4973211
0
LINE
8
DEFAULT_255_1_234
10
5.1118689
20
45.4973211
11
4.7424089
21
44.9174296
0
LINE
8
DEFAULT_255_1_234
10
4.7424089
20
44.9174296
11
5.1207038
21
44.3279
0
LINE
8
DEFAULT_255_1_234
10
5.1207038
20
44.3279
11
4.9375802
21
44.3279
0
LINE
8
DEFAULT_255_1_234
10
4.9375802
20
44.3279
11
4.6500439
21
44.7841027
0
LINE
8
DEFAULT_255_1_234
10
4.6500439
20
44.7841027
11
4.3609014
21
44.3279
0
LINE
8
DEFAULT_255_1_234
10
4.3609014
20
44.3279
11
4.1785809
21
44.3279
0
LINE
8
DEFAULT_255_1_234
10
4.1785809
20
44.3279
11
4.557679
21
44.9174296
0
LINE
8
DEFAULT_255_1_234
10
4.557679
20
44.9174296
11
4.1874158
21
45.4973211
0
LINE
8
DEFAULT_255_1_234
10
4.1874158
20
45.4973211
11
4.3681299
21
45.4973211
0
LINE
8
DEFAULT_255_1_234
10
5.7495889
20
45.5029433
11
5.7495889
21
44.3279
0
LINE
8
DEFAULT_255_1_234
10
5.7495889
20
44.3279
11
5.6001986
21
44.3279
0
LINE
8
DEFAULT_255_1_234
10
5.6001986
20
44.3279
11
5.6001986
21
45.3182133
0
LINE
8
DEFAULT_255_1_234
10
5.6001986
20
45.3182133
11
5.3006147
21
45.2081785
0
LINE
8
DEFAULT_255_1_234
10
5.3006147
20
45.2081785
11
5.3006147
21
45.3431117
0
LINE
8
DEFAULT_255_1_234
10
5.3006147
20
45.3431117
11
5.7262969
21
45.5029433
0
LINE
8
DEFAULT_255_1_234
10
5.7262969
20
45.5029433
11
5.7495889
21
45.5029433
0
LINE
8
DEFAULT_255_1_234
10
6.7415086
20
45.4981243
11
6.7680133
21
45.4981243
0
LINE
8
DEFAULT_255_1_234
10
6.7680133
20
45.4981243
11
6.7680133
21
45.372026
0
LINE
8
DEFAULT_255_1_234
10
6.7680133
20
45.372026
11
6.7407054
21
45.372026
0
LINE
8
DEFAULT_255_1_234
10
6.193744
20
44.7728583
11
6.193744
21
44.8298836
0
LINE
8
DEFAULT_255_1_234
10
6.3431344
20
44.8106075
11
6.3431344
21
44.7559917
0
ARC
8
DEFAULT_255_1_234
10
6.7459402
20
44.8722455
40
0.4998079
50
90.6001036
51
104.514704
0
ARC
8
DEFAULT_255_1_234
10
6.7070918
20
45.0167131
40
0.3502176
50
104.2855254
51
133.862935
0
ARC
8
DEFAULT_255_1_234
10
6.7234675
20
45.005883
40
0.3693984
50
134.5302688
51
161.6210873
0
ARC
8
DEFAULT_255_1_234
10
6.8887864
20
44.9475895
40
0.5446739
50
161.2849839
51
174.2076652
0
ARC
8
DEFAULT_255_1_234
10
7.0294801
20
44.9281787
40
0.6866274
50
173.7810589
51
174.9254635
0
ARC
8
DEFAULT_255_1_234
10
6.5744633
20
44.7898839
40
0.3033419
50
95.8330959
51
138.9954921
0
ARC
8
DEFAULT_255_1_234
10
6.5967989
20
44.6620375
40
0.4328947
50
89.8753725
51
97.0544009
0
ARC
8
DEFAULT_255_1_234
10
6.6015455
20
44.7455748
40
0.3493769
50
71.6407809
51
90.6240094
0
ARC
8
DEFAULT_255_1_234
10
6.6166028
20
44.8010082
40
0.2920396
50
39.6367836
51
71.019018
0
ARC
8
DEFAULT_255_1_234
10
6.5529501
20
44.7459998
40
0.3761538
50
10.658731
51
39.9043955
0
ARC
8
DEFAULT_255_1_234
10
6.3981584
20
44.7123686
40
0.5345136
50
359.682601
51
11.132623
0
ARC
8
DEFAULT_255_1_234
10
6.3941715
20
44.705301
40
0.5385081
50
347.2486944
51
0.4369317
0
ARC
8
DEFAULT_255_1_234
10
6.5609192
20
44.6651807
40
0.3670249
50
318.1409698
51
347.6118597
0
ARC
8
DEFAULT_255_1_234
10
6.5934185
20
44.6384702
40
0.3250007
50
275.6342139
51
317.8248465
0
ARC
8
DEFAULT_255_1_234
10
6.5713296
20
44.7684219
40
0.4565864
50
269.8874292
51
276.7917694
0
ARC
8
DEFAULT_255_1_234
10
6.5658367
20
44.6658743
40
0.3540676
50
246.9140195
51
270.7437342
0
ARC
8
DEFAULT_255_1_234
10
6.5664757
20
44.6516384
40
0.3412781
50
218.1665114
51
245.878116
0
ARC
8
DEFAULT_255_1_234
10
6.6544218
20
44.7252279
40
0.455911
50
191.4115814
51
218.6077802
0
ARC
8
DEFAULT_255_1_234
10
6.8482307
20
44.7686833
40
0.6545001
50
179.6345085
51
191.7836486
0
ARC
8
DEFAULT_255_1_234
10
7.4064644
20
44.8365697
40
1.2127388
50
171.4525249
51
180.3158839
0
ARC
8
DEFAULT_255_1_234
10
6.966952
20
44.9049608
40
0.7679464
50
157.9802646
51
171.6246686
0
ARC
8
DEFAULT_255_1_234
10
6.7455541
20
44.9932421
40
0.5296008
50
141.4298019
51
157.854097
0
ARC
8
DEFAULT_255_1_234
10
6.6813861
20
45.0386381
40
0.4511509
50
102.8715806
51
140.8564722
0
ARC
8
DEFAULT_255_1_234
10
6.7461477
20
44.7946552
40
0.7034845
50
90.3778349
51
103.5869322
0
ARC
8
DEFAULT_255_1_234
10
6.5723253
20
44.734173
40
0.2370698
50
89.8751008
51
126.2071704
0
ARC
8
DEFAULT_255_1_234
10
6.5769043
20
44.7187303
40
0.2522934
50
124.9745049
51
144.895901
0
ARC
8
DEFAULT_255_1_234
10
6.5593233
20
44.733056
40
0.2296779
50
145.2974905
51
160.2660252
0
ARC
8
DEFAULT_255_1_234
10
6.8665772
20
44.7528071
40
0.5234525
50
179.6514266
51
190.2855912
0
ARC
8
DEFAULT_255_1_234
10
6.6971909
20
44.7208786
40
0.3510893
50
190.0945431
51
207.5098196
0
ARC
8
DEFAULT_255_1_234
10
6.6406179
20
44.6939623
40
0.288489
50
207.9583163
51
216.3251085
0
ARC
8
DEFAULT_255_1_234
10
6.6066287
20
44.6660105
40
0.2445587
50
215.7661442
51
232.5456785
0
ARC
8
DEFAULT_255_1_234
10
6.568327
20
44.6173482
40
0.1826382
50
232.8005391
51
270.6605633
0
ARC
8
DEFAULT_255_1_234
10
6.5728971
20
44.6537612
40
0.2190529
50
269.35537
51
288.4744281
0
ARC
8
DEFAULT_255_1_234
10
6.5821868
20
44.6188118
40
0.1829749
50
289.1833337
51
322.9683818
0
ARC
8
DEFAULT_255_1_234
10
6.521039
20
44.6670391
40
0.2608399
50
322.6007884
51
346.5182367
0
ARC
8
DEFAULT_255_1_234
10
6.4052986
20
44.6965616
40
0.3802777
50
346.2582162
51
358.7741648
0
ARC
8
DEFAULT_255_1_234
10
6.3034655
20
44.7020965
40
0.4822176
50
358.3755224
51
0.0098023
0
ARC
8
DEFAULT_255_1_234
10
6.3790842
20
44.7048657
40
0.4066078
50
359.6214041
51
11.2839074
0
ARC
8
DEFAULT_255_1_234
10
6.5067989
20
44.7315066
40
0.2761514
50
11.0482309
51
31.8146458
0
ARC
8
DEFAULT_255_1_234
10
6.5377032
20
44.7482584
40
0.2410679
50
32.3035391
51
38.082671
0
ARC
8
DEFAULT_255_1_234
10
6.5797692
20
44.7863662
40
0.1844966
50
36.825067
51
85.7415724
0
ARC
8
DEFAULT_255_1_234
10
6.5730525
20
44.7363301
40
0.2349122
50
85.0140713
51
90.0513278
0
LINE
8
DEFAULT_255_1_234
10
4.3681299
20
53.4348211
11
4.6500439
21
52.9866501
0
LINE
8
DEFAULT_255_1_234
10
4.6500439
20
52.9866501
11
4.9303516
21
53.4348211
0
LINE
8
DEFAULT_255_1_234
10
4.9303516
20
53.4348211
11
5.1118689
21
53.4348211
0
LINE
8
DEFAULT_255_1_234
10
5.1118689
20
53.4348211
11
4.7424089
21
52.8549296
0
LINE
8
DEFAULT_255_1_234
10
4.7424089
20
52.8549296
11
5.1207038
21
52.2654
0
LINE
8
DEFAULT_255_1_234
10
5.1207038
20
52.2654
11
4.9375802
21
52.2654
0
LINE
8
DEFAULT_255_1_234
10
4.9375802
20
52.2654
11
4.6500439
21
52.7216027
0
LINE
8
DEFAULT_255_1_234
10
4.6500439
20
52.7216027
11
4.3609014
21
52.2654
0
LINE
8
DEFAULT_255_1_234
10
4.3609014
20
52.2654
11
4.1785809
21
52.2654
0
LINE
8
DEFAULT_255_1_234
10
4.1785809
20
52.2654
11
4.557679
21
52.8549296
0
LINE
8
DEFAULT_255_1_234
10
4.557679
20
52.8549296
11
4.1874158
21
53.4348211
0
LINE
8
DEFAULT_255_1_234
10
4.1874158
20
53.4348211
11
4.3681299
21
53.4348211
0
LINE
8
DEFAULT_255_1_234
10
5.7495889
20
53.4404433
11
5.7495889
21
52.2654
0
LINE
8
DEFAULT_255_1_234
10
5.7495889
20
52.2654
11
5.6001986
21
52.2654
0
LINE
8
DEFAULT_255_1_234
10
5.6001986
20
52.2654
11
5.6001986
21
53.2557133
0
LINE
8
DEFAULT_255_1_234
10
5.6001986
20
53.2557133
11
5.3006147
21
53.1456785
0
LINE
8
DEFAULT_255_1_234
10
5.3006147
20
53.1456785
11
5.3006147
21
53.2806117
0
LINE
8
DEFAULT_255_1_234
10
5.3006147
20
53.2806117
11
5.7262969
21
53.4404433
0
LINE
8
DEFAULT_255_1_234
10
5.7262969
20
53.4404433
11
5.7495889
21
53.4404433
0
LINE
8
DEFAULT_255_1_234
10
6.3720486
20
52.8211963
11
6.2531789
21
52.8517169
0
LINE
8
DEFAULT_255_1_234
10
6.2531789
20
52.8517169
11
6.3126138
21
53.4348211
0
LINE
8
DEFAULT_255_1_234
10
6.3126138
20
53.4348211
11
6.9117814
21
53.4348211
0
LINE
8
DEFAULT_255_1_234
10
6.9117814
20
53.4348211
11
6.9117814
21
53.2974784
0
LINE
8
DEFAULT_255_1_234
10
6.9117814
20
53.2974784
11
6.4387121
21
53.2974784
0
LINE
8
DEFAULT_255_1_234
10
6.4387121
20
53.2974784
11
6.4033724
21
52.9786184
0
LINE
8
DEFAULT_255_1_234
10
6.2114139
20
52.5730156
11
6.3519693
21
52.5730156
0
LINE
8
DEFAULT_255_1_234
10
6.4114042
20
52.8533232
11
6.3720486
21
52.8211963
0
ARC
8
DEFAULT_255_1_234
10
6.5888508
20
52.660623
40
0.3681349
50
93.7182161
51
120.2538958
0
ARC
8
DEFAULT_255_1_234
10
6.5982771
20
52.5798394
40
0.449379
50
89.9660152
51
94.2496022
0
ARC
8
DEFAULT_255_1_234
10
6.6023505
20
52.6387549
40
0.390482
50
73.8043271
51
90.5585896
0
ARC
8
DEFAULT_255_1_234
10
6.6258402
20
52.7245602
40
0.3015334
50
41.3071453
51
73.5430202
0
ARC
8
DEFAULT_255_1_234
10
6.5842229
20
52.6887324
40
0.3564457
50
13.5075983
51
41.2174222
0
ARC
8
DEFAULT_255_1_234
10
6.4200433
20
52.6457486
40
0.5261351
50
1.1331335
51
13.8829381
0
ARC
8
DEFAULT_255_1_234
10
6.2788802
20
52.6381665
40
0.6674378
50
359.9919444
51
1.544251
0
ARC
8
DEFAULT_255_1_234
10
6.4065628
20
52.634028
40
0.5397702
50
347.8572367
51
0.4293338
0
ARC
8
DEFAULT_255_1_234
10
6.5815946
20
52.5943736
40
0.3603188
50
323.673004
51
348.1672506
0
ARC
8
DEFAULT_255_1_234
10
6.6110454
20
52.5764168
40
0.3259678
50
316.8171152
51
323.1492751
0
ARC
8
DEFAULT_255_1_234
10
6.6171643
20
52.572746
40
0.3189975
50
281.8396411
51
316.5457803
0
ARC
8
DEFAULT_255_1_234
10
6.5795907
20
52.7282762
40
0.4789527
50
269.5770101
51
282.4214771
0
ARC
8
DEFAULT_255_1_234
10
6.5724718
20
52.7069125
40
0.45759
50
256.2427136
51
270.4486331
0
ARC
8
DEFAULT_255_1_234
10
6.542562
20
52.5869229
40
0.3339303
50
228.9023911
51
256.3314342
0
ARC
8
DEFAULT_255_1_234
10
6.5351853
20
52.5752746
40
0.32031
50
193.753695
51
228.5271154
0
ARC
8
DEFAULT_255_1_234
10
6.6589807
20
52.61158
40
0.4492253
50
184.924711
51
194.497588
0
ARC
8
DEFAULT_255_1_234
10
6.6782374
20
52.6151591
40
0.3289787
50
187.3600538
51
198.6732863
0
ARC
8
DEFAULT_255_1_234
10
6.5732668
20
52.5787674
40
0.217884
50
198.4451669
51
217.794479
0
ARC
8
DEFAULT_255_1_234
10
6.5436843
20
52.5578085
40
0.1816698
50
218.2887171
51
228.5612368
0
ARC
8
DEFAULT_255_1_234
10
6.553463
20
52.5709963
40
0.1980329
50
228.9654866
51
258.1234728
0
ARC
8
DEFAULT_255_1_234
10
6.574034
20
52.6590833
40
0.2884748
50
257.7258293
51
270.401361
0
ARC
8
DEFAULT_255_1_234
10
6.5785226
20
52.6145821
40
0.2439788
50
269.4204404
51
286.4209037
0
ARC
8
DEFAULT_255_1_234
10
6.5933714
20
52.5606657
40
0.1880666
50
286.7251356
51
320.600362
0
ARC
8
DEFAULT_255_1_234
10
6.5550539
20
52.5917595
40
0.2374121
50
320.6712579
51
344.5441685
0
ARC
8
DEFAULT_255_1_234
10
6.4393865
20
52.6257045
40
0.3579479
50
344.2412205
51
356.7357071
0
ARC
8
DEFAULT_255_1_234
10
6.3145014
20
52.6360444
40
0.4832297
50
356.3548756
51
0.0500261
0
ARC
8
DEFAULT_255_1_234
10
6.4481523
20
52.639165
40
0.3495889
50
359.5576869
51
12.953486
0
ARC
8
DEFAULT_255_1_234
10
6.553642
20
52.6647434
40
0.2410532
50
12.6490276
51
41.6081334
0
ARC
8
DEFAULT_255_1_234
10
6.5766791
20
52.6843321
40
0.2108218
50
41.7850273
51
85.9892764
0
ARC
8
DEFAULT_255_1_234
10
6.5643528
20
52.6030462
40
0.2928454
50
84.6957577
51
90.0676183
0
ARC
8
DEFAULT_255_1_234
10
6.5620012
20
52.5361716
40
0.3597255
50
89.6804936
51
99.1614436
0
ARC
8
DEFAULT_255_1_234
10
6.5414643
20
52.6589131
40
0.235281
50
98.9830931
51
113.8908934
0
ARC
8
DEFAULT_255_1_234
10
6.5185053
20
52.7130587
40
0.176479
50
114.1950727
51
127.3641004
0
LINE
8
DEFAULT_255_1_234
10
4.4740299
20
61.3723211
11
4.7559439
21
60.9241501
0
LINE
8
DEFAULT_255_1_234
10
4.7559439
20
60.9241501
11
5.0362516
21
61.3723211
0
LINE
8
DEFAULT_255_1_234
10
5.0362516
20
61.3723211
11
5.2177689
21
61.3723211
0
LINE
8
DEFAULT_255_1_234
10
5.2177689
20
61.3723211
11
4.8483089
21
60.7924296
0
LINE
8
DEFAULT_255_1_234
10
4.8483089
20
60.7924296
11
5.2266038
21
60.2029
0
LINE
8
DEFAULT_255_1_234
10
5.2266038
20
60.2029
11
5.0434802
21
60.2029
0
LINE
8
DEFAULT_255_1_234
10
5.0434802
20
60.2029
11
4.7559439
21
60.6591027
0
LINE
8
DEFAULT_255_1_234
10
4.7559439
20
60.6591027
11
4.4668014
21
60.2029
0
LINE
8
DEFAULT_255_1_234
10
4.4668014
20
60.2029
11
4.2844809
21
60.2029
0
LINE
8
DEFAULT_255_1_234
10
4.2844809
20
60.2029
11
4.663579
21
60.7924296
0
LINE
8
DEFAULT_255_1_234
10
4.663579
20
60.7924296
11
4.2933158
21
61.3723211
0
LINE
8
DEFAULT_255_1_234
10
4.2933158
20
61.3723211
11
4.4740299
21
61.3723211
0
LINE
8
DEFAULT_255_1_234
10
5.8554889
20
61.3779433
11
5.8554889
21
60.2029
0
LINE
8
DEFAULT_255_1_234
10
5.8554889
20
60.2029
11
5.7060986
21
60.2029
0
LINE
8
DEFAULT_255_1_234
10
5.7060986
20
60.2029
11
5.7060986
21
61.1932133
0
LINE
8
DEFAULT_255_1_234
10
5.7060986
20
61.1932133
11
5.4065147
21
61.0831785
0
LINE
8
DEFAULT_255_1_234
10
5.4065147
20
61.0831785
11
5.4065147
21
61.2181117
0
LINE
8
DEFAULT_255_1_234
10
5.4065147
20
61.2181117
11
5.8321969
21
61.3779433
0
LINE
8
DEFAULT_255_1_234
10
5.8321969
20
61.3779433
11
5.8554889
21
61.3779433
0
LINE
8
DEFAULT_255_1_234
10
6.9180879
20
61.3723211
11
6.9180879
21
60.595652
0
LINE
8
DEFAULT_255_1_234
10
6.9180879
20
60.595652
11
7.080329
21
60.595652
0
LINE
8
DEFAULT_255_1_234
10
7.080329
20
60.595652
11
7.080329
21
60.4743728
0
LINE
8
DEFAULT_255_1_234
10
7.080329
20
60.4743728
11
6.9180879
21
60.4743728
0
LINE
8
DEFAULT_255_1_234
10
6.9180879
20
60.4743728
11
6.9180879
21
60.2029
0
LINE
8
DEFAULT_255_1_234
10
6.9180879
20
60.2029
11
6.7686976
21
60.2029
0
LINE
8
DEFAULT_255_1_234
10
6.7686976
20
60.2029
11
6.7686976
21
60.4743728
0
LINE
8
DEFAULT_255_1_234
10
6.7686976
20
60.4743728
11
6.2361933
21
60.4743728
0
LINE
8
DEFAULT_255_1_234
10
6.2361933
20
60.4743728
11
6.2361933
21
60.5619187
0
LINE
8
DEFAULT_255_1_234
10
6.2361933
20
60.5619187
11
6.7598626
21
61.3723211
0
LINE
8
DEFAULT_255_1_234
10
6.7598626
20
61.3723211
11
6.9180879
21
61.3723211
0
LINE
8
DEFAULT_255_1_234
10
6.7510277
20
61.1369912
11
6.4048598
21
60.595652
0
LINE
8
DEFAULT_255_1_234
10
6.4048598
20
60.595652
11
6.7686976
21
60.595652
0
LINE
8
DEFAULT_255_1_234
10
6.7686976
20
60.595652
11
6.7686976
21
61.1691181
0
LINE
8
DEFAULT_255_1_234
10
6.7686976
20
61.1691181
11
6.7510277
21
61.1369912
0
LINE
8
DEFAULT_255_1_234
10
4.3681299
20
69.3098211
11
4.6500439
21
68.8616501
0
LINE
8
DEFAULT_255_1_234
10
4.6500439
20
68.8616501
11
4.9303516
21
69.3098211
0
LINE
8
DEFAULT_255_1_234
10
4.9303516
20
69.3098211
11
5.1118689
21
69.3098211
0
LINE
8
DEFAULT_255_1_234
10
5.1118689
20
69.3098211
11
4.7424089
21
68.7299296
0
LINE
8
DEFAULT_255_1_234
10
4.7424089
20
68.7299296
11
5.1207038
21
68.1404
0
LINE
8
DEFAULT_255_1_234
10
5.1207038
20
68.1404
11
4.9375802
21
68.1404
0
LINE
8
DEFAULT_255_1_234
10
4.9375802
20
68.1404
11
4.6500439
21
68.5966027
0
LINE
8
DEFAULT_255_1_234
10
4.6500439
20
68.5966027
11
4.3609014
21
68.1404
0
LINE
8
DEFAULT_255_1_234
10
4.3609014
20
68.1404
11
4.1785809
21
68.1404
0
LINE
8
DEFAULT_255_1_234
10
4.1785809
20
68.1404
11
4.557679
21
68.7299296
0
LINE
8
DEFAULT_255_1_234
10
4.557679
20
68.7299296
11
4.1874158
21
69.3098211
0
LINE
8
DEFAULT_255_1_234
10
4.1874158
20
69.3098211
11
4.3681299
21
69.3098211
0
LINE
8
DEFAULT_255_1_234
10
5.7495889
20
69.3154433
11
5.7495889
21
68.1404
0
LINE
8
DEFAULT_255_1_234
10
5.7495889
20
68.1404
11
5.6001986
21
68.1404
0
LINE
8
DEFAULT_255_1_234
10
5.6001986
20
68.1404
11
5.6001986
21
69.1307133
0
LINE
8
DEFAULT_255_1_234
10
5.6001986
20
69.1307133
11
5.3006147
21
69.0206785
0
LINE
8
DEFAULT_255_1_234
10
5.3006147
20
69.0206785
11
5.3006147
21
69.1556117
0
LINE
8
DEFAULT_255_1_234
10
5.3006147
20
69.1556117
11
5.7262969
21
69.3154433
0
LINE
8
DEFAULT_255_1_234
10
5.7262969
20
69.3154433
11
5.7495889
21
69.3154433
0
LINE
8
DEFAULT_255_1_234
10
6.4009629
20
68.6761169
11
6.4009629
21
68.7973962
0
LINE
8
DEFAULT_255_1_234
10
6.4009629
20
68.7973962
11
6.5126041
21
68.7973962
0
LINE
8
DEFAULT_255_1_234
10
6.3222519
20
69.0030087
11
6.1736647
21
69.0030087
0
LINE
8
DEFAULT_255_1_234
10
6.1632234
20
68.4488188
11
6.3126138
21
68.4488188
0
LINE
8
DEFAULT_255_1_234
10
6.5126041
20
68.6761169
11
6.4009629
21
68.6761169
0
ARC
8
DEFAULT_255_1_234
10
6.5096907
20
69.1366713
40
0.3392876
50
270.4919872
51
281.8951556
0
ARC
8
DEFAULT_255_1_234
10
6.5338169
20
69.0264702
40
0.2264817
50
281.6691735
51
301.2943132
0
ARC
8
DEFAULT_255_1_234
10
6.5508379
20
68.9953304
40
0.1910381
50
301.7833094
51
311.7545298
0
ARC
8
DEFAULT_255_1_234
10
6.5599955
20
68.9851748
40
0.1773635
50
311.7323931
51
354.2802411
0
ARC
8
DEFAULT_255_1_234
10
6.487358
20
68.9976722
40
0.2509385
50
353.0937916
51
0.1181479
0
ARC
8
DEFAULT_255_1_234
10
6.4412365
20
69.0024386
40
0.2970898
50
359.1805295
51
15.0453146
0
ARC
8
DEFAULT_255_1_234
10
6.5758202
20
69.0416992
40
0.1569564
50
13.9577229
51
77.6713066
0
ARC
8
DEFAULT_255_1_234
10
6.5371731
20
68.9031949
40
0.3006298
50
76.1116566
51
90.7026153
0
ARC
8
DEFAULT_255_1_234
10
6.5312569
20
68.9305545
40
0.2732568
50
89.5324876
51
103.531937
0
ARC
8
DEFAULT_255_1_234
10
6.5112013
20
69.0104884
40
0.1908508
50
103.2931773
51
133.5619022
0
ARC
8
DEFAULT_255_1_234
10
6.5067502
20
69.0164375
40
0.1834746
50
133.8349307
51
173.5344437
0
ARC
8
DEFAULT_255_1_234
10
6.5790545
20
69.0036213
40
0.2568033
50
172.5096846
51
180.1366907
0
ARC
8
DEFAULT_255_1_234
10
6.4839439
20
69.0070622
40
0.3103056
50
155.3484492
51
180.7484736
0
ARC
8
DEFAULT_255_1_234
10
6.4790528
20
69.0041846
40
0.3070957
50
131.5744599
51
154.4798489
0
ARC
8
DEFAULT_255_1_234
10
6.5103675
20
68.972531
40
0.3515643
50
96.9875458
51
131.9690667
0
ARC
8
DEFAULT_255_1_234
10
6.5323155
20
68.8479636
40
0.4779224
50
89.8596053
51
97.7825159
0
ARC
8
DEFAULT_255_1_234
10
6.5371218
20
68.8217616
40
0.5041361
50
78.3655447
51
90.4131539
0
ARC
8
DEFAULT_255_1_234
10
6.5729136
20
68.9876887
40
0.3344039
50
56.6229102
51
78.638727
0
ARC
8
DEFAULT_255_1_234
10
6.594408
20
69.0252805
40
0.2912001
50
47.0253525
51
56.0854072
0
ARC
8
DEFAULT_255_1_234
10
6.596386
20
69.0292223
40
0.2869704
50
10.9208013
51
46.7778124
0
ARC
8
DEFAULT_255_1_234
10
6.4599926
20
68.9976857
40
0.426899
50
359.6364486
51
11.6087304
0
ARC
8
DEFAULT_255_1_234
10
6.643477
20
68.9961752
40
0.243409
50
332.3549906
51
359.7179418
0
ARC
8
DEFAULT_255_1_234
10
6.5784372
20
69.0270142
40
0.3153459
50
325.2333722
51
332.8745602
0
ARC
8
DEFAULT_255_1_234
10
6.5936995
20
69.0163828
40
0.2967456
50
292.9802137
51
325.2392345
0
ARC
8
DEFAULT_255_1_234
10
6.5662369
20
69.0697863
40
0.3566604
50
292.5402179
51
293.6924929
0
ARC
8
DEFAULT_255_1_234
10
6.6054965
20
68.4243091
40
0.3307468
50
57.6435486
51
72.8625112
0
ARC
8
DEFAULT_255_1_234
10
6.6409465
20
68.4817549
40
0.2632492
50
36.7248896
51
57.4697979
0
ARC
8
DEFAULT_255_1_234
10
6.6398098
20
68.483022
40
0.2634081
50
8.0545065
51
36.356114
0
ARC
8
DEFAULT_255_1_234
10
6.5535283
20
68.4675174
40
0.3510261
50
359.8320645
51
8.5869982
0
ARC
8
DEFAULT_255_1_234
10
6.5160059
20
68.4627101
40
0.3885653
50
343.9829931
51
0.5571613
0
ARC
8
DEFAULT_255_1_234
10
6.6046256
20
68.4384438
40
0.2966924
50
311.6359546
51
343.7651759
0
ARC
8
DEFAULT_255_1_234
10
6.5667825
20
68.4811102
40
0.3537231
50
279.7829875
51
311.6255694
0
ARC
8
DEFAULT_255_1_234
10
6.5366601
20
68.624828
40
0.5004971
50
269.7286406
51
280.3856417
0
ARC
8
DEFAULT_255_1_234
10
6.5304674
20
68.6206996
40
0.4963778
50
256.6828919
51
270.4412052
0
ARC
8
DEFAULT_255_1_234
10
6.496597
20
68.4822394
40
0.3538406
50
229.4223008
51
256.8556159
0
ARC
8
DEFAULT_255_1_234
10
6.4551363
20
68.4355736
40
0.2914296
50
181.818294
51
229.6455059
0
ARC
8
DEFAULT_255_1_234
10
6.5591319
20
68.4486496
40
0.3959084
50
179.9755256
51
183.2323064
0
ARC
8
DEFAULT_255_1_234
10
6.5419065
20
68.4466037
40
0.2293034
50
179.4465117
51
196.2869258
0
ARC
8
DEFAULT_255_1_234
10
6.4931473
20
68.4332651
40
0.1787621
50
196.5661473
51
227.705904
0
ARC
8
DEFAULT_255_1_234
10
6.5095568
20
68.4516155
40
0.2033784
50
227.7652068
51
257.8762805
0
ARC
8
DEFAULT_255_1_234
10
6.5320538
20
68.5459156
40
0.3003081
50
257.4584385
51
270.426602
0
ARC
8
DEFAULT_255_1_234
10
6.5366104
20
68.5748996
40
0.329292
50
269.5962073
51
280.8789248
0
ARC
8
DEFAULT_255_1_234
10
6.5595633
20
68.4602685
40
0.2123908
50
280.6346389
51
299.8595945
0
ARC
8
DEFAULT_255_1_234
10
6.578654
20
68.4240212
40
0.171457
50
300.3576302
51
314.5517981
0
ARC
8
DEFAULT_255_1_234
10
6.57036
20
68.4300919
40
0.1816095
50
315.0728369
51
345.0431014
0
ARC
8
DEFAULT_255_1_234
10
6.4780414
20
68.4569841
40
0.2777492
50
344.5986631
51
357.9269593
0
ARC
8
DEFAULT_255_1_234
10
6.388474
20
68.4631276
40
0.3674917
50
357.4748886
51
0.0231117
0
ARC
8
DEFAULT_255_1_234
10
6.490785
20
68.4655679
40
0.2651907
50
359.5047933
51
13.4239635
0
ARC
8
DEFAULT_255_1_234
10
6.5774493
20
68.4877478
40
0.1757509
50
12.9498199
51
48.7551375
0
ARC
8
DEFAULT_255_1_234
10
6.5592227
20
68.46284
40
0.2065134
50
49.5088623
51
72.1836453
0
ARC
8
DEFAULT_255_1_234
10
6.523438
20
68.3566291
40
0.3185836
50
71.9010081
51
84.3554254
0
ARC
8
DEFAULT_255_1_234
10
6.5073012
20
68.2205326
40
0.4556151
50
84.0193428
51
89.333121
0
LINE
8
DEFAULT_255_1_234
10
4.3681299
20
77.2473211
11
4.6500439
21
76.7991501
0
LINE
8
DEFAULT_255_1_234
10
4.6500439
20
76.7991501
11
4.9303516
21
77.2473211
0
LINE
8
DEFAULT_255_1_234
10
4.9303516
20
77.2473211
11
5.1118689
21
77.2473211
0
LINE
8
DEFAULT_255_1_234
10
5.1118689
20
77.2473211
11
4.7424089
21
76.6674296
0
LINE
8
DEFAULT_255_1_234
10
4.7424089
20
76.6674296
11
5.1207038
21
76.0779
0
LINE
8
DEFAULT_255_1_234
10
5.1207038
20
76.0779
11
4.9375802
21
76.0779
0
LINE
8
DEFAULT_255_1_234
10
4.9375802
20
76.0779
11
4.6500439
21
76.5341027
0
LINE
8
DEFAULT_255_1_234
10
4.6500439
20
76.5341027
11
4.3609014
21
76.0779
0
LINE
8
DEFAULT_255_1_234
10
4.3609014
20
76.0779
11
4.1785809
21
76.0779
0
LINE
8
DEFAULT_255_1_234
10
4.1785809
20
76.0779
11
4.557679
21
76.6674296
0
LINE
8
DEFAULT_255_1_234
10
4.557679
20
76.6674296
11
4.1874158
21
77.2473211
0
LINE
8
DEFAULT_255_1_234
10
4.1874158
20
77.2473211
11
4.3681299
21
77.2473211
0
LINE
8
DEFAULT_255_1_234
10
5.7495889
20
77.2529433
11
5.7495889
21
76.0779
0
LINE
8
DEFAULT_255_1_234
10
5.7495889
20
76.0779
11
5.6001986
21
76.0779
0
LINE
8
DEFAULT_255_1_234
10
5.6001986
20
76.0779
11
5.6001986
21
77.0682133
0
LINE
8
DEFAULT_255_1_234
10
5.6001986
20
77.0682133
11
5.3006147
21
76.9581785
0
LINE
8
DEFAULT_255_1_234
10
5.3006147
20
76.9581785
11
5.3006147
21
77.0931117
0
LINE
8
DEFAULT_255_1_234
10
5.3006147
20
77.0931117
11
5.7262969
21
77.2529433
0
LINE
8
DEFAULT_255_1_234
10
5.7262969
20
77.2529433
11
5.7495889
21
77.2529433
0
LINE
8
DEFAULT_255_1_234
10
6.951137
20
76.1991792
11
6.951137
21
76.0779
0
LINE
8
DEFAULT_255_1_234
10
6.951137
20
76.0779
11
6.1849091
21
76.0779
0
LINE
8
DEFAULT_255_1_234
10
6.1849091
20
76.0779
11
6.1849091
21
76.1847221
0
LINE
8
DEFAULT_255_1_234
10
6.1849091
20
76.1847221
11
6.5897087
21
76.6344995
0
LINE
8
DEFAULT_255_1_234
10
6.3110074
20
76.9027595
11
6.1624203
21
76.9027595
0
LINE
8
DEFAULT_255_1_234
10
6.6772547
20
76.5389218
11
6.3640169
21
76.1991792
0
LINE
8
DEFAULT_255_1_234
10
6.3640169
20
76.1991792
11
6.951137
21
76.1991792
0
ARC
8
DEFAULT_255_1_234
10
5.2406921
20
77.8274527
40
1.8008286
50
318.5132453
51
320.7828378
0
ARC
8
DEFAULT_255_1_234
10
5.7693895
20
77.3971426
40
1.1191493
50
320.7372736
51
323.9737074
0
ARC
8
DEFAULT_255_1_234
10
6.1613751
20
77.1131361
40
0.6350923
50
323.8961724
51
328.6421089
0
ARC
8
DEFAULT_255_1_234
10
6.3660347
20
76.9869031
40
0.3946393
50
328.8299013
51
331.789948
0
ARC
8
DEFAULT_255_1_234
10
6.4657525
20
76.9354509
40
0.2824501
50
331.4255242
51
352.9364833
0
ARC
8
DEFAULT_255_1_234
10
6.4794026
20
76.9323976
40
0.2685315
50
353.2248685
51
0.0169286
0
ARC
8
DEFAULT_255_1_234
10
6.5003903
20
76.934695
40
0.2475536
50
359.4866256
51
15.9339782
0
ARC
8
DEFAULT_255_1_234
10
6.5510888
20
76.9483286
40
0.1950618
50
16.1714718
51
43.5284424
0
ARC
8
DEFAULT_255_1_234
10
6.5588197
20
76.9560573
40
0.184134
50
43.4415429
51
83.1661404
0
ARC
8
DEFAULT_255_1_234
10
6.5454115
20
76.8823771
40
0.258926
50
82.160215
51
90.1505798
0
ARC
8
DEFAULT_255_1_234
10
6.5422542
20
76.8286865
40
0.3126255
50
89.5460705
51
102.5418777
0
ARC
8
DEFAULT_255_1_234
10
6.5179628
20
76.9317665
40
0.2067346
50
102.1739365
51
129.2061916
0
ARC
8
DEFAULT_255_1_234
10
6.51007
20
76.9442094
40
0.1921118
50
129.7279328
51
135.7542026
0
ARC
8
DEFAULT_255_1_234
10
6.5222228
20
76.9345045
40
0.2075944
50
136.175737
51
166.3674722
0
ARC
8
DEFAULT_255_1_234
10
6.6229147
20
76.9075182
40
0.3118201
50
165.9092917
51
178.8683903
0
ARC
8
DEFAULT_255_1_234
10
6.7094008
20
76.9028179
40
0.3983935
50
178.438168
51
180.0083905
0
ARC
8
DEFAULT_255_1_234
10
6.569261
20
76.9067231
40
0.4068601
50
163.2878735
51
180.5581814
0
ARC
8
DEFAULT_255_1_234
10
6.4890872
20
76.928784
40
0.3237344
50
133.454115
51
162.9470031
0
ARC
8
DEFAULT_255_1_234
10
6.5069413
20
76.9098
40
0.349795
50
100.7869394
51
133.4384016
0
ARC
8
DEFAULT_255_1_234
10
6.5417185
20
76.7549319
40
0.5084616
50
89.6605301
51
101.3704185
0
ARC
8
DEFAULT_255_1_234
10
6.5483523
20
76.7610496
40
0.502348
50
78.2171172
51
90.4130393
0
ARC
8
DEFAULT_255_1_234
10
6.5838602
20
76.9234637
40
0.3361092
50
55.9268222
51
78.4888551
0
ARC
8
DEFAULT_255_1_234
10
6.6035042
20
76.9573324
40
0.2970617
50
47.9292255
51
55.4054003
0
ARC
8
DEFAULT_255_1_234
10
6.6136603
20
76.9676502
40
0.2825983
50
4.3347696
51
48.0560701
0
ARC
8
DEFAULT_255_1_234
10
6.5040996
20
76.9506601
40
0.393225
50
359.925209
51
5.5967654
0
ARC
8
DEFAULT_255_1_234
10
6.5469888
20
76.9562816
40
0.3503892
50
337.8914096
51
358.9967724
0
ARC
8
DEFAULT_255_1_234
10
6.27563
20
77.0609706
40
0.6412172
50
326.9135351
51
338.3505194
0
ARC
8
DEFAULT_255_1_234
10
5.8770604
20
77.3164284
40
1.1146189
50
319.6472867
51
327.095818
0
ARC
8
DEFAULT_255_1_234
10
5.4937607
20
77.6326
40
1.6114559
50
317.2586784
51
319.9046139
0
LINE
8
DEFAULT_255_1_234
10
4.3590299
20
85.1848211
11
4.6409439
21
84.7366501
0
LINE
8
DEFAULT_255_1_234
10
4.6409439
20
84.7366501
11
4.9212516
21
85.1848211
0
LINE
8
DEFAULT_255_1_234
10
4.9212516
20
85.1848211
11
5.1027689
21
85.1848211
0
LINE
8
DEFAULT_255_1_234
10
5.1027689
20
85.1848211
11
4.7333089
21
84.6049296
0
LINE
8
DEFAULT_255_1_234
10
4.7333089
20
84.6049296
11
5.1116038
21
84.0154
0
LINE
8
DEFAULT_255_1_234
10
5.1116038
20
84.0154
11
4.9284802
21
84.0154
0
LINE
8
DEFAULT_255_1_234
10
4.9284802
20
84.0154
11
4.6409439
21
84.4716027
0
LINE
8
DEFAULT_255_1_234
10
4.6409439
20
84.4716027
11
4.3518014
21
84.0154
0
LINE
8
DEFAULT_255_1_234
10
4.3518014
20
84.0154
11
4.1694809
21
84.0154
0
LINE
8
DEFAULT_255_1_234
10
4.1694809
20
84.0154
11
4.548579
21
84.6049296
0
LINE
8
DEFAULT_255_1_234
10
4.548579
20
84.6049296
11
4.1783158
21
85.1848211
0
LINE
8
DEFAULT_255_1_234
10
4.1783158
20
85.1848211
11
4.3590299
21
85.1848211
0
LINE
8
DEFAULT_255_1_234
10
5.7404889
20
85.1904433
11
5.7404889
21
84.0154
0
LINE
8
DEFAULT_255_1_234
10
5.7404889
20
84.0154
11
5.5910986
21
84.0154
0
LINE
8
DEFAULT_255_1_234
10
5.5910986
20
84.0154
11
5.5910986
21
85.0057133
0
LINE
8
DEFAULT_255_1_234
10
5.5910986
20
85.0057133
11
5.2915147
21
84.8956785
0
LINE
8
DEFAULT_255_1_234
10
5.2915147
20
84.8956785
11
5.2915147
21
85.0306117
0
LINE
8
DEFAULT_255_1_234
10
5.2915147
20
85.0306117
11
5.7171969
21
85.1904433
0
LINE
8
DEFAULT_255_1_234
10
5.7171969
20
85.1904433
11
5.7404889
21
85.1904433
0
LINE
8
DEFAULT_255_1_234
10
6.6641388
20
85.1904433
11
6.6641388
21
84.0154
0
LINE
8
DEFAULT_255_1_234
10
6.6641388
20
84.0154
11
6.5147485
21
84.0154
0
LINE
8
DEFAULT_255_1_234
10
6.5147485
20
84.0154
11
6.5147485
21
85.0057133
0
LINE
8
DEFAULT_255_1_234
10
6.5147485
20
85.0057133
11
6.2151646
21
84.8956785
0
LINE
8
DEFAULT_255_1_234
10
6.2151646
20
84.8956785
11
6.2151646
21
85.0306117
0
LINE
8
DEFAULT_255_1_234
10
6.2151646
20
85.0306117
11
6.6408468
21
85.1904433
0
LINE
8
DEFAULT_255_1_234
10
6.6408468
20
85.1904433
11
6.6641388
21
85.1904433
0
LINE
8
DEFAULT_255_1_234
10
4.3681299
20
93.1223211
11
4.6500439
21
92.6741501
0
LINE
8
DEFAULT_255_1_234
10
4.6500439
20
92.6741501
11
4.9303516
21
93.1223211
0
LINE
8
DEFAULT_255_1_234
10
4.9303516
20
93.1223211
11
5.1118689
21
93.1223211
0
LINE
8
DEFAULT_255_1_234
10
5.1118689
20
93.1223211
11
4.7424089
21
92.5424296
0
LINE
8
DEFAULT_255_1_234
10
4.7424089
20
92.5424296
11
5.1207038
21
91.9529
0
LINE
8
DEFAULT_255_1_234
10
5.1207038
20
91.9529
11
4.9375802
21
91.9529
0
LINE
8
DEFAULT_255_1_234
10
4.9375802
20
91.9529
11
4.6500439
21
92.4091027
0
LINE
8
DEFAULT_255_1_234
10
4.6500439
20
92.4091027
11
4.3609014
21
91.9529
0
LINE
8
DEFAULT_255_1_234
10
4.3609014
20
91.9529
11
4.1785809
21
91.9529
0
LINE
8
DEFAULT_255_1_234
10
4.1785809
20
91.9529
11
4.557679
21
92.5424296
0
LINE
8
DEFAULT_255_1_234
10
4.557679
20
92.5424296
11
4.1874158
21
93.1223211
0
LINE
8
DEFAULT_255_1_234
10
4.1874158
20
93.1223211
11
4.3681299
21
93.1223211
0
LINE
8
DEFAULT_255_1_234
10
5.7495889
20
93.1279433
11
5.7495889
21
91.9529
0
LINE
8
DEFAULT_255_1_234
10
5.7495889
20
91.9529
11
5.6001986
21
91.9529
0
LINE
8
DEFAULT_255_1_234
10
5.6001986
20
91.9529
11
5.6001986
21
92.9432133
0
LINE
8
DEFAULT_255_1_234
10
5.6001986
20
92.9432133
11
5.3006147
21
92.8331785
0
LINE
8
DEFAULT_255_1_234
10
5.3006147
20
92.8331785
11
5.3006147
21
92.9681117
0
LINE
8
DEFAULT_255_1_234
10
5.3006147
20
92.9681117
11
5.7262969
21
93.1279433
0
LINE
8
DEFAULT_255_1_234
10
5.7262969
20
93.1279433
11
5.7495889
21
93.1279433
0
LINE
8
DEFAULT_255_1_234
10
6.9182068
20
92.6444327
11
6.9182068
21
92.4516709
0
LINE
8
DEFAULT_255_1_234
10
6.1800901
20
92.4315916
11
6.1800901
21
92.6299755
0
LINE
8
DEFAULT_255_1_234
10
6.7696197
20
92.4115123
11
6.7696197
21
92.6548739
0
LINE
8
DEFAULT_255_1_234
10
6.3286772
20
92.6661184
11
6.3286772
21
92.4283789
0
ARC
8
DEFAULT_255_1_234
10
5.6934958
20
92.4467805
40
1.2247208
50
353.8441951
51
0.2287902
0
ARC
8
DEFAULT_255_1_234
10
6.1574462
20
92.3949806
40
0.7578929
50
344.4934747
51
353.9765454
0
ARC
8
DEFAULT_255_1_234
10
6.4567052
20
92.3098981
40
0.4467846
50
329.2803592
51
344.7472793
0
ARC
8
DEFAULT_255_1_234
10
6.5559877
20
92.2554018
40
0.3336173
50
324.9352394
51
328.6160465
0
ARC
8
DEFAULT_255_1_234
10
6.5936985
20
92.2290427
40
0.2876076
50
280.580143
51
324.9173126
0
ARC
8
DEFAULT_255_1_234
10
6.5535778
20
92.3961099
40
0.4592847
50
269.5977311
51
281.6734359
0
ARC
8
DEFAULT_255_1_234
10
6.5463684
20
92.3841173
40
0.4472986
50
256.6228859
51
270.51044
0
ARC
8
DEFAULT_255_1_234
10
6.5061661
20
92.2292877
40
0.2873874
50
215.8618325
51
257.2788573
0
ARC
8
DEFAULT_255_1_234
10
6.6082693
20
92.2977977
40
0.4102928
50
197.9693508
51
215.2623606
0
ARC
8
DEFAULT_255_1_234
10
6.8567809
20
92.3816709
40
0.6725652
50
187.8816417
51
198.2346507
0
ARC
8
DEFAULT_255_1_234
10
7.2526017
20
92.4388079
40
1.0724845
50
180.8976217
51
188.0055519
0
ARC
8
DEFAULT_255_1_234
10
7.5326205
20
92.4491777
40
1.3526448
50
180.7449369
51
181.1510016
0
ARC
8
DEFAULT_255_1_234
10
7.3748934
20
92.6348042
40
1.1948131
50
173.7675579
51
180.231553
0
ARC
8
DEFAULT_255_1_234
10
6.9231081
20
92.6858666
40
0.7401564
50
164.3058563
51
173.9002247
0
ARC
8
DEFAULT_255_1_234
10
6.631915
20
92.7697656
40
0.4371288
50
148.7922025
51
164.568378
0
ARC
8
DEFAULT_255_1_234
10
6.5367602
20
92.8228929
40
0.3282386
50
144.5883898
51
148.1176286
0
ARC
8
DEFAULT_255_1_234
10
6.50245
20
92.8468315
40
0.2864044
50
101.6440918
51
144.514236
0
ARC
8
DEFAULT_255_1_234
10
6.5449566
20
92.6779069
40
0.4604934
50
89.5284041
51
102.5819763
0
ARC
8
DEFAULT_255_1_234
10
6.5528654
20
92.6740018
40
0.464401
50
77.0437873
51
90.5081339
0
ARC
8
DEFAULT_255_1_234
10
6.5930656
20
92.8382615
40
0.2953195
50
48.2778575
51
77.4994676
0
ARC
8
DEFAULT_255_1_234
10
6.6003287
20
92.8511746
40
0.2808655
50
36.3142134
51
47.6305865
0
ARC
8
DEFAULT_255_1_234
10
6.5134594
20
92.7926515
40
0.3855453
50
18.2931786
51
35.6769206
0
ARC
8
DEFAULT_255_1_234
10
6.2591353
20
92.7053593
40
0.654423
50
8.024666
51
18.5605216
0
ARC
8
DEFAULT_255_1_234
10
5.8428273
20
92.6438792
40
1.0752407
50
1.1274072
51
8.1718305
0
ARC
8
DEFAULT_255_1_234
10
5.5192464
20
92.6311885
40
1.3990231
50
0.5424119
51
1.3863029
0
ARC
8
DEFAULT_255_1_234
10
5.7013841
20
92.6584342
40
1.0682415
50
359.8090433
51
4.9407866
0
ARC
8
DEFAULT_255_1_234
10
6.1223855
20
92.6960113
40
0.6455691
50
4.8362157
51
12.2904523
0
ARC
8
DEFAULT_255_1_234
10
6.397897
20
92.7573965
40
0.3633074
50
12.0805627
51
23.8173984
0
ARC
8
DEFAULT_255_1_234
10
6.5152676
20
92.8070919
40
0.2358723
50
24.2871213
51
31.3935614
0
ARC
8
DEFAULT_255_1_234
10
6.5677373
20
92.8414233
40
0.1732111
50
30.7407893
51
82.4657128
0
ARC
8
DEFAULT_255_1_234
10
6.5497507
20
92.7530691
40
0.263235
50
81.1060089
51
90.2184952
0
ARC
8
DEFAULT_255_1_234
10
6.5461806
20
92.7788924
40
0.2374236
50
89.3806855
51
105.6762551
0
ARC
8
DEFAULT_255_1_234
10
6.5278437
20
92.8455567
40
0.1682847
50
105.7981136
51
149.7388061
0
ARC
8
DEFAULT_255_1_234
10
6.6342515
20
92.781595
40
0.2924306
50
149.4208916
51
163.6286378
0
ARC
8
DEFAULT_255_1_234
10
6.8433403
20
92.717825
40
0.5110213
50
163.3763315
51
172.1410975
0
ARC
8
DEFAULT_255_1_234
10
7.1734122
20
92.6705518
40
0.8444586
50
172.0259487
51
178.0703232
0
ARC
8
DEFAULT_255_1_234
10
7.4764211
20
92.6561906
40
1.1477868
50
177.8631668
51
179.5044149
0
ARC
8
DEFAULT_255_1_234
10
7.3691616
20
92.4247389
40
1.0404907
50
179.7995573
51
185.2460446
0
ARC
8
DEFAULT_255_1_234
10
6.9648655
20
92.3864513
40
0.6343885
50
185.1411642
51
193.0079639
0
ARC
8
DEFAULT_255_1_234
10
6.7005128
20
92.3239641
40
0.3627568
50
192.7897626
51
205.2507664
0
ARC
8
DEFAULT_255_1_234
10
6.5958675
20
92.2772415
40
0.2481908
50
205.8005384
51
211.2537509
0
ARC
8
DEFAULT_255_1_234
10
6.5435115
20
92.242158
40
0.1852521
50
210.3789793
51
238.4008143
0
ARC
8
DEFAULT_255_1_234
10
6.5415637
20
92.2468376
40
0.1882621
50
239.6520629
51
265.9793761
0
ARC
8
DEFAULT_255_1_234
10
6.5500837
20
92.3140427
40
0.2559272
50
265.1315437
51
270.060332
0
ARC
8
DEFAULT_255_1_234
10
6.5529616
20
92.2816534
40
0.2235528
50
269.3314664
51
287.2178029
0
ARC
8
DEFAULT_255_1_234
10
6.5667468
20
92.2313279
40
0.1714108
50
287.7958004
51
329.080874
0
ARC
8
DEFAULT_255_1_234
10
6.4709925
20
92.291093
40
0.2842745
50
328.6634704
51
343.3325132
0
ARC
8
DEFAULT_255_1_234
10
6.2536945
20
92.3587863
40
0.5118644
50
343.0499468
51
351.9393422
0
ARC
8
DEFAULT_255_1_234
10
5.9070245
20
92.4098949
40
0.8622784
50
351.8069023
51
357.7959224
0
ARC
8
DEFAULT_255_1_234
10
5.5834801
20
92.4266721
40
1.1862365
50
357.5871873
51
359.2677531
0
LINE
8
DEFAULT_255_1_234
10
4.3078299
20
101.0598211
11
4.5897439
21
100.6116501
0
LINE
8
DEFAULT_255_1_234
10
4.5897439
20
100.6116501
11
4.8700516
21
101.0598211
0
LINE
8
DEFAULT_255_1_234
10
4.8700516
20
101.0598211
11
5.0515689
21
101.0598211
0
LINE
8
DEFAULT_255_1_234
10
5.0515689
20
101.0598211
11
4.6821089
21
100.4799296
0
LINE
8
DEFAULT_255_1_234
10
4.6821089
20
100.4799296
11
5.0604038
21
99.8904
0
LINE
8
DEFAULT_255_1_234
10
5.0604038
20
99.8904
11
4.8772802
21
99.8904
0
LINE
8
DEFAULT_255_1_234
10
4.8772802
20
99.8904
11
4.5897439
21
100.3466027
0
LINE
8
DEFAULT_255_1_234
10
4.5897439
20
100.3466027
11
4.3006014
21
99.8904
0
LINE
8
DEFAULT_255_1_234
10
4.3006014
20
99.8904
11
4.1182809
21
99.8904
0
LINE
8
DEFAULT_255_1_234
10
4.1182809
20
99.8904
11
4.497379
21
100.4799296
0
LINE
8
DEFAULT_255_1_234
10
4.497379
20
100.4799296
11
4.1271158
21
101.0598211
0
LINE
8
DEFAULT_255_1_234
10
4.1271158
20
101.0598211
11
4.3078299
21
101.0598211
0
LINE
8
DEFAULT_255_1_234
10
5.9559426
20
101.0598211
11
5.9559426
21
100.976291
0
LINE
8
DEFAULT_255_1_234
10
5.9559426
20
100.976291
11
5.4716288
21
99.8904
0
LINE
8
DEFAULT_255_1_234
10
5.4716288
20
99.8904
11
5.3158131
21
99.8904
0
LINE
8
DEFAULT_255_1_234
10
5.3158131
20
99.8904
11
5.7985206
21
100.9377387
0
LINE
8
DEFAULT_255_1_234
10
5.7985206
20
100.9377387
11
5.1656196
21
100.9377387
0
LINE
8
DEFAULT_255_1_234
10
5.1656196
20
100.9377387
11
5.1656196
21
101.0598211
0
LINE
8
DEFAULT_255_1_234
10
5.1656196
20
101.0598211
11
5.9559426
21
101.0598211
0
LINE
8
DEFAULT_255_1_234
10
4.3078299
20
108.9973211
11
4.5897439
21
108.5491501
0
LINE
8
DEFAULT_255_1_234
10
4.5897439
20
108.5491501
11
4.8700516
21
108.9973211
0
LINE
8
DEFAULT_255_1_234
10
4.8700516
20
108.9973211
11
5.0515689
21
108.9973211
0
LINE
8
DEFAULT_255_1_234
10
5.0515689
20
108.9973211
11
4.6821089
21
108.4174296
0
LINE
8
DEFAULT_255_1_234
10
4.6821089
20
108.4174296
11
5.0604038
21
107.8279
0
LINE
8
DEFAULT_255_1_234
10
5.0604038
20
107.8279
11
4.8772802
21
107.8279
0
LINE
8
DEFAULT_255_1_234
10
4.8772802
20
107.8279
11
4.5897439
21
108.2841027
0
LINE
8
DEFAULT_255_1_234
10
4.5897439
20
108.2841027
11
4.3006014
21
107.8279
0
LINE
8
DEFAULT_255_1_234
10
4.3006014
20
107.8279
11
4.1182809
21
107.8279
0
LINE
8
DEFAULT_255_1_234
10
4.1182809
20
107.8279
11
4.497379
21
108.4174296
0
LINE
8
DEFAULT_255_1_234
10
4.497379
20
108.4174296
11
4.1271158
21
108.9973211
0
LINE
8
DEFAULT_255_1_234
10
4.1271158
20
108.9973211
11
4.3078299
21
108.9973211
0
LINE
8
DEFAULT_255_1_234
10
5.7575587
20
108.9981243
11
5.7840634
21
108.9981243
0
LINE
8
DEFAULT_255_1_234
10
5.7840634
20
108.9981243
11
5.7840634
21
108.872026
0
LINE
8
DEFAULT_255_1_234
10
5.7840634
20
108.872026
11
5.7567555
21
108.872026
0
LINE
8
DEFAULT_255_1_234
10
5.2097941
20
108.2728583
11
5.2097941
21
108.3298836
0
LINE
8
DEFAULT_255_1_234
10
5.3591845
20
108.3106075
11
5.3591845
21
108.2559917
0
ARC
8
DEFAULT_255_1_234
10
5.7619903
20
108.3722455
40
0.4998079
50
90.6001036
51
104.514704
0
ARC
8
DEFAULT_255_1_234
10
5.7231419
20
108.5167131
40
0.3502176
50
104.2855254
51
133.862935
0
ARC
8
DEFAULT_255_1_234
10
5.7395176
20
108.505883
40
0.3693984
50
134.5302688
51
161.6210873
0
ARC
8
DEFAULT_255_1_234
10
5.9048365
20
108.4475895
40
0.5446739
50
161.2849839
51
174.2076652
0
ARC
8
DEFAULT_255_1_234
10
6.0455302
20
108.4281787
40
0.6866274
50
173.7810589
51
174.9254635
0
ARC
8
DEFAULT_255_1_234
10
5.5905134
20
108.2898839
40
0.3033419
50
95.8330959
51
138.9954921
0
ARC
8
DEFAULT_255_1_234
10
5.612849
20
108.1620375
40
0.4328947
50
89.8753725
51
97.0544009
0
ARC
8
DEFAULT_255_1_234
10
5.6175956
20
108.2455748
40
0.3493769
50
71.6407809
51
90.6240094
0
ARC
8
DEFAULT_255_1_234
10
5.6326529
20
108.3010082
40
0.2920396
50
39.6367836
51
71.019018
0
ARC
8
DEFAULT_255_1_234
10
5.5690002
20
108.2459998
40
0.3761538
50
10.658731
51
39.9043955
0
ARC
8
DEFAULT_255_1_234
10
5.4142085
20
108.2123686
40
0.5345136
50
359.682601
51
11.132623
0
ARC
8
DEFAULT_255_1_234
10
5.4102216
20
108.205301
40
0.5385081
50
347.2486944
51
0.4369317
0
ARC
8
DEFAULT_255_1_234
10
5.5769693
20
108.1651807
40
0.3670249
50
318.1409698
51
347.6118597
0
ARC
8
DEFAULT_255_1_234
10
5.6094686
20
108.1384702
40
0.3250007
50
275.6342139
51
317.8248465
0
ARC
8
DEFAULT_255_1_234
10
5.5873797
20
108.2684219
40
0.4565864
50
269.8874292
51
276.7917694
0
ARC
8
DEFAULT_255_1_234
10
5.5818868
20
108.1658743
40
0.3540676
50
246.9140195
51
270.7437342
0
ARC
8
DEFAULT_255_1_234
10
5.5825258
20
108.1516384
40
0.3412781
50
218.1665114
51
245.878116
0
ARC
8
DEFAULT_255_1_234
10
5.6704719
20
108.2252279
40
0.455911
50
191.4115814
51
218.6077802
0
ARC
8
DEFAULT_255_1_234
10
5.8642808
20
108.2686833
40
0.6545001
50
179.6345085
51
191.7836486
0
ARC
8
DEFAULT_255_1_234
10
6.4225145
20
108.3365697
40
1.2127388
50
171.4525249
51
180.3158839
0
ARC
8
DEFAULT_255_1_234
10
5.9830021
20
108.4049608
40
0.7679464
50
157.9802646
51
171.6246686
0
ARC
8
DEFAULT_255_1_234
10
5.7616042
20
108.4932421
40
0.5296008
50
141.4298019
51
157.854097
0
ARC
8
DEFAULT_255_1_234
10
5.6974362
20
108.5386381
40
0.4511509
50
102.8715806
51
140.8564722
0
ARC
8
DEFAULT_255_1_234
10
5.7621978
20
108.2946552
40
0.7034845
50
90.3778349
51
103.5869322
0
ARC
8
DEFAULT_255_1_234
10
5.5883754
20
108.234173
40
0.2370698
50
89.8751008
51
126.2071704
0
ARC
8
DEFAULT_255_1_234
10
5.5929544
20
108.2187303
40
0.2522934
50
124.9745049
51
144.895901
0
ARC
8
DEFAULT_255_1_234
10
5.5753734
20
108.233056
40
0.2296779
50
145.2974905
51
160.2660252
0
ARC
8
DEFAULT_255_1_234
10
5.8826273
20
108.2528071
40
0.5234525
50
179.6514266
51
190.2855912
0
ARC
8
DEFAULT_255_1_234
10
5.713241
20
108.2208786
40
0.3510893
50
190.0945431
51
207.5098196
0
ARC
8
DEFAULT_255_1_234
10
5.656668
20
108.1939623
40
0.288489
50
207.9583163
51
216.3251085
0
ARC
8
DEFAULT_255_1_234
10
5.6226788
20
108.1660105
40
0.2445587
50
215.7661442
51
232.5456785
0
ARC
8
DEFAULT_255_1_234
10
5.5843771
20
108.1173482
40
0.1826382
50
232.8005391
51
270.6605633
0
ARC
8
DEFAULT_255_1_234
10
5.5889472
20
108.1537612
40
0.2190529
50
269.35537
51
288.4744281
0
ARC
8
DEFAULT_255_1_234
10
5.5982369
20
108.1188118
40
0.1829749
50
289.1833337
51
322.9683818
0
ARC
8
DEFAULT_255_1_234
10
5.5370891
20
108.1670391
40
0.2608399
50
322.6007884
51
346.5182367
0
ARC
8
DEFAULT_255_1_234
10
5.4213487
20
108.1965616
40
0.3802777
50
346.2582162
51
358.7741648
0
ARC
8
DEFAULT_255_1_234
10
5.3195156
20
108.2020965
40
0.4822176
50
358.3755224
51
0.0098023
0
ARC
8
DEFAULT_255_1_234
10
5.3951343
20
108.2048657
40
0.4066078
50
359.6214041
51
11.2839074
0
ARC
8
DEFAULT_255_1_234
10
5.522849
20
108.2315066
40
0.2761514
50
11.0482309
51
31.8146458
0
ARC
8
DEFAULT_255_1_234
10
5.5537533
20
108.2482584
40
0.2410679
50
32.3035391
51
38.082671
0
ARC
8
DEFAULT_255_1_234
10
5.5958193
20
108.2863662
40
0.1844966
50
36.825067
51
85.7415724
0
ARC
8
DEFAULT_255_1_234
10
5.5891026
20
108.2363301
40
0.2349122
50
85.0140713
51
90.0513278
0
LINE
8
DEFAULT_255_1_234
10
4.3078299
20
116.9348211
11
4.5897439
21
116.4866501
0
LINE
8
DEFAULT_255_1_234
10
4.5897439
20
116.4866501
11
4.8700516
21
116.9348211
0
LINE
8
DEFAULT_255_1_234
10
4.8700516
20
116.9348211
11
5.0515689
21
116.9348211
0
LINE
8
DEFAULT_255_1_234
10
5.0515689
20
116.9348211
11
4.6821089
21
116.3549296
0
LINE
8
DEFAULT_255_1_234
10
4.6821089
20
116.3549296
11
5.0604038
21
115.7654
0
LINE
8
DEFAULT_255_1_234
10
5.0604038
20
115.7654
11
4.8772802
21
115.7654
0
LINE
8
DEFAULT_255_1_234
10
4.8772802
20
115.7654
11
4.5897439
21
116.2216027
0
LINE
8
DEFAULT_255_1_234
10
4.5897439
20
116.2216027
11
4.3006014
21
115.7654
0
LINE
8
DEFAULT_255_1_234
10
4.3006014
20
115.7654
11
4.1182809
21
115.7654
0
LINE
8
DEFAULT_255_1_234
10
4.1182809
20
115.7654
11
4.497379
21
116.3549296
0
LINE
8
DEFAULT_255_1_234
10
4.497379
20
116.3549296
11
4.1271158
21
116.9348211
0
LINE
8
DEFAULT_255_1_234
10
4.1271158
20
116.9348211
11
4.3078299
21
116.9348211
0
LINE
8
DEFAULT_255_1_234
10
5.3880987
20
116.3211963
11
5.269229
21
116.3517169
0
LINE
8
DEFAULT_255_1_234
10
5.269229
20
116.3517169
11
5.3286639
21
116.9348211
0
LINE
8
DEFAULT_255_1_234
10
5.3286639
20
116.9348211
11
5.9278315
21
116.9348211
0
LINE
8
DEFAULT_255_1_234
10
5.9278315
20
116.9348211
11
5.9278315
21
116.7974784
0
LINE
8
DEFAULT_255_1_234
10
5.9278315
20
116.7974784
11
5.4547622
21
116.7974784
0
LINE
8
DEFAULT_255_1_234
10
5.4547622
20
116.7974784
11
5.4194225
21
116.4786184
0
LINE
8
DEFAULT_255_1_234
10
5.227464
20
116.0730156
11
5.3680194
21
116.0730156
0
LINE
8
DEFAULT_255_1_234
10
5.4274542
20
116.3533232
11
5.3880987
21
116.3211963
0
ARC
8
DEFAULT_255_1_234
10
5.6049009
20
116.160623
40
0.3681349
50
93.7182161
51
120.2538958
0
ARC
8
DEFAULT_255_1_234
10
5.6143272
20
116.0798394
40
0.449379
50
89.9660152
51
94.2496022
0
ARC
8
DEFAULT_255_1_234
10
5.6184006
20
116.1387549
40
0.390482
50
73.8043271
51
90.5585896
0
ARC
8
DEFAULT_255_1_234
10
5.6418903
20
116.2245602
40
0.3015334
50
41.3071453
51
73.5430202
0
ARC
8
DEFAULT_255_1_234
10
5.600273
20
116.1887324
40
0.3564457
50
13.5075983
51
41.2174222
0
ARC
8
DEFAULT_255_1_234
10
5.4360934
20
116.1457486
40
0.5261351
50
1.1331335
51
13.8829381
0
ARC
8
DEFAULT_255_1_234
10
5.2949303
20
116.1381665
40
0.6674378
50
359.9919444
51
1.544251
0
ARC
8
DEFAULT_255_1_234
10
5.4226129
20
116.134028
40
0.5397702
50
347.8572367
51
0.4293338
0
ARC
8
DEFAULT_255_1_234
10
5.5976447
20
116.0943736
40
0.3603188
50
323.673004
51
348.1672506
0
ARC
8
DEFAULT_255_1_234
10
5.6270955
20
116.0764168
40
0.3259678
50
316.8171152
51
323.1492751
0
ARC
8
DEFAULT_255_1_234
10
5.6332144
20
116.072746
40
0.3189975
50
281.8396411
51
316.5457803
0
ARC
8
DEFAULT_255_1_234
10
5.5956408
20
116.2282762
40
0.4789527
50
269.5770101
51
282.4214771
0
ARC
8
DEFAULT_255_1_234
10
5.5885219
20
116.2069125
40
0.45759
50
256.2427136
51
270.4486331
0
ARC
8
DEFAULT_255_1_234
10
5.5586121
20
116.0869229
40
0.3339303
50
228.9023911
51
256.3314342
0
ARC
8
DEFAULT_255_1_234
10
5.5512354
20
116.0752746
40
0.32031
50
193.753695
51
228.5271154
0
ARC
8
DEFAULT_255_1_234
10
5.6750308
20
116.11158
40
0.4492253
50
184.924711
51
194.497588
0
ARC
8
DEFAULT_255_1_234
10
5.6942875
20
116.1151591
40
0.3289787
50
187.3600538
51
198.6732863
0
ARC
8
DEFAULT_255_1_234
10
5.5893169
20
116.0787674
40
0.217884
50
198.4451669
51
217.794479
0
ARC
8
DEFAULT_255_1_234
10
5.5597344
20
116.0578085
40
0.1816698
50
218.2887171
51
228.5612368
0
ARC
8
DEFAULT_255_1_234
10
5.5695131
20
116.0709963
40
0.1980329
50
228.9654866
51
258.1234728
0
ARC
8
DEFAULT_255_1_234
10
5.5900841
20
116.1590833
40
0.2884748
50
257.7258293
51
270.401361
0
ARC
8
DEFAULT_255_1_234
10
5.5945727
20
116.1145821
40
0.2439788
50
269.4204404
51
286.4209037
0
ARC
8
DEFAULT_255_1_234
10
5.6094215
20
116.0606657
40
0.1880666
50
286.7251356
51
320.600362
0
ARC
8
DEFAULT_255_1_234
10
5.571104
20
116.0917595
40
0.2374121
50
320.6712579
51
344.5441685
0
ARC
8
DEFAULT_255_1_234
10
5.4554366
20
116.1257045
40
0.3579479
50
344.2412205
51
356.7357071
0
ARC
8
DEFAULT_255_1_234
10
5.3305515
20
116.1360444
40
0.4832297
50
356.3548756
51
0.0500261
0
ARC
8
DEFAULT_255_1_234
10
5.4642024
20
116.139165
40
0.3495889
50
359.5576869
51
12.953486
0
ARC
8
DEFAULT_255_1_234
10
5.5696921
20
116.1647434
40
0.2410532
50
12.6490276
51
41.6081334
0
ARC
8
DEFAULT_255_1_234
10
5.5927292
20
116.1843321
40
0.2108218
50
41.7850273
51
85.9892764
0
ARC
8
DEFAULT_255_1_234
10
5.5804029
20
116.1030462
40
0.2928454
50
84.6957577
51
90.0676183
0
ARC
8
DEFAULT_255_1_234
10
5.5780513
20
116.0361716
40
0.3597255
50
89.6804936
51
99.1614436
0
ARC
8
DEFAULT_255_1_234
10
5.5575144
20
116.1589131
40
0.235281
50
98.9830931
51
113.8908934
0
ARC
8
DEFAULT_255_1_234
10
5.5345554
20
116.2130587
40
0.176479
50
114.1950727
51
127.3641004
0
LINE
8
DEFAULT_255_1_234
10
4.4137299
20
124.8723211
11
4.6956439
21
124.4241501
0
LINE
8
DEFAULT_255_1_234
10
4.6956439
20
124.4241501
11
4.9759516
21
124.8723211
0
LINE
8
DEFAULT_255_1_234
10
4.9759516
20
124.8723211
11
5.1574689
21
124.8723211
0
LINE
8
DEFAULT_255_1_234
10
5.1574689
20
124.8723211
11
4.7880089
21
124.2924296
0
LINE
8
DEFAULT_255_1_234
10
4.7880089
20
124.2924296
11
5.1663038
21
123.7029
0
LINE
8
DEFAULT_255_1_234
10
5.1663038
20
123.7029
11
4.9831802
21
123.7029
0
LINE
8
DEFAULT_255_1_234
10
4.9831802
20
123.7029
11
4.6956439
21
124.1591027
0
LINE
8
DEFAULT_255_1_234
10
4.6956439
20
124.1591027
11
4.4065014
21
123.7029
0
LINE
8
DEFAULT_255_1_234
10
4.4065014
20
123.7029
11
4.2241809
21
123.7029
0
LINE
8
DEFAULT_255_1_234
10
4.2241809
20
123.7029
11
4.603279
21
124.2924296
0
LINE
8
DEFAULT_255_1_234
10
4.603279
20
124.2924296
11
4.2330158
21
124.8723211
0
LINE
8
DEFAULT_255_1_234
10
4.2330158
20
124.8723211
11
4.4137299
21
124.8723211
0
LINE
8
DEFAULT_255_1_234
10
5.934138
20
124.8723211
11
5.934138
21
124.095652
0
LINE
8
DEFAULT_255_1_234
10
5.934138
20
124.095652
11
6.0963791
21
124.095652
0
LINE
8
DEFAULT_255_1_234
10
6.0963791
20
124.095652
11
6.0963791
21
123.9743728
0
LINE
8
DEFAULT_255_1_234
10
6.0963791
20
123.9743728
11
5.934138
21
123.9743728
0
LINE
8
DEFAULT_255_1_234
10
5.934138
20
123.9743728
11
5.934138
21
123.7029
0
LINE
8
DEFAULT_255_1_234
10
5.934138
20
123.7029
11
5.7847477
21
123.7029
0
LINE
8
DEFAULT_255_1_234
10
5.7847477
20
123.7029
11
5.7847477
21
123.9743728
0
LINE
8
DEFAULT_255_1_234
10
5.7847477
20
123.9743728
11
5.2522434
21
123.9743728
0
LINE
8
DEFAULT_255_1_234
10
5.2522434
20
123.9743728
11
5.2522434
21
124.0619187
0
LINE
8
DEFAULT_255_1_234
10
5.2522434
20
124.0619187
11
5.7759127
21
124.8723211
0
LINE
8
DEFAULT_255_1_234
10
5.7759127
20
124.8723211
11
5.934138
21
124.8723211
0
LINE
8
DEFAULT_255_1_234
10
5.7670778
20
124.6369912
11
5.4209099
21
124.095652
0
LINE
8
DEFAULT_255_1_234
10
5.4209099
20
124.095652
11
5.7847477
21
124.095652
0
LINE
8
DEFAULT_255_1_234
10
5.7847477
20
124.095652
11
5.7847477
21
124.6691181
0
LINE
8
DEFAULT_255_1_234
10
5.7847477
20
124.6691181
11
5.7670778
21
124.6369912
0
LINE
8
DEFAULT_255_1_234
10
4.3078299
20
132.8098211
11
4.5897439
21
132.3616501
0
LINE
8
DEFAULT_255_1_234
10
4.5897439
20
132.3616501
11
4.8700516
21
132.8098211
0
LINE
8
DEFAULT_255_1_234
10
4.8700516
20
132.8098211
11
5.0515689
21
132.8098211
0
LINE
8
DEFAULT_255_1_234
10
5.0515689
20
132.8098211
11
4.6821089
21
132.2299296
0
LINE
8
DEFAULT_255_1_234
10
4.6821089
20
132.2299296
11
5.0604038
21
131.6404
0
LINE
8
DEFAULT_255_1_234
10
5.0604038
20
131.6404
11
4.8772802
21
131.6404
0
LINE
8
DEFAULT_255_1_234
10
4.8772802
20
131.6404
11
4.5897439
21
132.0966027
0
LINE
8
DEFAULT_255_1_234
10
4.5897439
20
132.0966027
11
4.3006014
21
131.6404
0
LINE
8
DEFAULT_255_1_234
10
4.3006014
20
131.6404
11
4.1182809
21
131.6404
0
LINE
8
DEFAULT_255_1_234
10
4.1182809
20
131.6404
11
4.497379
21
132.2299296
0
LINE
8
DEFAULT_255_1_234
10
4.497379
20
132.2299296
11
4.1271158
21
132.8098211
0
LINE
8
DEFAULT_255_1_234
10
4.1271158
20
132.8098211
11
4.3078299
21
132.8098211
0
LINE
8
DEFAULT_255_1_234
10
5.417013
20
132.1761169
11
5.417013
21
132.2973962
0
LINE
8
DEFAULT_255_1_234
10
5.417013
20
132.2973962
11
5.5286542
21
132.2973962
0
LINE
8
DEFAULT_255_1_234
10
5.338302
20
132.5030087
11
5.1897148
21
132.5030087
0
LINE
8
DEFAULT_255_1_234
10
5.1792735
20
131.9488188
11
5.3286639
21
131.9488188
0
LINE
8
DEFAULT_255_1_234
10
5.5286542
20
132.1761169
11
5.417013
21
132.1761169
0
ARC
8
DEFAULT_255_1_234
10
5.5257408
20
132.6366713
40
0.3392876
50
270.4919872
51
281.8951556
0
ARC
8
DEFAULT_255_1_234
10
5.549867
20
132.5264702
40
0.2264817
50
281.6691735
51
301.2943132
0
ARC
8
DEFAULT_255_1_234
10
5.566888
20
132.4953304
40
0.1910381
50
301.7833094
51
311.7545298
0
ARC
8
DEFAULT_255_1_234
10
5.5760456
20
132.4851748
40
0.1773635
50
311.7323931
51
354.2802411
0
ARC
8
DEFAULT_255_1_234
10
5.5034081
20
132.4976722
40
0.2509385
50
353.0937916
51
0.1181479
0
ARC
8
DEFAULT_255_1_234
10
5.4572866
20
132.5024386
40
0.2970898
50
359.1805295
51
15.0453146
0
ARC
8
DEFAULT_255_1_234
10
5.5918703
20
132.5416992
40
0.1569564
50
13.9577229
51
77.6713066
0
ARC
8
DEFAULT_255_1_234
10
5.5532232
20
132.4031949
40
0.3006298
50
76.1116566
51
90.7026153
0
ARC
8
DEFAULT_255_1_234
10
5.547307
20
132.4305545
40
0.2732568
50
89.5324876
51
103.531937
0
ARC
8
DEFAULT_255_1_234
10
5.5272514
20
132.5104884
40
0.1908508
50
103.2931773
51
133.5619022
0
ARC
8
DEFAULT_255_1_234
10
5.5228003
20
132.5164375
40
0.1834746
50
133.8349307
51
173.5344437
0
ARC
8
DEFAULT_255_1_234
10
5.5951046
20
132.5036213
40
0.2568033
50
172.5096846
51
180.1366907
0
ARC
8
DEFAULT_255_1_234
10
5.499994
20
132.5070622
40
0.3103056
50
155.3484492
51
180.7484736
0
ARC
8
DEFAULT_255_1_234
10
5.4951029
20
132.5041846
40
0.3070957
50
131.5744599
51
154.4798489
0
ARC
8
DEFAULT_255_1_234
10
5.5264176
20
132.472531
40
0.3515643
50
96.9875458
51
131.9690667
0
ARC
8
DEFAULT_255_1_234
10
5.5483656
20
132.3479636
40
0.4779224
50
89.8596053
51
97.7825159
0
ARC
8
DEFAULT_255_1_234
10
5.5531719
20
132.3217616
40
0.5041361
50
78.3655447
51
90.4131539
0
ARC
8
DEFAULT_255_1_234
10
5.5889637
20
132.4876887
40
0.3344039
50
56.6229102
51
78.638727
0
ARC
8
DEFAULT_255_1_234
10
5.6104581
20
132.5252805
40
0.2912001
50
47.0253525
51
56.0854072
0
ARC
8
DEFAULT_255_1_234
10
5.6124361
20
132.5292223
40
0.2869704
50
10.9208013
51
46.7778124
0
ARC
8
DEFAULT_255_1_234
10
5.4760427
20
132.4976857
40
0.426899
50
359.6364486
51
11.6087304
0
ARC
8
DEFAULT_255_1_234
10
5.6595271
20
132.4961752
40
0.243409
50
332.3549906
51
359.7179418
0
ARC
8
DEFAULT_255_1_234
10
5.5944873
20
132.5270142
40
0.3153459
50
325.2333722
51
332.8745602
0
ARC
8
DEFAULT_255_1_234
10
5.6097496
20
132.5163828
40
0.2967456
50
292.9802137
51
325.2392345
0
ARC
8
DEFAULT_255_1_234
10
5.582287
20
132.5697863
40
0.3566604
50
292.5402179
51
293.6924929
0
ARC
8
DEFAULT_255_1_234
10
5.6215466
20
131.9243091
40
0.3307468
50
57.6435486
51
72.8625112
0
ARC
8
DEFAULT_255_1_234
10
5.6569966
20
131.9817549
40
0.2632492
50
36.7248896
51
57.4697979
0
ARC
8
DEFAULT_255_1_234
10
5.6558598
20
131.983022
40
0.2634081
50
8.0545065
51
36.356114
0
ARC
8
DEFAULT_255_1_234
10
5.5695784
20
131.9675174
40
0.3510261
50
359.8320645
51
8.5869982
0
ARC
8
DEFAULT_255_1_234
10
5.532056
20
131.9627101
40
0.3885653
50
343.9829931
51
0.5571613
0
ARC
8
DEFAULT_255_1_234
10
5.6206757
20
131.9384438
40
0.2966924
50
311.6359546
51
343.7651759
0
ARC
8
DEFAULT_255_1_234
10
5.5828326
20
131.9811102
40
0.3537231
50
279.7829875
51
311.6255694
0
ARC
8
DEFAULT_255_1_234
10
5.5527102
20
132.124828
40
0.5004971
50
269.7286406
51
280.3856417
0
ARC
8
DEFAULT_255_1_234
10
5.5465175
20
132.1206996
40
0.4963778
50
256.6828919
51
270.4412052
0
ARC
8
DEFAULT_255_1_234
10
5.5126471
20
131.9822394
40
0.3538406
50
229.4223008
51
256.8556159
0
ARC
8
DEFAULT_255_1_234
10
5.4711864
20
131.9355736
40
0.2914296
50
181.818294
51
229.6455059
0
ARC
8
DEFAULT_255_1_234
10
5.575182
20
131.9486496
40
0.3959084
50
179.9755256
51
183.2323064
0
ARC
8
DEFAULT_255_1_234
10
5.5579566
20
131.9466037
40
0.2293034
50
179.4465117
51
196.2869258
0
ARC
8
DEFAULT_255_1_234
10
5.5091974
20
131.9332651
40
0.1787621
50
196.5661473
51
227.705904
0
ARC
8
DEFAULT_255_1_234
10
5.5256069
20
131.9516155
40
0.2033784
50
227.7652068
51
257.8762805
0
ARC
8
DEFAULT_255_1_234
10
5.5481039
20
132.0459156
40
0.3003081
50
257.4584385
51
270.426602
0
ARC
8
DEFAULT_255_1_234
10
5.5526605
20
132.0748996
40
0.329292
50
269.5962073
51
280.8789248
0
ARC
8
DEFAULT_255_1_234
10
5.5756134
20
131.9602685
40
0.2123908
50
280.6346389
51
299.8595945
0
ARC
8
DEFAULT_255_1_234
10
5.594704
20
131.9240212
40
0.171457
50
300.3576302
51
314.5517981
0
ARC
8
DEFAULT_255_1_234
10
5.5864101
20
131.9300919
40
0.1816095
50
315.0728369
51
345.0431014
0
ARC
8
DEFAULT_255_1_234
10
5.4940915
20
131.9569841
40
0.2777492
50
344.5986631
51
357.9269593
0
ARC
8
DEFAULT_255_1_234
10
5.4045241
20
131.9631276
40
0.3674917
50
357.4748886
51
0.0231117
0
ARC
8
DEFAULT_255_1_234
10
5.5068351
20
131.9655679
40
0.2651907
50
359.5047933
51
13.4239635
0
ARC
8
DEFAULT_255_1_234
10
5.5934994
20
131.9877478
40
0.1757509
50
12.9498199
51
48.7551375
0
ARC
8
DEFAULT_255_1_234
10
5.5752728
20
131.96284
40
0.2065134
50
49.5088623
51
72.1836453
0
ARC
8
DEFAULT_255_1_234
10
5.5394881
20
131.8566291
40
0.3185836
50
71.9010081
51
84.3554254
0
ARC
8
DEFAULT_255_1_234
10
5.5233513
20
131.7205326
40
0.4556151
50
84.0193428
51
89.333121
0
LINE
8
DEFAULT_255_1_234
10
4.3078299
20
140.7473211
11
4.5897439
21
140.2991501
0
LINE
8
DEFAULT_255_1_234
10
4.5897439
20
140.2991501
11
4.8700516
21
140.7473211
0
LINE
8
DEFAULT_255_1_234
10
4.8700516
20
140.7473211
11
5.0515689
21
140.7473211
0
LINE
8
DEFAULT_255_1_234
10
5.0515689
20
140.7473211
11
4.6821089
21
140.1674296
0
LINE
8
DEFAULT_255_1_234
10
4.6821089
20
140.1674296
11
5.0604038
21
139.5779
0
LINE
8
DEFAULT_255_1_234
10
5.0604038
20
139.5779
11
4.8772802
21
139.5779
0
LINE
8
DEFAULT_255_1_234
10
4.8772802
20
139.5779
11
4.5897439
21
140.0341027
0
LINE
8
DEFAULT_255_1_234
10
4.5897439
20
140.0341027
11
4.3006014
21
139.5779
0
LINE
8
DEFAULT_255_1_234
10
4.3006014
20
139.5779
11
4.1182809
21
139.5779
0
LINE
8
DEFAULT_255_1_234
10
4.1182809
20
139.5779
11
4.497379
21
140.1674296
0
LINE
8
DEFAULT_255_1_234
10
4.497379
20
140.1674296
11
4.1271158
21
140.7473211
0
LINE
8
DEFAULT_255_1_234
10
4.1271158
20
140.7473211
11
4.3078299
21
140.7473211
0
LINE
8
DEFAULT_255_1_234
10
5.9671871
20
139.6991792
11
5.9671871
21
139.5779
0
LINE
8
DEFAULT_255_1_234
10
5.9671871
20
139.5779
11
5.2009592
21
139.5779
0
LINE
8
DEFAULT_255_1_234
10
5.2009592
20
139.5779
11
5.2009592
21
139.6847221
0
LINE
8
DEFAULT_255_1_234
10
5.2009592
20
139.6847221
11
5.6057588
21
140.1344995
0
LINE
8
DEFAULT_255_1_234
10
5.3270575
20
140.4027595
11
5.1784704
21
140.4027595
0
LINE
8
DEFAULT_255_1_234
10
5.6933048
20
140.0389218
11
5.380067
21
139.6991792
0
LINE
8
DEFAULT_255_1_234
10
5.380067
20
139.6991792
11
5.9671871
21
139.6991792
0
ARC
8
DEFAULT_255_1_234
10
4.2567422
20
141.3274527
40
1.8008286
50
318.5132453
51
320.7828378
0
ARC
8
DEFAULT_255_1_234
10
4.7854396
20
140.8971426
40
1.1191493
50
320.7372736
51
323.9737074
0
ARC
8
DEFAULT_255_1_234
10
5.1774252
20
140.6131361
40
0.6350923
50
323.8961724
51
328.6421089
0
ARC
8
DEFAULT_255_1_234
10
5.3820848
20
140.4869031
40
0.3946393
50
328.8299013
51
331.789948
0
ARC
8
DEFAULT_255_1_234
10
5.4818026
20
140.4354509
40
0.2824501
50
331.4255242
51
352.9364833
0
ARC
8
DEFAULT_255_1_234
10
5.4954527
20
140.4323976
40
0.2685315
50
353.2248685
51
0.0169286
0
ARC
8
DEFAULT_255_1_234
10
5.5164404
20
140.434695
40
0.2475536
50
359.4866256
51
15.9339782
0
ARC
8
DEFAULT_255_1_234
10
5.5671389
20
140.4483286
40
0.1950618
50
16.1714718
51
43.5284424
0
ARC
8
DEFAULT_255_1_234
10
5.5748698
20
140.4560573
40
0.184134
50
43.4415429
51
83.1661404
0
ARC
8
DEFAULT_255_1_234
10
5.5614616
20
140.3823771
40
0.258926
50
82.160215
51
90.1505798
0
ARC
8
DEFAULT_255_1_234
10
5.5583043
20
140.3286865
40
0.3126255
50
89.5460705
51
102.5418777
0
ARC
8
DEFAULT_255_1_234
10
5.5340129
20
140.4317665
40
0.2067346
50
102.1739365
51
129.2061916
0
ARC
8
DEFAULT_255_1_234
10
5.5261201
20
140.4442094
40
0.1921118
50
129.7279328
51
135.7542026
0
ARC
8
DEFAULT_255_1_234
10
5.5382729
20
140.4345045
40
0.2075944
50
136.175737
51
166.3674722
0
ARC
8
DEFAULT_255_1_234
10
5.6389648
20
140.4075182
40
0.3118201
50
165.9092917
51
178.8683903
0
ARC
8
DEFAULT_255_1_234
10
5.7254509
20
140.4028179
40
0.3983935
50
178.438168
51
180.0083905
0
ARC
8
DEFAULT_255_1_234
10
5.5853111
20
140.4067231
40
0.4068601
50
163.2878735
51
180.5581814
0
ARC
8
DEFAULT_255_1_234
10
5.5051373
20
140.428784
40
0.3237344
50
133.454115
51
162.9470031
0
ARC
8
DEFAULT_255_1_234
10
5.5229914
20
140.4098
40
0.349795
50
100.7869394
51
133.4384016
0
ARC
8
DEFAULT_255_1_234
10
5.5577686
20
140.2549319
40
0.5084616
50
89.6605301
51
101.3704185
0
ARC
8
DEFAULT_255_1_234
10
5.5644024
20
140.2610496
40
0.502348
50
78.2171172
51
90.4130393
0
ARC
8
DEFAULT_255_1_234
10
5.5999103
20
140.4234637
40
0.3361092
50
55.9268222
51
78.4888551
0
ARC
8
DEFAULT_255_1_234
10
5.6195543
20
140.4573324
40
0.2970617
50
47.9292255
51
55.4054003
0
ARC
8
DEFAULT_255_1_234
10
5.6297103
20
140.4676502
40
0.2825983
50
4.3347696
51
48.0560701
0
ARC
8
DEFAULT_255_1_234
10
5.5201497
20
140.4506601
40
0.393225
50
359.925209
51
5.5967654
0
ARC
8
DEFAULT_255_1_234
10
5.5630389
20
140.4562816
40
0.3503892
50
337.8914096
51
358.9967724
0
ARC
8
DEFAULT_255_1_234
10
5.2916801
20
140.5609706
40
0.6412172
50
326.9135351
51
338.3505194
0
ARC
8
DEFAULT_255_1_234
10
4.8931105
20
140.8164284
40
1.1146189
50
319.6472867
51
327.095818
0
ARC
8
DEFAULT_255_1_234
10
4.5098108
20
141.1326
40
1.6114559
50
317.2586784
51
319.9046139
0
LINE
8
DEFAULT_255_1_234
10
4.2994299
20
148.6848211
11
4.5813439
21
148.2366501
0
LINE
8
DEFAULT_255_1_234
10
4.5813439
20
148.2366501
11
4.8616516
21
148.6848211
0
LINE
8
DEFAULT_255_1_234
10
4.8616516
20
148.6848211
11
5.0431689
21
148.6848211
0
LINE
8
DEFAULT_255_1_234
10
5.0431689
20
148.6848211
11
4.6737089
21
148.1049296
0
LINE
8
DEFAULT_255_1_234
10
4.6737089
20
148.1049296
11
5.0520038
21
147.5154
0
LINE
8
DEFAULT_255_1_234
10
5.0520038
20
147.5154
11
4.8688802
21
147.5154
0
LINE
8
DEFAULT_255_1_234
10
4.8688802
20
147.5154
11
4.5813439
21
147.9716027
0
LINE
8
DEFAULT_255_1_234
10
4.5813439
20
147.9716027
11
4.2922014
21
147.5154
0
LINE
8
DEFAULT_255_1_234
10
4.2922014
20
147.5154
11
4.1098809
21
147.5154
0
LINE
8
DEFAULT_255_1_234
10
4.1098809
20
147.5154
11
4.488979
21
148.1049296
0
LINE
8
DEFAULT_255_1_234
10
4.488979
20
148.1049296
11
4.1187158
21
148.6848211
0
LINE
8
DEFAULT_255_1_234
10
4.1187158
20
148.6848211
11
4.2994299
21
148.6848211
0
LINE
8
DEFAULT_255_1_234
10
5.6808889
20
148.6904433
11
5.6808889
21
147.5154
0
LINE
8
DEFAULT_255_1_234
10
5.6808889
20
147.5154
11
5.5314986
21
147.5154
0
LINE
8
DEFAULT_255_1_234
10
5.5314986
20
147.5154
11
5.5314986
21
148.5057133
0
LINE
8
DEFAULT_255_1_234
10
5.5314986
20
148.5057133
11
5.2319147
21
148.3956785
0
LINE
8
DEFAULT_255_1_234
10
5.2319147
20
148.3956785
11
5.2319147
21
148.5306117
0
LINE
8
DEFAULT_255_1_234
10
5.2319147
20
148.5306117
11
5.6575969
21
148.6904433
0
LINE
8
DEFAULT_255_1_234
10
5.6575969
20
148.6904433
11
5.6808889
21
148.6904433
0
LINE
8
DEFAULT_255_1_234
10
4.3078299
20
156.6223211
11
4.5897439
21
156.1741501
0
LINE
8
DEFAULT_255_1_234
10
4.5897439
20
156.1741501
11
4.8700516
21
156.6223211
0
LINE
8
DEFAULT_255_1_234
10
4.8700516
20
156.6223211
11
5.0515689
21
156.6223211
0
LINE
8
DEFAULT_255_1_234
10
5.0515689
20
156.6223211
11
4.6821089
21
156.0424296
0
LINE
8
DEFAULT_255_1_234
10
4.6821089
20
156.0424296
11
5.0604038
21
155.4529
0
LINE
8
DEFAULT_255_1_234
10
5.0604038
20
155.4529
11
4.8772802
21
155.4529
0
LINE
8
DEFAULT_255_1_234
10
4.8772802
20
155.4529
11
4.5897439
21
155.9091027
0
LINE
8
DEFAULT_255_1_234
10
4.5897439
20
155.9091027
11
4.3006014
21
155.4529
0
LINE
8
DEFAULT_255_1_234
10
4.3006014
20
155.4529
11
4.1182809
21
155.4529
0
LINE
8
DEFAULT_255_1_234
10
4.1182809
20
155.4529
11
4.497379
21
156.0424296
0
LINE
8
DEFAULT_255_1_234
10
4.497379
20
156.0424296
11
4.1271158
21
156.6223211
0
LINE
8
DEFAULT_255_1_234
10
4.1271158
20
156.6223211
11
4.3078299
21
156.6223211
0
LINE
8
DEFAULT_255_1_234
10
5.9342569
20
156.1444327
11
5.9342569
21
155.9516709
0
LINE
8
DEFAULT_255_1_234
10
5.1961402
20
155.9315916
11
5.1961402
21
156.1299755
0
LINE
8
DEFAULT_255_1_234
10
5.7856698
20
155.9115123
11
5.7856698
21
156.1548739
0
LINE
8
DEFAULT_255_1_234
10
5.3447273
20
156.1661184
11
5.3447273
21
155.9283789
0
ARC
8
DEFAULT_255_1_234
10
4.7095459
20
155.9467805
40
1.2247208
50
353.8441951
51
0.2287902
0
ARC
8
DEFAULT_255_1_234
10
5.1734963
20
155.8949806
40
0.7578929
50
344.4934747
51
353.9765454
0
ARC
8
DEFAULT_255_1_234
10
5.4727553
20
155.8098981
40
0.4467846
50
329.2803592
51
344.7472793
0
ARC
8
DEFAULT_255_1_234
10
5.5720378
20
155.7554018
40
0.3336173
50
324.9352394
51
328.6160465
0
ARC
8
DEFAULT_255_1_234
10
5.6097486
20
155.7290427
40
0.2876076
50
280.580143
51
324.9173126
0
ARC
8
DEFAULT_255_1_234
10
5.5696279
20
155.8961099
40
0.4592847
50
269.5977311
51
281.6734359
0
ARC
8
DEFAULT_255_1_234
10
5.5624185
20
155.8841173
40
0.4472986
50
256.6228859
51
270.51044
0
ARC
8
DEFAULT_255_1_234
10
5.5222162
20
155.7292877
40
0.2873874
50
215.8618325
51
257.2788573
0
ARC
8
DEFAULT_255_1_234
10
5.6243194
20
155.7977977
40
0.4102928
50
197.9693508
51
215.2623606
0
ARC
8
DEFAULT_255_1_234
10
5.872831
20
155.8816709
40
0.6725652
50
187.8816417
51
198.2346507
0
ARC
8
DEFAULT_255_1_234
10
6.2686518
20
155.9388079
40
1.0724845
50
180.8976217
51
188.0055519
0
ARC
8
DEFAULT_255_1_234
10
6.5486706
20
155.9491777
40
1.3526448
50
180.7449369
51
181.1510016
0
ARC
8
DEFAULT_255_1_234
10
6.3909435
20
156.1348042
40
1.1948131
50
173.7675579
51
180.231553
0
ARC
8
DEFAULT_255_1_234
10
5.9391582
20
156.1858666
40
0.7401564
50
164.3058563
51
173.9002247
0
ARC
8
DEFAULT_255_1_234
10
5.647965
20
156.2697656
40
0.4371288
50
148.7922025
51
164.568378
0
ARC
8
DEFAULT_255_1_234
10
5.5528103
20
156.3228929
40
0.3282386
50
144.5883898
51
148.1176286
0
ARC
8
DEFAULT_255_1_234
10
5.5185001
20
156.3468315
40
0.2864044
50
101.6440918
51
144.514236
0
ARC
8
DEFAULT_255_1_234
10
5.5610067
20
156.1779069
40
0.4604934
50
89.5284041
51
102.5819763
0
ARC
8
DEFAULT_255_1_234
10
5.5689155
20
156.1740018
40
0.464401
50
77.0437873
51
90.5081339
0
ARC
8
DEFAULT_255_1_234
10
5.6091157
20
156.3382615
40
0.2953195
50
48.2778575
51
77.4994676
0
ARC
8
DEFAULT_255_1_234
10
5.6163788
20
156.3511746
40
0.2808655
50
36.3142134
51
47.6305865
0
ARC
8
DEFAULT_255_1_234
10
5.5295095
20
156.2926515
40
0.3855453
50
18.2931786
51
35.6769206
0
ARC
8
DEFAULT_255_1_234
10
5.2751854
20
156.2053593
40
0.654423
50
8.024666
51
18.5605216
0
ARC
8
DEFAULT_255_1_234
10
4.8588774
20
156.1438792
40
1.0752407
50
1.1274072
51
8.1718305
0
ARC
8
DEFAULT_255_1_234
10
4.5352964
20
156.1311885
40
1.3990231
50
0.5424119
51
1.3863029
0
ARC
8
DEFAULT_255_1_234
10
4.7174342
20
156.1584342
40
1.0682415
50
359.8090433
51
4.9407866
0
ARC
8
DEFAULT_255_1_234
10
5.1384356
20
156.1960113
40
0.6455691
50
4.8362157
51
12.2904523
0
ARC
8
DEFAULT_255_1_234
10
5.4139471
20
156.2573965
40
0.3633074
50
12.0805627
51
23.8173984
0
ARC
8
DEFAULT_255_1_234
10
5.5313176
20
156.3070919
40
0.2358723
50
24.2871213
51
31.3935614
0
ARC
8
DEFAULT_255_1_234
10
5.5837874
20
156.3414233
40
0.1732111
50
30.7407893
51
82.4657128
0
ARC
8
DEFAULT_255_1_234
10
5.5658008
20
156.2530691
40
0.263235
50
81.1060089
51
90.2184952
0
ARC
8
DEFAULT_255_1_234
10
5.5622307
20
156.2788924
40
0.2374236
50
89.3806855
51
105.6762551
0
ARC
8
DEFAULT_255_1_234
10
5.5438938
20
156.3455567
40
0.1682847
50
105.7981136
51
149.7388061
0
ARC
8
DEFAULT_255_1_234
10
5.6503016
20
156.281595
40
0.2924306
50
149.4208916
51
163.6286378
0
ARC
8
DEFAULT_255_1_234
10
5.8593904
20
156.217825
40
0.5110213
50
163.3763315
51
172.1410975
0
ARC
8
DEFAULT_255_1_234
10
6.1894623
20
156.1705518
40
0.8444586
50
172.0259487
51
178.0703232
0
ARC
8
DEFAULT_255_1_234
10
6.4924712
20
156.1561906
40
1.1477868
50
177.8631668
51
179.5044149
0
ARC
8
DEFAULT_255_1_234
10
6.3852117
20
155.9247389
40
1.0404907
50
179.7995573
51
185.2460446
0
ARC
8
DEFAULT_255_1_234
10
5.9809156
20
155.8864513
40
0.6343885
50
185.1411642
51
193.0079639
0
ARC
8
DEFAULT_255_1_234
10
5.7165629
20
155.8239641
40
0.3627568
50
192.7897626
51
205.2507664
0
ARC
8
DEFAULT_255_1_234
10
5.6119176
20
155.7772415
40
0.2481908
50
205.8005384
51
211.2537509
0
ARC
8
DEFAULT_255_1_234
10
5.5595616
20
155.742158
40
0.1852521
50
210.3789793
51
238.4008143
0
ARC
8
DEFAULT_255_1_234
10
5.5576138
20
155.7468376
40
0.1882621
50
239.6520629
51
265.9793761
0
ARC
8
DEFAULT_255_1_234
10
5.5661338
20
155.8140427
40
0.2559272
50
265.1315437
51
270.060332
0
ARC
8
DEFAULT_255_1_234
10
5.5690117
20
155.7816534
40
0.2235528
50
269.3314664
51
287.2178029
0
ARC
8
DEFAULT_255_1_234
10
5.5827969
20
155.7313279
40
0.1714108
50
287.7958004
51
329.080874
0
ARC
8
DEFAULT_255_1_234
10
5.4870426
20
155.791093
40
0.2842745
50
328.6634704
51
343.3325132
0
ARC
8
DEFAULT_255_1_234
10
5.2697446
20
155.8587863
40
0.5118644
50
343.0499468
51
351.9393422
0
ARC
8
DEFAULT_255_1_234
10
4.9230746
20
155.9098949
40
0.8622784
50
351.8069023
51
357.7959224
0
ARC
8
DEFAULT_255_1_234
10
4.5995302
20
155.9266721
40
1.1862365
50
357.5871873
51
359.2677531
0
LINE
8
DEFAULT_255_1_234
10
4.9431879
20
164.5598211
11
4.9431879
21
163.3904
0
LINE
8
DEFAULT_255_1_234
10
4.9431879
20
163.3904
11
4.7881753
21
163.3904
0
LINE
8
DEFAULT_255_1_234
10
4.7881753
20
163.3904
11
4.1994489
21
164.291561
0
LINE
8
DEFAULT_255_1_234
10
4.1994489
20
164.291561
11
4.1994489
21
163.3904
0
LINE
8
DEFAULT_255_1_234
10
4.1994489
20
163.3904
11
4.0444364
21
163.3904
0
LINE
8
DEFAULT_255_1_234
10
4.0444364
20
163.3904
11
4.0444364
21
164.5598211
0
LINE
8
DEFAULT_255_1_234
10
4.0444364
20
164.5598211
11
4.1994489
21
164.5598211
0
LINE
8
DEFAULT_255_1_234
10
4.1994489
20
164.5598211
11
4.7897817
21
163.6546442
0
LINE
8
DEFAULT_255_1_234
10
4.7897817
20
163.6546442
11
4.7897817
21
164.5598211
0
LINE
8
DEFAULT_255_1_234
10
4.7897817
20
164.5598211
11
4.9431879
21
164.5598211
0
LINE
8
DEFAULT_255_1_234
10
22.1790119
20
171.4491792
11
22.1790119
21
171.3279
0
LINE
8
DEFAULT_255_1_234
10
22.1790119
20
171.3279
11
21.412784
21
171.3279
0
LINE
8
DEFAULT_255_1_234
10
21.412784
20
171.3279
11
21.412784
21
171.4347221
0
LINE
8
DEFAULT_255_1_234
10
21.412784
20
171.4347221
11
21.8175836
21
171.8844995
0
LINE
8
DEFAULT_255_1_234
10
21.5388823
20
172.1527595
11
21.3902952
21
172.1527595
0
LINE
8
DEFAULT_255_1_234
10
21.9051296
20
171.7889218
11
21.5918918
21
171.4491792
0
LINE
8
DEFAULT_255_1_234
10
21.5918918
20
171.4491792
11
22.1790119
21
171.4491792
0
ARC
8
DEFAULT_255_1_234
10
20.468567
20
173.0774527
40
1.8008286
50
318.5132453
51
320.7828378
0
ARC
8
DEFAULT_255_1_234
10
20.9972644
20
172.6471426
40
1.1191493
50
320.7372736
51
323.9737074
0
ARC
8
DEFAULT_255_1_234
10
21.3892501
20
172.3631361
40
0.6350923
50
323.8961724
51
328.6421089
0
ARC
8
DEFAULT_255_1_234
10
21.5939096
20
172.2369031
40
0.3946393
50
328.8299013
51
331.789948
0
ARC
8
DEFAULT_255_1_234
10
21.6936274
20
172.1854509
40
0.2824501
50
331.4255242
51
352.9364833
0
ARC
8
DEFAULT_255_1_234
10
21.7072775
20
172.1823976
40
0.2685315
50
353.2248685
51
0.0169286
0
ARC
8
DEFAULT_255_1_234
10
21.7282652
20
172.184695
40
0.2475536
50
359.4866256
51
15.9339782
0
ARC
8
DEFAULT_255_1_234
10
21.7789637
20
172.1983286
40
0.1950618
50
16.1714718
51
43.5284424
0
ARC
8
DEFAULT_255_1_234
10
21.7866946
20
172.2060573
40
0.184134
50
43.4415429
51
83.1661404
0
ARC
8
DEFAULT_255_1_234
10
21.7732864
20
172.1323771
40
0.258926
50
82.160215
51
90.1505798
0
ARC
8
DEFAULT_255_1_234
10
21.7701291
20
172.0786865
40
0.3126255
50
89.5460705
51
102.5418777
0
ARC
8
DEFAULT_255_1_234
10
21.7458377
20
172.1817665
40
0.2067346
50
102.1739365
51
129.2061916
0
ARC
8
DEFAULT_255_1_234
10
21.7379449
20
172.1942094
40
0.1921118
50
129.7279328
51
135.7542026
0
ARC
8
DEFAULT_255_1_234
10
21.7500977
20
172.1845045
40
0.2075944
50
136.175737
51
166.3674722
0
ARC
8
DEFAULT_255_1_234
10
21.8507896
20
172.1575182
40
0.3118201
50
165.9092917
51
178.8683903
0
ARC
8
DEFAULT_255_1_234
10
21.9372757
20
172.1528179
40
0.3983935
50
178.438168
51
180.0083905
0
ARC
8
DEFAULT_255_1_234
10
21.7971359
20
172.1567231
40
0.4068601
50
163.2878735
51
180.5581814
0
ARC
8
DEFAULT_255_1_234
10
21.7169621
20
172.178784
40
0.3237344
50
133.454115
51
162.9470031
0
ARC
8
DEFAULT_255_1_234
10
21.7348162
20
172.1598
40
0.349795
50
100.7869394
51
133.4384016
0
ARC
8
DEFAULT_255_1_234
10
21.7695934
20
172.0049319
40
0.5084616
50
89.6605301
51
101.3704185
0
ARC
8
DEFAULT_255_1_234
10
21.7762273
20
172.0110496
40
0.502348
50
78.2171172
51
90.4130393
0
ARC
8
DEFAULT_255_1_234
10
21.8117351
20
172.1734637
40
0.3361092
50
55.9268222
51
78.4888551
0
ARC
8
DEFAULT_255_1_234
10
21.8313791
20
172.2073324
40
0.2970617
50
47.9292255
51
55.4054003
0
ARC
8
DEFAULT_255_1_234
10
21.8415352
20
172.2176502
40
0.2825983
50
4.3347696
51
48.0560701
0
ARC
8
DEFAULT_255_1_234
10
21.7319745
20
172.2006601
40
0.393225
50
359.925209
51
5.5967654
0
ARC
8
DEFAULT_255_1_234
10
21.7748637
20
172.2062816
40
0.3503892
50
337.8914096
51
358.9967724
0
ARC
8
DEFAULT_255_1_234
10
21.5035049
20
172.3109706
40
0.6412172
50
326.9135351
51
338.3505194
0
ARC
8
DEFAULT_255_1_234
10
21.1049353
20
172.5664284
40
1.1146189
50
319.6472867
51
327.095818
0
ARC
8
DEFAULT_255_1_234
10
20.7216356
20
172.8826
40
1.6114559
50
317.2586784
51
319.9046139
0
LINE
8
DEFAULT_255_1_234
10
22.9637127
20
172.4973211
11
22.9637127
21
171.720652
0
LINE
8
DEFAULT_255_1_234
10
22.9637127
20
171.720652
11
23.1259538
21
171.720652
0
LINE
8
DEFAULT_255_1_234
10
23.1259538
20
171.720652
11
23.1259538
21
171.5993728
0
LINE
8
DEFAULT_255_1_234
10
23.1259538
20
171.5993728
11
22.9637127
21
171.5993728
0
LINE
8
DEFAULT_255_1_234
10
22.9637127
20
171.5993728
11
22.9637127
21
171.3279
0
LINE
8
DEFAULT_255_1_234
10
22.9637127
20
171.3279
11
22.8143224
21
171.3279
0
LINE
8
DEFAULT_255_1_234
10
22.8143224
20
171.3279
11
22.8143224
21
171.5993728
0
LINE
8
DEFAULT_255_1_234
10
22.8143224
20
171.5993728
11
22.2818181
21
171.5993728
0
LINE
8
DEFAULT_255_1_234
10
22.2818181
20
171.5993728
11
22.2818181
21
171.6869187
0
LINE
8
DEFAULT_255_1_234
10
22.2818181
20
171.6869187
11
22.8054875
21
172.4973211
0
LINE
8
DEFAULT_255_1_234
10
22.8054875
20
172.4973211
11
22.9637127
21
172.4973211
0
LINE
8
DEFAULT_255_1_234
10
22.7966525
20
172.2619912
11
22.4504846
21
171.720652
0
LINE
8
DEFAULT_255_1_234
10
22.4504846
20
171.720652
11
22.8143224
21
171.720652
0
LINE
8
DEFAULT_255_1_234
10
22.8143224
20
171.720652
11
22.8143224
21
172.2941181
0
LINE
8
DEFAULT_255_1_234
10
22.8143224
20
172.2941181
11
22.7966525
21
172.2619912
0
LINE
8
DEFAULT_255_1_234
10
24.162048
20
171.910201
11
24.162048
21
171.4813062
0
LINE
8
DEFAULT_255_1_234
10
23.260887
20
171.8563884
11
23.260887
21
171.9583915
0
LINE
8
DEFAULT_255_1_234
10
24.162048
20
172.1543659
11
24.0078387
21
172.1543659
0
LINE
8
DEFAULT_255_1_234
10
23.4158996
20
171.9624073
11
23.4158996
21
171.8668296
0
LINE
8
DEFAULT_255_1_234
10
24.0086418
20
171.5222681
11
24.0086418
21
171.7849059
0
LINE
8
DEFAULT_255_1_234
10
24.0086418
20
171.7849059
11
23.7379723
21
171.7849059
0
LINE
8
DEFAULT_255_1_234
10
23.7379723
20
171.7849059
11
23.7379723
21
171.910201
0
LINE
8
DEFAULT_255_1_234
10
23.7379723
20
171.910201
11
24.162048
21
171.910201
0
ARC
8
DEFAULT_255_1_234
10
23.8788987
20
171.6806396
40
0.3462765
50
295.8437914
51
324.8549609
0
ARC
8
DEFAULT_255_1_234
10
23.8372954
20
171.7559567
40
0.4322211
50
291.5695085
51
296.4549398
0
ARC
8
DEFAULT_255_1_234
10
23.7862205
20
171.8924275
40
0.5779178
50
278.6622409
51
291.3045483
0
ARC
8
DEFAULT_255_1_234
10
23.7522697
20
172.1072408
40
0.7953952
50
270.020006
51
278.7494541
0
ARC
8
DEFAULT_255_1_234
10
23.7484621
20
172.2389036
40
0.927067
50
269.9969998
51
270.2524872
0
ARC
8
DEFAULT_255_1_234
10
23.7446334
20
171.8305589
40
0.5187361
50
253.5786322
51
270.4175299
0
ARC
8
DEFAULT_255_1_234
10
23.727299
20
171.7634236
40
0.4494451
50
238.8203306
51
253.2788235
0
ARC
8
DEFAULT_255_1_234
10
23.7253363
20
171.7583231
40
0.4440665
50
206.7883783
51
238.6962764
0
ARC
8
DEFAULT_255_1_234
10
23.8027273
20
171.8047405
40
0.5341121
50
206.1129412
51
207.4916643
0
ARC
8
DEFAULT_255_1_234
10
23.8624188
20
171.8301488
40
0.5989041
50
188.6921119
51
205.7821245
0
ARC
8
DEFAULT_255_1_234
10
24.048055
20
171.861723
40
0.7871862
50
180.3882829
51
188.9219216
0
ARC
8
DEFAULT_255_1_234
10
24.1708364
20
171.9640464
40
0.909967
50
170.2024264
51
180.3560651
0
ARC
8
DEFAULT_255_1_234
10
23.8544882
20
172.0206237
40
0.5886083
50
154.2857445
51
170.3893044
0
ARC
8
DEFAULT_255_1_234
10
23.7263085
20
172.079295
40
0.4476743
50
139.8401567
51
153.9332699
0
ARC
8
DEFAULT_255_1_234
10
23.6903821
20
172.1080577
40
0.4016697
50
98.4190291
51
139.6707122
0
ARC
8
DEFAULT_255_1_234
10
23.7283339
20
171.9235328
40
0.5898566
50
89.7659205
51
99.4415478
0
ARC
8
DEFAULT_255_1_234
10
23.7348588
20
171.9300844
40
0.5833147
50
78.0551672
51
90.4042112
0
ARC
8
DEFAULT_255_1_234
10
23.7753098
20
172.1119644
40
0.3970055
50
54.6380464
51
78.3339173
0
ARC
8
DEFAULT_255_1_234
10
23.7943154
20
172.1439795
40
0.3599102
50
50.031736
51
54.1558201
0
ARC
8
DEFAULT_255_1_234
10
23.7835942
20
172.1343766
40
0.3741624
50
18.1092409
51
49.7180913
0
ARC
8
DEFAULT_255_1_234
10
23.6379142
20
172.0810089
40
0.5292424
50
7.9672797
51
18.6984571
0
ARC
8
DEFAULT_255_1_234
10
23.652962
20
172.0933504
40
0.3600838
50
9.7557294
51
27.3215714
0
ARC
8
DEFAULT_255_1_234
10
23.7657092
20
172.1496912
40
0.2340608
50
27.7361077
51
84.5257964
0
ARC
8
DEFAULT_255_1_234
10
23.7329479
20
171.985364
40
0.4011215
50
82.106034
51
90.2001166
0
ARC
8
DEFAULT_255_1_234
10
23.7279696
20
172.0361215
40
0.3503799
50
89.4150119
51
105.5823402
0
ARC
8
DEFAULT_255_1_234
10
23.7022694
20
172.1296867
40
0.2533503
50
105.6678618
51
144.2648758
0
ARC
8
DEFAULT_255_1_234
10
23.7915949
20
172.0661289
40
0.3629787
50
144.3561283
51
162.8564086
0
ARC
8
DEFAULT_255_1_234
10
23.9999858
20
171.9992017
40
0.5818441
50
162.6076014
51
173.6780284
0
ARC
8
DEFAULT_255_1_234
10
24.3061002
20
171.961989
40
0.8902007
50
173.4670142
51
179.9730753
0
ARC
8
DEFAULT_255_1_234
10
24.1152673
20
171.862626
40
0.6993804
50
179.6556203
51
190.0080463
0
ARC
8
DEFAULT_255_1_234
10
23.8836502
20
171.8201375
40
0.4639066
50
189.8116607
51
206.6796816
0
ARC
8
DEFAULT_255_1_234
10
23.7991654
20
171.7807503
40
0.3707421
50
207.1031645
51
217.7074368
0
ARC
8
DEFAULT_255_1_234
10
23.7357343
20
171.7255559
40
0.2868417
50
216.7345547
51
265.6812148
0
ARC
8
DEFAULT_255_1_234
10
23.7488134
20
171.8159855
40
0.3780509
50
264.7366618
51
270.0611241
0
ARC
8
DEFAULT_255_1_234
10
23.7511397
20
172.1000111
40
0.662079
50
269.8335834
51
276.0539546
0
ARC
8
DEFAULT_255_1_234
10
23.7718402
20
171.909856
40
0.4708016
50
275.9894168
51
284.4615085
0
ARC
8
DEFAULT_255_1_234
10
23.7916409
20
171.8265663
40
0.3852094
50
284.7034461
51
286.4953897
0
ARC
8
DEFAULT_255_1_234
10
23.8323422
20
171.6954965
40
0.2479842
50
286.0770838
51
304.2625829
0
ARC
8
DEFAULT_255_1_234
10
23.8456836
20
171.6736594
40
0.2224291
50
304.5891602
51
317.1073298
0
LINE
8
DEFAULT_255_1_234
10
20.354823
20
20.8864663
11
20.5098355
21
20.8864663
0
LINE
8
DEFAULT_255_1_234
10
19.6094777
20
21.0454947
11
19.6094777
21
21.1579391
0
LINE
8
DEFAULT_255_1_234
10
20.5098355
20
21.3089357
11
20.354823
21
21.3089357
0
LINE
8
DEFAULT_255_1_234
10
19.7644902
20
21.1539232
11
19.7644902
21
21.0406757
0
ARC
8
DEFAULT_255_1_234
10
19.9617742
20
20.9461846
40
0.5513052
50
340.1774281
51
353.7814284
0
ARC
8
DEFAULT_255_1_234
10
20.1189095
20
20.8876582
40
0.3836379
50
311.4558989
51
340.4421614
0
ARC
8
DEFAULT_255_1_234
10
20.1155763
20
20.8987528
40
0.3941894
50
282.4333181
51
310.7513653
0
ARC
8
DEFAULT_255_1_234
10
20.0716502
20
21.0802679
40
0.5809175
50
269.9358511
51
282.809604
0
ARC
8
DEFAULT_255_1_234
10
20.0664568
20
21.2260212
40
0.7266847
50
270.0021091
51
270.3581957
0
ARC
8
DEFAULT_255_1_234
10
20.0611985
20
20.9659585
40
0.4666519
50
250.7884749
51
270.6489167
0
ARC
8
DEFAULT_255_1_234
10
20.044382
20
20.9022319
40
0.4009729
50
219.3627325
51
250.0611886
0
ARC
8
DEFAULT_255_1_234
10
20.1273031
20
20.9727042
40
0.5097822
50
193.5479632
51
219.5756669
0
ARC
8
DEFAULT_255_1_234
10
20.3644652
20
21.0342919
40
0.7547848
50
181.1218675
51
193.87563
0
ARC
8
DEFAULT_255_1_234
10
20.5714833
20
21.045358
40
0.9620055
50
179.9918545
51
181.5394234
0
ARC
8
DEFAULT_255_1_234
10
20.3863935
20
21.1616788
40
0.7769248
50
169.5837241
51
180.2757934
0
ARC
8
DEFAULT_255_1_234
10
20.2026873
20
21.1956229
40
0.590109
50
155.0365899
51
169.6003176
0
ARC
8
DEFAULT_255_1_234
10
20.0891337
20
21.2503677
40
0.4640625
50
136.783148
51
155.2472683
0
ARC
8
DEFAULT_255_1_234
10
20.0501814
20
21.2834562
40
0.4130255
50
121.7633186
51
136.428115
0
ARC
8
DEFAULT_255_1_234
10
20.0636776
20
21.2585227
40
0.4413323
50
95.6459699
51
121.5490577
0
ARC
8
DEFAULT_255_1_234
10
20.0794058
20
21.1476949
40
0.55319
50
89.924208
51
96.1377933
0
ARC
8
DEFAULT_255_1_234
10
20.0844491
20
21.1595542
40
0.5413475
50
76.6779277
51
90.4563316
0
ARC
8
DEFAULT_255_1_234
10
20.1238114
20
21.3186114
40
0.3775041
50
47.485847
51
76.9287264
0
ARC
8
DEFAULT_255_1_234
10
20.1091087
20
21.3086159
40
0.3948286
50
16.5424086
51
46.8933463
0
ARC
8
DEFAULT_255_1_234
10
19.9483244
20
21.2557861
40
0.564021
50
5.4072051
51
17.0365086
0
ARC
8
DEFAULT_255_1_234
10
19.8044261
20
21.2326679
40
0.5556559
50
7.8891745
51
15.9239216
0
ARC
8
DEFAULT_255_1_234
10
20.0031274
20
21.2903631
40
0.3487515
50
15.7653144
51
27.9410532
0
ARC
8
DEFAULT_255_1_234
10
20.1135492
20
21.349479
40
0.2235026
50
27.8166557
51
46.4008329
0
ARC
8
DEFAULT_255_1_234
10
20.1185135
20
21.3489082
40
0.2205286
50
47.4371857
51
75.0698205
0
ARC
8
DEFAULT_255_1_234
10
20.0876529
20
21.2414765
40
0.3322915
50
74.7008593
51
87.8124495
0
ARC
8
DEFAULT_255_1_234
10
20.0803217
20
21.1358844
40
0.4380987
50
87.3814673
51
90.0240855
0
ARC
8
DEFAULT_255_1_234
10
20.076476
20
21.2536291
40
0.3203749
50
89.3451631
51
108.5745436
0
ARC
8
DEFAULT_255_1_234
10
20.0627865
20
21.3049908
40
0.2673494
50
109.2998449
51
143.3037509
0
ARC
8
DEFAULT_255_1_234
10
20.1389938
20
21.2463881
40
0.3634757
50
143.0753173
51
163.1916937
0
ARC
8
DEFAULT_255_1_234
10
20.3341666
20
21.1847967
40
0.5681262
50
162.9373603
51
174.6208611
0
ARC
8
DEFAULT_255_1_234
10
20.5967708
20
21.156001
40
0.8322832
50
174.3419979
51
180.1430411
0
ARC
8
DEFAULT_255_1_234
10
20.5036864
20
21.0365698
40
0.7392076
50
179.6817502
51
189.150529
0
ARC
8
DEFAULT_255_1_234
10
20.2536112
20
20.994919
40
0.4856932
50
188.9910863
51
203.5773039
0
ARC
8
DEFAULT_255_1_234
10
20.1456445
20
20.9501211
40
0.3688271
50
203.9077269
51
215.1312379
0
ARC
8
DEFAULT_255_1_234
10
20.0533539
20
20.8785941
40
0.2522457
50
213.9071664
51
263.8849284
0
ARC
8
DEFAULT_255_1_234
10
20.0658868
20
20.9570518
40
0.3316174
50
263.1758525
51
270.1031083
0
ARC
8
DEFAULT_255_1_234
10
20.069096
20
21.0817365
40
0.4563091
50
269.6719807
51
279.0609165
0
ARC
8
DEFAULT_255_1_234
10
20.0957728
20
20.9204907
40
0.2928759
50
278.8750225
51
293.6346586
0
ARC
8
DEFAULT_255_1_234
10
20.1277936
20
20.84529
40
0.2111472
50
293.8553404
51
310.0518804
0
ARC
8
DEFAULT_255_1_234
10
20.128279
20
20.8390516
40
0.2060917
50
311.0646779
51
332.0108348
0
ARC
8
DEFAULT_255_1_234
10
20.0090517
20
20.9047978
40
0.3422352
50
331.6588543
51
343.2878891
0
ARC
8
DEFAULT_255_1_234
10
19.8028032
20
20.9681798
40
0.5580003
50
343.1446044
51
351.010618
0
ARC
8
DEFAULT_255_1_234
10
19.6486678
20
20.9962871
40
0.7146438
50
350.7157277
51
351.1602153
0
LINE
8
DEFAULT_255_1_234
10
21.6198218
20
21.1362534
11
21.6198218
21
21.0623614
0
LINE
8
DEFAULT_255_1_234
10
20.6793052
20
21.0519201
11
20.6793052
21
21.1362534
0
LINE
8
DEFAULT_255_1_234
10
21.4664156
20
21.0511169
11
21.4664156
21
21.1378597
0
LINE
8
DEFAULT_255_1_234
10
20.8327114
20
21.148301
11
20.8327114
21
21.0623614
0
ARC
8
DEFAULT_255_1_234
10
20.7556244
20
21.0584015
40
0.8642064
50
350.487711
51
0.2625388
0
ARC
8
DEFAULT_255_1_234
10
20.9849486
20
21.0189578
40
0.631518
50
336.0277639
51
350.5787438
0
ARC
8
DEFAULT_255_1_234
10
21.1194309
20
20.9581892
40
0.4839466
50
319.8877444
51
336.1328423
0
ARC
8
DEFAULT_255_1_234
10
21.179695
20
20.909958
40
0.4067874
50
302.4806467
51
319.6143626
0
ARC
8
DEFAULT_255_1_234
10
21.168196
20
20.9321202
40
0.4316636
50
275.8195682
51
302.1884709
0
ARC
8
DEFAULT_255_1_234
10
21.1515593
20
21.0463665
40
0.5470306
50
269.9171439
51
276.3397983
0
ARC
8
DEFAULT_255_1_234
10
21.1470803
20
20.9777681
40
0.4784458
50
252.5219675
51
270.4416499
0
ARC
8
DEFAULT_255_1_234
10
21.1327062
20
20.9238592
40
0.422716
50
237.5352116
51
252.1857531
0
ARC
8
DEFAULT_255_1_234
10
21.1416258
20
20.9352363
40
0.4371052
50
209.063312
51
237.3492538
0
ARC
8
DEFAULT_255_1_234
10
21.2286106
20
20.9898685
40
0.5397041
50
205.1183774
51
209.6470015
0
ARC
8
DEFAULT_255_1_234
10
21.3083143
20
21.023683
40
0.6262326
50
188.7215458
51
204.8240747
0
ARC
8
DEFAULT_255_1_234
10
21.5080671
20
21.0573067
40
0.8287794
50
180.3723947
51
188.9252049
0
ARC
8
DEFAULT_255_1_234
10
21.5053423
20
21.1402402
40
0.8260467
50
169.5253763
51
180.2765336
0
ARC
8
DEFAULT_255_1_234
10
21.3150871
20
21.1752309
40
0.6326007
50
155.8315255
51
169.5089989
0
ARC
8
DEFAULT_255_1_234
10
21.1870373
20
21.2346348
40
0.4914567
50
139.6258461
51
156.0379525
0
ARC
8
DEFAULT_255_1_234
10
21.1280706
20
21.2820799
40
0.4158054
50
122.6416387
51
139.3430715
0
ARC
8
DEFAULT_255_1_234
10
21.1381326
20
21.2637451
40
0.4366739
50
93.0223692
51
122.455762
0
ARC
8
DEFAULT_255_1_234
10
21.1489323
20
21.1672709
40
0.5336137
50
89.975342
51
93.6341897
0
ARC
8
DEFAULT_255_1_234
10
21.1528102
20
21.2071242
40
0.4937738
50
73.746375
51
90.4233405
0
ARC
8
DEFAULT_255_1_234
10
21.1703681
20
21.2751287
40
0.4235786
50
57.662753
51
73.4518111
0
ARC
8
DEFAULT_255_1_234
10
21.1695687
20
21.2772832
40
0.4221899
50
29.1440151
51
57.414694
0
ARC
8
DEFAULT_255_1_234
10
21.0760882
20
21.2189005
40
0.5322966
50
24.0982783
51
29.7323517
0
ARC
8
DEFAULT_255_1_234
10
20.9727157
20
21.1760399
40
0.6441673
50
8.6655297
51
23.8241346
0
ARC
8
DEFAULT_255_1_234
10
20.7492895
20
21.1395854
40
0.8705386
50
359.7806941
51
8.8218784
0
ARC
8
DEFAULT_255_1_234
10
20.6345893
20
21.1421345
40
0.8318373
50
359.7055579
51
8.036044
0
ARC
8
DEFAULT_255_1_234
10
20.9345899
20
21.1858239
40
0.5286768
50
7.8928306
51
20.2962107
0
ARC
8
DEFAULT_255_1_234
10
21.097347
20
21.2458395
40
0.3552073
50
20.3231126
51
36.4992797
0
ARC
8
DEFAULT_255_1_234
10
21.1659016
20
21.2986402
40
0.2686974
50
36.1437156
51
85.6627023
0
ARC
8
DEFAULT_255_1_234
10
21.1496562
20
21.1946221
40
0.373739
50
84.3852322
51
90.0757696
0
ARC
8
DEFAULT_255_1_234
10
21.1454234
20
21.2606839
40
0.3076997
50
89.3038458
51
109.9045693
0
ARC
8
DEFAULT_255_1_234
10
21.1361625
20
21.2989062
40
0.2686424
50
110.8228367
51
143.9179474
0
ARC
8
DEFAULT_255_1_234
10
21.2295285
20
21.2276236
40
0.3860887
50
143.5289163
51
163.2980757
0
ARC
8
DEFAULT_255_1_234
10
21.4203106
20
21.1676433
40
0.5860659
50
163.0418846
51
174.3140048
0
ARC
8
DEFAULT_255_1_234
10
21.6607218
20
21.1398854
40
0.8280531
50
174.0509143
51
179.4176892
0
ARC
8
DEFAULT_255_1_234
10
21.6102957
20
21.0581954
40
0.7775954
50
179.6930361
51
188.7906598
0
ARC
8
DEFAULT_255_1_234
10
21.3439436
20
21.0155935
40
0.5078633
50
188.6331305
51
202.5629587
0
ARC
8
DEFAULT_255_1_234
10
21.2185028
20
20.9651996
40
0.3726913
50
202.8081362
51
216.1193925
0
ARC
8
DEFAULT_255_1_234
10
21.1375598
20
20.9000676
40
0.2689577
50
215.0755913
51
264.6379694
0
ARC
8
DEFAULT_255_1_234
10
21.1502548
20
20.9831513
40
0.3528978
50
263.846392
51
270.0833719
0
ARC
8
DEFAULT_255_1_234
10
21.1543938
20
20.9573374
40
0.3271036
50
269.3649385
51
287.5152008
0
ARC
8
DEFAULT_255_1_234
10
21.1722096
20
20.8926238
40
0.2600406
50
288.0630309
51
323.8113348
0
ARC
8
DEFAULT_255_1_234
10
21.0850937
20
20.9576049
40
0.3687189
50
323.6547608
51
342.6590488
0
ARC
8
DEFAULT_255_1_234
10
20.8819552
20
21.0236952
40
0.5823286
50
342.4091907
51
353.6451149
0
ARC
8
DEFAULT_255_1_234
10
20.5988063
20
21.058919
40
0.8676442
50
353.4029884
51
359.4847795
0
LINE
8
DEFAULT_255_1_234
10
21.8511358
20
21.6848211
11
22.0503229
21
21.6848211
0
LINE
8
DEFAULT_255_1_234
10
22.0503229
20
21.6848211
11
22.4326337
21
20.7306506
0
LINE
8
DEFAULT_255_1_234
10
22.4326337
20
20.7306506
11
22.8149444
21
21.6848211
0
LINE
8
DEFAULT_255_1_234
10
22.8149444
20
21.6848211
11
23.0149347
21
21.6848211
0
LINE
8
DEFAULT_255_1_234
10
23.0149347
20
21.6848211
11
23.0149347
21
20.5154
0
LINE
8
DEFAULT_255_1_234
10
23.0149347
20
20.5154
11
22.8607253
21
20.5154
0
LINE
8
DEFAULT_255_1_234
10
22.8607253
20
20.5154
11
22.8607253
21
20.9707996
0
LINE
8
DEFAULT_255_1_234
10
22.8607253
20
20.9707996
11
22.8751825
21
21.4623419
0
LINE
8
DEFAULT_255_1_234
10
22.8751825
20
21.4623419
11
22.4912654
21
20.5154
0
LINE
8
DEFAULT_255_1_234
10
22.4912654
20
20.5154
11
22.3731988
21
20.5154
0
LINE
8
DEFAULT_255_1_234
10
22.3731988
20
20.5154
11
21.9900849
21
21.4599324
0
LINE
8
DEFAULT_255_1_234
10
21.9900849
20
21.4599324
11
22.0053452
21
20.9707996
0
LINE
8
DEFAULT_255_1_234
10
22.0053452
20
20.9707996
11
22.0053452
21
20.5154
0
LINE
8
DEFAULT_255_1_234
10
22.0053452
20
20.5154
11
21.8511358
21
20.5154
0
LINE
8
DEFAULT_255_1_234
10
21.8511358
20
20.5154
11
21.8511358
21
21.6848211
0
LINE
8
DEFAULT_255_1_234
10
23.8759371
20
21.6848211
11
23.8759371
21
20.908152
0
LINE
8
DEFAULT_255_1_234
10
23.8759371
20
20.908152
11
24.0381782
21
20.908152
0
LINE
8
DEFAULT_255_1_234
10
24.0381782
20
20.908152
11
24.0381782
21
20.7868728
0
LINE
8
DEFAULT_255_1_234
10
24.0381782
20
20.7868728
11
23.8759371
21
20.7868728
0
LINE
8
DEFAULT_255_1_234
10
23.8759371
20
20.7868728
11
23.8759371
21
20.5154
0
LINE
8
DEFAULT_255_1_234
10
23.8759371
20
20.5154
11
23.7265467
21
20.5154
0
LINE
8
DEFAULT_255_1_234
10
23.7265467
20
20.5154
11
23.7265467
21
20.7868728
0
LINE
8
DEFAULT_255_1_234
10
23.7265467
20
20.7868728
11
23.1940425
21
20.7868728
0
LINE
8
DEFAULT_255_1_234
10
23.1940425
20
20.7868728
11
23.1940425
21
20.8744187
0
LINE
8
DEFAULT_255_1_234
10
23.1940425
20
20.8744187
11
23.7177118
21
21.6848211
0
LINE
8
DEFAULT_255_1_234
10
23.7177118
20
21.6848211
11
23.8759371
21
21.6848211
0
LINE
8
DEFAULT_255_1_234
10
23.7088769
20
21.4494912
11
23.362709
21
20.908152
0
LINE
8
DEFAULT_255_1_234
10
23.362709
20
20.908152
11
23.7265467
21
20.908152
0
LINE
8
DEFAULT_255_1_234
10
23.7265467
20
20.908152
11
23.7265467
21
21.4816181
0
LINE
8
DEFAULT_255_1_234
10
23.7265467
20
21.4816181
11
23.7088769
21
21.4494912
0
LINE
8
DEFAULT_255_1_234
10
20.460723
20
28.8239663
11
20.6157355
21
28.8239663
0
LINE
8
DEFAULT_255_1_234
10
19.7153777
20
28.9829947
11
19.7153777
21
29.0954391
0
LINE
8
DEFAULT_255_1_234
10
20.6157355
20
29.2464357
11
20.460723
21
29.2464357
0
LINE
8
DEFAULT_255_1_234
10
19.8703902
20
29.0914232
11
19.8703902
21
28.9781757
0
ARC
8
DEFAULT_255_1_234
10
20.0676742
20
28.8836846
40
0.5513052
50
340.1774281
51
353.7814284
0
ARC
8
DEFAULT_255_1_234
10
20.2248095
20
28.8251582
40
0.3836379
50
311.4558989
51
340.4421614
0
ARC
8
DEFAULT_255_1_234
10
20.2214763
20
28.8362528
40
0.3941894
50
282.4333181
51
310.7513653
0
ARC
8
DEFAULT_255_1_234
10
20.1775502
20
29.0177679
40
0.5809175
50
269.9358511
51
282.809604
0
ARC
8
DEFAULT_255_1_234
10
20.1723568
20
29.1635212
40
0.7266847
50
270.0021091
51
270.3581957
0
ARC
8
DEFAULT_255_1_234
10
20.1670985
20
28.9034585
40
0.4666519
50
250.7884749
51
270.6489167
0
ARC
8
DEFAULT_255_1_234
10
20.150282
20
28.8397319
40
0.4009729
50
219.3627325
51
250.0611886
0
ARC
8
DEFAULT_255_1_234
10
20.2332031
20
28.9102042
40
0.5097822
50
193.5479632
51
219.5756669
0
ARC
8
DEFAULT_255_1_234
10
20.4703652
20
28.9717919
40
0.7547848
50
181.1218675
51
193.87563
0
ARC
8
DEFAULT_255_1_234
10
20.6773833
20
28.982858
40
0.9620055
50
179.9918545
51
181.5394234
0
ARC
8
DEFAULT_255_1_234
10
20.4922935
20
29.0991788
40
0.7769248
50
169.5837241
51
180.2757934
0
ARC
8
DEFAULT_255_1_234
10
20.3085873
20
29.1331229
40
0.590109
50
155.0365899
51
169.6003176
0
ARC
8
DEFAULT_255_1_234
10
20.1950337
20
29.1878677
40
0.4640625
50
136.783148
51
155.2472683
0
ARC
8
DEFAULT_255_1_234
10
20.1560814
20
29.2209562
40
0.4130255
50
121.7633186
51
136.428115
0
ARC
8
DEFAULT_255_1_234
10
20.1695776
20
29.1960227
40
0.4413323
50
95.6459699
51
121.5490577
0
ARC
8
DEFAULT_255_1_234
10
20.1853058
20
29.0851949
40
0.55319
50
89.924208
51
96.1377933
0
ARC
8
DEFAULT_255_1_234
10
20.1903491
20
29.0970542
40
0.5413475
50
76.6779277
51
90.4563316
0
ARC
8
DEFAULT_255_1_234
10
20.2297114
20
29.2561114
40
0.3775041
50
47.485847
51
76.9287264
0
ARC
8
DEFAULT_255_1_234
10
20.2150087
20
29.2461159
40
0.3948286
50
16.5424086
51
46.8933463
0
ARC
8
DEFAULT_255_1_234
10
20.0542244
20
29.1932861
40
0.564021
50
5.4072051
51
17.0365086
0
ARC
8
DEFAULT_255_1_234
10
19.9103261
20
29.1701679
40
0.5556559
50
7.8891745
51
15.9239216
0
ARC
8
DEFAULT_255_1_234
10
20.1090274
20
29.2278631
40
0.3487515
50
15.7653144
51
27.9410532
0
ARC
8
DEFAULT_255_1_234
10
20.2194492
20
29.286979
40
0.2235026
50
27.8166557
51
46.4008329
0
ARC
8
DEFAULT_255_1_234
10
20.2244135
20
29.2864082
40
0.2205286
50
47.4371857
51
75.0698205
0
ARC
8
DEFAULT_255_1_234
10
20.1935529
20
29.1789765
40
0.3322915
50
74.7008593
51
87.8124495
0
ARC
8
DEFAULT_255_1_234
10
20.1862217
20
29.0733844
40
0.4380987
50
87.3814673
51
90.0240855
0
ARC
8
DEFAULT_255_1_234
10
20.182376
20
29.1911291
40
0.3203749
50
89.3451631
51
108.5745436
0
ARC
8
DEFAULT_255_1_234
10
20.1686865
20
29.2424908
40
0.2673494
50
109.2998449
51
143.3037509
0
ARC
8
DEFAULT_255_1_234
10
20.2448938
20
29.1838881
40
0.3634757
50
143.0753173
51
163.1916937
0
ARC
8
DEFAULT_255_1_234
10
20.4400666
20
29.1222967
40
0.5681262
50
162.9373603
51
174.6208611
0
ARC
8
DEFAULT_255_1_234
10
20.7026708
20
29.093501
40
0.8322832
50
174.3419979
51
180.1430411
0
ARC
8
DEFAULT_255_1_234
10
20.6095864
20
28.9740698
40
0.7392076
50
179.6817502
51
189.150529
0
ARC
8
DEFAULT_255_1_234
10
20.3595112
20
28.932419
40
0.4856932
50
188.9910863
51
203.5773039
0
ARC
8
DEFAULT_255_1_234
10
20.2515445
20
28.8876211
40
0.3688271
50
203.9077269
51
215.1312379
0
ARC
8
DEFAULT_255_1_234
10
20.1592539
20
28.8160941
40
0.2522457
50
213.9071664
51
263.8849284
0
ARC
8
DEFAULT_255_1_234
10
20.1717868
20
28.8945518
40
0.3316174
50
263.1758525
51
270.1031083
0
ARC
8
DEFAULT_255_1_234
10
20.174996
20
29.0192365
40
0.4563091
50
269.6719807
51
279.0609165
0
ARC
8
DEFAULT_255_1_234
10
20.2016728
20
28.8579907
40
0.2928759
50
278.8750225
51
293.6346586
0
ARC
8
DEFAULT_255_1_234
10
20.2336936
20
28.78279
40
0.2111472
50
293.8553404
51
310.0518804
0
ARC
8
DEFAULT_255_1_234
10
20.234179
20
28.7765516
40
0.2060917
50
311.0646779
51
332.0108348
0
ARC
8
DEFAULT_255_1_234
10
20.1149517
20
28.8422978
40
0.3422352
50
331.6588543
51
343.2878891
0
ARC
8
DEFAULT_255_1_234
10
19.9087032
20
28.9056798
40
0.5580003
50
343.1446044
51
351.010618
0
ARC
8
DEFAULT_255_1_234
10
19.7545678
20
28.9337871
40
0.7146438
50
350.7157277
51
351.1602153
0
LINE
8
DEFAULT_255_1_234
10
21.7257218
20
29.0737534
11
21.7257218
21
28.9998614
0
LINE
8
DEFAULT_255_1_234
10
20.7852052
20
28.9894201
11
20.7852052
21
29.0737534
0
LINE
8
DEFAULT_255_1_234
10
21.5723156
20
28.9886169
11
21.5723156
21
29.0753597
0
LINE
8
DEFAULT_255_1_234
10
20.9386114
20
29.085801
11
20.9386114
21
28.9998614
0
ARC
8
DEFAULT_255_1_234
10
20.8615244
20
28.9959015
40
0.8642064
50
350.487711
51
0.2625388
0
ARC
8
DEFAULT_255_1_234
10
21.0908486
20
28.9564578
40
0.631518
50
336.0277639
51
350.5787438
0
ARC
8
DEFAULT_255_1_234
10
21.2253309
20
28.8956892
40
0.4839466
50
319.8877444
51
336.1328423
0
ARC
8
DEFAULT_255_1_234
10
21.285595
20
28.847458
40
0.4067874
50
302.4806467
51
319.6143626
0
ARC
8
DEFAULT_255_1_234
10
21.274096
20
28.8696202
40
0.4316636
50
275.8195682
51
302.1884709
0
ARC
8
DEFAULT_255_1_234
10
21.2574593
20
28.9838665
40
0.5470306
50
269.9171439
51
276.3397983
0
ARC
8
DEFAULT_255_1_234
10
21.2529803
20
28.9152681
40
0.4784458
50
252.5219675
51
270.4416499
0
ARC
8
DEFAULT_255_1_234
10
21.2386062
20
28.8613592
40
0.422716
50
237.5352116
51
252.1857531
0
ARC
8
DEFAULT_255_1_234
10
21.2475258
20
28.8727363
40
0.4371052
50
209.063312
51
237.3492538
0
ARC
8
DEFAULT_255_1_234
10
21.3345106
20
28.9273685
40
0.5397041
50
205.1183774
51
209.6470015
0
ARC
8
DEFAULT_255_1_234
10
21.4142143
20
28.961183
40
0.6262326
50
188.7215458
51
204.8240747
0
ARC
8
DEFAULT_255_1_234
10
21.6139671
20
28.9948067
40
0.8287794
50
180.3723947
51
188.9252049
0
ARC
8
DEFAULT_255_1_234
10
21.6112423
20
29.0777402
40
0.8260467
50
169.5253763
51
180.2765336
0
ARC
8
DEFAULT_255_1_234
10
21.4209871
20
29.1127309
40
0.6326007
50
155.8315255
51
169.5089989
0
ARC
8
DEFAULT_255_1_234
10
21.2929373
20
29.1721348
40
0.4914567
50
139.6258461
51
156.0379525
0
ARC
8
DEFAULT_255_1_234
10
21.2339706
20
29.2195799
40
0.4158054
50
122.6416387
51
139.3430715
0
ARC
8
DEFAULT_255_1_234
10
21.2440326
20
29.2012451
40
0.4366739
50
93.0223692
51
122.455762
0
ARC
8
DEFAULT_255_1_234
10
21.2548323
20
29.1047709
40
0.5336137
50
89.975342
51
93.6341897
0
ARC
8
DEFAULT_255_1_234
10
21.2587102
20
29.1446242
40
0.4937738
50
73.746375
51
90.4233405
0
ARC
8
DEFAULT_255_1_234
10
21.2762681
20
29.2126287
40
0.4235786
50
57.662753
51
73.4518111
0
ARC
8
DEFAULT_255_1_234
10
21.2754687
20
29.2147832
40
0.4221899
50
29.1440151
51
57.414694
0
ARC
8
DEFAULT_255_1_234
10
21.1819882
20
29.1564005
40
0.5322966
50
24.0982783
51
29.7323517
0
ARC
8
DEFAULT_255_1_234
10
21.0786157
20
29.1135399
40
0.6441673
50
8.6655297
51
23.8241346
0
ARC
8
DEFAULT_255_1_234
10
20.8551895
20
29.0770854
40
0.8705386
50
359.7806941
51
8.8218784
0
ARC
8
DEFAULT_255_1_234
10
20.7404893
20
29.0796345
40
0.8318373
50
359.7055579
51
8.036044
0
ARC
8
DEFAULT_255_1_234
10
21.0404899
20
29.1233239
40
0.5286768
50
7.8928306
51
20.2962107
0
ARC
8
DEFAULT_255_1_234
10
21.203247
20
29.1833395
40
0.3552073
50
20.3231126
51
36.4992797
0
ARC
8
DEFAULT_255_1_234
10
21.2718016
20
29.2361402
40
0.2686974
50
36.1437156
51
85.6627023
0
ARC
8
DEFAULT_255_1_234
10
21.2555562
20
29.1321221
40
0.373739
50
84.3852322
51
90.0757696
0
ARC
8
DEFAULT_255_1_234
10
21.2513234
20
29.1981839
40
0.3076997
50
89.3038458
51
109.9045693
0
ARC
8
DEFAULT_255_1_234
10
21.2420625
20
29.2364062
40
0.2686424
50
110.8228367
51
143.9179474
0
ARC
8
DEFAULT_255_1_234
10
21.3354285
20
29.1651236
40
0.3860887
50
143.5289163
51
163.2980757
0
ARC
8
DEFAULT_255_1_234
10
21.5262106
20
29.1051433
40
0.5860659
50
163.0418846
51
174.3140048
0
ARC
8
DEFAULT_255_1_234
10
21.7666218
20
29.0773854
40
0.8280531
50
174.0509143
51
179.4176892
0
ARC
8
DEFAULT_255_1_234
10
21.7161957
20
28.9956954
40
0.7775954
50
179.6930361
51
188.7906598
0
ARC
8
DEFAULT_255_1_234
10
21.4498436
20
28.9530935
40
0.5078633
50
188.6331305
51
202.5629587
0
ARC
8
DEFAULT_255_1_234
10
21.3244028
20
28.9026996
40
0.3726913
50
202.8081362
51
216.1193925
0
ARC
8
DEFAULT_255_1_234
10
21.2434598
20
28.8375676
40
0.2689577
50
215.0755913
51
264.6379694
0
ARC
8
DEFAULT_255_1_234
10
21.2561548
20
28.9206513
40
0.3528978
50
263.846392
51
270.0833719
0
ARC
8
DEFAULT_255_1_234
10
21.2602938
20
28.8948374
40
0.3271036
50
269.3649385
51
287.5152008
0
ARC
8
DEFAULT_255_1_234
10
21.2781096
20
28.8301238
40
0.2600406
50
288.0630309
51
323.8113348
0
ARC
8
DEFAULT_255_1_234
10
21.1909937
20
28.8951049
40
0.3687189
50
323.6547608
51
342.6590488
0
ARC
8
DEFAULT_255_1_234
10
20.9878552
20
28.9611952
40
0.5823286
50
342.4091907
51
353.6451149
0
ARC
8
DEFAULT_255_1_234
10
20.7047063
20
28.996419
40
0.8676442
50
353.4029884
51
359.4847795
0
LINE
8
DEFAULT_255_1_234
10
21.9570358
20
29.6223211
11
22.1562229
21
29.6223211
0
LINE
8
DEFAULT_255_1_234
10
22.1562229
20
29.6223211
11
22.5385337
21
28.6681506
0
LINE
8
DEFAULT_255_1_234
10
22.5385337
20
28.6681506
11
22.9208444
21
29.6223211
0
LINE
8
DEFAULT_255_1_234
10
22.9208444
20
29.6223211
11
23.1208347
21
29.6223211
0
LINE
8
DEFAULT_255_1_234
10
23.1208347
20
29.6223211
11
23.1208347
21
28.4529
0
LINE
8
DEFAULT_255_1_234
10
23.1208347
20
28.4529
11
22.9666253
21
28.4529
0
LINE
8
DEFAULT_255_1_234
10
22.9666253
20
28.4529
11
22.9666253
21
28.9082996
0
LINE
8
DEFAULT_255_1_234
10
22.9666253
20
28.9082996
11
22.9810825
21
29.3998419
0
LINE
8
DEFAULT_255_1_234
10
22.9810825
20
29.3998419
11
22.5971654
21
28.4529
0
LINE
8
DEFAULT_255_1_234
10
22.5971654
20
28.4529
11
22.4790988
21
28.4529
0
LINE
8
DEFAULT_255_1_234
10
22.4790988
20
28.4529
11
22.0959849
21
29.3974324
0
LINE
8
DEFAULT_255_1_234
10
22.0959849
20
29.3974324
11
22.1112452
21
28.9082996
0
LINE
8
DEFAULT_255_1_234
10
22.1112452
20
28.9082996
11
22.1112452
21
28.4529
0
LINE
8
DEFAULT_255_1_234
10
22.1112452
20
28.4529
11
21.9570358
21
28.4529
0
LINE
8
DEFAULT_255_1_234
10
21.9570358
20
28.4529
11
21.9570358
21
29.6223211
0
LINE
8
DEFAULT_255_1_234
10
23.5706121
20
28.9886169
11
23.5706121
21
29.1098962
0
LINE
8
DEFAULT_255_1_234
10
23.5706121
20
29.1098962
11
23.6822532
21
29.1098962
0
LINE
8
DEFAULT_255_1_234
10
23.491901
20
29.3155087
11
23.3433139
21
29.3155087
0
LINE
8
DEFAULT_255_1_234
10
23.3328726
20
28.7613188
11
23.4822629
21
28.7613188
0
LINE
8
DEFAULT_255_1_234
10
23.6822532
20
28.9886169
11
23.5706121
21
28.9886169
0
ARC
8
DEFAULT_255_1_234
10
23.6793399
20
29.4491713
40
0.3392876
50
270.4919872
51
281.8951556
0
ARC
8
DEFAULT_255_1_234
10
23.703466
20
29.3389702
40
0.2264817
50
281.6691735
51
301.2943132
0
ARC
8
DEFAULT_255_1_234
10
23.7204871
20
29.3078304
40
0.1910381
50
301.7833094
51
311.7545298
0
ARC
8
DEFAULT_255_1_234
10
23.7296446
20
29.2976748
40
0.1773635
50
311.7323931
51
354.2802411
0
ARC
8
DEFAULT_255_1_234
10
23.6570072
20
29.3101722
40
0.2509385
50
353.0937916
51
0.1181479
0
ARC
8
DEFAULT_255_1_234
10
23.6108856
20
29.3149386
40
0.2970898
50
359.1805295
51
15.0453146
0
ARC
8
DEFAULT_255_1_234
10
23.7454693
20
29.3541992
40
0.1569564
50
13.9577229
51
77.6713066
0
ARC
8
DEFAULT_255_1_234
10
23.7068223
20
29.2156949
40
0.3006298
50
76.1116566
51
90.7026153
0
ARC
8
DEFAULT_255_1_234
10
23.7009061
20
29.2430545
40
0.2732568
50
89.5324876
51
103.531937
0
ARC
8
DEFAULT_255_1_234
10
23.6808505
20
29.3229884
40
0.1908508
50
103.2931773
51
133.5619022
0
ARC
8
DEFAULT_255_1_234
10
23.6763993
20
29.3289375
40
0.1834746
50
133.8349307
51
173.5344437
0
ARC
8
DEFAULT_255_1_234
10
23.7487036
20
29.3161213
40
0.2568033
50
172.5096846
51
180.1366907
0
ARC
8
DEFAULT_255_1_234
10
23.653593
20
29.3195622
40
0.3103056
50
155.3484492
51
180.7484736
0
ARC
8
DEFAULT_255_1_234
10
23.6487019
20
29.3166846
40
0.3070957
50
131.5744599
51
154.4798489
0
ARC
8
DEFAULT_255_1_234
10
23.6800167
20
29.285031
40
0.3515643
50
96.9875458
51
131.9690667
0
ARC
8
DEFAULT_255_1_234
10
23.7019647
20
29.1604636
40
0.4779224
50
89.8596053
51
97.7825159
0
ARC
8
DEFAULT_255_1_234
10
23.706771
20
29.1342616
40
0.5041361
50
78.3655447
51
90.4131539
0
ARC
8
DEFAULT_255_1_234
10
23.7425628
20
29.3001887
40
0.3344039
50
56.6229102
51
78.638727
0
ARC
8
DEFAULT_255_1_234
10
23.7640571
20
29.3377805
40
0.2912001
50
47.0253525
51
56.0854072
0
ARC
8
DEFAULT_255_1_234
10
23.7660351
20
29.3417223
40
0.2869704
50
10.9208013
51
46.7778124
0
ARC
8
DEFAULT_255_1_234
10
23.6296418
20
29.3101857
40
0.426899
50
359.6364486
51
11.6087304
0
ARC
8
DEFAULT_255_1_234
10
23.8131262
20
29.3086752
40
0.243409
50
332.3549906
51
359.7179418
0
ARC
8
DEFAULT_255_1_234
10
23.7480863
20
29.3395142
40
0.3153459
50
325.2333722
51
332.8745602
0
ARC
8
DEFAULT_255_1_234
10
23.7633487
20
29.3288828
40
0.2967456
50
292.9802137
51
325.2392345
0
ARC
8
DEFAULT_255_1_234
10
23.7358861
20
29.3822863
40
0.3566604
50
292.5402179
51
293.6924929
0
ARC
8
DEFAULT_255_1_234
10
23.7751457
20
28.7368091
40
0.3307468
50
57.6435486
51
72.8625112
0
ARC
8
DEFAULT_255_1_234
10
23.8105957
20
28.7942549
40
0.2632492
50
36.7248896
51
57.4697979
0
ARC
8
DEFAULT_255_1_234
10
23.8094589
20
28.795522
40
0.2634081
50
8.0545065
51
36.356114
0
ARC
8
DEFAULT_255_1_234
10
23.7231775
20
28.7800174
40
0.3510261
50
359.8320645
51
8.5869982
0
ARC
8
DEFAULT_255_1_234
10
23.6856551
20
28.7752101
40
0.3885653
50
343.9829931
51
0.5571613
0
ARC
8
DEFAULT_255_1_234
10
23.7742748
20
28.7509438
40
0.2966924
50
311.6359546
51
343.7651759
0
ARC
8
DEFAULT_255_1_234
10
23.7364317
20
28.7936102
40
0.3537231
50
279.7829875
51
311.6255694
0
ARC
8
DEFAULT_255_1_234
10
23.7063093
20
28.937328
40
0.5004971
50
269.7286406
51
280.3856417
0
ARC
8
DEFAULT_255_1_234
10
23.7001166
20
28.9331996
40
0.4963778
50
256.6828919
51
270.4412052
0
ARC
8
DEFAULT_255_1_234
10
23.6662462
20
28.7947394
40
0.3538406
50
229.4223008
51
256.8556159
0
ARC
8
DEFAULT_255_1_234
10
23.6247855
20
28.7480736
40
0.2914296
50
181.818294
51
229.6455059
0
ARC
8
DEFAULT_255_1_234
10
23.7287811
20
28.7611496
40
0.3959084
50
179.9755256
51
183.2323064
0
ARC
8
DEFAULT_255_1_234
10
23.7115557
20
28.7591037
40
0.2293034
50
179.4465117
51
196.2869258
0
ARC
8
DEFAULT_255_1_234
10
23.6627965
20
28.7457651
40
0.1787621
50
196.5661473
51
227.705904
0
ARC
8
DEFAULT_255_1_234
10
23.6792059
20
28.7641155
40
0.2033784
50
227.7652068
51
257.8762805
0
ARC
8
DEFAULT_255_1_234
10
23.701703
20
28.8584156
40
0.3003081
50
257.4584385
51
270.426602
0
ARC
8
DEFAULT_255_1_234
10
23.7062596
20
28.8873996
40
0.329292
50
269.5962073
51
280.8789248
0
ARC
8
DEFAULT_255_1_234
10
23.7292125
20
28.7727685
40
0.2123908
50
280.6346389
51
299.8595945
0
ARC
8
DEFAULT_255_1_234
10
23.7483031
20
28.7365212
40
0.171457
50
300.3576302
51
314.5517981
0
ARC
8
DEFAULT_255_1_234
10
23.7400091
20
28.7425919
40
0.1816095
50
315.0728369
51
345.0431014
0
ARC
8
DEFAULT_255_1_234
10
23.6476906
20
28.7694841
40
0.2777492
50
344.5986631
51
357.9269593
0
ARC
8
DEFAULT_255_1_234
10
23.5581232
20
28.7756276
40
0.3674917
50
357.4748886
51
0.0231117
0
ARC
8
DEFAULT_255_1_234
10
23.6604341
20
28.7780679
40
0.2651907
50
359.5047933
51
13.4239635
0
ARC
8
DEFAULT_255_1_234
10
23.7470985
20
28.8002478
40
0.1757509
50
12.9498199
51
48.7551375
0
ARC
8
DEFAULT_255_1_234
10
23.7288719
20
28.77534
40
0.2065134
50
49.5088623
51
72.1836453
0
ARC
8
DEFAULT_255_1_234
10
23.6930871
20
28.6691291
40
0.3185836
50
71.9010081
51
84.3554254
0
ARC
8
DEFAULT_255_1_234
10
23.6769503
20
28.5330326
40
0.4556151
50
84.0193428
51
89.333121
0
LINE
8
DEFAULT_255_1_234
10
20.460723
20
36.7614663
11
20.6157355
21
36.7614663
0
LINE
8
DEFAULT_255_1_234
10
19.7153777
20
36.9204947
11
19.7153777
21
37.0329391
0
LINE
8
DEFAULT_255_1_234
10
20.6157355
20
37.1839357
11
20.460723
21
37.1839357
0
LINE
8
DEFAULT_255_1_234
10
19.8703902
20
37.0289232
11
19.8703902
21
36.9156757
0
ARC
8
DEFAULT_255_1_234
10
20.0676742
20
36.8211846
40
0.5513052
50
340.1774281
51
353.7814284
0
ARC
8
DEFAULT_255_1_234
10
20.2248095
20
36.7626582
40
0.3836379
50
311.4558989
51
340.4421614
0
ARC
8
DEFAULT_255_1_234
10
20.2214763
20
36.7737528
40
0.3941894
50
282.4333181
51
310.7513653
0
ARC
8
DEFAULT_255_1_234
10
20.1775502
20
36.9552679
40
0.5809175
50
269.9358511
51
282.809604
0
ARC
8
DEFAULT_255_1_234
10
20.1723568
20
37.1010212
40
0.7266847
50
270.0021091
51
270.3581957
0
ARC
8
DEFAULT_255_1_234
10
20.1670985
20
36.8409585
40
0.4666519
50
250.7884749
51
270.6489167
0
ARC
8
DEFAULT_255_1_234
10
20.150282
20
36.7772319
40
0.4009729
50
219.3627325
51
250.0611886
0
ARC
8
DEFAULT_255_1_234
10
20.2332031
20
36.8477042
40
0.5097822
50
193.5479632
51
219.5756669
0
ARC
8
DEFAULT_255_1_234
10
20.4703652
20
36.9092919
40
0.7547848
50
181.1218675
51
193.87563
0
ARC
8
DEFAULT_255_1_234
10
20.6773833
20
36.920358
40
0.9620055
50
179.9918545
51
181.5394234
0
ARC
8
DEFAULT_255_1_234
10
20.4922935
20
37.0366788
40
0.7769248
50
169.5837241
51
180.2757934
0
ARC
8
DEFAULT_255_1_234
10
20.3085873
20
37.0706229
40
0.590109
50
155.0365899
51
169.6003176
0
ARC
8
DEFAULT_255_1_234
10
20.1950337
20
37.1253677
40
0.4640625
50
136.783148
51
155.2472683
0
ARC
8
DEFAULT_255_1_234
10
20.1560814
20
37.1584562
40
0.4130255
50
121.7633186
51
136.428115
0
ARC
8
DEFAULT_255_1_234
10
20.1695776
20
37.1335227
40
0.4413323
50
95.6459699
51
121.5490577
0
ARC
8
DEFAULT_255_1_234
10
20.1853058
20
37.0226949
40
0.55319
50
89.924208
51
96.1377933
0
ARC
8
DEFAULT_255_1_234
10
20.1903491
20
37.0345542
40
0.5413475
50
76.6779277
51
90.4563316
0
ARC
8
DEFAULT_255_1_234
10
20.2297114
20
37.1936114
40
0.3775041
50
47.485847
51
76.9287264
0
ARC
8
DEFAULT_255_1_234
10
20.2150087
20
37.1836159
40
0.3948286
50
16.5424086
51
46.8933463
0
ARC
8
DEFAULT_255_1_234
10
20.0542244
20
37.1307861
40
0.564021
50
5.4072051
51
17.0365086
0
ARC
8
DEFAULT_255_1_234
10
19.9103261
20
37.1076679
40
0.5556559
50
7.8891745
51
15.9239216
0
ARC
8
DEFAULT_255_1_234
10
20.1090274
20
37.1653631
40
0.3487515
50
15.7653144
51
27.9410532
0
ARC
8
DEFAULT_255_1_234
10
20.2194492
20
37.224479
40
0.2235026
50
27.8166557
51
46.4008329
0
ARC
8
DEFAULT_255_1_234
10
20.2244135
20
37.2239082
40
0.2205286
50
47.4371857
51
75.0698205
0
ARC
8
DEFAULT_255_1_234
10
20.1935529
20
37.1164765
40
0.3322915
50
74.7008593
51
87.8124495
0
ARC
8
DEFAULT_255_1_234
10
20.1862217
20
37.0108844
40
0.4380987
50
87.3814673
51
90.0240855
0
ARC
8
DEFAULT_255_1_234
10
20.182376
20
37.1286291
40
0.3203749
50
89.3451631
51
108.5745436
0
ARC
8
DEFAULT_255_1_234
10
20.1686865
20
37.1799908
40
0.2673494
50
109.2998449
51
143.3037509
0
ARC
8
DEFAULT_255_1_234
10
20.2448938
20
37.1213881
40
0.3634757
50
143.0753173
51
163.1916937
0
ARC
8
DEFAULT_255_1_234
10
20.4400666
20
37.0597967
40
0.5681262
50
162.9373603
51
174.6208611
0
ARC
8
DEFAULT_255_1_234
10
20.7026708
20
37.031001
40
0.8322832
50
174.3419979
51
180.1430411
0
ARC
8
DEFAULT_255_1_234
10
20.6095864
20
36.9115698
40
0.7392076
50
179.6817502
51
189.150529
0
ARC
8
DEFAULT_255_1_234
10
20.3595112
20
36.869919
40
0.4856932
50
188.9910863
51
203.5773039
0
ARC
8
DEFAULT_255_1_234
10
20.2515445
20
36.8251211
40
0.3688271
50
203.9077269
51
215.1312379
0
ARC
8
DEFAULT_255_1_234
10
20.1592539
20
36.7535941
40
0.2522457
50
213.9071664
51
263.8849284
0
ARC
8
DEFAULT_255_1_234
10
20.1717868
20
36.8320518
40
0.3316174
50
263.1758525
51
270.1031083
0
ARC
8
DEFAULT_255_1_234
10
20.174996
20
36.9567365
40
0.4563091
50
269.6719807
51
279.0609165
0
ARC
8
DEFAULT_255_1_234
10
20.2016728
20
36.7954907
40
0.2928759
50
278.8750225
51
293.6346586
0
ARC
8
DEFAULT_255_1_234
10
20.2336936
20
36.72029
40
0.2111472
50
293.8553404
51
310.0518804
0
ARC
8
DEFAULT_255_1_234
10
20.234179
20
36.7140516
40
0.2060917
50
311.0646779
51
332.0108348
0
ARC
8
DEFAULT_255_1_234
10
20.1149517
20
36.7797978
40
0.3422352
50
331.6588543
51
343.2878891
0
ARC
8
DEFAULT_255_1_234
10
19.9087032
20
36.8431798
40
0.5580003
50
343.1446044
51
351.010618
0
ARC
8
DEFAULT_255_1_234
10
19.7545678
20
36.8712871
40
0.7146438
50
350.7157277
51
351.1602153
0
LINE
8
DEFAULT_255_1_234
10
21.7257218
20
37.0112534
11
21.7257218
21
36.9373614
0
LINE
8
DEFAULT_255_1_234
10
20.7852052
20
36.9269201
11
20.7852052
21
37.0112534
0
LINE
8
DEFAULT_255_1_234
10
21.5723156
20
36.9261169
11
21.5723156
21
37.0128597
0
LINE
8
DEFAULT_255_1_234
10
20.9386114
20
37.023301
11
20.9386114
21
36.9373614
0
ARC
8
DEFAULT_255_1_234
10
20.8615244
20
36.9334015
40
0.8642064
50
350.487711
51
0.2625388
0
ARC
8
DEFAULT_255_1_234
10
21.0908486
20
36.8939578
40
0.631518
50
336.0277639
51
350.5787438
0
ARC
8
DEFAULT_255_1_234
10
21.2253309
20
36.8331892
40
0.4839466
50
319.8877444
51
336.1328423
0
ARC
8
DEFAULT_255_1_234
10
21.285595
20
36.784958
40
0.4067874
50
302.4806467
51
319.6143626
0
ARC
8
DEFAULT_255_1_234
10
21.274096
20
36.8071202
40
0.4316636
50
275.8195682
51
302.1884709
0
ARC
8
DEFAULT_255_1_234
10
21.2574593
20
36.9213665
40
0.5470306
50
269.9171439
51
276.3397983
0
ARC
8
DEFAULT_255_1_234
10
21.2529803
20
36.8527681
40
0.4784458
50
252.5219675
51
270.4416499
0
ARC
8
DEFAULT_255_1_234
10
21.2386062
20
36.7988592
40
0.422716
50
237.5352116
51
252.1857531
0
ARC
8
DEFAULT_255_1_234
10
21.2475258
20
36.8102363
40
0.4371052
50
209.063312
51
237.3492538
0
ARC
8
DEFAULT_255_1_234
10
21.3345106
20
36.8648685
40
0.5397041
50
205.1183774
51
209.6470015
0
ARC
8
DEFAULT_255_1_234
10
21.4142143
20
36.898683
40
0.6262326
50
188.7215458
51
204.8240747
0
ARC
8
DEFAULT_255_1_234
10
21.6139671
20
36.9323067
40
0.8287794
50
180.3723947
51
188.9252049
0
ARC
8
DEFAULT_255_1_234
10
21.6112423
20
37.0152402
40
0.8260467
50
169.5253763
51
180.2765336
0
ARC
8
DEFAULT_255_1_234
10
21.4209871
20
37.0502309
40
0.6326007
50
155.8315255
51
169.5089989
0
ARC
8
DEFAULT_255_1_234
10
21.2929373
20
37.1096348
40
0.4914567
50
139.6258461
51
156.0379525
0
ARC
8
DEFAULT_255_1_234
10
21.2339706
20
37.1570799
40
0.4158054
50
122.6416387
51
139.3430715
0
ARC
8
DEFAULT_255_1_234
10
21.2440326
20
37.1387451
40
0.4366739
50
93.0223692
51
122.455762
0
ARC
8
DEFAULT_255_1_234
10
21.2548323
20
37.0422709
40
0.5336137
50
89.975342
51
93.6341897
0
ARC
8
DEFAULT_255_1_234
10
21.2587102
20
37.0821242
40
0.4937738
50
73.746375
51
90.4233405
0
ARC
8
DEFAULT_255_1_234
10
21.2762681
20
37.1501287
40
0.4235786
50
57.662753
51
73.4518111
0
ARC
8
DEFAULT_255_1_234
10
21.2754687
20
37.1522832
40
0.4221899
50
29.1440151
51
57.414694
0
ARC
8
DEFAULT_255_1_234
10
21.1819882
20
37.0939005
40
0.5322966
50
24.0982783
51
29.7323517
0
ARC
8
DEFAULT_255_1_234
10
21.0786157
20
37.0510399
40
0.6441673
50
8.6655297
51
23.8241346
0
ARC
8
DEFAULT_255_1_234
10
20.8551895
20
37.0145854
40
0.8705386
50
359.7806941
51
8.8218784
0
ARC
8
DEFAULT_255_1_234
10
20.7404893
20
37.0171345
40
0.8318373
50
359.7055579
51
8.036044
0
ARC
8
DEFAULT_255_1_234
10
21.0404899
20
37.0608239
40
0.5286768
50
7.8928306
51
20.2962107
0
ARC
8
DEFAULT_255_1_234
10
21.203247
20
37.1208395
40
0.3552073
50
20.3231126
51
36.4992797
0
ARC
8
DEFAULT_255_1_234
10
21.2718016
20
37.1736402
40
0.2686974
50
36.1437156
51
85.6627023
0
ARC
8
DEFAULT_255_1_234
10
21.2555562
20
37.0696221
40
0.373739
50
84.3852322
51
90.0757696
0
ARC
8
DEFAULT_255_1_234
10
21.2513234
20
37.1356839
40
0.3076997
50
89.3038458
51
109.9045693
0
ARC
8
DEFAULT_255_1_234
10
21.2420625
20
37.1739062
40
0.2686424
50
110.8228367
51
143.9179474
0
ARC
8
DEFAULT_255_1_234
10
21.3354285
20
37.1026236
40
0.3860887
50
143.5289163
51
163.2980757
0
ARC
8
DEFAULT_255_1_234
10
21.5262106
20
37.0426433
40
0.5860659
50
163.0418846
51
174.3140048
0
ARC
8
DEFAULT_255_1_234
10
21.7666218
20
37.0148854
40
0.8280531
50
174.0509143
51
179.4176892
0
ARC
8
DEFAULT_255_1_234
10
21.7161957
20
36.9331954
40
0.7775954
50
179.6930361
51
188.7906598
0
ARC
8
DEFAULT_255_1_234
10
21.4498436
20
36.8905935
40
0.5078633
50
188.6331305
51
202.5629587
0
ARC
8
DEFAULT_255_1_234
10
21.3244028
20
36.8401996
40
0.3726913
50
202.8081362
51
216.1193925
0
ARC
8
DEFAULT_255_1_234
10
21.2434598
20
36.7750676
40
0.2689577
50
215.0755913
51
264.6379694
0
ARC
8
DEFAULT_255_1_234
10
21.2561548
20
36.8581513
40
0.3528978
50
263.846392
51
270.0833719
0
ARC
8
DEFAULT_255_1_234
10
21.2602938
20
36.8323374
40
0.3271036
50
269.3649385
51
287.5152008
0
ARC
8
DEFAULT_255_1_234
10
21.2781096
20
36.7676238
40
0.2600406
50
288.0630309
51
323.8113348
0
ARC
8
DEFAULT_255_1_234
10
21.1909937
20
36.8326049
40
0.3687189
50
323.6547608
51
342.6590488
0
ARC
8
DEFAULT_255_1_234
10
20.9878552
20
36.8986952
40
0.5823286
50
342.4091907
51
353.6451149
0
ARC
8
DEFAULT_255_1_234
10
20.7047063
20
36.933919
40
0.8676442
50
353.4029884
51
359.4847795
0
LINE
8
DEFAULT_255_1_234
10
21.9570358
20
37.5598211
11
22.1562229
21
37.5598211
0
LINE
8
DEFAULT_255_1_234
10
22.1562229
20
37.5598211
11
22.5385337
21
36.6056506
0
LINE
8
DEFAULT_255_1_234
10
22.5385337
20
36.6056506
11
22.9208444
21
37.5598211
0
LINE
8
DEFAULT_255_1_234
10
22.9208444
20
37.5598211
11
23.1208347
21
37.5598211
0
LINE
8
DEFAULT_255_1_234
10
23.1208347
20
37.5598211
11
23.1208347
21
36.3904
0
LINE
8
DEFAULT_255_1_234
10
23.1208347
20
36.3904
11
22.9666253
21
36.3904
0
LINE
8
DEFAULT_255_1_234
10
22.9666253
20
36.3904
11
22.9666253
21
36.8457996
0
LINE
8
DEFAULT_255_1_234
10
22.9666253
20
36.8457996
11
22.9810825
21
37.3373419
0
LINE
8
DEFAULT_255_1_234
10
22.9810825
20
37.3373419
11
22.5971654
21
36.3904
0
LINE
8
DEFAULT_255_1_234
10
22.5971654
20
36.3904
11
22.4790988
21
36.3904
0
LINE
8
DEFAULT_255_1_234
10
22.4790988
20
36.3904
11
22.0959849
21
37.3349324
0
LINE
8
DEFAULT_255_1_234
10
22.0959849
20
37.3349324
11
22.1112452
21
36.8457996
0
LINE
8
DEFAULT_255_1_234
10
22.1112452
20
36.8457996
11
22.1112452
21
36.3904
0
LINE
8
DEFAULT_255_1_234
10
22.1112452
20
36.3904
11
21.9570358
21
36.3904
0
LINE
8
DEFAULT_255_1_234
10
21.9570358
20
36.3904
11
21.9570358
21
37.5598211
0
LINE
8
DEFAULT_255_1_234
10
24.1207861
20
36.5116792
11
24.1207861
21
36.3904
0
LINE
8
DEFAULT_255_1_234
10
24.1207861
20
36.3904
11
23.3545583
21
36.3904
0
LINE
8
DEFAULT_255_1_234
10
23.3545583
20
36.3904
11
23.3545583
21
36.4972221
0
LINE
8
DEFAULT_255_1_234
10
23.3545583
20
36.4972221
11
23.7593579
21
36.9469995
0
LINE
8
DEFAULT_255_1_234
10
23.4806566
20
37.2152595
11
23.3320694
21
37.2152595
0
LINE
8
DEFAULT_255_1_234
10
23.8469039
20
36.8514218
11
23.5336661
21
36.5116792
0
LINE
8
DEFAULT_255_1_234
10
23.5336661
20
36.5116792
11
24.1207861
21
36.5116792
0
ARC
8
DEFAULT_255_1_234
10
22.4103412
20
38.1399527
40
1.8008286
50
318.5132453
51
320.7828378
0
ARC
8
DEFAULT_255_1_234
10
22.9390387
20
37.7096426
40
1.1191493
50
320.7372736
51
323.9737074
0
ARC
8
DEFAULT_255_1_234
10
23.3310243
20
37.4256361
40
0.6350923
50
323.8961724
51
328.6421089
0
ARC
8
DEFAULT_255_1_234
10
23.5356839
20
37.2994031
40
0.3946393
50
328.8299013
51
331.789948
0
ARC
8
DEFAULT_255_1_234
10
23.6354017
20
37.2479509
40
0.2824501
50
331.4255242
51
352.9364833
0
ARC
8
DEFAULT_255_1_234
10
23.6490518
20
37.2448976
40
0.2685315
50
353.2248685
51
0.0169286
0
ARC
8
DEFAULT_255_1_234
10
23.6700394
20
37.247195
40
0.2475536
50
359.4866256
51
15.9339782
0
ARC
8
DEFAULT_255_1_234
10
23.720738
20
37.2608286
40
0.1950618
50
16.1714718
51
43.5284424
0
ARC
8
DEFAULT_255_1_234
10
23.7284688
20
37.2685573
40
0.184134
50
43.4415429
51
83.1661404
0
ARC
8
DEFAULT_255_1_234
10
23.7150607
20
37.1948771
40
0.258926
50
82.160215
51
90.1505798
0
ARC
8
DEFAULT_255_1_234
10
23.7119034
20
37.1411865
40
0.3126255
50
89.5460705
51
102.5418777
0
ARC
8
DEFAULT_255_1_234
10
23.687612
20
37.2442665
40
0.2067346
50
102.1739365
51
129.2061916
0
ARC
8
DEFAULT_255_1_234
10
23.6797192
20
37.2567094
40
0.1921118
50
129.7279328
51
135.7542026
0
ARC
8
DEFAULT_255_1_234
10
23.6918719
20
37.2470045
40
0.2075944
50
136.175737
51
166.3674722
0
ARC
8
DEFAULT_255_1_234
10
23.7925639
20
37.2200182
40
0.3118201
50
165.9092917
51
178.8683903
0
ARC
8
DEFAULT_255_1_234
10
23.87905
20
37.2153179
40
0.3983935
50
178.438168
51
180.0083905
0
ARC
8
DEFAULT_255_1_234
10
23.7389102
20
37.2192231
40
0.4068601
50
163.2878735
51
180.5581814
0
ARC
8
DEFAULT_255_1_234
10
23.6587363
20
37.241284
40
0.3237344
50
133.454115
51
162.9470031
0
ARC
8
DEFAULT_255_1_234
10
23.6765905
20
37.2223
40
0.349795
50
100.7869394
51
133.4384016
0
ARC
8
DEFAULT_255_1_234
10
23.7113676
20
37.0674319
40
0.5084616
50
89.6605301
51
101.3704185
0
ARC
8
DEFAULT_255_1_234
10
23.7180015
20
37.0735496
40
0.502348
50
78.2171172
51
90.4130393
0
ARC
8
DEFAULT_255_1_234
10
23.7535093
20
37.2359637
40
0.3361092
50
55.9268222
51
78.4888551
0
ARC
8
DEFAULT_255_1_234
10
23.7731534
20
37.2698324
40
0.2970617
50
47.9292255
51
55.4054003
0
ARC
8
DEFAULT_255_1_234
10
23.7833094
20
37.2801502
40
0.2825983
50
4.3347696
51
48.0560701
0
ARC
8
DEFAULT_255_1_234
10
23.6737488
20
37.2631601
40
0.393225
50
359.925209
51
5.5967654
0
ARC
8
DEFAULT_255_1_234
10
23.716638
20
37.2687816
40
0.3503892
50
337.8914096
51
358.9967724
0
ARC
8
DEFAULT_255_1_234
10
23.4452792
20
37.3734706
40
0.6412172
50
326.9135351
51
338.3505194
0
ARC
8
DEFAULT_255_1_234
10
23.0467095
20
37.6289284
40
1.1146189
50
319.6472867
51
327.095818
0
ARC
8
DEFAULT_255_1_234
10
22.6634099
20
37.9451
40
1.6114559
50
317.2586784
51
319.9046139
0
LINE
8
DEFAULT_255_1_234
10
20.469623
20
44.6989663
11
20.6246355
21
44.6989663
0
LINE
8
DEFAULT_255_1_234
10
19.7242777
20
44.8579947
11
19.7242777
21
44.9704391
0
LINE
8
DEFAULT_255_1_234
10
20.6246355
20
45.1214357
11
20.469623
21
45.1214357
0
LINE
8
DEFAULT_255_1_234
10
19.8792902
20
44.9664232
11
19.8792902
21
44.8531757
0
ARC
8
DEFAULT_255_1_234
10
20.0765742
20
44.7586846
40
0.5513052
50
340.1774281
51
353.7814284
0
ARC
8
DEFAULT_255_1_234
10
20.2337095
20
44.7001582
40
0.3836379
50
311.4558989
51
340.4421614
0
ARC
8
DEFAULT_255_1_234
10
20.2303763
20
44.7112528
40
0.3941894
50
282.4333181
51
310.7513653
0
ARC
8
DEFAULT_255_1_234
10
20.1864502
20
44.8927679
40
0.5809175
50
269.9358511
51
282.809604
0
ARC
8
DEFAULT_255_1_234
10
20.1812568
20
45.0385212
40
0.7266847
50
270.0021091
51
270.3581957
0
ARC
8
DEFAULT_255_1_234
10
20.1759985
20
44.7784585
40
0.4666519
50
250.7884749
51
270.6489167
0
ARC
8
DEFAULT_255_1_234
10
20.159182
20
44.7147319
40
0.4009729
50
219.3627325
51
250.0611886
0
ARC
8
DEFAULT_255_1_234
10
20.2421031
20
44.7852042
40
0.5097822
50
193.5479632
51
219.5756669
0
ARC
8
DEFAULT_255_1_234
10
20.4792652
20
44.8467919
40
0.7547848
50
181.1218675
51
193.87563
0
ARC
8
DEFAULT_255_1_234
10
20.6862833
20
44.857858
40
0.9620055
50
179.9918545
51
181.5394234
0
ARC
8
DEFAULT_255_1_234
10
20.5011935
20
44.9741788
40
0.7769248
50
169.5837241
51
180.2757934
0
ARC
8
DEFAULT_255_1_234
10
20.3174873
20
45.0081229
40
0.590109
50
155.0365899
51
169.6003176
0
ARC
8
DEFAULT_255_1_234
10
20.2039337
20
45.0628677
40
0.4640625
50
136.783148
51
155.2472683
0
ARC
8
DEFAULT_255_1_234
10
20.1649814
20
45.0959562
40
0.4130255
50
121.7633186
51
136.428115
0
ARC
8
DEFAULT_255_1_234
10
20.1784776
20
45.0710227
40
0.4413323
50
95.6459699
51
121.5490577
0
ARC
8
DEFAULT_255_1_234
10
20.1942058
20
44.9601949
40
0.55319
50
89.924208
51
96.1377933
0
ARC
8
DEFAULT_255_1_234
10
20.1992491
20
44.9720542
40
0.5413475
50
76.6779277
51
90.4563316
0
ARC
8
DEFAULT_255_1_234
10
20.2386114
20
45.1311114
40
0.3775041
50
47.485847
51
76.9287264
0
ARC
8
DEFAULT_255_1_234
10
20.2239087
20
45.1211159
40
0.3948286
50
16.5424086
51
46.8933463
0
ARC
8
DEFAULT_255_1_234
10
20.0631244
20
45.0682861
40
0.564021
50
5.4072051
51
17.0365086
0
ARC
8
DEFAULT_255_1_234
10
19.9192261
20
45.0451679
40
0.5556559
50
7.8891745
51
15.9239216
0
ARC
8
DEFAULT_255_1_234
10
20.1179274
20
45.1028631
40
0.3487515
50
15.7653144
51
27.9410532
0
ARC
8
DEFAULT_255_1_234
10
20.2283492
20
45.161979
40
0.2235026
50
27.8166557
51
46.4008329
0
ARC
8
DEFAULT_255_1_234
10
20.2333135
20
45.1614082
40
0.2205286
50
47.4371857
51
75.0698205
0
ARC
8
DEFAULT_255_1_234
10
20.2024529
20
45.0539765
40
0.3322915
50
74.7008593
51
87.8124495
0
ARC
8
DEFAULT_255_1_234
10
20.1951217
20
44.9483844
40
0.4380987
50
87.3814673
51
90.0240855
0
ARC
8
DEFAULT_255_1_234
10
20.191276
20
45.0661291
40
0.3203749
50
89.3451631
51
108.5745436
0
ARC
8
DEFAULT_255_1_234
10
20.1775865
20
45.1174908
40
0.2673494
50
109.2998449
51
143.3037509
0
ARC
8
DEFAULT_255_1_234
10
20.2537938
20
45.0588881
40
0.3634757
50
143.0753173
51
163.1916937
0
ARC
8
DEFAULT_255_1_234
10
20.4489666
20
44.9972967
40
0.5681262
50
162.9373603
51
174.6208611
0
ARC
8
DEFAULT_255_1_234
10
20.7115708
20
44.968501
40
0.8322832
50
174.3419979
51
180.1430411
0
ARC
8
DEFAULT_255_1_234
10
20.6184864
20
44.8490698
40
0.7392076
50
179.6817502
51
189.150529
0
ARC
8
DEFAULT_255_1_234
10
20.3684112
20
44.807419
40
0.4856932
50
188.9910863
51
203.5773039
0
ARC
8
DEFAULT_255_1_234
10
20.2604445
20
44.7626211
40
0.3688271
50
203.9077269
51
215.1312379
0
ARC
8
DEFAULT_255_1_234
10
20.1681539
20
44.6910941
40
0.2522457
50
213.9071664
51
263.8849284
0
ARC
8
DEFAULT_255_1_234
10
20.1806868
20
44.7695518
40
0.3316174
50
263.1758525
51
270.1031083
0
ARC
8
DEFAULT_255_1_234
10
20.183896
20
44.8942365
40
0.4563091
50
269.6719807
51
279.0609165
0
ARC
8
DEFAULT_255_1_234
10
20.2105728
20
44.7329907
40
0.2928759
50
278.8750225
51
293.6346586
0
ARC
8
DEFAULT_255_1_234
10
20.2425936
20
44.65779
40
0.2111472
50
293.8553404
51
310.0518804
0
ARC
8
DEFAULT_255_1_234
10
20.243079
20
44.6515516
40
0.2060917
50
311.0646779
51
332.0108348
0
ARC
8
DEFAULT_255_1_234
10
20.1238517
20
44.7172978
40
0.3422352
50
331.6588543
51
343.2878891
0
ARC
8
DEFAULT_255_1_234
10
19.9176032
20
44.7806798
40
0.5580003
50
343.1446044
51
351.010618
0
ARC
8
DEFAULT_255_1_234
10
19.7634678
20
44.8087871
40
0.7146438
50
350.7157277
51
351.1602153
0
LINE
8
DEFAULT_255_1_234
10
21.7346218
20
44.9487534
11
21.7346218
21
44.8748614
0
LINE
8
DEFAULT_255_1_234
10
20.7941052
20
44.8644201
11
20.7941052
21
44.9487534
0
LINE
8
DEFAULT_255_1_234
10
21.5812156
20
44.8636169
11
21.5812156
21
44.9503597
0
LINE
8
DEFAULT_255_1_234
10
20.9475114
20
44.960801
11
20.9475114
21
44.8748614
0
ARC
8
DEFAULT_255_1_234
10
20.8704244
20
44.8709015
40
0.8642064
50
350.487711
51
0.2625388
0
ARC
8
DEFAULT_255_1_234
10
21.0997486
20
44.8314578
40
0.631518
50
336.0277639
51
350.5787438
0
ARC
8
DEFAULT_255_1_234
10
21.2342309
20
44.7706892
40
0.4839466
50
319.8877444
51
336.1328423
0
ARC
8
DEFAULT_255_1_234
10
21.294495
20
44.722458
40
0.4067874
50
302.4806467
51
319.6143626
0
ARC
8
DEFAULT_255_1_234
10
21.282996
20
44.7446202
40
0.4316636
50
275.8195682
51
302.1884709
0
ARC
8
DEFAULT_255_1_234
10
21.2663593
20
44.8588665
40
0.5470306
50
269.9171439
51
276.3397983
0
ARC
8
DEFAULT_255_1_234
10
21.2618803
20
44.7902681
40
0.4784458
50
252.5219675
51
270.4416499
0
ARC
8
DEFAULT_255_1_234
10
21.2475062
20
44.7363592
40
0.422716
50
237.5352116
51
252.1857531
0
ARC
8
DEFAULT_255_1_234
10
21.2564258
20
44.7477363
40
0.4371052
50
209.063312
51
237.3492538
0
ARC
8
DEFAULT_255_1_234
10
21.3434106
20
44.8023685
40
0.5397041
50
205.1183774
51
209.6470015
0
ARC
8
DEFAULT_255_1_234
10
21.4231143
20
44.836183
40
0.6262326
50
188.7215458
51
204.8240747
0
ARC
8
DEFAULT_255_1_234
10
21.6228671
20
44.8698067
40
0.8287794
50
180.3723947
51
188.9252049
0
ARC
8
DEFAULT_255_1_234
10
21.6201423
20
44.9527402
40
0.8260467
50
169.5253763
51
180.2765336
0
ARC
8
DEFAULT_255_1_234
10
21.4298871
20
44.9877309
40
0.6326007
50
155.8315255
51
169.5089989
0
ARC
8
DEFAULT_255_1_234
10
21.3018373
20
45.0471348
40
0.4914567
50
139.6258461
51
156.0379525
0
ARC
8
DEFAULT_255_1_234
10
21.2428706
20
45.0945799
40
0.4158054
50
122.6416387
51
139.3430715
0
ARC
8
DEFAULT_255_1_234
10
21.2529326
20
45.0762451
40
0.4366739
50
93.0223692
51
122.455762
0
ARC
8
DEFAULT_255_1_234
10
21.2637323
20
44.9797709
40
0.5336137
50
89.975342
51
93.6341897
0
ARC
8
DEFAULT_255_1_234
10
21.2676102
20
45.0196242
40
0.4937738
50
73.746375
51
90.4233405
0
ARC
8
DEFAULT_255_1_234
10
21.2851681
20
45.0876287
40
0.4235786
50
57.662753
51
73.4518111
0
ARC
8
DEFAULT_255_1_234
10
21.2843687
20
45.0897832
40
0.4221899
50
29.1440151
51
57.414694
0
ARC
8
DEFAULT_255_1_234
10
21.1908882
20
45.0314005
40
0.5322966
50
24.0982783
51
29.7323517
0
ARC
8
DEFAULT_255_1_234
10
21.0875157
20
44.9885399
40
0.6441673
50
8.6655297
51
23.8241346
0
ARC
8
DEFAULT_255_1_234
10
20.8640895
20
44.9520854
40
0.8705386
50
359.7806941
51
8.8218784
0
ARC
8
DEFAULT_255_1_234
10
20.7493893
20
44.9546345
40
0.8318373
50
359.7055579
51
8.036044
0
ARC
8
DEFAULT_255_1_234
10
21.0493899
20
44.9983239
40
0.5286768
50
7.8928306
51
20.2962107
0
ARC
8
DEFAULT_255_1_234
10
21.212147
20
45.0583395
40
0.3552073
50
20.3231126
51
36.4992797
0
ARC
8
DEFAULT_255_1_234
10
21.2807016
20
45.1111402
40
0.2686974
50
36.1437156
51
85.6627023
0
ARC
8
DEFAULT_255_1_234
10
21.2644562
20
45.0071221
40
0.373739
50
84.3852322
51
90.0757696
0
ARC
8
DEFAULT_255_1_234
10
21.2602234
20
45.0731839
40
0.3076997
50
89.3038458
51
109.9045693
0
ARC
8
DEFAULT_255_1_234
10
21.2509625
20
45.1114062
40
0.2686424
50
110.8228367
51
143.9179474
0
ARC
8
DEFAULT_255_1_234
10
21.3443285
20
45.0401236
40
0.3860887
50
143.5289163
51
163.2980757
0
ARC
8
DEFAULT_255_1_234
10
21.5351106
20
44.9801433
40
0.5860659
50
163.0418846
51
174.3140048
0
ARC
8
DEFAULT_255_1_234
10
21.7755218
20
44.9523854
40
0.8280531
50
174.0509143
51
179.4176892
0
ARC
8
DEFAULT_255_1_234
10
21.7250957
20
44.8706954
40
0.7775954
50
179.6930361
51
188.7906598
0
ARC
8
DEFAULT_255_1_234
10
21.4587436
20
44.8280935
40
0.5078633
50
188.6331305
51
202.5629587
0
ARC
8
DEFAULT_255_1_234
10
21.3333028
20
44.7776996
40
0.3726913
50
202.8081362
51
216.1193925
0
ARC
8
DEFAULT_255_1_234
10
21.2523598
20
44.7125676
40
0.2689577
50
215.0755913
51
264.6379694
0
ARC
8
DEFAULT_255_1_234
10
21.2650548
20
44.7956513
40
0.3528978
50
263.846392
51
270.0833719
0
ARC
8
DEFAULT_255_1_234
10
21.2691938
20
44.7698374
40
0.3271036
50
269.3649385
51
287.5152008
0
ARC
8
DEFAULT_255_1_234
10
21.2870096
20
44.7051238
40
0.2600406
50
288.0630309
51
323.8113348
0
ARC
8
DEFAULT_255_1_234
10
21.1998937
20
44.7701049
40
0.3687189
50
323.6547608
51
342.6590488
0
ARC
8
DEFAULT_255_1_234
10
20.9967552
20
44.8361952
40
0.5823286
50
342.4091907
51
353.6451149
0
ARC
8
DEFAULT_255_1_234
10
20.7136063
20
44.871419
40
0.8676442
50
353.4029884
51
359.4847795
0
LINE
8
DEFAULT_255_1_234
10
21.9659358
20
45.4973211
11
22.1651229
21
45.4973211
0
LINE
8
DEFAULT_255_1_234
10
22.1651229
20
45.4973211
11
22.5474337
21
44.5431506
0
LINE
8
DEFAULT_255_1_234
10
22.5474337
20
44.5431506
11
22.9297444
21
45.4973211
0
LINE
8
DEFAULT_255_1_234
10
22.9297444
20
45.4973211
11
23.1297347
21
45.4973211
0
LINE
8
DEFAULT_255_1_234
10
23.1297347
20
45.4973211
11
23.1297347
21
44.3279
0
LINE
8
DEFAULT_255_1_234
10
23.1297347
20
44.3279
11
22.9755253
21
44.3279
0
LINE
8
DEFAULT_255_1_234
10
22.9755253
20
44.3279
11
22.9755253
21
44.7832996
0
LINE
8
DEFAULT_255_1_234
10
22.9755253
20
44.7832996
11
22.9899825
21
45.2748419
0
LINE
8
DEFAULT_255_1_234
10
22.9899825
20
45.2748419
11
22.6060654
21
44.3279
0
LINE
8
DEFAULT_255_1_234
10
22.6060654
20
44.3279
11
22.4879988
21
44.3279
0
LINE
8
DEFAULT_255_1_234
10
22.4879988
20
44.3279
11
22.1048849
21
45.2724324
0
LINE
8
DEFAULT_255_1_234
10
22.1048849
20
45.2724324
11
22.1201452
21
44.7832996
0
LINE
8
DEFAULT_255_1_234
10
22.1201452
20
44.7832996
11
22.1201452
21
44.3279
0
LINE
8
DEFAULT_255_1_234
10
22.1201452
20
44.3279
11
21.9659358
21
44.3279
0
LINE
8
DEFAULT_255_1_234
10
21.9659358
20
44.3279
11
21.9659358
21
45.4973211
0
LINE
8
DEFAULT_255_1_234
10
23.851788
20
45.5029433
11
23.851788
21
44.3279
0
LINE
8
DEFAULT_255_1_234
10
23.851788
20
44.3279
11
23.7023977
21
44.3279
0
LINE
8
DEFAULT_255_1_234
10
23.7023977
20
44.3279
11
23.7023977
21
45.3182133
0
LINE
8
DEFAULT_255_1_234
10
23.7023977
20
45.3182133
11
23.4028138
21
45.2081785
0
LINE
8
DEFAULT_255_1_234
10
23.4028138
20
45.2081785
11
23.4028138
21
45.3431117
0
LINE
8
DEFAULT_255_1_234
10
23.4028138
20
45.3431117
11
23.8284959
21
45.5029433
0
LINE
8
DEFAULT_255_1_234
10
23.8284959
20
45.5029433
11
23.851788
21
45.5029433
0
LINE
8
DEFAULT_255_1_234
10
20.460723
20
52.6364663
11
20.6157355
21
52.6364663
0
LINE
8
DEFAULT_255_1_234
10
19.7153777
20
52.7954947
11
19.7153777
21
52.9079391
0
LINE
8
DEFAULT_255_1_234
10
20.6157355
20
53.0589357
11
20.460723
21
53.0589357
0
LINE
8
DEFAULT_255_1_234
10
19.8703902
20
52.9039232
11
19.8703902
21
52.7906757
0
ARC
8
DEFAULT_255_1_234
10
20.0676742
20
52.6961846
40
0.5513052
50
340.1774281
51
353.7814284
0
ARC
8
DEFAULT_255_1_234
10
20.2248095
20
52.6376582
40
0.3836379
50
311.4558989
51
340.4421614
0
ARC
8
DEFAULT_255_1_234
10
20.2214763
20
52.6487528
40
0.3941894
50
282.4333181
51
310.7513653
0
ARC
8
DEFAULT_255_1_234
10
20.1775502
20
52.8302679
40
0.5809175
50
269.9358511
51
282.809604
0
ARC
8
DEFAULT_255_1_234
10
20.1723568
20
52.9760212
40
0.7266847
50
270.0021091
51
270.3581957
0
ARC
8
DEFAULT_255_1_234
10
20.1670985
20
52.7159585
40
0.4666519
50
250.7884749
51
270.6489167
0
ARC
8
DEFAULT_255_1_234
10
20.150282
20
52.6522319
40
0.4009729
50
219.3627325
51
250.0611886
0
ARC
8
DEFAULT_255_1_234
10
20.2332031
20
52.7227042
40
0.5097822
50
193.5479632
51
219.5756669
0
ARC
8
DEFAULT_255_1_234
10
20.4703652
20
52.7842919
40
0.7547848
50
181.1218675
51
193.87563
0
ARC
8
DEFAULT_255_1_234
10
20.6773833
20
52.795358
40
0.9620055
50
179.9918545
51
181.5394234
0
ARC
8
DEFAULT_255_1_234
10
20.4922935
20
52.9116788
40
0.7769248
50
169.5837241
51
180.2757934
0
ARC
8
DEFAULT_255_1_234
10
20.3085873
20
52.9456229
40
0.590109
50
155.0365899
51
169.6003176
0
ARC
8
DEFAULT_255_1_234
10
20.1950337
20
53.0003677
40
0.4640625
50
136.783148
51
155.2472683
0
ARC
8
DEFAULT_255_1_234
10
20.1560814
20
53.0334562
40
0.4130255
50
121.7633186
51
136.428115
0
ARC
8
DEFAULT_255_1_234
10
20.1695776
20
53.0085227
40
0.4413323
50
95.6459699
51
121.5490577
0
ARC
8
DEFAULT_255_1_234
10
20.1853058
20
52.8976949
40
0.55319
50
89.924208
51
96.1377933
0
ARC
8
DEFAULT_255_1_234
10
20.1903491
20
52.9095542
40
0.5413475
50
76.6779277
51
90.4563316
0
ARC
8
DEFAULT_255_1_234
10
20.2297114
20
53.0686114
40
0.3775041
50
47.485847
51
76.9287264
0
ARC
8
DEFAULT_255_1_234
10
20.2150087
20
53.0586159
40
0.3948286
50
16.5424086
51
46.8933463
0
ARC
8
DEFAULT_255_1_234
10
20.0542244
20
53.0057861
40
0.564021
50
5.4072051
51
17.0365086
0
ARC
8
DEFAULT_255_1_234
10
19.9103261
20
52.9826679
40
0.5556559
50
7.8891745
51
15.9239216
0
ARC
8
DEFAULT_255_1_234
10
20.1090274
20
53.0403631
40
0.3487515
50
15.7653144
51
27.9410532
0
ARC
8
DEFAULT_255_1_234
10
20.2194492
20
53.099479
40
0.2235026
50
27.8166557
51
46.4008329
0
ARC
8
DEFAULT_255_1_234
10
20.2244135
20
53.0989082
40
0.2205286
50
47.4371857
51
75.0698205
0
ARC
8
DEFAULT_255_1_234
10
20.1935529
20
52.9914765
40
0.3322915
50
74.7008593
51
87.8124495
0
ARC
8
DEFAULT_255_1_234
10
20.1862217
20
52.8858844
40
0.4380987
50
87.3814673
51
90.0240855
0
ARC
8
DEFAULT_255_1_234
10
20.182376
20
53.0036291
40
0.3203749
50
89.3451631
51
108.5745436
0
ARC
8
DEFAULT_255_1_234
10
20.1686865
20
53.0549908
40
0.2673494
50
109.2998449
51
143.3037509
0
ARC
8
DEFAULT_255_1_234
10
20.2448938
20
52.9963881
40
0.3634757
50
143.0753173
51
163.1916937
0
ARC
8
DEFAULT_255_1_234
10
20.4400666
20
52.9347967
40
0.5681262
50
162.9373603
51
174.6208611
0
ARC
8
DEFAULT_255_1_234
10
20.7026708
20
52.906001
40
0.8322832
50
174.3419979
51
180.1430411
0
ARC
8
DEFAULT_255_1_234
10
20.6095864
20
52.7865698
40
0.7392076
50
179.6817502
51
189.150529
0
ARC
8
DEFAULT_255_1_234
10
20.3595112
20
52.744919
40
0.4856932
50
188.9910863
51
203.5773039
0
ARC
8
DEFAULT_255_1_234
10
20.2515445
20
52.7001211
40
0.3688271
50
203.9077269
51
215.1312379
0
ARC
8
DEFAULT_255_1_234
10
20.1592539
20
52.6285941
40
0.2522457
50
213.9071664
51
263.8849284
0
ARC
8
DEFAULT_255_1_234
10
20.1717868
20
52.7070518
40
0.3316174
50
263.1758525
51
270.1031083
0
ARC
8
DEFAULT_255_1_234
10
20.174996
20
52.8317365
40
0.4563091
50
269.6719807
51
279.0609165
0
ARC
8
DEFAULT_255_1_234
10
20.2016728
20
52.6704907
40
0.2928759
50
278.8750225
51
293.6346586
0
ARC
8
DEFAULT_255_1_234
10
20.2336936
20
52.59529
40
0.2111472
50
293.8553404
51
310.0518804
0
ARC
8
DEFAULT_255_1_234
10
20.234179
20
52.5890516
40
0.2060917
50
311.0646779
51
332.0108348
0
ARC
8
DEFAULT_255_1_234
10
20.1149517
20
52.6547978
40
0.3422352
50
331.6588543
51
343.2878891
0
ARC
8
DEFAULT_255_1_234
10
19.9087032
20
52.7181798
40
0.5580003
50
343.1446044
51
351.010618
0
ARC
8
DEFAULT_255_1_234
10
19.7545678
20
52.7462871
40
0.7146438
50
350.7157277
51
351.1602153
0
LINE
8
DEFAULT_255_1_234
10
21.7257218
20
52.8862534
11
21.7257218
21
52.8123614
0
LINE
8
DEFAULT_255_1_234
10
20.7852052
20
52.8019201
11
20.7852052
21
52.8862534
0
LINE
8
DEFAULT_255_1_234
10
21.5723156
20
52.8011169
11
21.5723156
21
52.8878597
0
LINE
8
DEFAULT_255_1_234
10
20.9386114
20
52.898301
11
20.9386114
21
52.8123614
0
ARC
8
DEFAULT_255_1_234
10
20.8615244
20
52.8084015
40
0.8642064
50
350.487711
51
0.2625388
0
ARC
8
DEFAULT_255_1_234
10
21.0908486
20
52.7689578
40
0.631518
50
336.0277639
51
350.5787438
0
ARC
8
DEFAULT_255_1_234
10
21.2253309
20
52.7081892
40
0.4839466
50
319.8877444
51
336.1328423
0
ARC
8
DEFAULT_255_1_234
10
21.285595
20
52.659958
40
0.4067874
50
302.4806467
51
319.6143626
0
ARC
8
DEFAULT_255_1_234
10
21.274096
20
52.6821202
40
0.4316636
50
275.8195682
51
302.1884709
0
ARC
8
DEFAULT_255_1_234
10
21.2574593
20
52.7963665
40
0.5470306
50
269.9171439
51
276.3397983
0
ARC
8
DEFAULT_255_1_234
10
21.2529803
20
52.7277681
40
0.4784458
50
252.5219675
51
270.4416499
0
ARC
8
DEFAULT_255_1_234
10
21.2386062
20
52.6738592
40
0.422716
50
237.5352116
51
252.1857531
0
ARC
8
DEFAULT_255_1_234
10
21.2475258
20
52.6852363
40
0.4371052
50
209.063312
51
237.3492538
0
ARC
8
DEFAULT_255_1_234
10
21.3345106
20
52.7398685
40
0.5397041
50
205.1183774
51
209.6470015
0
ARC
8
DEFAULT_255_1_234
10
21.4142143
20
52.773683
40
0.6262326
50
188.7215458
51
204.8240747
0
ARC
8
DEFAULT_255_1_234
10
21.6139671
20
52.8073067
40
0.8287794
50
180.3723947
51
188.9252049
0
ARC
8
DEFAULT_255_1_234
10
21.6112423
20
52.8902402
40
0.8260467
50
169.5253763
51
180.2765336
0
ARC
8
DEFAULT_255_1_234
10
21.4209871
20
52.9252309
40
0.6326007
50
155.8315255
51
169.5089989
0
ARC
8
DEFAULT_255_1_234
10
21.2929373
20
52.9846348
40
0.4914567
50
139.6258461
51
156.0379525
0
ARC
8
DEFAULT_255_1_234
10
21.2339706
20
53.0320799
40
0.4158054
50
122.6416387
51
139.3430715
0
ARC
8
DEFAULT_255_1_234
10
21.2440326
20
53.0137451
40
0.4366739
50
93.0223692
51
122.455762
0
ARC
8
DEFAULT_255_1_234
10
21.2548323
20
52.9172709
40
0.5336137
50
89.975342
51
93.6341897
0
ARC
8
DEFAULT_255_1_234
10
21.2587102
20
52.9571242
40
0.4937738
50
73.746375
51
90.4233405
0
ARC
8
DEFAULT_255_1_234
10
21.2762681
20
53.0251287
40
0.4235786
50
57.662753
51
73.4518111
0
ARC
8
DEFAULT_255_1_234
10
21.2754687
20
53.0272832
40
0.4221899
50
29.1440151
51
57.414694
0
ARC
8
DEFAULT_255_1_234
10
21.1819882
20
52.9689005
40
0.5322966
50
24.0982783
51
29.7323517
0
ARC
8
DEFAULT_255_1_234
10
21.0786157
20
52.9260399
40
0.6441673
50
8.6655297
51
23.8241346
0
ARC
8
DEFAULT_255_1_234
10
20.8551895
20
52.8895854
40
0.8705386
50
359.7806941
51
8.8218784
0
ARC
8
DEFAULT_255_1_234
10
20.7404893
20
52.8921345
40
0.8318373
50
359.7055579
51
8.036044
0
ARC
8
DEFAULT_255_1_234
10
21.0404899
20
52.9358239
40
0.5286768
50
7.8928306
51
20.2962107
0
ARC
8
DEFAULT_255_1_234
10
21.203247
20
52.9958395
40
0.3552073
50
20.3231126
51
36.4992797
0
ARC
8
DEFAULT_255_1_234
10
21.2718016
20
53.0486402
40
0.2686974
50
36.1437156
51
85.6627023
0
ARC
8
DEFAULT_255_1_234
10
21.2555562
20
52.9446221
40
0.373739
50
84.3852322
51
90.0757696
0
ARC
8
DEFAULT_255_1_234
10
21.2513234
20
53.0106839
40
0.3076997
50
89.3038458
51
109.9045693
0
ARC
8
DEFAULT_255_1_234
10
21.2420625
20
53.0489062
40
0.2686424
50
110.8228367
51
143.9179474
0
ARC
8
DEFAULT_255_1_234
10
21.3354285
20
52.9776236
40
0.3860887
50
143.5289163
51
163.2980757
0
ARC
8
DEFAULT_255_1_234
10
21.5262106
20
52.9176433
40
0.5860659
50
163.0418846
51
174.3140048
0
ARC
8
DEFAULT_255_1_234
10
21.7666218
20
52.8898854
40
0.8280531
50
174.0509143
51
179.4176892
0
ARC
8
DEFAULT_255_1_234
10
21.7161957
20
52.8081954
40
0.7775954
50
179.6930361
51
188.7906598
0
ARC
8
DEFAULT_255_1_234
10
21.4498436
20
52.7655935
40
0.5078633
50
188.6331305
51
202.5629587
0
ARC
8
DEFAULT_255_1_234
10
21.3244028
20
52.7151996
40
0.3726913
50
202.8081362
51
216.1193925
0
ARC
8
DEFAULT_255_1_234
10
21.2434598
20
52.6500676
40
0.2689577
50
215.0755913
51
264.6379694
0
ARC
8
DEFAULT_255_1_234
10
21.2561548
20
52.7331513
40
0.3528978
50
263.846392
51
270.0833719
0
ARC
8
DEFAULT_255_1_234
10
21.2602938
20
52.7073374
40
0.3271036
50
269.3649385
51
287.5152008
0
ARC
8
DEFAULT_255_1_234
10
21.2781096
20
52.6426238
40
0.2600406
50
288.0630309
51
323.8113348
0
ARC
8
DEFAULT_255_1_234
10
21.1909937
20
52.7076049
40
0.3687189
50
323.6547608
51
342.6590488
0
ARC
8
DEFAULT_255_1_234
10
20.9878552
20
52.7736952
40
0.5823286
50
342.4091907
51
353.6451149
0
ARC
8
DEFAULT_255_1_234
10
20.7047063
20
52.808919
40
0.8676442
50
353.4029884
51
359.4847795
0
LINE
8
DEFAULT_255_1_234
10
21.9570358
20
53.4348211
11
22.1562229
21
53.4348211
0
LINE
8
DEFAULT_255_1_234
10
22.1562229
20
53.4348211
11
22.5385337
21
52.4806506
0
LINE
8
DEFAULT_255_1_234
10
22.5385337
20
52.4806506
11
22.9208444
21
53.4348211
0
LINE
8
DEFAULT_255_1_234
10
22.9208444
20
53.4348211
11
23.1208347
21
53.4348211
0
LINE
8
DEFAULT_255_1_234
10
23.1208347
20
53.4348211
11
23.1208347
21
52.2654
0
LINE
8
DEFAULT_255_1_234
10
23.1208347
20
52.2654
11
22.9666253
21
52.2654
0
LINE
8
DEFAULT_255_1_234
10
22.9666253
20
52.2654
11
22.9666253
21
52.7207996
0
LINE
8
DEFAULT_255_1_234
10
22.9666253
20
52.7207996
11
22.9810825
21
53.2123419
0
LINE
8
DEFAULT_255_1_234
10
22.9810825
20
53.2123419
11
22.5971654
21
52.2654
0
LINE
8
DEFAULT_255_1_234
10
22.5971654
20
52.2654
11
22.4790988
21
52.2654
0
LINE
8
DEFAULT_255_1_234
10
22.4790988
20
52.2654
11
22.0959849
21
53.2099324
0
LINE
8
DEFAULT_255_1_234
10
22.0959849
20
53.2099324
11
22.1112452
21
52.7207996
0
LINE
8
DEFAULT_255_1_234
10
22.1112452
20
52.7207996
11
22.1112452
21
52.2654
0
LINE
8
DEFAULT_255_1_234
10
22.1112452
20
52.2654
11
21.9570358
21
52.2654
0
LINE
8
DEFAULT_255_1_234
10
21.9570358
20
52.2654
11
21.9570358
21
53.4348211
0
LINE
8
DEFAULT_255_1_234
10
24.087856
20
52.9569327
11
24.087856
21
52.7641709
0
LINE
8
DEFAULT_255_1_234
10
23.3497393
20
52.7440916
11
23.3497393
21
52.9424755
0
LINE
8
DEFAULT_255_1_234
10
23.9392688
20
52.7240123
11
23.9392688
21
52.9673739
0
LINE
8
DEFAULT_255_1_234
10
23.4983264
20
52.9786184
11
23.4983264
21
52.7408789
0
ARC
8
DEFAULT_255_1_234
10
22.863145
20
52.7592805
40
1.2247208
50
353.8441951
51
0.2287902
0
ARC
8
DEFAULT_255_1_234
10
23.3270953
20
52.7074806
40
0.7578929
50
344.4934747
51
353.9765454
0
ARC
8
DEFAULT_255_1_234
10
23.6263543
20
52.6223981
40
0.4467846
50
329.2803592
51
344.7472793
0
ARC
8
DEFAULT_255_1_234
10
23.7256368
20
52.5679018
40
0.3336173
50
324.9352394
51
328.6160465
0
ARC
8
DEFAULT_255_1_234
10
23.7633477
20
52.5415427
40
0.2876076
50
280.580143
51
324.9173126
0
ARC
8
DEFAULT_255_1_234
10
23.723227
20
52.7086099
40
0.4592847
50
269.5977311
51
281.6734359
0
ARC
8
DEFAULT_255_1_234
10
23.7160175
20
52.6966173
40
0.4472986
50
256.6228859
51
270.51044
0
ARC
8
DEFAULT_255_1_234
10
23.6758153
20
52.5417877
40
0.2873874
50
215.8618325
51
257.2788573
0
ARC
8
DEFAULT_255_1_234
10
23.7779185
20
52.6102977
40
0.4102928
50
197.9693508
51
215.2623606
0
ARC
8
DEFAULT_255_1_234
10
24.02643
20
52.6941709
40
0.6725652
50
187.8816417
51
198.2346507
0
ARC
8
DEFAULT_255_1_234
10
24.4222509
20
52.7513079
40
1.0724845
50
180.8976217
51
188.0055519
0
ARC
8
DEFAULT_255_1_234
10
24.7022697
20
52.7616777
40
1.3526448
50
180.7449369
51
181.1510016
0
ARC
8
DEFAULT_255_1_234
10
24.5445426
20
52.9473042
40
1.1948131
50
173.7675579
51
180.231553
0
ARC
8
DEFAULT_255_1_234
10
24.0927572
20
52.9983666
40
0.7401564
50
164.3058563
51
173.9002247
0
ARC
8
DEFAULT_255_1_234
10
23.8015641
20
53.0822656
40
0.4371288
50
148.7922025
51
164.568378
0
ARC
8
DEFAULT_255_1_234
10
23.7064093
20
53.1353929
40
0.3282386
50
144.5883898
51
148.1176286
0
ARC
8
DEFAULT_255_1_234
10
23.6720991
20
53.1593315
40
0.2864044
50
101.6440918
51
144.514236
0
ARC
8
DEFAULT_255_1_234
10
23.7146058
20
52.9904069
40
0.4604934
50
89.5284041
51
102.5819763
0
ARC
8
DEFAULT_255_1_234
10
23.7225146
20
52.9865018
40
0.464401
50
77.0437873
51
90.5081339
0
ARC
8
DEFAULT_255_1_234
10
23.7627148
20
53.1507615
40
0.2953195
50
48.2778575
51
77.4994676
0
ARC
8
DEFAULT_255_1_234
10
23.7699779
20
53.1636746
40
0.2808655
50
36.3142134
51
47.6305865
0
ARC
8
DEFAULT_255_1_234
10
23.6831086
20
53.1051515
40
0.3855453
50
18.2931786
51
35.6769206
0
ARC
8
DEFAULT_255_1_234
10
23.4287845
20
53.0178593
40
0.654423
50
8.024666
51
18.5605216
0
ARC
8
DEFAULT_255_1_234
10
23.0124765
20
52.9563792
40
1.0752407
50
1.1274072
51
8.1718305
0
ARC
8
DEFAULT_255_1_234
10
22.6888955
20
52.9436885
40
1.3990231
50
0.5424119
51
1.3863029
0
ARC
8
DEFAULT_255_1_234
10
22.8710333
20
52.9709342
40
1.0682415
50
359.8090433
51
4.9407866
0
ARC
8
DEFAULT_255_1_234
10
23.2920347
20
53.0085113
40
0.6455691
50
4.8362157
51
12.2904523
0
ARC
8
DEFAULT_255_1_234
10
23.5675462
20
53.0698965
40
0.3633074
50
12.0805627
51
23.8173984
0
ARC
8
DEFAULT_255_1_234
10
23.6849167
20
53.1195919
40
0.2358723
50
24.2871213
51
31.3935614
0
ARC
8
DEFAULT_255_1_234
10
23.7373864
20
53.1539233
40
0.1732111
50
30.7407893
51
82.4657128
0
ARC
8
DEFAULT_255_1_234
10
23.7193999
20
53.0655691
40
0.263235
50
81.1060089
51
90.2184952
0
ARC
8
DEFAULT_255_1_234
10
23.7158298
20
53.0913924
40
0.2374236
50
89.3806855
51
105.6762551
0
ARC
8
DEFAULT_255_1_234
10
23.6974928
20
53.1580567
40
0.1682847
50
105.7981136
51
149.7388061
0
ARC
8
DEFAULT_255_1_234
10
23.8039007
20
53.094095
40
0.2924306
50
149.4208916
51
163.6286378
0
ARC
8
DEFAULT_255_1_234
10
24.0129895
20
53.030325
40
0.5110213
50
163.3763315
51
172.1410975
0
ARC
8
DEFAULT_255_1_234
10
24.3430614
20
52.9830518
40
0.8444586
50
172.0259487
51
178.0703232
0
ARC
8
DEFAULT_255_1_234
10
24.6460703
20
52.9686906
40
1.1477868
50
177.8631668
51
179.5044149
0
ARC
8
DEFAULT_255_1_234
10
24.5388108
20
52.7372389
40
1.0404907
50
179.7995573
51
185.2460446
0
ARC
8
DEFAULT_255_1_234
10
24.1345147
20
52.6989513
40
0.6343885
50
185.1411642
51
193.0079639
0
ARC
8
DEFAULT_255_1_234
10
23.8701619
20
52.6364641
40
0.3627568
50
192.7897626
51
205.2507664
0
ARC
8
DEFAULT_255_1_234
10
23.7655166
20
52.5897415
40
0.2481908
50
205.8005384
51
211.2537509
0
ARC
8
DEFAULT_255_1_234
10
23.7131607
20
52.554658
40
0.1852521
50
210.3789793
51
238.4008143
0
ARC
8
DEFAULT_255_1_234
10
23.7112129
20
52.5593376
40
0.1882621
50
239.6520629
51
265.9793761
0
ARC
8
DEFAULT_255_1_234
10
23.7197329
20
52.6265427
40
0.2559272
50
265.1315437
51
270.060332
0
ARC
8
DEFAULT_255_1_234
10
23.7226108
20
52.5941534
40
0.2235528
50
269.3314664
51
287.2178029
0
ARC
8
DEFAULT_255_1_234
10
23.736396
20
52.5438279
40
0.1714108
50
287.7958004
51
329.080874
0
ARC
8
DEFAULT_255_1_234
10
23.6406416
20
52.603593
40
0.2842745
50
328.6634704
51
343.3325132
0
ARC
8
DEFAULT_255_1_234
10
23.4233437
20
52.6712863
40
0.5118644
50
343.0499468
51
351.9393422
0
ARC
8
DEFAULT_255_1_234
10
23.0766736
20
52.7223949
40
0.8622784
50
351.8069023
51
357.7959224
0
ARC
8
DEFAULT_255_1_234
10
22.7531292
20
52.7391721
40
1.1862365
50
357.5871873
51
359.2677531
0
LINE
8
DEFAULT_255_1_234
10
21.5343458
20
61.3723211
11
21.8379456
21
60.785201
0
LINE
8
DEFAULT_255_1_234
10
21.8379456
20
60.785201
11
22.1431516
21
61.3723211
0
LINE
8
DEFAULT_255_1_234
10
22.1431516
20
61.3723211
11
22.3182435
21
61.3723211
0
LINE
8
DEFAULT_255_1_234
10
22.3182435
20
61.3723211
11
21.9150502
21
60.6390234
0
LINE
8
DEFAULT_255_1_234
10
21.9150502
20
60.6390234
11
21.9150502
21
60.2029
0
LINE
8
DEFAULT_255_1_234
10
21.9150502
20
60.2029
11
21.7608409
21
60.2029
0
LINE
8
DEFAULT_255_1_234
10
21.7608409
20
60.2029
11
21.7608409
21
60.6390234
0
LINE
8
DEFAULT_255_1_234
10
21.7608409
20
60.6390234
11
21.3576476
21
61.3723211
0
LINE
8
DEFAULT_255_1_234
10
21.3576476
20
61.3723211
11
21.5343458
21
61.3723211
0
LINE
8
DEFAULT_255_1_234
10
22.9190175
20
61.3779433
11
22.9190175
21
60.2029
0
LINE
8
DEFAULT_255_1_234
10
22.9190175
20
60.2029
11
22.7696272
21
60.2029
0
LINE
8
DEFAULT_255_1_234
10
22.7696272
20
60.2029
11
22.7696272
21
61.1932133
0
LINE
8
DEFAULT_255_1_234
10
22.7696272
20
61.1932133
11
22.4700434
21
61.0831785
0
LINE
8
DEFAULT_255_1_234
10
22.4700434
20
61.0831785
11
22.4700434
21
61.2181117
0
LINE
8
DEFAULT_255_1_234
10
22.4700434
20
61.2181117
11
22.8957255
21
61.3779433
0
LINE
8
DEFAULT_255_1_234
10
22.8957255
20
61.3779433
11
22.9190175
21
61.3779433
0
LINE
8
DEFAULT_255_1_234
10
23.5414772
20
60.7586963
11
23.4226075
21
60.7892169
0
LINE
8
DEFAULT_255_1_234
10
23.4226075
20
60.7892169
11
23.4820424
21
61.3723211
0
LINE
8
DEFAULT_255_1_234
10
23.4820424
20
61.3723211
11
24.0812101
21
61.3723211
0
LINE
8
DEFAULT_255_1_234
10
24.0812101
20
61.3723211
11
24.0812101
21
61.2349784
0
LINE
8
DEFAULT_255_1_234
10
24.0812101
20
61.2349784
11
23.6081407
21
61.2349784
0
LINE
8
DEFAULT_255_1_234
10
23.6081407
20
61.2349784
11
23.572801
21
60.9161184
0
LINE
8
DEFAULT_255_1_234
10
23.3808425
20
60.5105156
11
23.5213979
21
60.5105156
0
LINE
8
DEFAULT_255_1_234
10
23.5808328
20
60.7908232
11
23.5414772
21
60.7586963
0
ARC
8
DEFAULT_255_1_234
10
23.7582794
20
60.598123
40
0.3681349
50
93.7182161
51
120.2538958
0
ARC
8
DEFAULT_255_1_234
10
23.7677057
20
60.5173394
40
0.449379
50
89.9660152
51
94.2496022
0
ARC
8
DEFAULT_255_1_234
10
23.7717791
20
60.5762549
40
0.390482
50
73.8043271
51
90.5585896
0
ARC
8
DEFAULT_255_1_234
10
23.7952688
20
60.6620602
40
0.3015334
50
41.3071453
51
73.5430202
0
ARC
8
DEFAULT_255_1_234
10
23.7536515
20
60.6262324
40
0.3564457
50
13.5075983
51
41.2174222
0
ARC
8
DEFAULT_255_1_234
10
23.5894719
20
60.5832486
40
0.5261351
50
1.1331335
51
13.8829381
0
ARC
8
DEFAULT_255_1_234
10
23.4483088
20
60.5756665
40
0.6674378
50
359.9919444
51
1.544251
0
ARC
8
DEFAULT_255_1_234
10
23.5759914
20
60.571528
40
0.5397702
50
347.8572367
51
0.4293338
0
ARC
8
DEFAULT_255_1_234
10
23.7510232
20
60.5318736
40
0.3603188
50
323.673004
51
348.1672506
0
ARC
8
DEFAULT_255_1_234
10
23.780474
20
60.5139168
40
0.3259678
50
316.8171152
51
323.1492751
0
ARC
8
DEFAULT_255_1_234
10
23.7865929
20
60.510246
40
0.3189975
50
281.8396411
51
316.5457803
0
ARC
8
DEFAULT_255_1_234
10
23.7490193
20
60.6657762
40
0.4789527
50
269.5770101
51
282.4214771
0
ARC
8
DEFAULT_255_1_234
10
23.7419004
20
60.6444125
40
0.45759
50
256.2427136
51
270.4486331
0
ARC
8
DEFAULT_255_1_234
10
23.7119907
20
60.5244229
40
0.3339303
50
228.9023911
51
256.3314342
0
ARC
8
DEFAULT_255_1_234
10
23.7046139
20
60.5127746
40
0.32031
50
193.753695
51
228.5271154
0
ARC
8
DEFAULT_255_1_234
10
23.8284093
20
60.54908
40
0.4492253
50
184.924711
51
194.497588
0
ARC
8
DEFAULT_255_1_234
10
23.847666
20
60.5526591
40
0.3289787
50
187.3600538
51
198.6732863
0
ARC
8
DEFAULT_255_1_234
10
23.7426954
20
60.5162674
40
0.217884
50
198.4451669
51
217.794479
0
ARC
8
DEFAULT_255_1_234
10
23.7131129
20
60.4953085
40
0.1816698
50
218.2887171
51
228.5612368
0
ARC
8
DEFAULT_255_1_234
10
23.7228916
20
60.5084963
40
0.1980329
50
228.9654866
51
258.1234728
0
ARC
8
DEFAULT_255_1_234
10
23.7434626
20
60.5965833
40
0.2884748
50
257.7258293
51
270.401361
0
ARC
8
DEFAULT_255_1_234
10
23.7479513
20
60.5520821
40
0.2439788
50
269.4204404
51
286.4209037
0
ARC
8
DEFAULT_255_1_234
10
23.7628
20
60.4981657
40
0.1880666
50
286.7251356
51
320.600362
0
ARC
8
DEFAULT_255_1_234
10
23.7244825
20
60.5292595
40
0.2374121
50
320.6712579
51
344.5441685
0
ARC
8
DEFAULT_255_1_234
10
23.6088151
20
60.5632045
40
0.3579479
50
344.2412205
51
356.7357071
0
ARC
8
DEFAULT_255_1_234
10
23.48393
20
60.5735444
40
0.4832297
50
356.3548756
51
0.0500261
0
ARC
8
DEFAULT_255_1_234
10
23.6175809
20
60.576665
40
0.3495889
50
359.5576869
51
12.953486
0
ARC
8
DEFAULT_255_1_234
10
23.7230706
20
60.6022434
40
0.2410532
50
12.6490276
51
41.6081334
0
ARC
8
DEFAULT_255_1_234
10
23.7461077
20
60.6218321
40
0.2108218
50
41.7850273
51
85.9892764
0
ARC
8
DEFAULT_255_1_234
10
23.7337814
20
60.5405462
40
0.2928454
50
84.6957577
51
90.0676183
0
ARC
8
DEFAULT_255_1_234
10
23.7314298
20
60.4736716
40
0.3597255
50
89.6804936
51
99.1614436
0
ARC
8
DEFAULT_255_1_234
10
23.7108929
20
60.5964131
40
0.235281
50
98.9830931
51
113.8908934
0
ARC
8
DEFAULT_255_1_234
10
23.6879339
20
60.6505587
40
0.176479
50
114.1950727
51
127.3641004
0
LINE
8
DEFAULT_255_1_234
10
21.4284458
20
69.3098211
11
21.7320456
21
68.722701
0
LINE
8
DEFAULT_255_1_234
10
21.7320456
20
68.722701
11
22.0372516
21
69.3098211
0
LINE
8
DEFAULT_255_1_234
10
22.0372516
20
69.3098211
11
22.2123435
21
69.3098211
0
LINE
8
DEFAULT_255_1_234
10
22.2123435
20
69.3098211
11
21.8091502
21
68.5765234
0
LINE
8
DEFAULT_255_1_234
10
21.8091502
20
68.5765234
11
21.8091502
21
68.1404
0
LINE
8
DEFAULT_255_1_234
10
21.8091502
20
68.1404
11
21.6549409
21
68.1404
0
LINE
8
DEFAULT_255_1_234
10
21.6549409
20
68.1404
11
21.6549409
21
68.5765234
0
LINE
8
DEFAULT_255_1_234
10
21.6549409
20
68.5765234
11
21.2517476
21
69.3098211
0
LINE
8
DEFAULT_255_1_234
10
21.2517476
20
69.3098211
11
21.4284458
21
69.3098211
0
LINE
8
DEFAULT_255_1_234
10
22.8131175
20
69.3154433
11
22.8131175
21
68.1404
0
LINE
8
DEFAULT_255_1_234
10
22.8131175
20
68.1404
11
22.6637272
21
68.1404
0
LINE
8
DEFAULT_255_1_234
10
22.6637272
20
68.1404
11
22.6637272
21
69.1307133
0
LINE
8
DEFAULT_255_1_234
10
22.6637272
20
69.1307133
11
22.3641434
21
69.0206785
0
LINE
8
DEFAULT_255_1_234
10
22.3641434
20
69.0206785
11
22.3641434
21
69.1556117
0
LINE
8
DEFAULT_255_1_234
10
22.3641434
20
69.1556117
11
22.7898255
21
69.3154433
0
LINE
8
DEFAULT_255_1_234
10
22.7898255
20
69.3154433
11
22.8131175
21
69.3154433
0
LINE
8
DEFAULT_255_1_234
10
23.8757165
20
69.3098211
11
23.8757165
21
68.533152
0
LINE
8
DEFAULT_255_1_234
10
23.8757165
20
68.533152
11
24.0379576
21
68.533152
0
LINE
8
DEFAULT_255_1_234
10
24.0379576
20
68.533152
11
24.0379576
21
68.4118728
0
LINE
8
DEFAULT_255_1_234
10
24.0379576
20
68.4118728
11
23.8757165
21
68.4118728
0
LINE
8
DEFAULT_255_1_234
10
23.8757165
20
68.4118728
11
23.8757165
21
68.1404
0
LINE
8
DEFAULT_255_1_234
10
23.8757165
20
68.1404
11
23.7263262
21
68.1404
0
LINE
8
DEFAULT_255_1_234
10
23.7263262
20
68.1404
11
23.7263262
21
68.4118728
0
LINE
8
DEFAULT_255_1_234
10
23.7263262
20
68.4118728
11
23.1938219
21
68.4118728
0
LINE
8
DEFAULT_255_1_234
10
23.1938219
20
68.4118728
11
23.1938219
21
68.4994187
0
LINE
8
DEFAULT_255_1_234
10
23.1938219
20
68.4994187
11
23.7174913
21
69.3098211
0
LINE
8
DEFAULT_255_1_234
10
23.7174913
20
69.3098211
11
23.8757165
21
69.3098211
0
LINE
8
DEFAULT_255_1_234
10
23.7086563
20
69.0744912
11
23.3624884
21
68.533152
0
LINE
8
DEFAULT_255_1_234
10
23.3624884
20
68.533152
11
23.7263262
21
68.533152
0
LINE
8
DEFAULT_255_1_234
10
23.7263262
20
68.533152
11
23.7263262
21
69.1066181
0
LINE
8
DEFAULT_255_1_234
10
23.7263262
20
69.1066181
11
23.7086563
21
69.0744912
0
LINE
8
DEFAULT_255_1_234
10
21.5343458
20
77.2473211
11
21.8379456
21
76.660201
0
LINE
8
DEFAULT_255_1_234
10
21.8379456
20
76.660201
11
22.1431516
21
77.2473211
0
LINE
8
DEFAULT_255_1_234
10
22.1431516
20
77.2473211
11
22.3182435
21
77.2473211
0
LINE
8
DEFAULT_255_1_234
10
22.3182435
20
77.2473211
11
21.9150502
21
76.5140234
0
LINE
8
DEFAULT_255_1_234
10
21.9150502
20
76.5140234
11
21.9150502
21
76.0779
0
LINE
8
DEFAULT_255_1_234
10
21.9150502
20
76.0779
11
21.7608409
21
76.0779
0
LINE
8
DEFAULT_255_1_234
10
21.7608409
20
76.0779
11
21.7608409
21
76.5140234
0
LINE
8
DEFAULT_255_1_234
10
21.7608409
20
76.5140234
11
21.3576476
21
77.2473211
0
LINE
8
DEFAULT_255_1_234
10
21.3576476
20
77.2473211
11
21.5343458
21
77.2473211
0
LINE
8
DEFAULT_255_1_234
10
22.9190175
20
77.2529433
11
22.9190175
21
76.0779
0
LINE
8
DEFAULT_255_1_234
10
22.9190175
20
76.0779
11
22.7696272
21
76.0779
0
LINE
8
DEFAULT_255_1_234
10
22.7696272
20
76.0779
11
22.7696272
21
77.0682133
0
LINE
8
DEFAULT_255_1_234
10
22.7696272
20
77.0682133
11
22.4700434
21
76.9581785
0
LINE
8
DEFAULT_255_1_234
10
22.4700434
20
76.9581785
11
22.4700434
21
77.0931117
0
LINE
8
DEFAULT_255_1_234
10
22.4700434
20
77.0931117
11
22.8957255
21
77.2529433
0
LINE
8
DEFAULT_255_1_234
10
22.8957255
20
77.2529433
11
22.9190175
21
77.2529433
0
LINE
8
DEFAULT_255_1_234
10
23.5703915
20
76.6136169
11
23.5703915
21
76.7348962
0
LINE
8
DEFAULT_255_1_234
10
23.5703915
20
76.7348962
11
23.6820327
21
76.7348962
0
LINE
8
DEFAULT_255_1_234
10
23.4916805
20
76.9405087
11
23.3430933
21
76.9405087
0
LINE
8
DEFAULT_255_1_234
10
23.3326521
20
76.3863188
11
23.4820424
21
76.3863188
0
LINE
8
DEFAULT_255_1_234
10
23.6820327
20
76.6136169
11
23.5703915
21
76.6136169
0
ARC
8
DEFAULT_255_1_234
10
23.6791193
20
77.0741713
40
0.3392876
50
270.4919872
51
281.8951556
0
ARC
8
DEFAULT_255_1_234
10
23.7032455
20
76.9639702
40
0.2264817
50
281.6691735
51
301.2943132
0
ARC
8
DEFAULT_255_1_234
10
23.7202665
20
76.9328304
40
0.1910381
50
301.7833094
51
311.7545298
0
ARC
8
DEFAULT_255_1_234
10
23.7294241
20
76.9226748
40
0.1773635
50
311.7323931
51
354.2802411
0
ARC
8
DEFAULT_255_1_234
10
23.6567866
20
76.9351722
40
0.2509385
50
353.0937916
51
0.1181479
0
ARC
8
DEFAULT_255_1_234
10
23.6106651
20
76.9399386
40
0.2970898
50
359.1805295
51
15.0453146
0
ARC
8
DEFAULT_255_1_234
10
23.7452488
20
76.9791992
40
0.1569564
50
13.9577229
51
77.6713066
0
ARC
8
DEFAULT_255_1_234
10
23.7066017
20
76.8406949
40
0.3006298
50
76.1116566
51
90.7026153
0
ARC
8
DEFAULT_255_1_234
10
23.7006855
20
76.8680545
40
0.2732568
50
89.5324876
51
103.531937
0
ARC
8
DEFAULT_255_1_234
10
23.68063
20
76.9479884
40
0.1908508
50
103.2931773
51
133.5619022
0
ARC
8
DEFAULT_255_1_234
10
23.6761788
20
76.9539375
40
0.1834746
50
133.8349307
51
173.5344437
0
ARC
8
DEFAULT_255_1_234
10
23.7484831
20
76.9411213
40
0.2568033
50
172.5096846
51
180.1366907
0
ARC
8
DEFAULT_255_1_234
10
23.6533725
20
76.9445622
40
0.3103056
50
155.3484492
51
180.7484736
0
ARC
8
DEFAULT_255_1_234
10
23.6484814
20
76.9416846
40
0.3070957
50
131.5744599
51
154.4798489
0
ARC
8
DEFAULT_255_1_234
10
23.6797961
20
76.910031
40
0.3515643
50
96.9875458
51
131.9690667
0
ARC
8
DEFAULT_255_1_234
10
23.7017441
20
76.7854636
40
0.4779224
50
89.8596053
51
97.7825159
0
ARC
8
DEFAULT_255_1_234
10
23.7065504
20
76.7592616
40
0.5041361
50
78.3655447
51
90.4131539
0
ARC
8
DEFAULT_255_1_234
10
23.7423422
20
76.9251887
40
0.3344039
50
56.6229102
51
78.638727
0
ARC
8
DEFAULT_255_1_234
10
23.7638366
20
76.9627805
40
0.2912001
50
47.0253525
51
56.0854072
0
ARC
8
DEFAULT_255_1_234
10
23.7658146
20
76.9667223
40
0.2869704
50
10.9208013
51
46.7778124
0
ARC
8
DEFAULT_255_1_234
10
23.6294212
20
76.9351857
40
0.426899
50
359.6364486
51
11.6087304
0
ARC
8
DEFAULT_255_1_234
10
23.8129057
20
76.9336752
40
0.243409
50
332.3549906
51
359.7179418
0
ARC
8
DEFAULT_255_1_234
10
23.7478658
20
76.9645142
40
0.3153459
50
325.2333722
51
332.8745602
0
ARC
8
DEFAULT_255_1_234
10
23.7631282
20
76.9538828
40
0.2967456
50
292.9802137
51
325.2392345
0
ARC
8
DEFAULT_255_1_234
10
23.7356656
20
77.0072863
40
0.3566604
50
292.5402179
51
293.6924929
0
ARC
8
DEFAULT_255_1_234
10
23.7749251
20
76.3618091
40
0.3307468
50
57.6435486
51
72.8625112
0
ARC
8
DEFAULT_255_1_234
10
23.8103751
20
76.4192549
40
0.2632492
50
36.7248896
51
57.4697979
0
ARC
8
DEFAULT_255_1_234
10
23.8092384
20
76.420522
40
0.2634081
50
8.0545065
51
36.356114
0
ARC
8
DEFAULT_255_1_234
10
23.7229569
20
76.4050174
40
0.3510261
50
359.8320645
51
8.5869982
0
ARC
8
DEFAULT_255_1_234
10
23.6854345
20
76.4002101
40
0.3885653
50
343.9829931
51
0.5571613
0
ARC
8
DEFAULT_255_1_234
10
23.7740542
20
76.3759438
40
0.2966924
50
311.6359546
51
343.7651759
0
ARC
8
DEFAULT_255_1_234
10
23.7362112
20
76.4186102
40
0.3537231
50
279.7829875
51
311.6255694
0
ARC
8
DEFAULT_255_1_234
10
23.7060888
20
76.562328
40
0.5004971
50
269.7286406
51
280.3856417
0
ARC
8
DEFAULT_255_1_234
10
23.699896
20
76.5581996
40
0.4963778
50
256.6828919
51
270.4412052
0
ARC
8
DEFAULT_255_1_234
10
23.6660256
20
76.4197394
40
0.3538406
50
229.4223008
51
256.8556159
0
ARC
8
DEFAULT_255_1_234
10
23.6245649
20
76.3730736
40
0.2914296
50
181.818294
51
229.6455059
0
ARC
8
DEFAULT_255_1_234
10
23.7285605
20
76.3861496
40
0.3959084
50
179.9755256
51
183.2323064
0
ARC
8
DEFAULT_255_1_234
10
23.7113351
20
76.3841037
40
0.2293034
50
179.4465117
51
196.2869258
0
ARC
8
DEFAULT_255_1_234
10
23.6625759
20
76.3707651
40
0.1787621
50
196.5661473
51
227.705904
0
ARC
8
DEFAULT_255_1_234
10
23.6789854
20
76.3891155
40
0.2033784
50
227.7652068
51
257.8762805
0
ARC
8
DEFAULT_255_1_234
10
23.7014824
20
76.4834156
40
0.3003081
50
257.4584385
51
270.426602
0
ARC
8
DEFAULT_255_1_234
10
23.706039
20
76.5123996
40
0.329292
50
269.5962073
51
280.8789248
0
ARC
8
DEFAULT_255_1_234
10
23.7289919
20
76.3977685
40
0.2123908
50
280.6346389
51
299.8595945
0
ARC
8
DEFAULT_255_1_234
10
23.7480826
20
76.3615212
40
0.171457
50
300.3576302
51
314.5517981
0
ARC
8
DEFAULT_255_1_234
10
23.7397886
20
76.3675919
40
0.1816095
50
315.0728369
51
345.0431014
0
ARC
8
DEFAULT_255_1_234
10
23.64747
20
76.3944841
40
0.2777492
50
344.5986631
51
357.9269593
0
ARC
8
DEFAULT_255_1_234
10
23.5579027
20
76.4006276
40
0.3674917
50
357.4748886
51
0.0231117
0
ARC
8
DEFAULT_255_1_234
10
23.6602136
20
76.4030679
40
0.2651907
50
359.5047933
51
13.4239635
0
ARC
8
DEFAULT_255_1_234
10
23.746878
20
76.4252478
40
0.1757509
50
12.9498199
51
48.7551375
0
ARC
8
DEFAULT_255_1_234
10
23.7286513
20
76.40034
40
0.2065134
50
49.5088623
51
72.1836453
0
ARC
8
DEFAULT_255_1_234
10
23.6928666
20
76.2941291
40
0.3185836
50
71.9010081
51
84.3554254
0
ARC
8
DEFAULT_255_1_234
10
23.6767298
20
76.1580326
40
0.4556151
50
84.0193428
51
89.333121
0
LINE
8
DEFAULT_255_1_234
10
21.5343458
20
85.1848211
11
21.8379456
21
84.597701
0
LINE
8
DEFAULT_255_1_234
10
21.8379456
20
84.597701
11
22.1431516
21
85.1848211
0
LINE
8
DEFAULT_255_1_234
10
22.1431516
20
85.1848211
11
22.3182435
21
85.1848211
0
LINE
8
DEFAULT_255_1_234
10
22.3182435
20
85.1848211
11
21.9150502
21
84.4515234
0
LINE
8
DEFAULT_255_1_234
10
21.9150502
20
84.4515234
11
21.9150502
21
84.0154
0
LINE
8
DEFAULT_255_1_234
10
21.9150502
20
84.0154
11
21.7608409
21
84.0154
0
LINE
8
DEFAULT_255_1_234
10
21.7608409
20
84.0154
11
21.7608409
21
84.4515234
0
LINE
8
DEFAULT_255_1_234
10
21.7608409
20
84.4515234
11
21.3576476
21
85.1848211
0
LINE
8
DEFAULT_255_1_234
10
21.3576476
20
85.1848211
11
21.5343458
21
85.1848211
0
LINE
8
DEFAULT_255_1_234
10
22.9190175
20
85.1904433
11
22.9190175
21
84.0154
0
LINE
8
DEFAULT_255_1_234
10
22.9190175
20
84.0154
11
22.7696272
21
84.0154
0
LINE
8
DEFAULT_255_1_234
10
22.7696272
20
84.0154
11
22.7696272
21
85.0057133
0
LINE
8
DEFAULT_255_1_234
10
22.7696272
20
85.0057133
11
22.4700434
21
84.8956785
0
LINE
8
DEFAULT_255_1_234
10
22.4700434
20
84.8956785
11
22.4700434
21
85.0306117
0
LINE
8
DEFAULT_255_1_234
10
22.4700434
20
85.0306117
11
22.8957255
21
85.1904433
0
LINE
8
DEFAULT_255_1_234
10
22.8957255
20
85.1904433
11
22.9190175
21
85.1904433
0
LINE
8
DEFAULT_255_1_234
10
24.1205656
20
84.1366792
11
24.1205656
21
84.0154
0
LINE
8
DEFAULT_255_1_234
10
24.1205656
20
84.0154
11
23.3543377
21
84.0154
0
LINE
8
DEFAULT_255_1_234
10
23.3543377
20
84.0154
11
23.3543377
21
84.1222221
0
LINE
8
DEFAULT_255_1_234
10
23.3543377
20
84.1222221
11
23.7591374
21
84.5719995
0
LINE
8
DEFAULT_255_1_234
10
23.480436
20
84.8402595
11
23.3318489
21
84.8402595
0
LINE
8
DEFAULT_255_1_234
10
23.8466833
20
84.4764218
11
23.5334455
21
84.1366792
0
LINE
8
DEFAULT_255_1_234
10
23.5334455
20
84.1366792
11
24.1205656
21
84.1366792
0
ARC
8
DEFAULT_255_1_234
10
22.4101207
20
85.7649527
40
1.8008286
50
318.5132453
51
320.7828378
0
ARC
8
DEFAULT_255_1_234
10
22.9388181
20
85.3346426
40
1.1191493
50
320.7372736
51
323.9737074
0
ARC
8
DEFAULT_255_1_234
10
23.3308038
20
85.0506361
40
0.6350923
50
323.8961724
51
328.6421089
0
ARC
8
DEFAULT_255_1_234
10
23.5354633
20
84.9244031
40
0.3946393
50
328.8299013
51
331.789948
0
ARC
8
DEFAULT_255_1_234
10
23.6351812
20
84.8729509
40
0.2824501
50
331.4255242
51
352.9364833
0
ARC
8
DEFAULT_255_1_234
10
23.6488312
20
84.8698976
40
0.2685315
50
353.2248685
51
0.0169286
0
ARC
8
DEFAULT_255_1_234
10
23.6698189
20
84.872195
40
0.2475536
50
359.4866256
51
15.9339782
0
ARC
8
DEFAULT_255_1_234
10
23.7205174
20
84.8858286
40
0.1950618
50
16.1714718
51
43.5284424
0
ARC
8
DEFAULT_255_1_234
10
23.7282483
20
84.8935573
40
0.184134
50
43.4415429
51
83.1661404
0
ARC
8
DEFAULT_255_1_234
10
23.7148401
20
84.8198771
40
0.258926
50
82.160215
51
90.1505798
0
ARC
8
DEFAULT_255_1_234
10
23.7116828
20
84.7661865
40
0.3126255
50
89.5460705
51
102.5418777
0
ARC
8
DEFAULT_255_1_234
10
23.6873915
20
84.8692665
40
0.2067346
50
102.1739365
51
129.2061916
0
ARC
8
DEFAULT_255_1_234
10
23.6794986
20
84.8817094
40
0.1921118
50
129.7279328
51
135.7542026
0
ARC
8
DEFAULT_255_1_234
10
23.6916514
20
84.8720045
40
0.2075944
50
136.175737
51
166.3674722
0
ARC
8
DEFAULT_255_1_234
10
23.7923433
20
84.8450182
40
0.3118201
50
165.9092917
51
178.8683903
0
ARC
8
DEFAULT_255_1_234
10
23.8788295
20
84.8403179
40
0.3983935
50
178.438168
51
180.0083905
0
ARC
8
DEFAULT_255_1_234
10
23.7386897
20
84.8442231
40
0.4068601
50
163.2878735
51
180.5581814
0
ARC
8
DEFAULT_255_1_234
10
23.6585158
20
84.866284
40
0.3237344
50
133.454115
51
162.9470031
0
ARC
8
DEFAULT_255_1_234
10
23.6763699
20
84.8473
40
0.349795
50
100.7869394
51
133.4384016
0
ARC
8
DEFAULT_255_1_234
10
23.7111471
20
84.6924319
40
0.5084616
50
89.6605301
51
101.3704185
0
ARC
8
DEFAULT_255_1_234
10
23.717781
20
84.6985496
40
0.502348
50
78.2171172
51
90.4130393
0
ARC
8
DEFAULT_255_1_234
10
23.7532888
20
84.8609637
40
0.3361092
50
55.9268222
51
78.4888551
0
ARC
8
DEFAULT_255_1_234
10
23.7729328
20
84.8948324
40
0.2970617
50
47.9292255
51
55.4054003
0
ARC
8
DEFAULT_255_1_234
10
23.7830889
20
84.9051502
40
0.2825983
50
4.3347696
51
48.0560701
0
ARC
8
DEFAULT_255_1_234
10
23.6735282
20
84.8881601
40
0.393225
50
359.925209
51
5.5967654
0
ARC
8
DEFAULT_255_1_234
10
23.7164174
20
84.8937816
40
0.3503892
50
337.8914096
51
358.9967724
0
ARC
8
DEFAULT_255_1_234
10
23.4450586
20
84.9984706
40
0.6412172
50
326.9135351
51
338.3505194
0
ARC
8
DEFAULT_255_1_234
10
23.046489
20
85.2539284
40
1.1146189
50
319.6472867
51
327.095818
0
ARC
8
DEFAULT_255_1_234
10
22.6631893
20
85.5701
40
1.6114559
50
317.2586784
51
319.9046139
0
LINE
8
DEFAULT_255_1_234
10
21.5422458
20
93.1223211
11
21.8458456
21
92.535201
0
LINE
8
DEFAULT_255_1_234
10
21.8458456
20
92.535201
11
22.1510516
21
93.1223211
0
LINE
8
DEFAULT_255_1_234
10
22.1510516
20
93.1223211
11
22.3261435
21
93.1223211
0
LINE
8
DEFAULT_255_1_234
10
22.3261435
20
93.1223211
11
21.9229502
21
92.3890234
0
LINE
8
DEFAULT_255_1_234
10
21.9229502
20
92.3890234
11
21.9229502
21
91.9529
0
LINE
8
DEFAULT_255_1_234
10
21.9229502
20
91.9529
11
21.7687409
21
91.9529
0
LINE
8
DEFAULT_255_1_234
10
21.7687409
20
91.9529
11
21.7687409
21
92.3890234
0
LINE
8
DEFAULT_255_1_234
10
21.7687409
20
92.3890234
11
21.3655476
21
93.1223211
0
LINE
8
DEFAULT_255_1_234
10
21.3655476
20
93.1223211
11
21.5422458
21
93.1223211
0
LINE
8
DEFAULT_255_1_234
10
22.9269175
20
93.1279433
11
22.9269175
21
91.9529
0
LINE
8
DEFAULT_255_1_234
10
22.9269175
20
91.9529
11
22.7775272
21
91.9529
0
LINE
8
DEFAULT_255_1_234
10
22.7775272
20
91.9529
11
22.7775272
21
92.9432133
0
LINE
8
DEFAULT_255_1_234
10
22.7775272
20
92.9432133
11
22.4779434
21
92.8331785
0
LINE
8
DEFAULT_255_1_234
10
22.4779434
20
92.8331785
11
22.4779434
21
92.9681117
0
LINE
8
DEFAULT_255_1_234
10
22.4779434
20
92.9681117
11
22.9036255
21
93.1279433
0
LINE
8
DEFAULT_255_1_234
10
22.9036255
20
93.1279433
11
22.9269175
21
93.1279433
0
LINE
8
DEFAULT_255_1_234
10
23.8505674
20
93.1279433
11
23.8505674
21
91.9529
0
LINE
8
DEFAULT_255_1_234
10
23.8505674
20
91.9529
11
23.7011771
21
91.9529
0
LINE
8
DEFAULT_255_1_234
10
23.7011771
20
91.9529
11
23.7011771
21
92.9432133
0
LINE
8
DEFAULT_255_1_234
10
23.7011771
20
92.9432133
11
23.4015933
21
92.8331785
0
LINE
8
DEFAULT_255_1_234
10
23.4015933
20
92.8331785
11
23.4015933
21
92.9681117
0
LINE
8
DEFAULT_255_1_234
10
23.4015933
20
92.9681117
11
23.8272754
21
93.1279433
0
LINE
8
DEFAULT_255_1_234
10
23.8272754
20
93.1279433
11
23.8505674
21
93.1279433
0
LINE
8
DEFAULT_255_1_234
10
21.5343458
20
101.0598211
11
21.8379456
21
100.472701
0
LINE
8
DEFAULT_255_1_234
10
21.8379456
20
100.472701
11
22.1431516
21
101.0598211
0
LINE
8
DEFAULT_255_1_234
10
22.1431516
20
101.0598211
11
22.3182435
21
101.0598211
0
LINE
8
DEFAULT_255_1_234
10
22.3182435
20
101.0598211
11
21.9150502
21
100.3265234
0
LINE
8
DEFAULT_255_1_234
10
21.9150502
20
100.3265234
11
21.9150502
21
99.8904
0
LINE
8
DEFAULT_255_1_234
10
21.9150502
20
99.8904
11
21.7608409
21
99.8904
0
LINE
8
DEFAULT_255_1_234
10
21.7608409
20
99.8904
11
21.7608409
21
100.3265234
0
LINE
8
DEFAULT_255_1_234
10
21.7608409
20
100.3265234
11
21.3576476
21
101.0598211
0
LINE
8
DEFAULT_255_1_234
10
21.3576476
20
101.0598211
11
21.5343458
21
101.0598211
0
LINE
8
DEFAULT_255_1_234
10
22.9190175
20
101.0654433
11
22.9190175
21
99.8904
0
LINE
8
DEFAULT_255_1_234
10
22.9190175
20
99.8904
11
22.7696272
21
99.8904
0
LINE
8
DEFAULT_255_1_234
10
22.7696272
20
99.8904
11
22.7696272
21
100.8807133
0
LINE
8
DEFAULT_255_1_234
10
22.7696272
20
100.8807133
11
22.4700434
21
100.7706785
0
LINE
8
DEFAULT_255_1_234
10
22.4700434
20
100.7706785
11
22.4700434
21
100.9056117
0
LINE
8
DEFAULT_255_1_234
10
22.4700434
20
100.9056117
11
22.8957255
21
101.0654433
0
LINE
8
DEFAULT_255_1_234
10
22.8957255
20
101.0654433
11
22.9190175
21
101.0654433
0
LINE
8
DEFAULT_255_1_234
10
24.0876354
20
100.5819327
11
24.0876354
21
100.3891709
0
LINE
8
DEFAULT_255_1_234
10
23.3495187
20
100.3690916
11
23.3495187
21
100.5674755
0
LINE
8
DEFAULT_255_1_234
10
23.9390483
20
100.3490123
11
23.9390483
21
100.5923739
0
LINE
8
DEFAULT_255_1_234
10
23.4981059
20
100.6036184
11
23.4981059
21
100.3658789
0
ARC
8
DEFAULT_255_1_234
10
22.8629244
20
100.3842805
40
1.2247208
50
353.8441951
51
0.2287902
0
ARC
8
DEFAULT_255_1_234
10
23.3268748
20
100.3324806
40
0.7578929
50
344.4934747
51
353.9765454
0
ARC
8
DEFAULT_255_1_234
10
23.6261338
20
100.2473981
40
0.4467846
50
329.2803592
51
344.7472793
0
ARC
8
DEFAULT_255_1_234
10
23.7254163
20
100.1929018
40
0.3336173
50
324.9352394
51
328.6160465
0
ARC
8
DEFAULT_255_1_234
10
23.7631272
20
100.1665427
40
0.2876076
50
280.580143
51
324.9173126
0
ARC
8
DEFAULT_255_1_234
10
23.7230064
20
100.3336099
40
0.4592847
50
269.5977311
51
281.6734359
0
ARC
8
DEFAULT_255_1_234
10
23.715797
20
100.3216173
40
0.4472986
50
256.6228859
51
270.51044
0
ARC
8
DEFAULT_255_1_234
10
23.6755948
20
100.1667877
40
0.2873874
50
215.8618325
51
257.2788573
0
ARC
8
DEFAULT_255_1_234
10
23.7776979
20
100.2352977
40
0.4102928
50
197.9693508
51
215.2623606
0
ARC
8
DEFAULT_255_1_234
10
24.0262095
20
100.3191709
40
0.6725652
50
187.8816417
51
198.2346507
0
ARC
8
DEFAULT_255_1_234
10
24.4220303
20
100.3763079
40
1.0724845
50
180.8976217
51
188.0055519
0
ARC
8
DEFAULT_255_1_234
10
24.7020491
20
100.3866777
40
1.3526448
50
180.7449369
51
181.1510016
0
ARC
8
DEFAULT_255_1_234
10
24.544322
20
100.5723042
40
1.1948131
50
173.7675579
51
180.231553
0
ARC
8
DEFAULT_255_1_234
10
24.0925367
20
100.6233666
40
0.7401564
50
164.3058563
51
173.9002247
0
ARC
8
DEFAULT_255_1_234
10
23.8013436
20
100.7072656
40
0.4371288
50
148.7922025
51
164.568378
0
ARC
8
DEFAULT_255_1_234
10
23.7061888
20
100.7603929
40
0.3282386
50
144.5883898
51
148.1176286
0
ARC
8
DEFAULT_255_1_234
10
23.6718786
20
100.7843315
40
0.2864044
50
101.6440918
51
144.514236
0
ARC
8
DEFAULT_255_1_234
10
23.7143853
20
100.6154069
40
0.4604934
50
89.5284041
51
102.5819763
0
ARC
8
DEFAULT_255_1_234
10
23.722294
20
100.6115018
40
0.464401
50
77.0437873
51
90.5081339
0
ARC
8
DEFAULT_255_1_234
10
23.7624942
20
100.7757615
40
0.2953195
50
48.2778575
51
77.4994676
0
ARC
8
DEFAULT_255_1_234
10
23.7697573
20
100.7886746
40
0.2808655
50
36.3142134
51
47.6305865
0
ARC
8
DEFAULT_255_1_234
10
23.682888
20
100.7301515
40
0.3855453
50
18.2931786
51
35.6769206
0
ARC
8
DEFAULT_255_1_234
10
23.4285639
20
100.6428593
40
0.654423
50
8.024666
51
18.5605216
0
ARC
8
DEFAULT_255_1_234
10
23.0122559
20
100.5813792
40
1.0752407
50
1.1274072
51
8.1718305
0
ARC
8
DEFAULT_255_1_234
10
22.688675
20
100.5686885
40
1.3990231
50
0.5424119
51
1.3863029
0
ARC
8
DEFAULT_255_1_234
10
22.8708128
20
100.5959342
40
1.0682415
50
359.8090433
51
4.9407866
0
ARC
8
DEFAULT_255_1_234
10
23.2918142
20
100.6335113
40
0.6455691
50
4.8362157
51
12.2904523
0
ARC
8
DEFAULT_255_1_234
10
23.5673256
20
100.6948965
40
0.3633074
50
12.0805627
51
23.8173984
0
ARC
8
DEFAULT_255_1_234
10
23.6846962
20
100.7445919
40
0.2358723
50
24.2871213
51
31.3935614
0
ARC
8
DEFAULT_255_1_234
10
23.7371659
20
100.7789233
40
0.1732111
50
30.7407893
51
82.4657128
0
ARC
8
DEFAULT_255_1_234
10
23.7191793
20
100.6905691
40
0.263235
50
81.1060089
51
90.2184952
0
ARC
8
DEFAULT_255_1_234
10
23.7156092
20
100.7163924
40
0.2374236
50
89.3806855
51
105.6762551
0
ARC
8
DEFAULT_255_1_234
10
23.6972723
20
100.7830567
40
0.1682847
50
105.7981136
51
149.7388061
0
ARC
8
DEFAULT_255_1_234
10
23.8036801
20
100.719095
40
0.2924306
50
149.4208916
51
163.6286378
0
ARC
8
DEFAULT_255_1_234
10
24.0127689
20
100.655325
40
0.5110213
50
163.3763315
51
172.1410975
0
ARC
8
DEFAULT_255_1_234
10
24.3428408
20
100.6080518
40
0.8444586
50
172.0259487
51
178.0703232
0
ARC
8
DEFAULT_255_1_234
10
24.6458498
20
100.5936906
40
1.1477868
50
177.8631668
51
179.5044149
0
ARC
8
DEFAULT_255_1_234
10
24.5385902
20
100.3622389
40
1.0404907
50
179.7995573
51
185.2460446
0
ARC
8
DEFAULT_255_1_234
10
24.1342941
20
100.3239513
40
0.6343885
50
185.1411642
51
193.0079639
0
ARC
8
DEFAULT_255_1_234
10
23.8699414
20
100.2614641
40
0.3627568
50
192.7897626
51
205.2507664
0
ARC
8
DEFAULT_255_1_234
10
23.7652961
20
100.2147415
40
0.2481908
50
205.8005384
51
211.2537509
0
ARC
8
DEFAULT_255_1_234
10
23.7129401
20
100.179658
40
0.1852521
50
210.3789793
51
238.4008143
0
ARC
8
DEFAULT_255_1_234
10
23.7109923
20
100.1843376
40
0.1882621
50
239.6520629
51
265.9793761
0
ARC
8
DEFAULT_255_1_234
10
23.7195123
20
100.2515427
40
0.2559272
50
265.1315437
51
270.060332
0
ARC
8
DEFAULT_255_1_234
10
23.7223902
20
100.2191534
40
0.2235528
50
269.3314664
51
287.2178029
0
ARC
8
DEFAULT_255_1_234
10
23.7361754
20
100.1688279
40
0.1714108
50
287.7958004
51
329.080874
0
ARC
8
DEFAULT_255_1_234
10
23.6404211
20
100.228593
40
0.2842745
50
328.6634704
51
343.3325132
0
ARC
8
DEFAULT_255_1_234
10
23.4231231
20
100.2962863
40
0.5118644
50
343.0499468
51
351.9393422
0
ARC
8
DEFAULT_255_1_234
10
23.0764531
20
100.3473949
40
0.8622784
50
351.8069023
51
357.7959224
0
ARC
8
DEFAULT_255_1_234
10
22.7529087
20
100.3641721
40
1.1862365
50
357.5871873
51
359.2677531
0
LINE
8
DEFAULT_255_1_234
10
22.5173458
20
108.9973211
11
22.8209456
21
108.410201
0
LINE
8
DEFAULT_255_1_234
10
22.8209456
20
108.410201
11
23.1261516
21
108.9973211
0
LINE
8
DEFAULT_255_1_234
10
23.1261516
20
108.9973211
11
23.3012435
21
108.9973211
0
LINE
8
DEFAULT_255_1_234
10
23.3012435
20
108.9973211
11
22.8980502
21
108.2640234
0
LINE
8
DEFAULT_255_1_234
10
22.8980502
20
108.2640234
11
22.8980502
21
107.8279
0
LINE
8
DEFAULT_255_1_234
10
22.8980502
20
107.8279
11
22.7438409
21
107.8279
0
LINE
8
DEFAULT_255_1_234
10
22.7438409
20
107.8279
11
22.7438409
21
108.2640234
0
LINE
8
DEFAULT_255_1_234
10
22.7438409
20
108.2640234
11
22.3406476
21
108.9973211
0
LINE
8
DEFAULT_255_1_234
10
22.3406476
20
108.9973211
11
22.5173458
21
108.9973211
0
LINE
8
DEFAULT_255_1_234
10
24.1686712
20
108.9973211
11
24.1686712
21
108.913791
0
LINE
8
DEFAULT_255_1_234
10
24.1686712
20
108.913791
11
23.6843574
21
107.8279
0
LINE
8
DEFAULT_255_1_234
10
23.6843574
20
107.8279
11
23.5285417
21
107.8279
0
LINE
8
DEFAULT_255_1_234
10
23.5285417
20
107.8279
11
24.0112492
21
108.8752387
0
LINE
8
DEFAULT_255_1_234
10
24.0112492
20
108.8752387
11
23.3783482
21
108.8752387
0
LINE
8
DEFAULT_255_1_234
10
23.3783482
20
108.8752387
11
23.3783482
21
108.9973211
0
LINE
8
DEFAULT_255_1_234
10
23.3783482
20
108.9973211
11
24.1686712
21
108.9973211
0
LINE
8
DEFAULT_255_1_234
10
22.5173458
20
116.9348211
11
22.8209456
21
116.347701
0
LINE
8
DEFAULT_255_1_234
10
22.8209456
20
116.347701
11
23.1261516
21
116.9348211
0
LINE
8
DEFAULT_255_1_234
10
23.1261516
20
116.9348211
11
23.3012435
21
116.9348211
0
LINE
8
DEFAULT_255_1_234
10
23.3012435
20
116.9348211
11
22.8980502
21
116.2015234
0
LINE
8
DEFAULT_255_1_234
10
22.8980502
20
116.2015234
11
22.8980502
21
115.7654
0
LINE
8
DEFAULT_255_1_234
10
22.8980502
20
115.7654
11
22.7438409
21
115.7654
0
LINE
8
DEFAULT_255_1_234
10
22.7438409
20
115.7654
11
22.7438409
21
116.2015234
0
LINE
8
DEFAULT_255_1_234
10
22.7438409
20
116.2015234
11
22.3406476
21
116.9348211
0
LINE
8
DEFAULT_255_1_234
10
22.3406476
20
116.9348211
11
22.5173458
21
116.9348211
0
LINE
8
DEFAULT_255_1_234
10
23.9702873
20
116.9356243
11
23.996792
21
116.9356243
0
LINE
8
DEFAULT_255_1_234
10
23.996792
20
116.9356243
11
23.996792
21
116.809526
0
LINE
8
DEFAULT_255_1_234
10
23.996792
20
116.809526
11
23.9694841
21
116.809526
0
LINE
8
DEFAULT_255_1_234
10
23.4225228
20
116.2103583
11
23.4225228
21
116.2673836
0
LINE
8
DEFAULT_255_1_234
10
23.5719131
20
116.2481075
11
23.5719131
21
116.1934917
0
ARC
8
DEFAULT_255_1_234
10
23.9747189
20
116.3097455
40
0.4998079
50
90.6001036
51
104.514704
0
ARC
8
DEFAULT_255_1_234
10
23.9358705
20
116.4542131
40
0.3502176
50
104.2855254
51
133.862935
0
ARC
8
DEFAULT_255_1_234
10
23.9522462
20
116.443383
40
0.3693984
50
134.5302688
51
161.6210873
0
ARC
8
DEFAULT_255_1_234
10
24.1175651
20
116.3850895
40
0.5446739
50
161.2849839
51
174.2076652
0
ARC
8
DEFAULT_255_1_234
10
24.2582588
20
116.3656787
40
0.6866274
50
173.7810589
51
174.9254635
0
ARC
8
DEFAULT_255_1_234
10
23.803242
20
116.2273839
40
0.3033419
50
95.8330959
51
138.9954921
0
ARC
8
DEFAULT_255_1_234
10
23.8255776
20
116.0995375
40
0.4328947
50
89.8753725
51
97.0544009
0
ARC
8
DEFAULT_255_1_234
10
23.8303242
20
116.1830748
40
0.3493769
50
71.6407809
51
90.6240094
0
ARC
8
DEFAULT_255_1_234
10
23.8453815
20
116.2385082
40
0.2920396
50
39.6367836
51
71.019018
0
ARC
8
DEFAULT_255_1_234
10
23.7817288
20
116.1834998
40
0.3761538
50
10.658731
51
39.9043955
0
ARC
8
DEFAULT_255_1_234
10
23.6269371
20
116.1498686
40
0.5345136
50
359.682601
51
11.132623
0
ARC
8
DEFAULT_255_1_234
10
23.6229502
20
116.142801
40
0.5385081
50
347.2486944
51
0.4369317
0
ARC
8
DEFAULT_255_1_234
10
23.7896979
20
116.1026807
40
0.3670249
50
318.1409698
51
347.6118597
0
ARC
8
DEFAULT_255_1_234
10
23.8221972
20
116.0759702
40
0.3250007
50
275.6342139
51
317.8248465
0
ARC
8
DEFAULT_255_1_234
10
23.8001083
20
116.2059219
40
0.4565864
50
269.8874292
51
276.7917694
0
ARC
8
DEFAULT_255_1_234
10
23.7946154
20
116.1033743
40
0.3540676
50
246.9140195
51
270.7437342
0
ARC
8
DEFAULT_255_1_234
10
23.7952544
20
116.0891384
40
0.3412781
50
218.1665114
51
245.878116
0
ARC
8
DEFAULT_255_1_234
10
23.8832005
20
116.1627279
40
0.455911
50
191.4115814
51
218.6077802
0
ARC
8
DEFAULT_255_1_234
10
24.0770094
20
116.2061833
40
0.6545001
50
179.6345085
51
191.7836486
0
ARC
8
DEFAULT_255_1_234
10
24.6352431
20
116.2740697
40
1.2127388
50
171.4525249
51
180.3158839
0
ARC
8
DEFAULT_255_1_234
10
24.1957307
20
116.3424608
40
0.7679464
50
157.9802646
51
171.6246686
0
ARC
8
DEFAULT_255_1_234
10
23.9743328
20
116.4307421
40
0.5296008
50
141.4298019
51
157.854097
0
ARC
8
DEFAULT_255_1_234
10
23.9101649
20
116.4761381
40
0.4511509
50
102.8715806
51
140.8564722
0
ARC
8
DEFAULT_255_1_234
10
23.9749264
20
116.2321552
40
0.7034845
50
90.3778349
51
103.5869322
0
ARC
8
DEFAULT_255_1_234
10
23.801104
20
116.171673
40
0.2370698
50
89.8751008
51
126.2071704
0
ARC
8
DEFAULT_255_1_234
10
23.805683
20
116.1562303
40
0.2522934
50
124.9745049
51
144.895901
0
ARC
8
DEFAULT_255_1_234
10
23.7881021
20
116.170556
40
0.2296779
50
145.2974905
51
160.2660252
0
ARC
8
DEFAULT_255_1_234
10
24.0953559
20
116.1903071
40
0.5234525
50
179.6514266
51
190.2855912
0
ARC
8
DEFAULT_255_1_234
10
23.9259697
20
116.1583786
40
0.3510893
50
190.0945431
51
207.5098196
0
ARC
8
DEFAULT_255_1_234
10
23.8693966
20
116.1314623
40
0.288489
50
207.9583163
51
216.3251085
0
ARC
8
DEFAULT_255_1_234
10
23.8354074
20
116.1035105
40
0.2445587
50
215.7661442
51
232.5456785
0
ARC
8
DEFAULT_255_1_234
10
23.7971057
20
116.0548482
40
0.1826382
50
232.8005391
51
270.6605633
0
ARC
8
DEFAULT_255_1_234
10
23.8016758
20
116.0912612
40
0.2190529
50
269.35537
51
288.4744281
0
ARC
8
DEFAULT_255_1_234
10
23.8109655
20
116.0563118
40
0.1829749
50
289.1833337
51
322.9683818
0
ARC
8
DEFAULT_255_1_234
10
23.7498177
20
116.1045391
40
0.2608399
50
322.6007884
51
346.5182367
0
ARC
8
DEFAULT_255_1_234
10
23.6340773
20
116.1340616
40
0.3802777
50
346.2582162
51
358.7741648
0
ARC
8
DEFAULT_255_1_234
10
23.5322442
20
116.1395965
40
0.4822176
50
358.3755224
51
0.0098023
0
ARC
8
DEFAULT_255_1_234
10
23.6078629
20
116.1423657
40
0.4066078
50
359.6214041
51
11.2839074
0
ARC
8
DEFAULT_255_1_234
10
23.7355776
20
116.1690066
40
0.2761514
50
11.0482309
51
31.8146458
0
ARC
8
DEFAULT_255_1_234
10
23.7664819
20
116.1857584
40
0.2410679
50
32.3035391
51
38.082671
0
ARC
8
DEFAULT_255_1_234
10
23.8085479
20
116.2238662
40
0.1844966
50
36.825067
51
85.7415724
0
ARC
8
DEFAULT_255_1_234
10
23.8018312
20
116.1738301
40
0.2349122
50
85.0140713
51
90.0513278
0
LINE
8
DEFAULT_255_1_234
10
22.5173458
20
124.8723211
11
22.8209456
21
124.285201
0
LINE
8
DEFAULT_255_1_234
10
22.8209456
20
124.285201
11
23.1261516
21
124.8723211
0
LINE
8
DEFAULT_255_1_234
10
23.1261516
20
124.8723211
11
23.3012435
21
124.8723211
0
LINE
8
DEFAULT_255_1_234
10
23.3012435
20
124.8723211
11
22.8980502
21
124.1390234
0
LINE
8
DEFAULT_255_1_234
10
22.8980502
20
124.1390234
11
22.8980502
21
123.7029
0
LINE
8
DEFAULT_255_1_234
10
22.8980502
20
123.7029
11
22.7438409
21
123.7029
0
LINE
8
DEFAULT_255_1_234
10
22.7438409
20
123.7029
11
22.7438409
21
124.1390234
0
LINE
8
DEFAULT_255_1_234
10
22.7438409
20
124.1390234
11
22.3406476
21
124.8723211
0
LINE
8
DEFAULT_255_1_234
10
22.3406476
20
124.8723211
11
22.5173458
21
124.8723211
0
LINE
8
DEFAULT_255_1_234
10
23.6008273
20
124.2586963
11
23.4819576
21
124.2892169
0
LINE
8
DEFAULT_255_1_234
10
23.4819576
20
124.2892169
11
23.5413925
21
124.8723211
0
LINE
8
DEFAULT_255_1_234
10
23.5413925
20
124.8723211
11
24.1405602
21
124.8723211
0
LINE
8
DEFAULT_255_1_234
10
24.1405602
20
124.8723211
11
24.1405602
21
124.7349784
0
LINE
8
DEFAULT_255_1_234
10
24.1405602
20
124.7349784
11
23.6674908
21
124.7349784
0
LINE
8
DEFAULT_255_1_234
10
23.6674908
20
124.7349784
11
23.6321511
21
124.4161184
0
LINE
8
DEFAULT_255_1_234
10
23.4401926
20
124.0105156
11
23.580748
21
124.0105156
0
LINE
8
DEFAULT_255_1_234
10
23.6401829
20
124.2908232
11
23.6008273
21
124.2586963
0
ARC
8
DEFAULT_255_1_234
10
23.8176295
20
124.098123
40
0.3681349
50
93.7182161
51
120.2538958
0
ARC
8
DEFAULT_255_1_234
10
23.8270558
20
124.0173394
40
0.449379
50
89.9660152
51
94.2496022
0
ARC
8
DEFAULT_255_1_234
10
23.8311292
20
124.0762549
40
0.390482
50
73.8043271
51
90.5585896
0
ARC
8
DEFAULT_255_1_234
10
23.8546189
20
124.1620602
40
0.3015334
50
41.3071453
51
73.5430202
0
ARC
8
DEFAULT_255_1_234
10
23.8130016
20
124.1262324
40
0.3564457
50
13.5075983
51
41.2174222
0
ARC
8
DEFAULT_255_1_234
10
23.648822
20
124.0832486
40
0.5261351
50
1.1331335
51
13.8829381
0
ARC
8
DEFAULT_255_1_234
10
23.5076589
20
124.0756665
40
0.6674378
50
359.9919444
51
1.544251
0
ARC
8
DEFAULT_255_1_234
10
23.6353415
20
124.071528
40
0.5397702
50
347.8572367
51
0.4293338
0
ARC
8
DEFAULT_255_1_234
10
23.8103733
20
124.0318736
40
0.3603188
50
323.673004
51
348.1672506
0
ARC
8
DEFAULT_255_1_234
10
23.8398241
20
124.0139168
40
0.3259678
50
316.8171152
51
323.1492751
0
ARC
8
DEFAULT_255_1_234
10
23.845943
20
124.010246
40
0.3189975
50
281.8396411
51
316.5457803
0
ARC
8
DEFAULT_255_1_234
10
23.8083694
20
124.1657762
40
0.4789527
50
269.5770101
51
282.4214771
0
ARC
8
DEFAULT_255_1_234
10
23.8012505
20
124.1444125
40
0.45759
50
256.2427136
51
270.4486331
0
ARC
8
DEFAULT_255_1_234
10
23.7713408
20
124.0244229
40
0.3339303
50
228.9023911
51
256.3314342
0
ARC
8
DEFAULT_255_1_234
10
23.763964
20
124.0127746
40
0.32031
50
193.753695
51
228.5271154
0
ARC
8
DEFAULT_255_1_234
10
23.8877594
20
124.04908
40
0.4492253
50
184.924711
51
194.497588
0
ARC
8
DEFAULT_255_1_234
10
23.9070161
20
124.0526591
40
0.3289787
50
187.3600538
51
198.6732863
0
ARC
8
DEFAULT_255_1_234
10
23.8020455
20
124.0162674
40
0.217884
50
198.4451669
51
217.794479
0
ARC
8
DEFAULT_255_1_234
10
23.772463
20
123.9953085
40
0.1816698
50
218.2887171
51
228.5612368
0
ARC
8
DEFAULT_255_1_234
10
23.7822417
20
124.0084963
40
0.1980329
50
228.9654866
51
258.1234728
0
ARC
8
DEFAULT_255_1_234
10
23.8028127
20
124.0965833
40
0.2884748
50
257.7258293
51
270.401361
0
ARC
8
DEFAULT_255_1_234
10
23.8073014
20
124.0520821
40
0.2439788
50
269.4204404
51
286.4209037
0
ARC
8
DEFAULT_255_1_234
10
23.8221501
20
123.9981657
40
0.1880666
50
286.7251356
51
320.600362
0
ARC
8
DEFAULT_255_1_234
10
23.7838326
20
124.0292595
40
0.2374121
50
320.6712579
51
344.5441685
0
ARC
8
DEFAULT_255_1_234
10
23.6681652
20
124.0632045
40
0.3579479
50
344.2412205
51
356.7357071
0
ARC
8
DEFAULT_255_1_234
10
23.5432801
20
124.0735444
40
0.4832297
50
356.3548756
51
0.0500261
0
ARC
8
DEFAULT_255_1_234
10
23.676931
20
124.076665
40
0.3495889
50
359.5576869
51
12.953486
0
ARC
8
DEFAULT_255_1_234
10
23.7824207
20
124.1022434
40
0.2410532
50
12.6490276
51
41.6081334
0
ARC
8
DEFAULT_255_1_234
10
23.8054578
20
124.1218321
40
0.2108218
50
41.7850273
51
85.9892764
0
ARC
8
DEFAULT_255_1_234
10
23.7931315
20
124.0405462
40
0.2928454
50
84.6957577
51
90.0676183
0
ARC
8
DEFAULT_255_1_234
10
23.7907799
20
123.9736716
40
0.3597255
50
89.6804936
51
99.1614436
0
ARC
8
DEFAULT_255_1_234
10
23.770243
20
124.0964131
40
0.235281
50
98.9830931
51
113.8908934
0
ARC
8
DEFAULT_255_1_234
10
23.747284
20
124.1505587
40
0.176479
50
114.1950727
51
127.3641004
0
LINE
8
DEFAULT_255_1_234
10
22.4115458
20
132.8098211
11
22.7151456
21
132.222701
0
LINE
8
DEFAULT_255_1_234
10
22.7151456
20
132.222701
11
23.0203516
21
132.8098211
0
LINE
8
DEFAULT_255_1_234
10
23.0203516
20
132.8098211
11
23.1954435
21
132.8098211
0
LINE
8
DEFAULT_255_1_234
10
23.1954435
20
132.8098211
11
22.7922502
21
132.0765234
0
LINE
8
DEFAULT_255_1_234
10
22.7922502
20
132.0765234
11
22.7922502
21
131.6404
0
LINE
8
DEFAULT_255_1_234
10
22.7922502
20
131.6404
11
22.6380409
21
131.6404
0
LINE
8
DEFAULT_255_1_234
10
22.6380409
20
131.6404
11
22.6380409
21
132.0765234
0
LINE
8
DEFAULT_255_1_234
10
22.6380409
20
132.0765234
11
22.2348476
21
132.8098211
0
LINE
8
DEFAULT_255_1_234
10
22.2348476
20
132.8098211
11
22.4115458
21
132.8098211
0
LINE
8
DEFAULT_255_1_234
10
23.9351666
20
132.8098211
11
23.9351666
21
132.033152
0
LINE
8
DEFAULT_255_1_234
10
23.9351666
20
132.033152
11
24.0974077
21
132.033152
0
LINE
8
DEFAULT_255_1_234
10
24.0974077
20
132.033152
11
24.0974077
21
131.9118728
0
LINE
8
DEFAULT_255_1_234
10
24.0974077
20
131.9118728
11
23.9351666
21
131.9118728
0
LINE
8
DEFAULT_255_1_234
10
23.9351666
20
131.9118728
11
23.9351666
21
131.6404
0
LINE
8
DEFAULT_255_1_234
10
23.9351666
20
131.6404
11
23.7857763
21
131.6404
0
LINE
8
DEFAULT_255_1_234
10
23.7857763
20
131.6404
11
23.7857763
21
131.9118728
0
LINE
8
DEFAULT_255_1_234
10
23.7857763
20
131.9118728
11
23.253272
21
131.9118728
0
LINE
8
DEFAULT_255_1_234
10
23.253272
20
131.9118728
11
23.253272
21
131.9994187
0
LINE
8
DEFAULT_255_1_234
10
23.253272
20
131.9994187
11
23.7769414
21
132.8098211
0
LINE
8
DEFAULT_255_1_234
10
23.7769414
20
132.8098211
11
23.9351666
21
132.8098211
0
LINE
8
DEFAULT_255_1_234
10
23.7681064
20
132.5744912
11
23.4219385
21
132.033152
0
LINE
8
DEFAULT_255_1_234
10
23.4219385
20
132.033152
11
23.7857763
21
132.033152
0
LINE
8
DEFAULT_255_1_234
10
23.7857763
20
132.033152
11
23.7857763
21
132.6066181
0
LINE
8
DEFAULT_255_1_234
10
23.7857763
20
132.6066181
11
23.7681064
21
132.5744912
0
LINE
8
DEFAULT_255_1_234
10
22.5173458
20
140.7473211
11
22.8209456
21
140.160201
0
LINE
8
DEFAULT_255_1_234
10
22.8209456
20
140.160201
11
23.1261516
21
140.7473211
0
LINE
8
DEFAULT_255_1_234
10
23.1261516
20
140.7473211
11
23.3012435
21
140.7473211
0
LINE
8
DEFAULT_255_1_234
10
23.3012435
20
140.7473211
11
22.8980502
21
140.0140234
0
LINE
8
DEFAULT_255_1_234
10
22.8980502
20
140.0140234
11
22.8980502
21
139.5779
0
LINE
8
DEFAULT_255_1_234
10
22.8980502
20
139.5779
11
22.7438409
21
139.5779
0
LINE
8
DEFAULT_255_1_234
10
22.7438409
20
139.5779
11
22.7438409
21
140.0140234
0
LINE
8
DEFAULT_255_1_234
10
22.7438409
20
140.0140234
11
22.3406476
21
140.7473211
0
LINE
8
DEFAULT_255_1_234
10
22.3406476
20
140.7473211
11
22.5173458
21
140.7473211
0
LINE
8
DEFAULT_255_1_234
10
23.6297416
20
140.1136169
11
23.6297416
21
140.2348962
0
LINE
8
DEFAULT_255_1_234
10
23.6297416
20
140.2348962
11
23.7413828
21
140.2348962
0
LINE
8
DEFAULT_255_1_234
10
23.5510306
20
140.4405087
11
23.4024434
21
140.4405087
0
LINE
8
DEFAULT_255_1_234
10
23.3920021
20
139.8863188
11
23.5413925
21
139.8863188
0
LINE
8
DEFAULT_255_1_234
10
23.7413828
20
140.1136169
11
23.6297416
21
140.1136169
0
ARC
8
DEFAULT_255_1_234
10
23.7384694
20
140.5741713
40
0.3392876
50
270.4919872
51
281.8951556
0
ARC
8
DEFAULT_255_1_234
10
23.7625956
20
140.4639702
40
0.2264817
50
281.6691735
51
301.2943132
0
ARC
8
DEFAULT_255_1_234
10
23.7796166
20
140.4328304
40
0.1910381
50
301.7833094
51
311.7545298
0
ARC
8
DEFAULT_255_1_234
10
23.7887742
20
140.4226748
40
0.1773635
50
311.7323931
51
354.2802411
0
ARC
8
DEFAULT_255_1_234
10
23.7161367
20
140.4351722
40
0.2509385
50
353.0937916
51
0.1181479
0
ARC
8
DEFAULT_255_1_234
10
23.6700152
20
140.4399386
40
0.2970898
50
359.1805295
51
15.0453146
0
ARC
8
DEFAULT_255_1_234
10
23.8045989
20
140.4791992
40
0.1569564
50
13.9577229
51
77.6713066
0
ARC
8
DEFAULT_255_1_234
10
23.7659518
20
140.3406949
40
0.3006298
50
76.1116566
51
90.7026153
0
ARC
8
DEFAULT_255_1_234
10
23.7600356
20
140.3680545
40
0.2732568
50
89.5324876
51
103.531937
0
ARC
8
DEFAULT_255_1_234
10
23.7399801
20
140.4479884
40
0.1908508
50
103.2931773
51
133.5619022
0
ARC
8
DEFAULT_255_1_234
10
23.7355289
20
140.4539375
40
0.1834746
50
133.8349307
51
173.5344437
0
ARC
8
DEFAULT_255_1_234
10
23.8078332
20
140.4411213
40
0.2568033
50
172.5096846
51
180.1366907
0
ARC
8
DEFAULT_255_1_234
10
23.7127226
20
140.4445622
40
0.3103056
50
155.3484492
51
180.7484736
0
ARC
8
DEFAULT_255_1_234
10
23.7078315
20
140.4416846
40
0.3070957
50
131.5744599
51
154.4798489
0
ARC
8
DEFAULT_255_1_234
10
23.7391462
20
140.410031
40
0.3515643
50
96.9875458
51
131.9690667
0
ARC
8
DEFAULT_255_1_234
10
23.7610942
20
140.2854636
40
0.4779224
50
89.8596053
51
97.7825159
0
ARC
8
DEFAULT_255_1_234
10
23.7659005
20
140.2592616
40
0.5041361
50
78.3655447
51
90.4131539
0
ARC
8
DEFAULT_255_1_234
10
23.8016923
20
140.4251887
40
0.3344039
50
56.6229102
51
78.638727
0
ARC
8
DEFAULT_255_1_234
10
23.8231867
20
140.4627805
40
0.2912001
50
47.0253525
51
56.0854072
0
ARC
8
DEFAULT_255_1_234
10
23.8251647
20
140.4667223
40
0.2869704
50
10.9208013
51
46.7778124
0
ARC
8
DEFAULT_255_1_234
10
23.6887713
20
140.4351857
40
0.426899
50
359.6364486
51
11.6087304
0
ARC
8
DEFAULT_255_1_234
10
23.8722557
20
140.4336752
40
0.243409
50
332.3549906
51
359.7179418
0
ARC
8
DEFAULT_255_1_234
10
23.8072159
20
140.4645142
40
0.3153459
50
325.2333722
51
332.8745602
0
ARC
8
DEFAULT_255_1_234
10
23.8224783
20
140.4538828
40
0.2967456
50
292.9802137
51
325.2392345
0
ARC
8
DEFAULT_255_1_234
10
23.7950157
20
140.5072863
40
0.3566604
50
292.5402179
51
293.6924929
0
ARC
8
DEFAULT_255_1_234
10
23.8342752
20
139.8618091
40
0.3307468
50
57.6435486
51
72.8625112
0
ARC
8
DEFAULT_255_1_234
10
23.8697252
20
139.9192549
40
0.2632492
50
36.7248896
51
57.4697979
0
ARC
8
DEFAULT_255_1_234
10
23.8685885
20
139.920522
40
0.2634081
50
8.0545065
51
36.356114
0
ARC
8
DEFAULT_255_1_234
10
23.782307
20
139.9050174
40
0.3510261
50
359.8320645
51
8.5869982
0
ARC
8
DEFAULT_255_1_234
10
23.7447846
20
139.9002101
40
0.3885653
50
343.9829931
51
0.5571613
0
ARC
8
DEFAULT_255_1_234
10
23.8334043
20
139.8759438
40
0.2966924
50
311.6359546
51
343.7651759
0
ARC
8
DEFAULT_255_1_234
10
23.7955613
20
139.9186102
40
0.3537231
50
279.7829875
51
311.6255694
0
ARC
8
DEFAULT_255_1_234
10
23.7654389
20
140.062328
40
0.5004971
50
269.7286406
51
280.3856417
0
ARC
8
DEFAULT_255_1_234
10
23.7592461
20
140.0581996
40
0.4963778
50
256.6828919
51
270.4412052
0
ARC
8
DEFAULT_255_1_234
10
23.7253757
20
139.9197394
40
0.3538406
50
229.4223008
51
256.8556159
0
ARC
8
DEFAULT_255_1_234
10
23.683915
20
139.8730736
40
0.2914296
50
181.818294
51
229.6455059
0
ARC
8
DEFAULT_255_1_234
10
23.7879106
20
139.8861496
40
0.3959084
50
179.9755256
51
183.2323064
0
ARC
8
DEFAULT_255_1_234
10
23.7706852
20
139.8841037
40
0.2293034
50
179.4465117
51
196.2869258
0
ARC
8
DEFAULT_255_1_234
10
23.721926
20
139.8707651
40
0.1787621
50
196.5661473
51
227.705904
0
ARC
8
DEFAULT_255_1_234
10
23.7383355
20
139.8891155
40
0.2033784
50
227.7652068
51
257.8762805
0
ARC
8
DEFAULT_255_1_234
10
23.7608325
20
139.9834156
40
0.3003081
50
257.4584385
51
270.426602
0
ARC
8
DEFAULT_255_1_234
10
23.7653891
20
140.0123996
40
0.329292
50
269.5962073
51
280.8789248
0
ARC
8
DEFAULT_255_1_234
10
23.788342
20
139.8977685
40
0.2123908
50
280.6346389
51
299.8595945
0
ARC
8
DEFAULT_255_1_234
10
23.8074327
20
139.8615212
40
0.171457
50
300.3576302
51
314.5517981
0
ARC
8
DEFAULT_255_1_234
10
23.7991387
20
139.8675919
40
0.1816095
50
315.0728369
51
345.0431014
0
ARC
8
DEFAULT_255_1_234
10
23.7068201
20
139.8944841
40
0.2777492
50
344.5986631
51
357.9269593
0
ARC
8
DEFAULT_255_1_234
10
23.6172528
20
139.9006276
40
0.3674917
50
357.4748886
51
0.0231117
0
ARC
8
DEFAULT_255_1_234
10
23.7195637
20
139.9030679
40
0.2651907
50
359.5047933
51
13.4239635
0
ARC
8
DEFAULT_255_1_234
10
23.8062281
20
139.9252478
40
0.1757509
50
12.9498199
51
48.7551375
0
ARC
8
DEFAULT_255_1_234
10
23.7880014
20
139.90034
40
0.2065134
50
49.5088623
51
72.1836453
0
ARC
8
DEFAULT_255_1_234
10
23.7522167
20
139.7941291
40
0.3185836
50
71.9010081
51
84.3554254
0
ARC
8
DEFAULT_255_1_234
10
23.7360799
20
139.6580326
40
0.4556151
50
84.0193428
51
89.333121
0
LINE
8
DEFAULT_255_1_234
10
22.5173458
20
148.6848211
11
22.8209456
21
148.097701
0
LINE
8
DEFAULT_255_1_234
10
22.8209456
20
148.097701
11
23.1261516
21
148.6848211
0
LINE
8
DEFAULT_255_1_234
10
23.1261516
20
148.6848211
11
23.3012435
21
148.6848211
0
LINE
8
DEFAULT_255_1_234
10
23.3012435
20
148.6848211
11
22.8980502
21
147.9515234
0
LINE
8
DEFAULT_255_1_234
10
22.8980502
20
147.9515234
11
22.8980502
21
147.5154
0
LINE
8
DEFAULT_255_1_234
10
22.8980502
20
147.5154
11
22.7438409
21
147.5154
0
LINE
8
DEFAULT_255_1_234
10
22.7438409
20
147.5154
11
22.7438409
21
147.9515234
0
LINE
8
DEFAULT_255_1_234
10
22.7438409
20
147.9515234
11
22.3406476
21
148.6848211
0
LINE
8
DEFAULT_255_1_234
10
22.3406476
20
148.6848211
11
22.5173458
21
148.6848211
0
LINE
8
DEFAULT_255_1_234
10
24.1799157
20
147.6366792
11
24.1799157
21
147.5154
0
LINE
8
DEFAULT_255_1_234
10
24.1799157
20
147.5154
11
23.4136878
21
147.5154
0
LINE
8
DEFAULT_255_1_234
10
23.4136878
20
147.5154
11
23.4136878
21
147.6222221
0
LINE
8
DEFAULT_255_1_234
10
23.4136878
20
147.6222221
11
23.8184875
21
148.0719995
0
LINE
8
DEFAULT_255_1_234
10
23.5397861
20
148.3402595
11
23.391199
21
148.3402595
0
LINE
8
DEFAULT_255_1_234
10
23.9060334
20
147.9764218
11
23.5927956
21
147.6366792
0
LINE
8
DEFAULT_255_1_234
10
23.5927956
20
147.6366792
11
24.1799157
21
147.6366792
0
ARC
8
DEFAULT_255_1_234
10
22.4694708
20
149.2649527
40
1.8008286
50
318.5132453
51
320.7828378
0
ARC
8
DEFAULT_255_1_234
10
22.9981682
20
148.8346426
40
1.1191493
50
320.7372736
51
323.9737074
0
ARC
8
DEFAULT_255_1_234
10
23.3901539
20
148.5506361
40
0.6350923
50
323.8961724
51
328.6421089
0
ARC
8
DEFAULT_255_1_234
10
23.5948134
20
148.4244031
40
0.3946393
50
328.8299013
51
331.789948
0
ARC
8
DEFAULT_255_1_234
10
23.6945313
20
148.3729509
40
0.2824501
50
331.4255242
51
352.9364833
0
ARC
8
DEFAULT_255_1_234
10
23.7081813
20
148.3698976
40
0.2685315
50
353.2248685
51
0.0169286
0
ARC
8
DEFAULT_255_1_234
10
23.729169
20
148.372195
40
0.2475536
50
359.4866256
51
15.9339782
0
ARC
8
DEFAULT_255_1_234
10
23.7798675
20
148.3858286
40
0.1950618
50
16.1714718
51
43.5284424
0
ARC
8
DEFAULT_255_1_234
10
23.7875984
20
148.3935573
40
0.184134
50
43.4415429
51
83.1661404
0
ARC
8
DEFAULT_255_1_234
10
23.7741902
20
148.3198771
40
0.258926
50
82.160215
51
90.1505798
0
ARC
8
DEFAULT_255_1_234
10
23.7710329
20
148.2661865
40
0.3126255
50
89.5460705
51
102.5418777
0
ARC
8
DEFAULT_255_1_234
10
23.7467416
20
148.3692665
40
0.2067346
50
102.1739365
51
129.2061916
0
ARC
8
DEFAULT_255_1_234
10
23.7388487
20
148.3817094
40
0.1921118
50
129.7279328
51
135.7542026
0
ARC
8
DEFAULT_255_1_234
10
23.7510015
20
148.3720045
40
0.2075944
50
136.175737
51
166.3674722
0
ARC
8
DEFAULT_255_1_234
10
23.8516934
20
148.3450182
40
0.3118201
50
165.9092917
51
178.8683903
0
ARC
8
DEFAULT_255_1_234
10
23.9381795
20
148.3403179
40
0.3983935
50
178.438168
51
180.0083905
0
ARC
8
DEFAULT_255_1_234
10
23.7980398
20
148.3442231
40
0.4068601
50
163.2878735
51
180.5581814
0
ARC
8
DEFAULT_255_1_234
10
23.7178659
20
148.366284
40
0.3237344
50
133.454115
51
162.9470031
0
ARC
8
DEFAULT_255_1_234
10
23.73572
20
148.3473
40
0.349795
50
100.7869394
51
133.4384016
0
ARC
8
DEFAULT_255_1_234
10
23.7704972
20
148.1924319
40
0.5084616
50
89.6605301
51
101.3704185
0
ARC
8
DEFAULT_255_1_234
10
23.7771311
20
148.1985496
40
0.502348
50
78.2171172
51
90.4130393
0
ARC
8
DEFAULT_255_1_234
10
23.8126389
20
148.3609637
40
0.3361092
50
55.9268222
51
78.4888551
0
ARC
8
DEFAULT_255_1_234
10
23.8322829
20
148.3948324
40
0.2970617
50
47.9292255
51
55.4054003
0
ARC
8
DEFAULT_255_1_234
10
23.842439
20
148.4051502
40
0.2825983
50
4.3347696
51
48.0560701
0
ARC
8
DEFAULT_255_1_234
10
23.7328783
20
148.3881601
40
0.393225
50
359.925209
51
5.5967654
0
ARC
8
DEFAULT_255_1_234
10
23.7757675
20
148.3937816
40
0.3503892
50
337.8914096
51
358.9967724
0
ARC
8
DEFAULT_255_1_234
10
23.5044087
20
148.4984706
40
0.6412172
50
326.9135351
51
338.3505194
0
ARC
8
DEFAULT_255_1_234
10
23.1058391
20
148.7539284
40
1.1146189
50
319.6472867
51
327.095818
0
ARC
8
DEFAULT_255_1_234
10
22.7225394
20
149.0701
40
1.6114559
50
317.2586784
51
319.9046139
0
LINE
8
DEFAULT_255_1_234
10
22.5261458
20
156.6223211
11
22.8297456
21
156.035201
0
LINE
8
DEFAULT_255_1_234
10
22.8297456
20
156.035201
11
23.1349516
21
156.6223211
0
LINE
8
DEFAULT_255_1_234
10
23.1349516
20
156.6223211
11
23.3100435
21
156.6223211
0
LINE
8
DEFAULT_255_1_234
10
23.3100435
20
156.6223211
11
22.9068502
21
155.8890234
0
LINE
8
DEFAULT_255_1_234
10
22.9068502
20
155.8890234
11
22.9068502
21
155.4529
0
LINE
8
DEFAULT_255_1_234
10
22.9068502
20
155.4529
11
22.7526409
21
155.4529
0
LINE
8
DEFAULT_255_1_234
10
22.7526409
20
155.4529
11
22.7526409
21
155.8890234
0
LINE
8
DEFAULT_255_1_234
10
22.7526409
20
155.8890234
11
22.3494476
21
156.6223211
0
LINE
8
DEFAULT_255_1_234
10
22.3494476
20
156.6223211
11
22.5261458
21
156.6223211
0
LINE
8
DEFAULT_255_1_234
10
23.9108175
20
156.6279433
11
23.9108175
21
155.4529
0
LINE
8
DEFAULT_255_1_234
10
23.9108175
20
155.4529
11
23.7614272
21
155.4529
0
LINE
8
DEFAULT_255_1_234
10
23.7614272
20
155.4529
11
23.7614272
21
156.4432133
0
LINE
8
DEFAULT_255_1_234
10
23.7614272
20
156.4432133
11
23.4618434
21
156.3331785
0
LINE
8
DEFAULT_255_1_234
10
23.4618434
20
156.3331785
11
23.4618434
21
156.4681117
0
LINE
8
DEFAULT_255_1_234
10
23.4618434
20
156.4681117
11
23.8875255
21
156.6279433
0
LINE
8
DEFAULT_255_1_234
10
23.8875255
20
156.6279433
11
23.9108175
21
156.6279433
0
LINE
8
DEFAULT_255_1_234
10
22.5173458
20
164.5598211
11
22.8209456
21
163.972701
0
LINE
8
DEFAULT_255_1_234
10
22.8209456
20
163.972701
11
23.1261516
21
164.5598211
0
LINE
8
DEFAULT_255_1_234
10
23.1261516
20
164.5598211
11
23.3012435
21
164.5598211
0
LINE
8
DEFAULT_255_1_234
10
23.3012435
20
164.5598211
11
22.8980502
21
163.8265234
0
LINE
8
DEFAULT_255_1_234
10
22.8980502
20
163.8265234
11
22.8980502
21
163.3904
0
LINE
8
DEFAULT_255_1_234
10
22.8980502
20
163.3904
11
22.7438409
21
163.3904
0
LINE
8
DEFAULT_255_1_234
10
22.7438409
20
163.3904
11
22.7438409
21
163.8265234
0
LINE
8
DEFAULT_255_1_234
10
22.7438409
20
163.8265234
11
22.3406476
21
164.5598211
0
LINE
8
DEFAULT_255_1_234
10
22.3406476
20
164.5598211
11
22.5173458
21
164.5598211
0
LINE
8
DEFAULT_255_1_234
10
24.1469855
20
164.0819327
11
24.1469855
21
163.8891709
0
LINE
8
DEFAULT_255_1_234
10
23.4088688
20
163.8690916
11
23.4088688
21
164.0674755
0
LINE
8
DEFAULT_255_1_234
10
23.9983984
20
163.8490123
11
23.9983984
21
164.0923739
0
LINE
8
DEFAULT_255_1_234
10
23.557456
20
164.1036184
11
23.557456
21
163.8658789
0
ARC
8
DEFAULT_255_1_234
10
22.9222745
20
163.8842805
40
1.2247208
50
353.8441951
51
0.2287902
0
ARC
8
DEFAULT_255_1_234
10
23.3862249
20
163.8324806
40
0.7578929
50
344.4934747
51
353.9765454
0
ARC
8
DEFAULT_255_1_234
10
23.6854839
20
163.7473981
40
0.4467846
50
329.2803592
51
344.7472793
0
ARC
8
DEFAULT_255_1_234
10
23.7847664
20
163.6929018
40
0.3336173
50
324.9352394
51
328.6160465
0
ARC
8
DEFAULT_255_1_234
10
23.8224773
20
163.6665427
40
0.2876076
50
280.580143
51
324.9173126
0
ARC
8
DEFAULT_255_1_234
10
23.7823565
20
163.8336099
40
0.4592847
50
269.5977311
51
281.6734359
0
ARC
8
DEFAULT_255_1_234
10
23.7751471
20
163.8216173
40
0.4472986
50
256.6228859
51
270.51044
0
ARC
8
DEFAULT_255_1_234
10
23.7349449
20
163.6667877
40
0.2873874
50
215.8618325
51
257.2788573
0
ARC
8
DEFAULT_255_1_234
10
23.837048
20
163.7352977
40
0.4102928
50
197.9693508
51
215.2623606
0
ARC
8
DEFAULT_255_1_234
10
24.0855596
20
163.8191709
40
0.6725652
50
187.8816417
51
198.2346507
0
ARC
8
DEFAULT_255_1_234
10
24.4813804
20
163.8763079
40
1.0724845
50
180.8976217
51
188.0055519
0
ARC
8
DEFAULT_255_1_234
10
24.7613992
20
163.8866777
40
1.3526448
50
180.7449369
51
181.1510016
0
ARC
8
DEFAULT_255_1_234
10
24.6036721
20
164.0723042
40
1.1948131
50
173.7675579
51
180.231553
0
ARC
8
DEFAULT_255_1_234
10
24.1518868
20
164.1233666
40
0.7401564
50
164.3058563
51
173.9002247
0
ARC
8
DEFAULT_255_1_234
10
23.8606937
20
164.2072656
40
0.4371288
50
148.7922025
51
164.568378
0
ARC
8
DEFAULT_255_1_234
10
23.7655389
20
164.2603929
40
0.3282386
50
144.5883898
51
148.1176286
0
ARC
8
DEFAULT_255_1_234
10
23.7312287
20
164.2843315
40
0.2864044
50
101.6440918
51
144.514236
0
ARC
8
DEFAULT_255_1_234
10
23.7737354
20
164.1154069
40
0.4604934
50
89.5284041
51
102.5819763
0
ARC
8
DEFAULT_255_1_234
10
23.7816441
20
164.1115018
40
0.464401
50
77.0437873
51
90.5081339
0
ARC
8
DEFAULT_255_1_234
10
23.8218443
20
164.2757615
40
0.2953195
50
48.2778575
51
77.4994676
0
ARC
8
DEFAULT_255_1_234
10
23.8291074
20
164.2886746
40
0.2808655
50
36.3142134
51
47.6305865
0
ARC
8
DEFAULT_255_1_234
10
23.7422381
20
164.2301515
40
0.3855453
50
18.2931786
51
35.6769206
0
ARC
8
DEFAULT_255_1_234
10
23.487914
20
164.1428593
40
0.654423
50
8.024666
51
18.5605216
0
ARC
8
DEFAULT_255_1_234
10
23.071606
20
164.0813792
40
1.0752407
50
1.1274072
51
8.1718305
0
ARC
8
DEFAULT_255_1_234
10
22.7480251
20
164.0686885
40
1.3990231
50
0.5424119
51
1.3863029
0
ARC
8
DEFAULT_255_1_234
10
22.9301629
20
164.0959342
40
1.0682415
50
359.8090433
51
4.9407866
0
ARC
8
DEFAULT_255_1_234
10
23.3511643
20
164.1335113
40
0.6455691
50
4.8362157
51
12.2904523
0
ARC
8
DEFAULT_255_1_234
10
23.6266757
20
164.1948965
40
0.3633074
50
12.0805627
51
23.8173984
0
ARC
8
DEFAULT_255_1_234
10
23.7440463
20
164.2445919
40
0.2358723
50
24.2871213
51
31.3935614
0
ARC
8
DEFAULT_255_1_234
10
23.796516
20
164.2789233
40
0.1732111
50
30.7407893
51
82.4657128
0
ARC
8
DEFAULT_255_1_234
10
23.7785294
20
164.1905691
40
0.263235
50
81.1060089
51
90.2184952
0
ARC
8
DEFAULT_255_1_234
10
23.7749593
20
164.2163924
40
0.2374236
50
89.3806855
51
105.6762551
0
ARC
8
DEFAULT_255_1_234
10
23.7566224
20
164.2830567
40
0.1682847
50
105.7981136
51
149.7388061
0
ARC
8
DEFAULT_255_1_234
10
23.8630302
20
164.219095
40
0.2924306
50
149.4208916
51
163.6286378
0
ARC
8
DEFAULT_255_1_234
10
24.072119
20
164.155325
40
0.5110213
50
163.3763315
51
172.1410975
0
ARC
8
DEFAULT_255_1_234
10
24.4021909
20
164.1080518
40
0.8444586
50
172.0259487
51
178.0703232
0
ARC
8
DEFAULT_255_1_234
10
24.7051999
20
164.0936906
40
1.1477868
50
177.8631668
51
179.5044149
0
ARC
8
DEFAULT_255_1_234
10
24.5979403
20
163.8622389
40
1.0404907
50
179.7995573
51
185.2460446
0
ARC
8
DEFAULT_255_1_234
10
24.1936442
20
163.8239513
40
0.6343885
50
185.1411642
51
193.0079639
0
ARC
8
DEFAULT_255_1_234
10
23.9292915
20
163.7614641
40
0.3627568
50
192.7897626
51
205.2507664
0
ARC
8
DEFAULT_255_1_234
10
23.8246462
20
163.7147415
40
0.2481908
50
205.8005384
51
211.2537509
0
ARC
8
DEFAULT_255_1_234
10
23.7722902
20
163.679658
40
0.1852521
50
210.3789793
51
238.4008143
0
ARC
8
DEFAULT_255_1_234
10
23.7703424
20
163.6843376
40
0.1882621
50
239.6520629
51
265.9793761
0
ARC
8
DEFAULT_255_1_234
10
23.7788624
20
163.7515427
40
0.2559272
50
265.1315437
51
270.060332
0
ARC
8
DEFAULT_255_1_234
10
23.7817403
20
163.7191534
40
0.2235528
50
269.3314664
51
287.2178029
0
ARC
8
DEFAULT_255_1_234
10
23.7955255
20
163.6688279
40
0.1714108
50
287.7958004
51
329.080874
0
ARC
8
DEFAULT_255_1_234
10
23.6997712
20
163.728593
40
0.2842745
50
328.6634704
51
343.3325132
0
ARC
8
DEFAULT_255_1_234
10
23.4824732
20
163.7962863
40
0.5118644
50
343.0499468
51
351.9393422
0
ARC
8
DEFAULT_255_1_234
10
23.1358032
20
163.8473949
40
0.8622784
50
351.8069023
51
357.7959224
0
ARC
8
DEFAULT_255_1_234
10
22.8122588
20
163.8641721
40
1.1862365
50
357.5871873
51
359.2677531
0
ENDSEC
0
EOF