0
SECTION
2
HEADER
9
$MEASUREMENT
70
1
0
ENDSEC
0
SECTION
2
TABLES
0
TABLE
2
LTYPE
0
LTYPE
72
65
70
64
2
CONTINUOUS
3
______
73
0
40
0
0
ENDTAB
0
TABLE
2
LAYER
0
LAYER
2
DEFAULT_255_2_778
70
0
62
255
6
CONTINUOUS
0
LAYER
2
DEFAULT_255_1_234
70
0
62
255
6
CONTINUOUS
0
ENDTAB
0
ENDSEC
0
SECTION
2
ENTITIES
0
ARC
8
DEFAULT_255_2_778
10
3.5700693
20
75.805203
40
0.7914215
50
129.1312896
51
180.1450914
0
ARC
8
DEFAULT_255_2_778
10
3.5703345
20
75.8056901
40
0.7912112
50
89.854026
51
129.1684493
0
ARC
8
DEFAULT_255_2_778
10
25.7993937
20
75.8053767
40
0.7915249
50
39.4792447
51
90.147911
0
ARC
8
DEFAULT_255_2_778
10
25.7999935
20
75.8052233
40
0.7911595
50
359.8533901
51
39.5154338
0
ARC
8
DEFAULT_255_2_778
10
25.7996693
20
-1.9863492
40
0.7914836
50
309.4761667
51
0.1482649
0
ARC
8
DEFAULT_255_2_778
10
25.799398
20
-1.9867803
40
0.7913235
50
269.8517415
51
309.511178
0
ARC
8
DEFAULT_255_2_778
10
3.570342
20
-1.9867221
40
0.7913815
50
219.1282118
51
270.1454017
0
ARC
8
DEFAULT_255_2_778
10
3.5700247
20
-1.9863397
40
0.7913769
50
179.8524075
51
219.1641908
0
LINE
8
DEFAULT_255_2_778
10
3.5723503
20
76.5968989
11
25.7973503
21
76.5968989
0
LINE
8
DEFAULT_255_2_778
10
26.5911503
20
75.8031989
11
26.5911503
21
-1.9843011
0
LINE
8
DEFAULT_255_2_778
10
25.7973503
20
-2.7781011
11
3.5723503
21
-2.7781011
0
LINE
8
DEFAULT_255_2_778
10
2.7786503
20
-1.9843011
11
2.7786503
21
75.8031989
0
LINE
8
DEFAULT_255_1_234
10
9.305785
20
-0.0087609
11
9.305785
21
-0.1348592
0
LINE
8
DEFAULT_255_1_234
10
9.305785
20
-0.1348592
11
8.8150458
21
-0.1348592
0
LINE
8
DEFAULT_255_1_234
10
8.8150458
20
-0.1348592
11
8.8150458
21
-0.6513
0
LINE
8
DEFAULT_255_1_234
10
8.8150458
20
-0.6513
11
8.6608364
21
-0.6513
0
LINE
8
DEFAULT_255_1_234
10
8.6608364
20
-0.6513
11
8.6608364
21
0.5181211
0
LINE
8
DEFAULT_255_1_234
10
8.6608364
20
0.5181211
11
9.3852992
21
0.5181211
0
LINE
8
DEFAULT_255_1_234
10
9.3852992
20
0.5181211
11
9.3852992
21
0.3912196
0
LINE
8
DEFAULT_255_1_234
10
9.3852992
20
0.3912196
11
8.8150458
21
0.3912196
0
LINE
8
DEFAULT_255_1_234
10
8.8150458
20
0.3912196
11
8.8150458
21
-0.0087609
0
LINE
8
DEFAULT_255_1_234
10
8.8150458
20
-0.0087609
11
9.305785
21
-0.0087609
0
LINE
8
DEFAULT_255_1_234
10
9.6696227
20
0.5181211
11
9.9515367
21
0.0699501
0
LINE
8
DEFAULT_255_1_234
10
9.9515367
20
0.0699501
11
10.2318444
21
0.5181211
0
LINE
8
DEFAULT_255_1_234
10
10.2318444
20
0.5181211
11
10.4133617
21
0.5181211
0
LINE
8
DEFAULT_255_1_234
10
10.4133617
20
0.5181211
11
10.0439017
21
-0.0617704
0
LINE
8
DEFAULT_255_1_234
10
10.0439017
20
-0.0617704
11
10.4221966
21
-0.6513
0
LINE
8
DEFAULT_255_1_234
10
10.4221966
20
-0.6513
11
10.2390729
21
-0.6513
0
LINE
8
DEFAULT_255_1_234
10
10.2390729
20
-0.6513
11
9.9515367
21
-0.1950973
0
LINE
8
DEFAULT_255_1_234
10
9.9515367
20
-0.1950973
11
9.6623941
21
-0.6513
0
LINE
8
DEFAULT_255_1_234
10
9.6623941
20
-0.6513
11
9.4800737
21
-0.6513
0
LINE
8
DEFAULT_255_1_234
10
9.4800737
20
-0.6513
11
9.8591717
21
-0.0617704
0
LINE
8
DEFAULT_255_1_234
10
9.8591717
20
-0.0617704
11
9.4889086
21
0.5181211
0
LINE
8
DEFAULT_255_1_234
10
9.4889086
20
0.5181211
11
9.6696227
21
0.5181211
0
LINE
8
DEFAULT_255_1_234
10
10.7788058
20
-0.1155831
11
10.7788058
21
0.0056962
0
LINE
8
DEFAULT_255_1_234
10
10.7788058
20
0.0056962
11
10.8904469
21
0.0056962
0
LINE
8
DEFAULT_255_1_234
10
10.7000947
20
0.2113087
11
10.5515076
21
0.2113087
0
LINE
8
DEFAULT_255_1_234
10
10.5410663
20
-0.3428813
11
10.6904566
21
-0.3428813
0
LINE
8
DEFAULT_255_1_234
10
10.8904469
20
-0.1155831
11
10.7788058
21
-0.1155831
0
ARC
8
DEFAULT_255_1_234
10
10.8875336
20
0.3449713
40
0.3392876
50
270.4919872
51
281.8951556
0
ARC
8
DEFAULT_255_1_234
10
10.9116597
20
0.2347702
40
0.2264817
50
281.6691735
51
301.2943132
0
ARC
8
DEFAULT_255_1_234
10
10.9286808
20
0.2036304
40
0.1910381
50
301.7833094
51
311.7545298
0
ARC
8
DEFAULT_255_1_234
10
10.9378383
20
0.1934748
40
0.1773635
50
311.7323931
51
354.2802411
0
ARC
8
DEFAULT_255_1_234
10
10.8652009
20
0.2059722
40
0.2509385
50
353.0937916
51
0.1181479
0
ARC
8
DEFAULT_255_1_234
10
10.8190793
20
0.2107386
40
0.2970898
50
359.1805295
51
15.0453146
0
ARC
8
DEFAULT_255_1_234
10
10.953663
20
0.2499992
40
0.1569564
50
13.9577229
51
77.6713066
0
ARC
8
DEFAULT_255_1_234
10
10.915016
20
0.1114949
40
0.3006298
50
76.1116566
51
90.7026153
0
ARC
8
DEFAULT_255_1_234
10
10.9090998
20
0.1388545
40
0.2732568
50
89.5324876
51
103.531937
0
ARC
8
DEFAULT_255_1_234
10
10.8890442
20
0.2187884
40
0.1908508
50
103.2931773
51
133.5619022
0
ARC
8
DEFAULT_255_1_234
10
10.884593
20
0.2247375
40
0.1834746
50
133.8349307
51
173.5344437
0
ARC
8
DEFAULT_255_1_234
10
10.9568973
20
0.2119213
40
0.2568033
50
172.5096846
51
180.1366907
0
ARC
8
DEFAULT_255_1_234
10
10.8617867
20
0.2153622
40
0.3103056
50
155.3484492
51
180.7484736
0
ARC
8
DEFAULT_255_1_234
10
10.8568956
20
0.2124846
40
0.3070957
50
131.5744599
51
154.4798489
0
ARC
8
DEFAULT_255_1_234
10
10.8882104
20
0.180831
40
0.3515643
50
96.9875458
51
131.9690667
0
ARC
8
DEFAULT_255_1_234
10
10.9101584
20
0.0562636
40
0.4779224
50
89.8596053
51
97.7825159
0
ARC
8
DEFAULT_255_1_234
10
10.9149647
20
0.0300616
40
0.5041361
50
78.3655447
51
90.4131539
0
ARC
8
DEFAULT_255_1_234
10
10.9507565
20
0.1959887
40
0.3344039
50
56.6229102
51
78.638727
0
ARC
8
DEFAULT_255_1_234
10
10.9722508
20
0.2335805
40
0.2912001
50
47.0253525
51
56.0854072
0
ARC
8
DEFAULT_255_1_234
10
10.9742288
20
0.2375223
40
0.2869704
50
10.9208013
51
46.7778124
0
ARC
8
DEFAULT_255_1_234
10
10.8378355
20
0.2059857
40
0.426899
50
359.6364486
51
11.6087304
0
ARC
8
DEFAULT_255_1_234
10
11.0213199
20
0.2044752
40
0.243409
50
332.3549906
51
359.7179418
0
ARC
8
DEFAULT_255_1_234
10
10.95628
20
0.2353142
40
0.3153459
50
325.2333722
51
332.8745602
0
ARC
8
DEFAULT_255_1_234
10
10.9715424
20
0.2246828
40
0.2967456
50
292.9802137
51
325.2392345
0
ARC
8
DEFAULT_255_1_234
10
10.9440798
20
0.2780863
40
0.3566604
50
292.5402179
51
293.6924929
0
ARC
8
DEFAULT_255_1_234
10
10.9833394
20
-0.3673909
40
0.3307468
50
57.6435486
51
72.8625112
0
ARC
8
DEFAULT_255_1_234
10
11.0187894
20
-0.3099451
40
0.2632492
50
36.7248896
51
57.4697979
0
ARC
8
DEFAULT_255_1_234
10
11.0176526
20
-0.308678
40
0.2634081
50
8.0545065
51
36.356114
0
ARC
8
DEFAULT_255_1_234
10
10.9313712
20
-0.3241826
40
0.3510261
50
359.8320645
51
8.5869982
0
ARC
8
DEFAULT_255_1_234
10
10.8938488
20
-0.3289899
40
0.3885653
50
343.9829931
51
0.5571613
0
ARC
8
DEFAULT_255_1_234
10
10.9824685
20
-0.3532562
40
0.2966924
50
311.6359546
51
343.7651759
0
ARC
8
DEFAULT_255_1_234
10
10.9446254
20
-0.3105898
40
0.3537231
50
279.7829875
51
311.6255694
0
ARC
8
DEFAULT_255_1_234
10
10.914503
20
-0.166872
40
0.5004971
50
269.7286406
51
280.3856417
0
ARC
8
DEFAULT_255_1_234
10
10.9083103
20
-0.1710004
40
0.4963778
50
256.6828919
51
270.4412052
0
ARC
8
DEFAULT_255_1_234
10
10.8744399
20
-0.3094606
40
0.3538406
50
229.4223008
51
256.8556159
0
ARC
8
DEFAULT_255_1_234
10
10.8329792
20
-0.3561264
40
0.2914296
50
181.818294
51
229.6455059
0
ARC
8
DEFAULT_255_1_234
10
10.9369748
20
-0.3430504
40
0.3959084
50
179.9755256
51
183.2323064
0
ARC
8
DEFAULT_255_1_234
10
10.9197494
20
-0.3450963
40
0.2293034
50
179.4465117
51
196.2869258
0
ARC
8
DEFAULT_255_1_234
10
10.8709902
20
-0.3584349
40
0.1787621
50
196.5661473
51
227.705904
0
ARC
8
DEFAULT_255_1_234
10
10.8873996
20
-0.3400845
40
0.2033784
50
227.7652068
51
257.8762805
0
ARC
8
DEFAULT_255_1_234
10
10.9098967
20
-0.2457844
40
0.3003081
50
257.4584385
51
270.426602
0
ARC
8
DEFAULT_255_1_234
10
10.9144533
20
-0.2168004
40
0.329292
50
269.5962073
51
280.8789248
0
ARC
8
DEFAULT_255_1_234
10
10.9374062
20
-0.3314315
40
0.2123908
50
280.6346389
51
299.8595945
0
ARC
8
DEFAULT_255_1_234
10
10.9564968
20
-0.3676788
40
0.171457
50
300.3576302
51
314.5517981
0
ARC
8
DEFAULT_255_1_234
10
10.9482028
20
-0.3616081
40
0.1816095
50
315.0728369
51
345.0431014
0
ARC
8
DEFAULT_255_1_234
10
10.8558843
20
-0.3347159
40
0.2777492
50
344.5986631
51
357.9269593
0
ARC
8
DEFAULT_255_1_234
10
10.7663169
20
-0.3285724
40
0.3674917
50
357.4748886
51
0.0231117
0
ARC
8
DEFAULT_255_1_234
10
10.8686278
20
-0.3261321
40
0.2651907
50
359.5047933
51
13.4239635
0
ARC
8
DEFAULT_255_1_234
10
10.9552922
20
-0.3039522
40
0.1757509
50
12.9498199
51
48.7551375
0
ARC
8
DEFAULT_255_1_234
10
10.9370656
20
-0.32886
40
0.2065134
50
49.5088623
51
72.1836453
0
ARC
8
DEFAULT_255_1_234
10
10.9012808
20
-0.4350709
40
0.3185836
50
71.9010081
51
84.3554254
0
ARC
8
DEFAULT_255_1_234
10
10.885144
20
-0.5711674
40
0.4556151
50
84.0193428
51
89.333121
0
LINE
8
DEFAULT_255_1_234
10
12.3008202
20
0.1799849
11
12.1458076
21
0.1799849
0
LINE
8
DEFAULT_255_1_234
10
11.4534718
20
-0.3123606
11
11.6084843
21
-0.3123606
0
ARC
8
DEFAULT_255_1_234
10
12.2116889
20
1.0746768
40
1.252368
50
248.9199003
51
254.1439814
0
ARC
8
DEFAULT_255_1_234
10
12.0436384
20
0.6420234
40
0.788226
50
241.633709
51
249.0064503
0
ARC
8
DEFAULT_255_1_234
10
11.8907778
20
0.3619317
40
0.4691427
50
230.498225
51
241.8087113
0
ARC
8
DEFAULT_255_1_234
10
11.8123353
20
0.2619906
40
0.3421437
50
227.4064532
51
229.9881192
0
ARC
8
DEFAULT_255_1_234
10
11.7635873
20
0.2144088
40
0.2741476
50
200.6781896
51
228.1763934
0
ARC
8
DEFAULT_255_1_234
10
11.7708184
20
0.2129077
40
0.2804109
50
179.5061581
51
199.8694617
0
ARC
8
DEFAULT_255_1_234
10
11.7698935
20
0.220321
40
0.2795204
50
132.4834203
51
181.0242172
0
ARC
8
DEFAULT_255_1_234
10
11.8294518
20
0.1640704
40
0.3612768
50
129.2532479
51
133.4242687
0
ARC
8
DEFAULT_255_1_234
10
11.8440967
20
0.1420965
40
0.3875675
50
101.98776
51
128.8742646
0
ARC
8
DEFAULT_255_1_234
10
11.8839578
20
-0.0300259
40
0.5642249
50
89.5906553
51
102.3169264
0
ARC
8
DEFAULT_255_1_234
10
11.891007
20
0.0018148
40
0.5323783
50
77.2360837
51
90.3248275
0
ARC
8
DEFAULT_255_1_234
10
11.9117149
20
0.09854
40
0.4334697
50
63.837784
51
77.0809408
0
ARC
8
DEFAULT_255_1_234
10
11.9394911
20
0.1502911
40
0.3747796
50
45.9864267
51
64.1607727
0
ARC
8
DEFAULT_255_1_234
10
11.9655792
20
0.1800866
40
0.3352302
50
32.2747395
51
45.6547121
0
ARC
8
DEFAULT_255_1_234
10
11.9722233
20
0.181988
40
0.328603
50
359.6507365
51
32.6130309
0
ARC
8
DEFAULT_255_1_234
10
11.8779328
20
0.182466
40
0.2678863
50
359.469343
51
14.9832209
0
ARC
8
DEFAULT_255_1_234
10
11.9484391
20
0.2013539
40
0.1948938
50
14.9781179
51
48.2004265
0
ARC
8
DEFAULT_255_1_234
10
11.9320035
20
0.1806983
40
0.2212521
50
48.5927837
51
74.1241538
0
ARC
8
DEFAULT_255_1_234
10
11.8986524
20
0.0706248
40
0.3362561
50
73.7888341
51
86.6652678
0
ARC
8
DEFAULT_255_1_234
10
11.888409
20
-0.0501119
40
0.4573953
50
86.2640471
51
90.0526343
0
ARC
8
DEFAULT_255_1_234
10
11.8855803
20
-0.0105808
40
0.4178709
50
89.6697524
51
99.2309573
0
ARC
8
DEFAULT_255_1_234
10
11.8613253
20
0.1338964
40
0.2713749
50
99.069534
51
113.7658566
0
ARC
8
DEFAULT_255_1_234
10
11.8339445
20
0.1984677
40
0.2012469
50
114.0401004
51
127.9850673
0
ARC
8
DEFAULT_255_1_234
10
11.8099009
20
0.228073
40
0.1631167
50
127.7287463
51
176.7105154
0
ARC
8
DEFAULT_255_1_234
10
11.8777726
20
0.2179693
40
0.2315392
50
175.1779447
51
180.0581938
0
ARC
8
DEFAULT_255_1_234
10
11.7934573
20
0.2167428
40
0.1472271
50
179.6142195
51
228.1246017
0
ARC
8
DEFAULT_255_1_234
10
11.8376241
20
0.2576308
40
0.2072299
50
226.5779593
51
230.8800004
0
ARC
8
DEFAULT_255_1_234
10
11.884732
20
0.3201636
40
0.2854818
50
231.4635071
51
241.9260842
0
ARC
8
DEFAULT_255_1_234
10
12.0044498
20
0.54048
40
0.53622
50
241.7178533
51
248.3259551
0
ARC
8
DEFAULT_255_1_234
10
12.142987
20
0.8837064
40
0.9063478
50
248.2007737
51
252.4528373
0
ARC
8
DEFAULT_255_1_234
10
12.2633595
20
1.2558441
40
1.2974635
50
252.3391078
51
254.3469452
0
ARC
8
DEFAULT_255_1_234
10
11.5091297
20
-1.4418852
40
1.5037162
50
71.0197183
51
74.4087047
0
ARC
8
DEFAULT_255_1_234
10
11.6785983
20
-0.9526889
40
0.9859993
50
66.1847285
51
71.086374
0
ARC
8
DEFAULT_255_1_234
10
11.8342295
20
-0.60228
40
0.6025855
50
59.3536294
51
66.2691831
0
ARC
8
DEFAULT_255_1_234
10
11.9230947
20
-0.4519391
40
0.4279449
50
49.1020879
51
59.3293958
0
ARC
8
DEFAULT_255_1_234
10
12.0049687
20
-0.3586166
40
0.3038015
50
32.7919921
51
49.2505539
0
ARC
8
DEFAULT_255_1_234
10
12.0370777
20
-0.3357809
40
0.264448
50
31.1181161
51
32.4005348
0
ARC
8
DEFAULT_255_1_234
10
12.0282315
20
-0.3393221
40
0.2738556
50
8.1116974
51
30.7958831
0
ARC
8
DEFAULT_255_1_234
10
11.9471983
20
-0.3531247
40
0.3560327
50
359.8389159
51
8.4706516
0
ARC
8
DEFAULT_255_1_234
10
12.0097775
20
-0.3579863
40
0.2934776
50
337.4731098
51
0.7537279
0
ARC
8
DEFAULT_255_1_234
10
12.0276469
20
-0.3599613
40
0.2762607
50
307.5917067
51
336.4315538
0
ARC
8
DEFAULT_255_1_234
10
11.9816297
20
-0.3086898
40
0.3449979
50
307.6551545
51
308.4529766
0
ARC
8
DEFAULT_255_1_234
10
11.9586016
20
-0.273175
40
0.3871988
50
284.3734338
51
307.1424381
0
ARC
8
DEFAULT_255_1_234
10
11.9090846
20
-0.0910068
40
0.5759636
50
272.4382747
51
284.646547
0
ARC
8
DEFAULT_255_1_234
10
11.8964055
20
0.0889893
40
0.7563528
50
269.9708387
51
272.8178037
0
ARC
8
DEFAULT_255_1_234
10
11.8921095
20
-0.1148284
40
0.5525489
50
248.2707594
51
270.4055579
0
ARC
8
DEFAULT_255_1_234
10
11.8866836
20
-0.1338808
40
0.5328452
50
246.1383403
51
248.0542782
0
ARC
8
DEFAULT_255_1_234
10
11.8448215
20
-0.2218157
40
0.4355005
50
233.1670131
51
246.4950969
0
ARC
8
DEFAULT_255_1_234
10
11.789412
20
-0.2966188
40
0.3424126
50
215.3403242
51
233.0843104
0
ARC
8
DEFAULT_255_1_234
10
11.7621551
20
-0.3164451
40
0.3087104
50
179.2419209
51
215.2648451
0
ARC
8
DEFAULT_255_1_234
10
11.8389145
20
-0.3150334
40
0.2304457
50
179.335461
51
199.1045811
0
ARC
8
DEFAULT_255_1_234
10
11.8056821
20
-0.3237234
40
0.1962176
50
199.8828939
51
232.7063202
0
ARC
8
DEFAULT_255_1_234
10
11.852909
20
-0.2643212
40
0.2720938
50
232.3738199
51
255.5136649
0
ARC
8
DEFAULT_255_1_234
10
11.8869957
20
-0.1399165
40
0.4010747
50
255.2446292
51
267.5320849
0
ARC
8
DEFAULT_255_1_234
10
11.895758
20
-0.0166298
40
0.5246356
50
267.1557994
51
270.0286766
0
ARC
8
DEFAULT_255_1_234
10
11.8985352
20
-0.061005
40
0.4802668
50
269.7000017
51
278.1660162
0
ARC
8
DEFAULT_255_1_234
10
11.9241357
20
-0.2340485
40
0.3053425
50
278.0231263
51
290.625471
0
ARC
8
DEFAULT_255_1_234
10
11.9589044
20
-0.3267975
40
0.206291
50
290.6619762
51
307.0370976
0
ARC
8
DEFAULT_255_1_234
10
11.9889433
20
-0.3636496
40
0.1587906
50
306.3943566
51
355.3030547
0
ARC
8
DEFAULT_255_1_234
10
11.9377365
20
-0.3559887
40
0.2104809
50
354.3660432
51
0.0698737
0
ARC
8
DEFAULT_255_1_234
10
11.951971
20
-0.3537383
40
0.1962563
50
359.417946
51
16.1971788
0
ARC
8
DEFAULT_255_1_234
10
11.997502
20
-0.3412582
40
0.149053
50
16.4723299
51
52.6262157
0
ARC
8
DEFAULT_255_1_234
10
11.9154074
20
-0.4496567
40
0.2850296
50
52.7386432
51
62.4979148
0
ARC
8
DEFAULT_255_1_234
10
11.7769151
20
-0.7102717
40
0.5801521
50
62.2515216
51
68.1220564
0
ARC
8
DEFAULT_255_1_234
10
11.6049062
20
-1.1330128
40
1.0365451
50
68.0062803
51
71.8053402
0
ARC
8
DEFAULT_255_1_234
10
11.4253433
20
-1.6715242
40
1.6042013
50
71.7183119
51
73.9258742
0
LINE
8
DEFAULT_255_1_234
10
12.7867403
20
-0.0938974
11
12.7867403
21
-0.2151766
0
LINE
8
DEFAULT_255_1_234
10
12.7867403
20
-0.2151766
11
12.3947915
21
-0.2151766
0
LINE
8
DEFAULT_255_1_234
10
12.3947915
20
-0.2151766
11
12.3947915
21
-0.0938974
0
LINE
8
DEFAULT_255_1_234
10
12.3947915
20
-0.0938974
11
12.7867403
21
-0.0938974
0
LINE
8
DEFAULT_255_1_234
10
13.404381
20
0.5237433
11
13.404381
21
-0.6513
0
LINE
8
DEFAULT_255_1_234
10
13.404381
20
-0.6513
11
13.2549907
21
-0.6513
0
LINE
8
DEFAULT_255_1_234
10
13.2549907
20
-0.6513
11
13.2549907
21
0.3390133
0
LINE
8
DEFAULT_255_1_234
10
13.2549907
20
0.3390133
11
12.9554068
21
0.2289785
0
LINE
8
DEFAULT_255_1_234
10
12.9554068
20
0.2289785
11
12.9554068
21
0.3639117
0
LINE
8
DEFAULT_255_1_234
10
12.9554068
20
0.3639117
11
13.381089
21
0.5237433
0
LINE
8
DEFAULT_255_1_234
10
13.381089
20
0.5237433
11
13.404381
21
0.5237433
0
LINE
8
DEFAULT_255_1_234
10
14.5729989
20
0.0402327
11
14.5729989
21
-0.1525291
0
LINE
8
DEFAULT_255_1_234
10
13.8348822
20
-0.1726084
11
13.8348822
21
0.0257755
0
LINE
8
DEFAULT_255_1_234
10
14.4244118
20
-0.1926877
11
14.4244118
21
0.0506739
0
LINE
8
DEFAULT_255_1_234
10
13.9834693
20
0.0619184
11
13.9834693
21
-0.1758211
0
ARC
8
DEFAULT_255_1_234
10
13.3482879
20
-0.1574195
40
1.2247208
50
353.8441951
51
0.2287902
0
ARC
8
DEFAULT_255_1_234
10
13.8122382
20
-0.2092194
40
0.7578929
50
344.4934747
51
353.9765454
0
ARC
8
DEFAULT_255_1_234
10
14.1114973
20
-0.2943019
40
0.4467846
50
329.2803592
51
344.7472793
0
ARC
8
DEFAULT_255_1_234
10
14.2107798
20
-0.3487982
40
0.3336173
50
324.9352394
51
328.6160465
0
ARC
8
DEFAULT_255_1_234
10
14.2484906
20
-0.3751573
40
0.2876076
50
280.580143
51
324.9173126
0
ARC
8
DEFAULT_255_1_234
10
14.2083699
20
-0.2080901
40
0.4592847
50
269.5977311
51
281.6734359
0
ARC
8
DEFAULT_255_1_234
10
14.2011604
20
-0.2200827
40
0.4472986
50
256.6228859
51
270.51044
0
ARC
8
DEFAULT_255_1_234
10
14.1609582
20
-0.3749123
40
0.2873874
50
215.8618325
51
257.2788573
0
ARC
8
DEFAULT_255_1_234
10
14.2630614
20
-0.3064023
40
0.4102928
50
197.9693508
51
215.2623606
0
ARC
8
DEFAULT_255_1_234
10
14.511573
20
-0.2225291
40
0.6725652
50
187.8816417
51
198.2346507
0
ARC
8
DEFAULT_255_1_234
10
14.9073938
20
-0.1653921
40
1.0724845
50
180.8976217
51
188.0055519
0
ARC
8
DEFAULT_255_1_234
10
15.1874126
20
-0.1550223
40
1.3526448
50
180.7449369
51
181.1510016
0
ARC
8
DEFAULT_255_1_234
10
15.0296855
20
0.0306042
40
1.1948131
50
173.7675579
51
180.231553
0
ARC
8
DEFAULT_255_1_234
10
14.5779002
20
0.0816666
40
0.7401564
50
164.3058563
51
173.9002247
0
ARC
8
DEFAULT_255_1_234
10
14.286707
20
0.1655656
40
0.4371288
50
148.7922025
51
164.568378
0
ARC
8
DEFAULT_255_1_234
10
14.1915523
20
0.2186929
40
0.3282386
50
144.5883898
51
148.1176286
0
ARC
8
DEFAULT_255_1_234
10
14.157242
20
0.2426315
40
0.2864044
50
101.6440918
51
144.514236
0
ARC
8
DEFAULT_255_1_234
10
14.1997487
20
0.0737069
40
0.4604934
50
89.5284041
51
102.5819763
0
ARC
8
DEFAULT_255_1_234
10
14.2076575
20
0.0698018
40
0.464401
50
77.0437873
51
90.5081339
0
ARC
8
DEFAULT_255_1_234
10
14.2478577
20
0.2340615
40
0.2953195
50
48.2778575
51
77.4994676
0
ARC
8
DEFAULT_255_1_234
10
14.2551208
20
0.2469746
40
0.2808655
50
36.3142134
51
47.6305865
0
ARC
8
DEFAULT_255_1_234
10
14.1682515
20
0.1884515
40
0.3855453
50
18.2931786
51
35.6769206
0
ARC
8
DEFAULT_255_1_234
10
13.9139274
20
0.1011593
40
0.654423
50
8.024666
51
18.5605216
0
ARC
8
DEFAULT_255_1_234
10
13.4976194
20
0.0396792
40
1.0752407
50
1.1274072
51
8.1718305
0
ARC
8
DEFAULT_255_1_234
10
13.1740384
20
0.0269885
40
1.3990231
50
0.5424119
51
1.3863029
0
ARC
8
DEFAULT_255_1_234
10
13.3561762
20
0.0542342
40
1.0682415
50
359.8090433
51
4.9407866
0
ARC
8
DEFAULT_255_1_234
10
13.7771776
20
0.0918113
40
0.6455691
50
4.8362157
51
12.2904523
0
ARC
8
DEFAULT_255_1_234
10
14.0526891
20
0.1531965
40
0.3633074
50
12.0805627
51
23.8173984
0
ARC
8
DEFAULT_255_1_234
10
14.1700596
20
0.2028919
40
0.2358723
50
24.2871213
51
31.3935614
0
ARC
8
DEFAULT_255_1_234
10
14.2225294
20
0.2372233
40
0.1732111
50
30.7407893
51
82.4657128
0
ARC
8
DEFAULT_255_1_234
10
14.2045428
20
0.1488691
40
0.263235
50
81.1060089
51
90.2184952
0
ARC
8
DEFAULT_255_1_234
10
14.2009727
20
0.1746924
40
0.2374236
50
89.3806855
51
105.6762551
0
ARC
8
DEFAULT_255_1_234
10
14.1826357
20
0.2413567
40
0.1682847
50
105.7981136
51
149.7388061
0
ARC
8
DEFAULT_255_1_234
10
14.2890436
20
0.177395
40
0.2924306
50
149.4208916
51
163.6286378
0
ARC
8
DEFAULT_255_1_234
10
14.4981324
20
0.113625
40
0.5110213
50
163.3763315
51
172.1410975
0
ARC
8
DEFAULT_255_1_234
10
14.8282043
20
0.0663518
40
0.8444586
50
172.0259487
51
178.0703232
0
ARC
8
DEFAULT_255_1_234
10
15.1312132
20
0.0519906
40
1.1477868
50
177.8631668
51
179.5044149
0
ARC
8
DEFAULT_255_1_234
10
15.0239537
20
-0.1794611
40
1.0404907
50
179.7995573
51
185.2460446
0
ARC
8
DEFAULT_255_1_234
10
14.6196576
20
-0.2177487
40
0.6343885
50
185.1411642
51
193.0079639
0
ARC
8
DEFAULT_255_1_234
10
14.3553049
20
-0.2802359
40
0.3627568
50
192.7897626
51
205.2507664
0
ARC
8
DEFAULT_255_1_234
10
14.2506596
20
-0.3269585
40
0.2481908
50
205.8005384
51
211.2537509
0
ARC
8
DEFAULT_255_1_234
10
14.1983036
20
-0.362042
40
0.1852521
50
210.3789793
51
238.4008143
0
ARC
8
DEFAULT_255_1_234
10
14.1963558
20
-0.3573624
40
0.1882621
50
239.6520629
51
265.9793761
0
ARC
8
DEFAULT_255_1_234
10
14.2048758
20
-0.2901573
40
0.2559272
50
265.1315437
51
270.060332
0
ARC
8
DEFAULT_255_1_234
10
14.2077537
20
-0.3225466
40
0.2235528
50
269.3314664
51
287.2178029
0
ARC
8
DEFAULT_255_1_234
10
14.2215389
20
-0.3728721
40
0.1714108
50
287.7958004
51
329.080874
0
ARC
8
DEFAULT_255_1_234
10
14.1257846
20
-0.313107
40
0.2842745
50
328.6634704
51
343.3325132
0
ARC
8
DEFAULT_255_1_234
10
13.9084866
20
-0.2454137
40
0.5118644
50
343.0499468
51
351.9393422
0
ARC
8
DEFAULT_255_1_234
10
13.5618166
20
-0.1943051
40
0.8622784
50
351.8069023
51
357.7959224
0
ARC
8
DEFAULT_255_1_234
10
13.2382722
20
-0.1775279
40
1.1862365
50
357.5871873
51
359.2677531
0
LINE
8
DEFAULT_255_1_234
10
14.8019035
20
0.5181211
11
15.0010906
21
0.5181211
0
LINE
8
DEFAULT_255_1_234
10
15.0010906
20
0.5181211
11
15.3834013
21
-0.4360494
0
LINE
8
DEFAULT_255_1_234
10
15.3834013
20
-0.4360494
11
15.7657121
21
0.5181211
0
LINE
8
DEFAULT_255_1_234
10
15.7657121
20
0.5181211
11
15.9657023
21
0.5181211
0
LINE
8
DEFAULT_255_1_234
10
15.9657023
20
0.5181211
11
15.9657023
21
-0.6513
0
LINE
8
DEFAULT_255_1_234
10
15.9657023
20
-0.6513
11
15.811493
21
-0.6513
0
LINE
8
DEFAULT_255_1_234
10
15.811493
20
-0.6513
11
15.811493
21
-0.1959004
0
LINE
8
DEFAULT_255_1_234
10
15.811493
20
-0.1959004
11
15.8259501
21
0.2956419
0
LINE
8
DEFAULT_255_1_234
10
15.8259501
20
0.2956419
11
15.442033
21
-0.6513
0
LINE
8
DEFAULT_255_1_234
10
15.442033
20
-0.6513
11
15.3239665
21
-0.6513
0
LINE
8
DEFAULT_255_1_234
10
15.3239665
20
-0.6513
11
14.9408525
21
0.2932324
0
LINE
8
DEFAULT_255_1_234
10
14.9408525
20
0.2932324
11
14.9561128
21
-0.1959004
0
LINE
8
DEFAULT_255_1_234
10
14.9561128
20
-0.1959004
11
14.9561128
21
-0.6513
0
LINE
8
DEFAULT_255_1_234
10
14.9561128
20
-0.6513
11
14.8019035
21
-0.6513
0
LINE
8
DEFAULT_255_1_234
10
14.8019035
20
-0.6513
11
14.8019035
21
0.5181211
0
LINE
8
DEFAULT_255_1_234
10
17.0226791
20
0.5181211
11
17.0226791
21
0.3912196
0
LINE
8
DEFAULT_255_1_234
10
17.0226791
20
0.3912196
11
16.6467938
21
0.3912196
0
LINE
8
DEFAULT_255_1_234
10
16.6467938
20
0.3912196
11
16.6467938
21
-0.6513
0
LINE
8
DEFAULT_255_1_234
10
16.6467938
20
-0.6513
11
16.4933875
21
-0.6513
0
LINE
8
DEFAULT_255_1_234
10
16.4933875
20
-0.6513
11
16.4933875
21
0.3912196
0
LINE
8
DEFAULT_255_1_234
10
16.4933875
20
0.3912196
11
16.1183054
21
0.3912196
0
LINE
8
DEFAULT_255_1_234
10
16.1183054
20
0.3912196
11
16.1183054
21
0.5181211
0
LINE
8
DEFAULT_255_1_234
10
16.1183054
20
0.5181211
11
17.0226791
21
0.5181211
0
LINE
8
DEFAULT_255_1_234
10
17.6901166
20
0.5181211
11
17.20259
21
-0.7516967
0
LINE
8
DEFAULT_255_1_234
10
17.20259
20
-0.7516967
11
17.0748854
21
-0.7516967
0
LINE
8
DEFAULT_255_1_234
10
17.0748854
20
-0.7516967
11
17.5632151
21
0.5181211
0
LINE
8
DEFAULT_255_1_234
10
17.5632151
20
0.5181211
11
17.6901166
21
0.5181211
0
LINE
8
DEFAULT_255_1_234
10
18.1977224
20
-0.6513
11
17.8740434
21
-0.6513
0
LINE
8
DEFAULT_255_1_234
10
17.8740434
20
-0.6513
11
17.8740434
21
0.5181211
0
LINE
8
DEFAULT_255_1_234
10
17.8740434
20
0.5181211
11
18.2041478
21
0.5181211
0
LINE
8
DEFAULT_255_1_234
10
18.7197854
20
-0.0272339
11
18.7197854
21
-0.1019291
0
LINE
8
DEFAULT_255_1_234
10
18.2081637
20
0.3912196
11
18.0282527
21
0.3912196
0
LINE
8
DEFAULT_255_1_234
10
18.0282527
20
0.3912196
11
18.0282527
21
-0.5252017
0
LINE
8
DEFAULT_255_1_234
10
18.0282527
20
-0.5252017
11
18.1904938
21
-0.5252017
0
LINE
8
DEFAULT_255_1_234
10
18.5671824
20
-0.0987164
11
18.5671824
21
-0.0304466
0
ARC
8
DEFAULT_255_1_234
10
18.208042
20
-0.0684106
40
0.5865446
50
75.4101064
51
90.3804066
0
ARC
8
DEFAULT_255_1_234
10
18.2309934
20
0.0272492
40
0.4881916
50
60.145586
51
75.1888407
0
ARC
8
DEFAULT_255_1_234
10
18.2468709
20
0.0549199
40
0.4562893
50
26.5253612
51
60.1450928
0
ARC
8
DEFAULT_255_1_234
10
18.1348459
20
-0.0044842
40
0.5830602
50
7.4030428
51
26.8320788
0
ARC
8
DEFAULT_255_1_234
10
17.9754216
20
-0.0293196
40
0.7443669
50
0.1605367
51
7.7176192
0
ARC
8
DEFAULT_255_1_234
10
17.991812
20
-0.1057566
40
0.7279835
50
348.7289388
51
0.3012466
0
ARC
8
DEFAULT_255_1_234
10
18.157455
20
-0.1386614
40
0.559104
50
333.0706509
51
348.7181832
0
ARC
8
DEFAULT_255_1_234
10
18.2541308
20
-0.1911681
40
0.4491417
50
299.2531685
51
333.4571258
0
ARC
8
DEFAULT_255_1_234
10
18.2180448
20
-0.1226172
40
0.5265881
50
278.107187
51
299.0339503
0
ARC
8
DEFAULT_255_1_234
10
18.1924527
20
0.0281216
40
0.679442
50
270.4443897
51
278.4511052
0
ARC
8
DEFAULT_255_1_234
10
18.1945357
20
-0.0647787
40
0.4604407
50
269.4970433
51
284.0205042
0
ARC
8
DEFAULT_255_1_234
10
18.2300658
20
-0.2013022
40
0.3193797
50
283.7700273
51
318.1555492
0
ARC
8
DEFAULT_255_1_234
10
18.1963416
20
-0.1760633
40
0.3613588
50
318.7415601
51
343.6873628
0
ARC
8
DEFAULT_255_1_234
10
18.0159439
20
-0.1197168
40
0.5503313
50
343.3325091
51
355.8548958
0
ARC
8
DEFAULT_255_1_234
10
17.8061123
20
-0.0997681
40
0.7610708
50
355.4988528
51
0.0791727
0
ARC
8
DEFAULT_255_1_234
10
17.8843746
20
-0.026222
40
0.6828208
50
359.6455037
51
9.8607896
0
ARC
8
DEFAULT_255_1_234
10
18.1204444
20
0.0164099
40
0.4429406
50
9.6571907
51
26.1932807
0
ARC
8
DEFAULT_255_1_234
10
18.2132433
20
0.0595118
40
0.3406537
50
26.5777228
51
40.1532208
0
ARC
8
DEFAULT_255_1_234
10
18.2388159
20
0.0794619
40
0.308246
50
40.3840491
51
80.1431104
0
ARC
8
DEFAULT_255_1_234
10
18.2061277
20
-0.0654667
40
0.4566909
50
79.2152159
51
89.7445637
0
LINE
8
DEFAULT_255_1_234
10
19.7285717
20
0.1799849
11
19.5735592
21
0.1799849
0
LINE
8
DEFAULT_255_1_234
10
18.8812233
20
-0.3123606
11
19.0362359
21
-0.3123606
0
ARC
8
DEFAULT_255_1_234
10
19.6394405
20
1.0746768
40
1.252368
50
248.9199003
51
254.1439814
0
ARC
8
DEFAULT_255_1_234
10
19.47139
20
0.6420234
40
0.788226
50
241.633709
51
249.0064503
0
ARC
8
DEFAULT_255_1_234
10
19.3185294
20
0.3619317
40
0.4691427
50
230.498225
51
241.8087113
0
ARC
8
DEFAULT_255_1_234
10
19.2400868
20
0.2619906
40
0.3421437
50
227.4064532
51
229.9881192
0
ARC
8
DEFAULT_255_1_234
10
19.1913389
20
0.2144088
40
0.2741476
50
200.6781896
51
228.1763934
0
ARC
8
DEFAULT_255_1_234
10
19.1985699
20
0.2129077
40
0.2804109
50
179.5061581
51
199.8694617
0
ARC
8
DEFAULT_255_1_234
10
19.1976451
20
0.220321
40
0.2795204
50
132.4834203
51
181.0242172
0
ARC
8
DEFAULT_255_1_234
10
19.2572033
20
0.1640704
40
0.3612768
50
129.2532479
51
133.4242687
0
ARC
8
DEFAULT_255_1_234
10
19.2718483
20
0.1420965
40
0.3875675
50
101.98776
51
128.8742646
0
ARC
8
DEFAULT_255_1_234
10
19.3117094
20
-0.0300259
40
0.5642249
50
89.5906553
51
102.3169264
0
ARC
8
DEFAULT_255_1_234
10
19.3187586
20
0.0018148
40
0.5323783
50
77.2360837
51
90.3248275
0
ARC
8
DEFAULT_255_1_234
10
19.3394665
20
0.09854
40
0.4334697
50
63.837784
51
77.0809408
0
ARC
8
DEFAULT_255_1_234
10
19.3672427
20
0.1502911
40
0.3747796
50
45.9864267
51
64.1607727
0
ARC
8
DEFAULT_255_1_234
10
19.3933308
20
0.1800866
40
0.3352302
50
32.2747395
51
45.6547121
0
ARC
8
DEFAULT_255_1_234
10
19.3999749
20
0.181988
40
0.328603
50
359.6507365
51
32.6130309
0
ARC
8
DEFAULT_255_1_234
10
19.3056844
20
0.182466
40
0.2678863
50
359.469343
51
14.9832209
0
ARC
8
DEFAULT_255_1_234
10
19.3761906
20
0.2013539
40
0.1948938
50
14.9781179
51
48.2004265
0
ARC
8
DEFAULT_255_1_234
10
19.3597551
20
0.1806983
40
0.2212521
50
48.5927837
51
74.1241538
0
ARC
8
DEFAULT_255_1_234
10
19.326404
20
0.0706248
40
0.3362561
50
73.7888341
51
86.6652678
0
ARC
8
DEFAULT_255_1_234
10
19.3161606
20
-0.0501119
40
0.4573953
50
86.2640471
51
90.0526343
0
ARC
8
DEFAULT_255_1_234
10
19.3133318
20
-0.0105808
40
0.4178709
50
89.6697524
51
99.2309573
0
ARC
8
DEFAULT_255_1_234
10
19.2890769
20
0.1338964
40
0.2713749
50
99.069534
51
113.7658566
0
ARC
8
DEFAULT_255_1_234
10
19.261696
20
0.1984677
40
0.2012469
50
114.0401004
51
127.9850673
0
ARC
8
DEFAULT_255_1_234
10
19.2376524
20
0.228073
40
0.1631167
50
127.7287463
51
176.7105154
0
ARC
8
DEFAULT_255_1_234
10
19.3055242
20
0.2179693
40
0.2315392
50
175.1779447
51
180.0581938
0
ARC
8
DEFAULT_255_1_234
10
19.2212088
20
0.2167428
40
0.1472271
50
179.6142195
51
228.1246017
0
ARC
8
DEFAULT_255_1_234
10
19.2653757
20
0.2576308
40
0.2072299
50
226.5779593
51
230.8800004
0
ARC
8
DEFAULT_255_1_234
10
19.3124836
20
0.3201636
40
0.2854818
50
231.4635071
51
241.9260842
0
ARC
8
DEFAULT_255_1_234
10
19.4322014
20
0.54048
40
0.53622
50
241.7178533
51
248.3259551
0
ARC
8
DEFAULT_255_1_234
10
19.5707385
20
0.8837064
40
0.9063478
50
248.2007737
51
252.4528373
0
ARC
8
DEFAULT_255_1_234
10
19.691111
20
1.2558441
40
1.2974635
50
252.3391078
51
254.3469452
0
ARC
8
DEFAULT_255_1_234
10
18.9368813
20
-1.4418852
40
1.5037162
50
71.0197183
51
74.4087047
0
ARC
8
DEFAULT_255_1_234
10
19.1063498
20
-0.9526889
40
0.9859993
50
66.1847285
51
71.086374
0
ARC
8
DEFAULT_255_1_234
10
19.2619811
20
-0.60228
40
0.6025855
50
59.3536294
51
66.2691831
0
ARC
8
DEFAULT_255_1_234
10
19.3508463
20
-0.4519391
40
0.4279449
50
49.1020879
51
59.3293958
0
ARC
8
DEFAULT_255_1_234
10
19.4327203
20
-0.3586166
40
0.3038015
50
32.7919921
51
49.2505539
0
ARC
8
DEFAULT_255_1_234
10
19.4648293
20
-0.3357809
40
0.264448
50
31.1181161
51
32.4005348
0
ARC
8
DEFAULT_255_1_234
10
19.4559831
20
-0.3393221
40
0.2738556
50
8.1116974
51
30.7958831
0
ARC
8
DEFAULT_255_1_234
10
19.3749499
20
-0.3531247
40
0.3560327
50
359.8389159
51
8.4706516
0
ARC
8
DEFAULT_255_1_234
10
19.437529
20
-0.3579863
40
0.2934776
50
337.4731098
51
0.7537279
0
ARC
8
DEFAULT_255_1_234
10
19.4553985
20
-0.3599613
40
0.2762607
50
307.5917067
51
336.4315538
0
ARC
8
DEFAULT_255_1_234
10
19.4093813
20
-0.3086898
40
0.3449979
50
307.6551545
51
308.4529766
0
ARC
8
DEFAULT_255_1_234
10
19.3863532
20
-0.273175
40
0.3871988
50
284.3734338
51
307.1424381
0
ARC
8
DEFAULT_255_1_234
10
19.3368362
20
-0.0910068
40
0.5759636
50
272.4382747
51
284.646547
0
ARC
8
DEFAULT_255_1_234
10
19.3241571
20
0.0889893
40
0.7563528
50
269.9708387
51
272.8178037
0
ARC
8
DEFAULT_255_1_234
10
19.319861
20
-0.1148284
40
0.5525489
50
248.2707594
51
270.4055579
0
ARC
8
DEFAULT_255_1_234
10
19.3144352
20
-0.1338808
40
0.5328452
50
246.1383403
51
248.0542782
0
ARC
8
DEFAULT_255_1_234
10
19.272573
20
-0.2218157
40
0.4355005
50
233.1670131
51
246.4950969
0
ARC
8
DEFAULT_255_1_234
10
19.2171635
20
-0.2966188
40
0.3424126
50
215.3403242
51
233.0843104
0
ARC
8
DEFAULT_255_1_234
10
19.1899067
20
-0.3164451
40
0.3087104
50
179.2419209
51
215.2648451
0
ARC
8
DEFAULT_255_1_234
10
19.2666661
20
-0.3150334
40
0.2304457
50
179.335461
51
199.1045811
0
ARC
8
DEFAULT_255_1_234
10
19.2334337
20
-0.3237234
40
0.1962176
50
199.8828939
51
232.7063202
0
ARC
8
DEFAULT_255_1_234
10
19.2806605
20
-0.2643212
40
0.2720938
50
232.3738199
51
255.5136649
0
ARC
8
DEFAULT_255_1_234
10
19.3147472
20
-0.1399165
40
0.4010747
50
255.2446292
51
267.5320849
0
ARC
8
DEFAULT_255_1_234
10
19.3235095
20
-0.0166298
40
0.5246356
50
267.1557994
51
270.0286766
0
ARC
8
DEFAULT_255_1_234
10
19.3262868
20
-0.061005
40
0.4802668
50
269.7000017
51
278.1660162
0
ARC
8
DEFAULT_255_1_234
10
19.3518872
20
-0.2340485
40
0.3053425
50
278.0231263
51
290.625471
0
ARC
8
DEFAULT_255_1_234
10
19.3866559
20
-0.3267975
40
0.206291
50
290.6619762
51
307.0370976
0
ARC
8
DEFAULT_255_1_234
10
19.4166949
20
-0.3636496
40
0.1587906
50
306.3943566
51
355.3030547
0
ARC
8
DEFAULT_255_1_234
10
19.365488
20
-0.3559887
40
0.2104809
50
354.3660432
51
0.0698737
0
ARC
8
DEFAULT_255_1_234
10
19.3797225
20
-0.3537383
40
0.1962563
50
359.417946
51
16.1971788
0
ARC
8
DEFAULT_255_1_234
10
19.4252536
20
-0.3412582
40
0.149053
50
16.4723299
51
52.6262157
0
ARC
8
DEFAULT_255_1_234
10
19.343159
20
-0.4496567
40
0.2850296
50
52.7386432
51
62.4979148
0
ARC
8
DEFAULT_255_1_234
10
19.2046667
20
-0.7102717
40
0.5801521
50
62.2515216
51
68.1220564
0
ARC
8
DEFAULT_255_1_234
10
19.0326577
20
-1.1330128
40
1.0365451
50
68.0062803
51
71.8053402
0
ARC
8
DEFAULT_255_1_234
10
18.8530949
20
-1.6715242
40
1.6042013
50
71.7183119
51
73.9258742
0
LINE
8
DEFAULT_255_1_234
10
12.017785
20
70.7672391
11
12.017785
21
70.6411408
0
LINE
8
DEFAULT_255_1_234
10
12.017785
20
70.6411408
11
11.5270458
21
70.6411408
0
LINE
8
DEFAULT_255_1_234
10
11.5270458
20
70.6411408
11
11.5270458
21
70.1247
0
LINE
8
DEFAULT_255_1_234
10
11.5270458
20
70.1247
11
11.3728364
21
70.1247
0
LINE
8
DEFAULT_255_1_234
10
11.3728364
20
70.1247
11
11.3728364
21
71.2941211
0
LINE
8
DEFAULT_255_1_234
10
11.3728364
20
71.2941211
11
12.0972992
21
71.2941211
0
LINE
8
DEFAULT_255_1_234
10
12.0972992
20
71.2941211
11
12.0972992
21
71.1672196
0
LINE
8
DEFAULT_255_1_234
10
12.0972992
20
71.1672196
11
11.5270458
21
71.1672196
0
LINE
8
DEFAULT_255_1_234
10
11.5270458
20
71.1672196
11
11.5270458
21
70.7672391
0
LINE
8
DEFAULT_255_1_234
10
11.5270458
20
70.7672391
11
12.017785
21
70.7672391
0
LINE
8
DEFAULT_255_1_234
10
13.4651042
20
70.9559849
11
13.3100917
21
70.9559849
0
LINE
8
DEFAULT_255_1_234
10
12.6177558
20
70.4636394
11
12.7727684
21
70.4636394
0
ARC
8
DEFAULT_255_1_234
10
13.3759729
20
71.8506768
40
1.252368
50
248.9199003
51
254.1439814
0
ARC
8
DEFAULT_255_1_234
10
13.2079224
20
71.4180234
40
0.788226
50
241.633709
51
249.0064503
0
ARC
8
DEFAULT_255_1_234
10
13.0550619
20
71.1379317
40
0.4691427
50
230.498225
51
241.8087113
0
ARC
8
DEFAULT_255_1_234
10
12.9766193
20
71.0379906
40
0.3421437
50
227.4064532
51
229.9881192
0
ARC
8
DEFAULT_255_1_234
10
12.9278713
20
70.9904088
40
0.2741476
50
200.6781896
51
228.1763934
0
ARC
8
DEFAULT_255_1_234
10
12.9351024
20
70.9889077
40
0.2804109
50
179.5061581
51
199.8694617
0
ARC
8
DEFAULT_255_1_234
10
12.9341776
20
70.996321
40
0.2795204
50
132.4834203
51
181.0242172
0
ARC
8
DEFAULT_255_1_234
10
12.9937358
20
70.9400704
40
0.3612768
50
129.2532479
51
133.4242687
0
ARC
8
DEFAULT_255_1_234
10
13.0083808
20
70.9180965
40
0.3875675
50
101.98776
51
128.8742646
0
ARC
8
DEFAULT_255_1_234
10
13.0482418
20
70.7459741
40
0.5642249
50
89.5906553
51
102.3169264
0
ARC
8
DEFAULT_255_1_234
10
13.0552911
20
70.7778148
40
0.5323783
50
77.2360837
51
90.3248275
0
ARC
8
DEFAULT_255_1_234
10
13.075999
20
70.87454
40
0.4334697
50
63.837784
51
77.0809408
0
ARC
8
DEFAULT_255_1_234
10
13.1037751
20
70.9262911
40
0.3747796
50
45.9864267
51
64.1607727
0
ARC
8
DEFAULT_255_1_234
10
13.1298633
20
70.9560866
40
0.3352302
50
32.2747395
51
45.6547121
0
ARC
8
DEFAULT_255_1_234
10
13.1365073
20
70.957988
40
0.328603
50
359.6507365
51
32.6130309
0
ARC
8
DEFAULT_255_1_234
10
13.0422169
20
70.958466
40
0.2678863
50
359.469343
51
14.9832209
0
ARC
8
DEFAULT_255_1_234
10
13.1127231
20
70.9773539
40
0.1948938
50
14.9781179
51
48.2004265
0
ARC
8
DEFAULT_255_1_234
10
13.0962875
20
70.9566983
40
0.2212521
50
48.5927837
51
74.1241538
0
ARC
8
DEFAULT_255_1_234
10
13.0629365
20
70.8466248
40
0.3362561
50
73.7888341
51
86.6652678
0
ARC
8
DEFAULT_255_1_234
10
13.052693
20
70.7258881
40
0.4573953
50
86.2640471
51
90.0526343
0
ARC
8
DEFAULT_255_1_234
10
13.0498643
20
70.7654192
40
0.4178709
50
89.6697524
51
99.2309573
0
ARC
8
DEFAULT_255_1_234
10
13.0256094
20
70.9098964
40
0.2713749
50
99.069534
51
113.7658566
0
ARC
8
DEFAULT_255_1_234
10
12.9982285
20
70.9744677
40
0.2012469
50
114.0401004
51
127.9850673
0
ARC
8
DEFAULT_255_1_234
10
12.9741849
20
71.004073
40
0.1631167
50
127.7287463
51
176.7105154
0
ARC
8
DEFAULT_255_1_234
10
13.0420566
20
70.9939693
40
0.2315392
50
175.1779447
51
180.0581938
0
ARC
8
DEFAULT_255_1_234
10
12.9577413
20
70.9927428
40
0.1472271
50
179.6142195
51
228.1246017
0
ARC
8
DEFAULT_255_1_234
10
13.0019082
20
71.0336308
40
0.2072299
50
226.5779593
51
230.8800004
0
ARC
8
DEFAULT_255_1_234
10
13.049016
20
71.0961636
40
0.2854818
50
231.4635071
51
241.9260842
0
ARC
8
DEFAULT_255_1_234
10
13.1687338
20
71.31648
40
0.53622
50
241.7178533
51
248.3259551
0
ARC
8
DEFAULT_255_1_234
10
13.307271
20
71.6597064
40
0.9063478
50
248.2007737
51
252.4528373
0
ARC
8
DEFAULT_255_1_234
10
13.4276435
20
72.0318441
40
1.2974635
50
252.3391078
51
254.3469452
0
ARC
8
DEFAULT_255_1_234
10
12.6734138
20
69.3341148
40
1.5037162
50
71.0197183
51
74.4087047
0
ARC
8
DEFAULT_255_1_234
10
12.8428823
20
69.8233111
40
0.9859993
50
66.1847285
51
71.086374
0
ARC
8
DEFAULT_255_1_234
10
12.9985135
20
70.17372
40
0.6025855
50
59.3536294
51
66.2691831
0
ARC
8
DEFAULT_255_1_234
10
13.0873788
20
70.3240609
40
0.4279449
50
49.1020879
51
59.3293958
0
ARC
8
DEFAULT_255_1_234
10
13.1692528
20
70.4173834
40
0.3038015
50
32.7919921
51
49.2505539
0
ARC
8
DEFAULT_255_1_234
10
13.2013618
20
70.4402191
40
0.264448
50
31.1181161
51
32.4005348
0
ARC
8
DEFAULT_255_1_234
10
13.1925155
20
70.4366779
40
0.2738556
50
8.1116974
51
30.7958831
0
ARC
8
DEFAULT_255_1_234
10
13.1114823
20
70.4228753
40
0.3560327
50
359.8389159
51
8.4706516
0
ARC
8
DEFAULT_255_1_234
10
13.1740615
20
70.4180137
40
0.2934776
50
337.4731098
51
0.7537279
0
ARC
8
DEFAULT_255_1_234
10
13.191931
20
70.4160387
40
0.2762607
50
307.5917067
51
336.4315538
0
ARC
8
DEFAULT_255_1_234
10
13.1459138
20
70.4673102
40
0.3449979
50
307.6551545
51
308.4529766
0
ARC
8
DEFAULT_255_1_234
10
13.1228857
20
70.502825
40
0.3871988
50
284.3734338
51
307.1424381
0
ARC
8
DEFAULT_255_1_234
10
13.0733687
20
70.6849932
40
0.5759636
50
272.4382747
51
284.646547
0
ARC
8
DEFAULT_255_1_234
10
13.0606895
20
70.8649893
40
0.7563528
50
269.9708387
51
272.8178037
0
ARC
8
DEFAULT_255_1_234
10
13.0563935
20
70.6611716
40
0.5525489
50
248.2707594
51
270.4055579
0
ARC
8
DEFAULT_255_1_234
10
13.0509676
20
70.6421192
40
0.5328452
50
246.1383403
51
248.0542782
0
ARC
8
DEFAULT_255_1_234
10
13.0091055
20
70.5541843
40
0.4355005
50
233.1670131
51
246.4950969
0
ARC
8
DEFAULT_255_1_234
10
12.953696
20
70.4793812
40
0.3424126
50
215.3403242
51
233.0843104
0
ARC
8
DEFAULT_255_1_234
10
12.9264391
20
70.4595549
40
0.3087104
50
179.2419209
51
215.2648451
0
ARC
8
DEFAULT_255_1_234
10
13.0031985
20
70.4609666
40
0.2304457
50
179.335461
51
199.1045811
0
ARC
8
DEFAULT_255_1_234
10
12.9699662
20
70.4522766
40
0.1962176
50
199.8828939
51
232.7063202
0
ARC
8
DEFAULT_255_1_234
10
13.017193
20
70.5116788
40
0.2720938
50
232.3738199
51
255.5136649
0
ARC
8
DEFAULT_255_1_234
10
13.0512797
20
70.6360835
40
0.4010747
50
255.2446292
51
267.5320849
0
ARC
8
DEFAULT_255_1_234
10
13.060042
20
70.7593702
40
0.5246356
50
267.1557994
51
270.0286766
0
ARC
8
DEFAULT_255_1_234
10
13.0628192
20
70.714995
40
0.4802668
50
269.7000017
51
278.1660162
0
ARC
8
DEFAULT_255_1_234
10
13.0884197
20
70.5419515
40
0.3053425
50
278.0231263
51
290.625471
0
ARC
8
DEFAULT_255_1_234
10
13.1231884
20
70.4492025
40
0.206291
50
290.6619762
51
307.0370976
0
ARC
8
DEFAULT_255_1_234
10
13.1532274
20
70.4123504
40
0.1587906
50
306.3943566
51
355.3030547
0
ARC
8
DEFAULT_255_1_234
10
13.1020205
20
70.4200113
40
0.2104809
50
354.3660432
51
0.0698737
0
ARC
8
DEFAULT_255_1_234
10
13.116255
20
70.4222617
40
0.1962563
50
359.417946
51
16.1971788
0
ARC
8
DEFAULT_255_1_234
10
13.161786
20
70.4347418
40
0.149053
50
16.4723299
51
52.6262157
0
ARC
8
DEFAULT_255_1_234
10
13.0796914
20
70.3263433
40
0.2850296
50
52.7386432
51
62.4979148
0
ARC
8
DEFAULT_255_1_234
10
12.9411991
20
70.0657283
40
0.5801521
50
62.2515216
51
68.1220564
0
ARC
8
DEFAULT_255_1_234
10
12.7691902
20
69.6429872
40
1.0365451
50
68.0062803
51
71.8053402
0
ARC
8
DEFAULT_255_1_234
10
12.5896274
20
69.1044758
40
1.6042013
50
71.7183119
51
73.9258742
0
LINE
8
DEFAULT_255_1_234
10
13.6040533
20
70.5351218
11
13.6040533
21
70.5624297
0
LINE
8
DEFAULT_255_1_234
10
14.3413668
20
70.5784932
11
14.3413668
21
70.5166488
0
LINE
8
DEFAULT_255_1_234
10
14.3413668
20
70.5166488
11
13.7526404
21
70.5166488
0
LINE
8
DEFAULT_255_1_234
10
14.2393638
20
70.3471792
11
14.3301224
21
70.2764999
0
LINE
8
DEFAULT_255_1_234
10
13.7574595
20
70.6387313
11
14.1927797
21
70.6387313
0
LINE
8
DEFAULT_255_1_234
10
14.1927797
20
70.6387313
11
14.1927797
21
70.6499757
0
ARC
8
DEFAULT_255_1_234
10
13.9979898
20
70.5462332
40
0.4376191
50
252.3266134
51
270.5810217
0
ARC
8
DEFAULT_255_1_234
10
13.9774987
20
70.4721644
40
0.3608374
50
223.3000567
51
251.8561855
0
ARC
8
DEFAULT_255_1_234
10
13.9986348
20
70.4926937
40
0.3902993
50
190.9374509
51
223.3654032
0
ARC
8
DEFAULT_255_1_234
10
14.171132
20
70.5316885
40
0.5670891
50
179.6531105
51
191.4989439
0
ARC
8
DEFAULT_255_1_234
10
14.1833332
20
70.5656417
40
0.5792888
50
167.4007466
51
180.3176909
0
ARC
8
DEFAULT_255_1_234
10
14.0781394
20
70.5878885
40
0.471777
50
154.1835823
51
167.250763
0
ARC
8
DEFAULT_255_1_234
10
14.0149861
20
70.6211417
40
0.4004528
50
134.3149965
51
154.5315275
0
ARC
8
DEFAULT_255_1_234
10
13.9932356
20
70.6402228
40
0.371612
50
122.8616532
51
133.9707695
0
ARC
8
DEFAULT_255_1_234
10
13.982893
20
70.6624703
40
0.3473289
50
89.8249009
51
123.4199222
0
ARC
8
DEFAULT_255_1_234
10
13.9878971
20
70.5977967
40
0.4120197
50
74.7876118
51
90.5482747
0
ARC
8
DEFAULT_255_1_234
10
14.0172715
20
70.706303
40
0.2996077
50
39.8178249
51
74.7633718
0
ARC
8
DEFAULT_255_1_234
10
13.9660035
20
70.6663351
40
0.3645855
50
16.8990863
51
39.4829761
0
ARC
8
DEFAULT_255_1_234
10
13.7765331
20
70.6056526
40
0.5635218
50
4.9636328
51
17.2026414
0
ARC
8
DEFAULT_255_1_234
10
13.5347401
20
70.580134
40
0.8066286
50
359.8834553
51
5.2834307
0
ARC
8
DEFAULT_255_1_234
10
14.1384926
20
70.5232803
40
0.3859091
50
180.9846213
51
194.9401313
0
ARC
8
DEFAULT_255_1_234
10
14.0335204
20
70.4945849
40
0.2770883
50
194.80314
51
222.0412631
0
ARC
8
DEFAULT_255_1_234
10
14.0031085
20
70.4644116
40
0.2343055
50
221.5417084
51
268.8614402
0
ARC
8
DEFAULT_255_1_234
10
14.010408
20
70.5320686
40
0.3021528
50
267.732405
51
270.0097136
0
ARC
8
DEFAULT_255_1_234
10
14.012189
20
70.5522105
40
0.3222994
50
269.6924892
51
280.4117579
0
ARC
8
DEFAULT_255_1_234
10
14.0298297
20
70.4603193
40
0.2287344
50
280.2255091
51
298.6338936
0
ARC
8
DEFAULT_255_1_234
10
14.0415089
20
70.4359223
40
0.2017294
50
299.0430333
51
300.4643464
0
ARC
8
DEFAULT_255_1_234
10
13.9735094
20
70.5493038
40
0.3339357
50
300.6577328
51
322.0378878
0
ARC
8
DEFAULT_255_1_234
10
13.9384633
20
70.5797021
40
0.3802736
50
321.6750233
51
322.3046845
0
ARC
8
DEFAULT_255_1_234
10
14.0315595
20
70.463037
40
0.3520454
50
276.9728461
51
328.0035423
0
ARC
8
DEFAULT_255_1_234
10
14.0038648
20
70.6110841
40
0.5024498
50
269.8361028
51
278.0581756
0
ARC
8
DEFAULT_255_1_234
10
13.9811385
20
70.6855757
40
0.202159
50
89.2018686
51
117.2851756
0
ARC
8
DEFAULT_255_1_234
10
13.9864554
20
70.6813752
40
0.2083484
50
118.0551165
51
137.4540413
0
ARC
8
DEFAULT_255_1_234
10
14.0239294
20
70.6473304
40
0.2589774
50
137.5109581
51
158.8516286
0
ARC
8
DEFAULT_255_1_234
10
14.137713
20
70.6014074
40
0.38167
50
158.5845963
51
170.1721436
0
ARC
8
DEFAULT_255_1_234
10
14.2546519
20
70.5781823
40
0.5008657
50
169.8376422
51
173.0566086
0
ARC
8
DEFAULT_255_1_234
10
13.7849593
20
70.6292509
40
0.4083467
50
2.9091802
51
12.8847116
0
ARC
8
DEFAULT_255_1_234
10
13.9220269
20
70.6615101
40
0.2675383
50
12.6957781
51
28.6404489
0
ARC
8
DEFAULT_255_1_234
10
13.976194
20
70.6895458
40
0.2065654
50
29.0169854
51
41.1487595
0
ARC
8
DEFAULT_255_1_234
10
13.9964725
20
70.7072003
40
0.1796786
50
41.1646065
51
85.0013516
0
ARC
8
DEFAULT_255_1_234
10
13.9843822
20
70.6337431
40
0.2539726
50
83.7280015
51
90.0964893
0
LINE
8
DEFAULT_255_1_234
10
14.933306
20
70.9985531
11
14.933306
21
70.8604072
0
LINE
8
DEFAULT_255_1_234
10
14.6618332
20
70.7415375
11
14.6618332
21
70.1247
0
LINE
8
DEFAULT_255_1_234
10
14.6618332
20
70.1247
11
14.513246
21
70.1247
0
LINE
8
DEFAULT_255_1_234
10
14.513246
20
70.1247
11
14.513246
21
70.9937341
0
LINE
8
DEFAULT_255_1_234
10
14.513246
20
70.9937341
11
14.6578173
21
70.9937341
0
LINE
8
DEFAULT_255_1_234
10
14.6578173
20
70.9937341
11
14.6602269
21
70.8933374
0
ARC
8
DEFAULT_255_1_234
10
14.8666465
20
70.4544342
40
0.4114092
50
80.6754243
51
86.8932892
0
ARC
8
DEFAULT_255_1_234
10
14.8605999
20
70.35767
40
0.5083596
50
86.8038578
51
90.0431435
0
ARC
8
DEFAULT_255_1_234
10
14.856898
20
70.6033866
40
0.2626638
50
89.2759698
51
106.6213787
0
ARC
8
DEFAULT_255_1_234
10
14.8364544
20
70.677683
40
0.1856317
50
107.1346045
51
157.6458115
0
ARC
8
DEFAULT_255_1_234
10
14.9056146
20
70.6393311
40
0.2643398
50
155.6586782
51
157.2539184
0
ARC
8
DEFAULT_255_1_234
10
14.8851348
20
70.7562157
40
0.2634121
50
127.8165941
51
148.6302098
0
ARC
8
DEFAULT_255_1_234
10
14.8597817
20
70.7822218
40
0.2273596
50
91.3329982
51
126.7875809
0
ARC
8
DEFAULT_255_1_234
10
14.8673757
20
70.7107195
40
0.299078
50
89.986594
51
92.4688449
0
ARC
8
DEFAULT_255_1_234
10
14.8682152
20
70.7382078
40
0.2715908
50
85.3589899
51
90.1623399
0
ARC
8
DEFAULT_255_1_234
10
14.8766668
20
70.8386164
40
0.1708278
50
78.401942
51
85.4594656
0
ARC
8
DEFAULT_255_1_234
10
14.8911552
20
70.9077236
40
0.1002194
50
67.7858312
51
78.5728455
0
ARC
8
DEFAULT_255_1_234
10
14.9019404
20
70.9356887
40
0.0702548
50
63.4835954
51
67.3062642
0
LINE
8
DEFAULT_255_1_234
10
15.2312834
20
70.9937341
11
15.2312834
21
70.1247
0
LINE
8
DEFAULT_255_1_234
10
15.2312834
20
70.1247
11
15.0826963
21
70.1247
0
LINE
8
DEFAULT_255_1_234
10
15.0826963
20
70.1247
11
15.0826963
21
70.9937341
0
LINE
8
DEFAULT_255_1_234
10
15.0826963
20
70.9937341
11
15.2312834
21
70.9937341
0
ARC
8
DEFAULT_255_1_234
10
15.1685112
20
71.2251889
40
0.097867
50
161.415052
51
180.5526306
0
ARC
8
DEFAULT_255_1_234
10
15.156089
20
71.2286077
40
0.0850062
50
138.1827368
51
160.9307106
0
ARC
8
DEFAULT_255_1_234
10
15.1450835
20
71.2381588
40
0.0704362
50
104.6368899
51
138.0039868
0
ARC
8
DEFAULT_255_1_234
10
15.155799
20
71.2014963
40
0.1086221
50
92.0600725
51
105.2189128
0
ARC
8
DEFAULT_255_1_234
10
15.1581338
20
71.1672117
40
0.1429728
50
89.9756393
51
92.5012496
0
ARC
8
DEFAULT_255_1_234
10
15.1591358
20
71.1897731
40
0.1204151
50
78.0235316
51
90.4478182
0
ARC
8
DEFAULT_255_1_234
10
15.168345
20
71.2311295
40
0.0780493
50
55.051506
51
78.3369085
0
ARC
8
DEFAULT_255_1_234
10
15.1733724
20
71.2395711
40
0.0682538
50
42.0501187
51
54.4513741
0
ARC
8
DEFAULT_255_1_234
10
15.1598591
20
71.2271798
40
0.0865878
50
1.7497075
51
42.1496013
0
ARC
8
DEFAULT_255_1_234
10
15.1343924
20
71.2242738
40
0.1121515
50
359.9852656
51
2.8364544
0
ARC
8
DEFAULT_255_1_234
10
15.1509916
20
71.2233229
40
0.0955566
50
342.1070653
51
0.552888
0
ARC
8
DEFAULT_255_1_234
10
15.1652614
20
71.2193904
40
0.0807713
50
316.7107116
51
341.6516965
0
ARC
8
DEFAULT_255_1_234
10
15.1719651
20
71.2133823
40
0.0717724
50
285.4397031
51
316.5324284
0
ARC
8
DEFAULT_255_1_234
10
15.1609568
20
71.2499554
40
0.1099597
50
272.3547054
51
285.8953117
0
ARC
8
DEFAULT_255_1_234
10
15.1582726
20
71.2865048
40
0.1465932
50
269.9695369
51
272.8160237
0
ARC
8
DEFAULT_255_1_234
10
15.1572907
20
71.2645863
40
0.1246779
50
258.8431134
51
270.4153935
0
ARC
8
DEFAULT_255_1_234
10
15.1482949
20
71.2210414
40
0.0802162
50
238.5431189
51
259.1288175
0
ARC
8
DEFAULT_255_1_234
10
15.1414834
20
71.2086856
40
0.0661247
50
222.5062634
51
237.9906969
0
ARC
8
DEFAULT_255_1_234
10
15.1542422
20
71.2202889
40
0.0833707
50
184.1069131
51
222.460413
0
ARC
8
DEFAULT_255_1_234
10
15.1811662
20
71.2241349
40
0.1105176
50
179.9429482
51
185.0960898
0
LINE
8
DEFAULT_255_1_234
10
15.4312737
20
70.5351218
11
15.4312737
21
70.5624297
0
LINE
8
DEFAULT_255_1_234
10
16.1685873
20
70.5784932
11
16.1685873
21
70.5166488
0
LINE
8
DEFAULT_255_1_234
10
16.1685873
20
70.5166488
11
15.5798609
21
70.5166488
0
LINE
8
DEFAULT_255_1_234
10
16.0665842
20
70.3471792
11
16.1573429
21
70.2764999
0
LINE
8
DEFAULT_255_1_234
10
15.5846799
20
70.6387313
11
16.0200001
21
70.6387313
0
LINE
8
DEFAULT_255_1_234
10
16.0200001
20
70.6387313
11
16.0200001
21
70.6499757
0
ARC
8
DEFAULT_255_1_234
10
15.8252102
20
70.5462332
40
0.4376191
50
252.3266134
51
270.5810217
0
ARC
8
DEFAULT_255_1_234
10
15.8047192
20
70.4721644
40
0.3608374
50
223.3000567
51
251.8561855
0
ARC
8
DEFAULT_255_1_234
10
15.8258552
20
70.4926937
40
0.3902993
50
190.9374509
51
223.3654032
0
ARC
8
DEFAULT_255_1_234
10
15.9983524
20
70.5316885
40
0.5670891
50
179.6531105
51
191.4989439
0
ARC
8
DEFAULT_255_1_234
10
16.0105537
20
70.5656417
40
0.5792888
50
167.4007466
51
180.3176909
0
ARC
8
DEFAULT_255_1_234
10
15.9053598
20
70.5878885
40
0.471777
50
154.1835823
51
167.250763
0
ARC
8
DEFAULT_255_1_234
10
15.8422066
20
70.6211417
40
0.4004528
50
134.3149965
51
154.5315275
0
ARC
8
DEFAULT_255_1_234
10
15.8204561
20
70.6402228
40
0.371612
50
122.8616532
51
133.9707695
0
ARC
8
DEFAULT_255_1_234
10
15.8101135
20
70.6624703
40
0.3473289
50
89.8249009
51
123.4199222
0
ARC
8
DEFAULT_255_1_234
10
15.8151176
20
70.5977967
40
0.4120197
50
74.7876118
51
90.5482747
0
ARC
8
DEFAULT_255_1_234
10
15.8444919
20
70.706303
40
0.2996077
50
39.8178249
51
74.7633718
0
ARC
8
DEFAULT_255_1_234
10
15.7932239
20
70.6663351
40
0.3645855
50
16.8990863
51
39.4829761
0
ARC
8
DEFAULT_255_1_234
10
15.6037536
20
70.6056526
40
0.5635218
50
4.9636328
51
17.2026414
0
ARC
8
DEFAULT_255_1_234
10
15.3619606
20
70.580134
40
0.8066286
50
359.8834553
51
5.2834307
0
ARC
8
DEFAULT_255_1_234
10
15.9657131
20
70.5232803
40
0.3859091
50
180.9846213
51
194.9401313
0
ARC
8
DEFAULT_255_1_234
10
15.8607408
20
70.4945849
40
0.2770883
50
194.80314
51
222.0412631
0
ARC
8
DEFAULT_255_1_234
10
15.830329
20
70.4644116
40
0.2343055
50
221.5417084
51
268.8614402
0
ARC
8
DEFAULT_255_1_234
10
15.8376285
20
70.5320686
40
0.3021528
50
267.732405
51
270.0097136
0
ARC
8
DEFAULT_255_1_234
10
15.8394095
20
70.5522105
40
0.3222994
50
269.6924892
51
280.4117579
0
ARC
8
DEFAULT_255_1_234
10
15.8570502
20
70.4603193
40
0.2287344
50
280.2255091
51
298.6338936
0
ARC
8
DEFAULT_255_1_234
10
15.8687294
20
70.4359223
40
0.2017294
50
299.0430333
51
300.4643464
0
ARC
8
DEFAULT_255_1_234
10
15.8007299
20
70.5493038
40
0.3339357
50
300.6577328
51
322.0378878
0
ARC
8
DEFAULT_255_1_234
10
15.7656838
20
70.5797021
40
0.3802736
50
321.6750233
51
322.3046845
0
ARC
8
DEFAULT_255_1_234
10
15.8587799
20
70.463037
40
0.3520454
50
276.9728461
51
328.0035423
0
ARC
8
DEFAULT_255_1_234
10
15.8310852
20
70.6110841
40
0.5024498
50
269.8361028
51
278.0581756
0
ARC
8
DEFAULT_255_1_234
10
15.808359
20
70.6855757
40
0.202159
50
89.2018686
51
117.2851756
0
ARC
8
DEFAULT_255_1_234
10
15.8136759
20
70.6813752
40
0.2083484
50
118.0551165
51
137.4540413
0
ARC
8
DEFAULT_255_1_234
10
15.8511499
20
70.6473304
40
0.2589774
50
137.5109581
51
158.8516286
0
ARC
8
DEFAULT_255_1_234
10
15.9649334
20
70.6014074
40
0.38167
50
158.5845963
51
170.1721436
0
ARC
8
DEFAULT_255_1_234
10
16.0818723
20
70.5781823
40
0.5008657
50
169.8376422
51
173.0566086
0
ARC
8
DEFAULT_255_1_234
10
15.6121797
20
70.6292509
40
0.4083467
50
2.9091802
51
12.8847116
0
ARC
8
DEFAULT_255_1_234
10
15.7492474
20
70.6615101
40
0.2675383
50
12.6957781
51
28.6404489
0
ARC
8
DEFAULT_255_1_234
10
15.8034145
20
70.6895458
40
0.2065654
50
29.0169854
51
41.1487595
0
ARC
8
DEFAULT_255_1_234
10
15.823693
20
70.7072003
40
0.1796786
50
41.1646065
51
85.0013516
0
ARC
8
DEFAULT_255_1_234
10
15.8116027
20
70.6337431
40
0.2539726
50
83.7280015
51
90.0964893
0
LINE
8
DEFAULT_255_1_234
10
16.9870214
20
70.7383248
11
16.8376311
21
70.7383248
0
LINE
8
DEFAULT_255_1_234
10
16.3043237
20
70.3921569
11
16.4529108
21
70.3921569
0
ARC
8
DEFAULT_255_1_234
10
16.718813
20
70.3566959
40
0.1276617
50
359.3334982
51
18.5871358
0
ARC
8
DEFAULT_255_1_234
10
16.7396767
20
70.3622133
40
0.1061371
50
19.3540742
51
54.6485071
0
ARC
8
DEFAULT_255_1_234
10
16.6892669
20
70.2926919
40
0.1920087
50
54.3827097
51
65.0622807
0
ARC
8
DEFAULT_255_1_234
10
16.6124065
20
70.13099
40
0.3710447
50
64.8282493
51
71.4200025
0
ARC
8
DEFAULT_255_1_234
10
16.5221941
20
69.8663107
40
0.6506741
50
71.3164301
51
75.8006402
0
ARC
8
DEFAULT_255_1_234
10
16.4380761
20
69.5422561
40
0.9854641
50
75.6809531
51
78.0061883
0
ARC
8
DEFAULT_255_1_234
10
16.8829294
20
71.640177
40
1.1591028
50
254.6901892
51
258.0466452
0
ARC
8
DEFAULT_255_1_234
10
16.7791202
20
71.2642781
40
0.7691345
50
249.9010773
51
254.755261
0
ARC
8
DEFAULT_255_1_234
10
16.6787544
20
70.9916982
40
0.478665
50
243.3097214
51
249.9709442
0
ARC
8
DEFAULT_255_1_234
10
16.6158565
20
70.8662778
40
0.3383568
50
234.4047477
51
243.2862168
0
ARC
8
DEFAULT_255_1_234
10
16.5536089
20
70.7803232
40
0.2322322
50
220.8667099
51
234.5493881
0
ARC
8
DEFAULT_255_1_234
10
16.519403
20
70.7491817
40
0.1859923
50
214.3062465
51
220.5065136
0
ARC
8
DEFAULT_255_1_234
10
16.5168109
20
70.746088
40
0.1821108
50
186.912965
51
213.9618616
0
ARC
8
DEFAULT_255_1_234
10
16.5700204
20
70.7547009
40
0.2359799
50
179.8808832
51
187.4339886
0
ARC
8
DEFAULT_255_1_234
10
16.5545337
20
70.7567088
40
0.2204978
50
132.005434
51
180.3942919
0
ARC
8
DEFAULT_255_1_234
10
16.6201951
20
70.6961083
40
0.3095791
50
129.2319861
51
133.5302299
0
ARC
8
DEFAULT_255_1_234
10
16.6255459
20
70.6866928
40
0.3202615
50
100.4410011
51
128.9081242
0
ARC
8
DEFAULT_255_1_234
10
16.6529343
20
70.5581455
40
0.4516583
50
89.6985377
51
100.9026564
0
ARC
8
DEFAULT_255_1_234
10
16.6586384
20
70.5421166
40
0.4676928
50
77.6965325
51
90.4076836
0
ARC
8
DEFAULT_255_1_234
10
16.6917369
20
70.6848413
40
0.3211988
50
50.7276602
51
78.0399361
0
ARC
8
DEFAULT_255_1_234
10
16.7361827
20
70.7366296
40
0.2529778
50
25.7545084
51
51.0957453
0
ARC
8
DEFAULT_255_1_234
10
16.7363052
20
70.7416206
40
0.250738
50
359.2468627
51
24.7394243
0
ARC
8
DEFAULT_255_1_234
10
16.7078504
20
70.7387664
40
0.1297815
50
359.8050318
51
45.1544908
0
ARC
8
DEFAULT_255_1_234
10
16.6671646
20
70.7039794
40
0.1831883
50
43.8047702
51
49.6271585
0
ARC
8
DEFAULT_255_1_234
10
16.6679547
20
70.7040678
40
0.18261
50
49.7980766
51
82.1218353
0
ARC
8
DEFAULT_255_1_234
10
16.6560519
20
70.6393998
40
0.2483163
50
81.4465357
51
90.1710293
0
ARC
8
DEFAULT_255_1_234
10
16.6536122
20
70.586788
40
0.300932
50
89.6766211
51
99.1264602
0
ARC
8
DEFAULT_255_1_234
10
16.6364584
20
70.6901537
40
0.1961547
50
98.968313
51
113.4570237
0
ARC
8
DEFAULT_255_1_234
10
16.6168669
20
70.7369965
40
0.1453859
50
113.722589
51
127.4763106
0
ARC
8
DEFAULT_255_1_234
10
16.6000315
20
70.7570124
40
0.1192639
50
126.9083309
51
150.3165862
0
ARC
8
DEFAULT_255_1_234
10
16.5952648
20
70.7620981
40
0.112623
50
151.3635175
51
180.0701457
0
ARC
8
DEFAULT_255_1_234
10
16.6261432
20
70.759999
40
0.1435149
50
179.2169974
51
179.9954013
0
ARC
8
DEFAULT_255_1_234
10
16.5900489
20
70.7587056
40
0.1074286
50
179.3040112
51
198.4225446
0
ARC
8
DEFAULT_255_1_234
10
16.5708623
20
70.7537127
40
0.0876573
50
199.2895851
51
238.6034594
0
ARC
8
DEFAULT_255_1_234
10
16.631147
20
70.848345
40
0.1998512
50
237.9846301
51
246.8744712
0
ARC
8
DEFAULT_255_1_234
10
16.7169415
20
71.0446205
40
0.4140547
50
246.6234531
51
251.8168941
0
ARC
8
DEFAULT_255_1_234
10
16.8199958
20
71.3540905
40
0.7402308
50
251.713434
51
255.0778414
0
ARC
8
DEFAULT_255_1_234
10
16.9399221
20
71.8007563
40
1.2027155
50
255.0367487
51
257.4705983
0
ARC
8
DEFAULT_255_1_234
10
16.4291231
20
69.4993863
40
1.1546601
50
73.6837552
51
77.5016755
0
ARC
8
DEFAULT_255_1_234
10
16.5380005
20
69.8693581
40
0.7690009
50
68.7044154
51
73.7249639
0
ARC
8
DEFAULT_255_1_234
10
16.6283026
20
70.1020654
40
0.5193873
50
63.590599
51
68.6626804
0
ARC
8
DEFAULT_255_1_234
10
16.7054045
20
70.2558123
40
0.3473927
50
54.7106439
51
63.7013633
0
ARC
8
DEFAULT_255_1_234
10
16.76785
20
70.34304
40
0.2401192
50
41.0622434
51
54.8487496
0
ARC
8
DEFAULT_255_1_234
10
16.8019886
20
70.3743592
40
0.1938094
50
34.4950568
51
40.7105546
0
ARC
8
DEFAULT_255_1_234
10
16.8066693
20
70.3792078
40
0.1872106
50
9.3763373
51
34.0833615
0
ARC
8
DEFAULT_255_1_234
10
16.7413564
20
70.3666728
40
0.2536988
50
359.7694872
51
9.7663171
0
ARC
8
DEFAULT_255_1_234
10
16.7611065
20
70.3623764
40
0.2339696
50
335.8654732
51
0.8022045
0
ARC
8
DEFAULT_255_1_234
10
16.7686109
20
70.3637197
40
0.2277108
50
307.7357725
51
334.7849066
0
ARC
8
DEFAULT_255_1_234
10
16.7285285
20
70.4087645
40
0.2878951
50
307.0241536
51
308.5578354
0
ARC
8
DEFAULT_255_1_234
10
16.7027616
20
70.4473801
40
0.3342515
50
282.9362969
51
306.5646424
0
ARC
8
DEFAULT_255_1_234
10
16.6665914
20
70.5941108
40
0.4853615
50
271.1026298
51
283.2200835
0
ARC
8
DEFAULT_255_1_234
10
16.6602157
20
70.7182418
40
0.6096052
50
269.9919117
51
271.4772449
0
ARC
8
DEFAULT_255_1_234
10
16.6575913
20
70.6104436
40
0.5018135
50
259.0723564
51
270.289833
0
ARC
8
DEFAULT_255_1_234
10
16.6363645
20
70.4987271
40
0.388099
50
245.4963068
51
259.0227342
0
ARC
8
DEFAULT_255_1_234
10
16.6085601
20
70.4405615
40
0.3236422
50
228.9684658
51
245.7044727
0
ARC
8
DEFAULT_255_1_234
10
16.5820045
20
70.4078575
40
0.2815426
50
214.4011705
51
228.6759915
0
ARC
8
DEFAULT_255_1_234
10
16.5530785
20
70.392029
40
0.2487548
50
179.9705531
51
215.1572795
0
ARC
8
DEFAULT_255_1_234
10
16.6231385
20
70.3993806
40
0.1703809
50
182.4299387
51
203.0329699
0
ARC
8
DEFAULT_255_1_234
10
16.6047043
20
70.3937396
40
0.1512226
50
203.798802
51
232.548466
0
ARC
8
DEFAULT_255_1_234
10
16.6323564
20
70.4288826
40
0.1959374
50
232.3782728
51
256.3934612
0
ARC
8
DEFAULT_255_1_234
10
16.6553926
20
70.5178842
40
0.2878639
50
256.104506
51
268.4626716
0
ARC
8
DEFAULT_255_1_234
10
16.660041
20
70.5975487
40
0.3676329
50
268.0715632
51
270.0138206
0
ARC
8
DEFAULT_255_1_234
10
16.6618935
20
70.5703083
40
0.3403971
50
269.7031147
51
278.8341955
0
ARC
8
DEFAULT_255_1_234
10
16.6801028
20
70.4572876
40
0.2259217
50
278.6728789
51
292.8232582
0
ARC
8
DEFAULT_255_1_234
10
16.7001566
20
70.4071449
40
0.171929
50
293.1452328
51
303.6655899
0
ARC
8
DEFAULT_255_1_234
10
16.7266445
20
70.3695204
40
0.1259367
50
303.1248165
51
321.742847
0
ARC
8
DEFAULT_255_1_234
10
16.7452325
20
70.3532156
40
0.1012531
50
322.4748573
51
1.1291126
0
LINE
8
DEFAULT_255_2_778
10
10.5738396
20
72.6493073
11
9.3932396
21
72.6493073
0
LINE
8
DEFAULT_255_2_778
10
9.3932396
20
72.6493073
11
9.9837396
21
73.6719073
0
LINE
8
DEFAULT_255_2_778
10
9.9837396
20
73.6719073
11
11.1643396
21
73.6719073
0
LINE
8
DEFAULT_255_2_778
10
11.1643396
20
73.6719073
11
10.5738396
21
72.6493073
0
LINE
8
DEFAULT_255_2_778
10
10.5738396
20
72.6493073
11
10.5738396
21
72.6493073
0
LINE
8
DEFAULT_255_2_778
10
11.7546396
20
72.6493073
11
12.9354396
21
72.6493073
0
LINE
8
DEFAULT_255_2_778
10
12.9354396
20
72.6493073
11
12.3451396
21
73.6719073
0
LINE
8
DEFAULT_255_2_778
10
12.3451396
20
73.6719073
11
11.1643396
21
73.6719073
0
LINE
8
DEFAULT_255_2_778
10
11.1643396
20
73.6719073
11
11.7546396
21
72.6493073
0
LINE
8
DEFAULT_255_2_778
10
11.7546396
20
72.6493073
11
11.7546396
21
72.6493073
0
LINE
8
DEFAULT_255_2_778
10
11.7545823
20
74.6945146
11
11.1642823
21
75.7171146
0
LINE
8
DEFAULT_255_2_778
10
11.1642823
20
75.7171146
11
10.5737823
21
74.6945146
0
LINE
8
DEFAULT_255_2_778
10
10.5737823
20
74.6945146
11
11.1642823
21
73.6719146
0
LINE
8
DEFAULT_255_2_778
10
11.1642823
20
73.6719146
11
11.7545823
21
74.6945146
0
LINE
8
DEFAULT_255_2_778
10
11.7545823
20
74.6945146
11
11.7545823
21
74.6945146
0
ARC
8
DEFAULT_255_2_778
10
16.5183731
20
74.3407426
40
0.5650491
50
268.7543645
51
289.1417717
0
ARC
8
DEFAULT_255_2_778
10
16.606208
20
74.0855531
40
0.2951681
50
289.2776255
51
3.7648372
0
ARC
8
DEFAULT_255_2_778
10
16.3901618
20
74.1121085
40
0.5106278
50
359.1949826
51
0.0020862
0
ARC
8
DEFAULT_255_2_778
10
16.547449
20
74.0980832
40
0.1541914
50
280.2616216
51
358.5297855
0
ARC
8
DEFAULT_255_2_778
10
16.5080075
20
74.210655
40
0.2726346
50
269.5969454
51
284.2065679
0
ARC
8
DEFAULT_255_2_778
10
16.4981967
20
74.1950316
40
0.2571258
50
246.5290903
51
271.7590909
0
ARC
8
DEFAULT_255_2_778
10
16.4527148
20
74.0870009
40
0.1399248
50
188.1071678
51
245.9934684
0
ARC
8
DEFAULT_255_2_778
10
16.4829007
20
74.0939617
40
0.1708111
50
179.9445314
51
188.990814
0
ARC
8
DEFAULT_255_2_778
10
16.4924507
20
74.1007849
40
0.3763411
50
178.2272621
51
205.8283807
0
ARC
8
DEFAULT_255_2_778
10
16.4132476
20
74.0830833
40
0.2979176
50
209.4028057
51
263.0375728
0
ARC
8
DEFAULT_255_2_778
10
16.5005111
20
74.4577629
40
0.6816586
50
259.5722942
51
270.4689037
0
ARC
8
DEFAULT_255_2_778
10
17.411252
20
74.5139767
40
0.1217154
50
2.0482843
51
87.015299
0
ARC
8
DEFAULT_255_2_778
10
17.4060617
20
74.5183852
40
0.126828
50
353.0600847
51
359.9737428
0
ARC
8
DEFAULT_255_2_778
10
17.4110442
20
74.5152555
40
0.1215295
50
270.5739762
51
354.2410513
0
ARC
8
DEFAULT_255_2_778
10
17.4065059
20
74.5514297
40
0.1578027
50
269.9941256
51
272.0902921
0
ARC
8
DEFAULT_255_2_778
10
17.414084
20
74.1005295
40
0.1400686
50
358.2807293
51
95.6106825
0
ARC
8
DEFAULT_255_2_778
10
17.4103233
20
74.0966963
40
0.1437669
50
266.9962473
51
359.8528392
0
ARC
8
DEFAULT_255_2_778
10
17.4725249
20
74.1369988
40
0.3335288
50
268.2414507
51
302.0223478
0
ARC
8
DEFAULT_255_2_778
10
17.5091261
20
74.061683
40
0.2504234
50
304.0600275
51
2.0468005
0
ARC
8
DEFAULT_255_2_778
10
17.4832788
20
74.0683521
40
0.2761203
50
0.4720601
51
65.8403529
0
ARC
8
DEFAULT_255_2_778
10
17.5191655
20
74.1331061
40
0.2024466
50
67.606893
51
75.8693222
0
ARC
8
DEFAULT_255_2_778
10
17.5042026
20
74.540722
40
0.2208874
50
286.9473417
51
358.0074963
0
ARC
8
DEFAULT_255_2_778
10
17.4710866
20
74.5495045
40
0.2544031
50
356.2897886
51
0.0050857
0
ARC
8
DEFAULT_255_2_778
10
17.497262
20
74.5545946
40
0.2282839
50
358.7280137
51
81.8073164
0
ARC
8
DEFAULT_255_2_778
10
17.4216369
20
74.3031283
40
0.4895182
50
77.2355086
51
90.5088275
0
ARC
8
DEFAULT_255_2_778
10
17.5842742
20
73.3386263
40
0.130243
50
89.9974494
51
92.6776592
0
ARC
8
DEFAULT_255_2_778
10
17.5843316
20
73.3391872
40
0.129682
50
45.0880141
51
90.022782
0
ARC
8
DEFAULT_255_2_778
10
17.5844118
20
73.339219
40
0.1296029
50
0.001866
51
45.1031959
0
ARC
8
DEFAULT_255_2_778
10
17.5845123
20
73.3392202
40
0.1295026
50
357.4803735
51
0.0013544
0
ARC
8
DEFAULT_255_2_778
10
17.5901979
20
73.3353512
40
0.1237052
50
339.8672523
51
359.1550732
0
ARC
8
DEFAULT_255_2_778
10
17.5794513
20
73.3325079
40
0.1329691
50
272.0853006
51
342.6124646
0
ARC
8
DEFAULT_255_2_778
10
17.6596145
20
73.3707661
40
0.2575135
50
286.787355
51
290.6121696
0
ARC
8
DEFAULT_255_2_778
10
17.6689461
20
73.3564533
40
0.24086
50
289.7330405
51
342.3216972
0
ARC
8
DEFAULT_255_2_778
10
17.641261
20
73.3612954
40
0.268735
50
343.130572
51
0.3905272
0
ARC
8
DEFAULT_255_2_778
10
17.6578783
20
73.3786767
40
0.2525904
50
356.4706028
51
80.1788963
0
ARC
8
DEFAULT_255_2_778
10
17.5921649
20
73.1517163
40
0.4881286
50
77.1212301
51
90.4900821
0
ARC
8
DEFAULT_255_2_778
10
17.5166337
20
72.854036
40
0.1865405
50
50.1507009
51
92.9634648
0
ARC
8
DEFAULT_255_2_778
10
17.5301354
20
72.8823678
40
0.1563319
50
12.621233
51
47.2950617
0
ARC
8
DEFAULT_255_2_778
10
16.8485884
20
72.7494726
40
0.8506657
50
2.8173892
51
11.3253986
0
ARC
8
DEFAULT_255_2_778
10
-29.2295733
20
69.2531175
40
47.060992
50
4.3048394
51
4.3117143
0
ARC
8
DEFAULT_255_2_778
10
18.5500859
20
72.825584
40
0.8523717
50
182.6850102
51
191.2954256
0
ARC
8
DEFAULT_255_2_778
10
17.9656837
20
72.7192399
40
0.2586603
50
193.5512904
51
195.3825538
0
ARC
8
DEFAULT_255_2_778
10
19.3415679
20
72.9768916
40
1.4608773
50
182.5958701
51
192.9049706
0
ARC
8
DEFAULT_255_2_778
10
17.6207606
20
72.9052215
40
0.261487
50
1.2064311
51
30.4123358
0
ARC
8
DEFAULT_255_2_778
10
17.6663626
20
72.920276
40
0.2147766
50
33.1081154
51
71.7312197
0
LINE
8
DEFAULT_255_2_778
10
13.4657897
20
73.0848271
11
13.9385897
21
73.0848271
0
LINE
8
DEFAULT_255_2_778
10
13.9385897
20
73.0848271
11
13.9385897
21
73.2562271
0
LINE
8
DEFAULT_255_2_778
10
13.9385897
20
73.2562271
11
13.4657897
21
73.2562271
0
LINE
8
DEFAULT_255_2_778
10
13.4657897
20
73.2562271
11
13.4657897
21
73.4671271
0
LINE
8
DEFAULT_255_2_778
10
13.4657897
20
73.4671271
11
13.9977897
21
73.4671271
0
LINE
8
DEFAULT_255_2_778
10
13.9977897
20
73.4671271
11
13.9977897
21
73.6385271
0
LINE
8
DEFAULT_255_2_778
10
13.9977897
20
73.6385271
11
13.4657897
21
73.6385271
0
LINE
8
DEFAULT_255_2_778
10
13.4657897
20
73.6385271
11
13.2651897
21
73.6385271
0
LINE
8
DEFAULT_255_2_778
10
13.2651897
20
73.6385271
11
13.2651897
21
73.4671271
0
LINE
8
DEFAULT_255_2_778
10
13.2651897
20
73.4671271
11
13.2651897
21
72.8207271
0
LINE
8
DEFAULT_255_2_778
10
13.2651897
20
72.8207271
11
13.2651897
21
72.6492271
0
LINE
8
DEFAULT_255_2_778
10
13.2651897
20
72.6492271
11
13.4657897
21
72.6492271
0
LINE
8
DEFAULT_255_2_778
10
13.4657897
20
72.6492271
11
14.0118897
21
72.6492271
0
LINE
8
DEFAULT_255_2_778
10
14.0118897
20
72.6492271
11
14.0118897
21
72.8207271
0
LINE
8
DEFAULT_255_2_778
10
14.0118897
20
72.8207271
11
13.4657897
21
72.8207271
0
LINE
8
DEFAULT_255_2_778
10
13.4657897
20
72.8207271
11
13.4657897
21
73.0845271
0
LINE
8
DEFAULT_255_2_778
10
13.4657897
20
73.0845271
11
13.4657897
21
73.0848271
0
LINE
8
DEFAULT_255_2_778
10
13.4519897
20
74.5389271
11
13.6620897
21
73.8036271
0
LINE
8
DEFAULT_255_2_778
10
13.6620897
20
73.8036271
11
13.6704897
21
73.8036271
0
LINE
8
DEFAULT_255_2_778
10
13.6704897
20
73.8036271
11
13.8464897
21
73.8036271
0
LINE
8
DEFAULT_255_2_778
10
13.8464897
20
73.8036271
11
13.8546897
21
73.8036271
0
LINE
8
DEFAULT_255_2_778
10
13.8546897
20
73.8036271
11
14.0647897
21
74.5389271
0
LINE
8
DEFAULT_255_2_778
10
14.0647897
20
74.5389271
11
14.0647897
21
73.8036271
0
LINE
8
DEFAULT_255_2_778
10
14.0647897
20
73.8036271
11
14.2515897
21
73.8036271
0
LINE
8
DEFAULT_255_2_778
10
14.2515897
20
73.8036271
11
14.2515897
21
74.7929271
0
LINE
8
DEFAULT_255_2_778
10
14.2515897
20
74.7929271
11
14.1496897
21
74.7929271
0
LINE
8
DEFAULT_255_2_778
10
14.1496897
20
74.7929271
11
14.0615897
21
74.7929271
0
LINE
8
DEFAULT_255_2_778
10
14.0615897
20
74.7929271
11
13.9655897
21
74.7929271
0
LINE
8
DEFAULT_255_2_778
10
13.9655897
20
74.7929271
11
13.7583897
21
74.0986271
0
LINE
8
DEFAULT_255_2_778
10
13.7583897
20
74.0986271
11
13.5511897
21
74.7929271
0
LINE
8
DEFAULT_255_2_778
10
13.5511897
20
74.7929271
11
13.4551897
21
74.7929271
0
LINE
8
DEFAULT_255_2_778
10
13.4551897
20
74.7929271
11
13.3669897
21
74.7929271
0
LINE
8
DEFAULT_255_2_778
10
13.3669897
20
74.7929271
11
13.2651897
21
74.7929271
0
LINE
8
DEFAULT_255_2_778
10
13.2651897
20
74.7929271
11
13.2651897
21
73.8036271
0
LINE
8
DEFAULT_255_2_778
10
13.2651897
20
73.8036271
11
13.4519897
21
73.8036271
0
LINE
8
DEFAULT_255_2_778
10
13.4519897
20
73.8036271
11
13.4519897
21
74.5389271
0
LINE
8
DEFAULT_255_2_778
10
13.4519897
20
74.5389271
11
13.4519897
21
74.5389271
0
LINE
8
DEFAULT_255_2_778
10
18.0056897
20
74.7929271
11
17.8064897
21
74.7929271
0
LINE
8
DEFAULT_255_2_778
10
17.8064897
20
74.7929271
11
17.8064897
21
73.8036271
0
LINE
8
DEFAULT_255_2_778
10
17.8064897
20
73.8036271
11
18.0056897
21
73.8036271
0
LINE
8
DEFAULT_255_2_778
10
18.0056897
20
73.8036271
11
18.0056897
21
74.7929271
0
LINE
8
DEFAULT_255_2_778
10
18.0056897
20
74.7929271
11
18.0056897
21
74.7929271
0
LINE
8
DEFAULT_255_2_778
10
18.1681897
20
73.6388271
11
17.9689897
21
73.6388271
0
LINE
8
DEFAULT_255_2_778
10
17.9689897
20
73.6388271
11
17.9689897
21
72.6495271
0
LINE
8
DEFAULT_255_2_778
10
17.9689897
20
72.6495271
11
18.1681897
21
72.6495271
0
LINE
8
DEFAULT_255_2_778
10
18.1681897
20
72.6495271
11
18.1681897
21
73.6388271
0
LINE
8
DEFAULT_255_2_778
10
18.1681897
20
73.6388271
11
18.1681897
21
73.6388271
0
LINE
8
DEFAULT_255_2_778
10
19.9765897
20
74.7929271
11
19.7773897
21
74.7929271
0
LINE
8
DEFAULT_255_2_778
10
19.7773897
20
74.7929271
11
19.7773897
21
73.8036271
0
LINE
8
DEFAULT_255_2_778
10
19.7773897
20
73.8036271
11
19.9765897
21
73.8036271
0
LINE
8
DEFAULT_255_2_778
10
19.9765897
20
73.8036271
11
19.9765897
21
74.7929271
0
LINE
8
DEFAULT_255_2_778
10
19.9765897
20
74.7929271
11
19.9765897
21
74.7929271
0
LINE
8
DEFAULT_255_2_778
10
14.5298897
20
74.7929271
11
14.3306897
21
74.7929271
0
LINE
8
DEFAULT_255_2_778
10
14.3306897
20
74.7929271
11
14.3306897
21
73.8036271
0
LINE
8
DEFAULT_255_2_778
10
14.3306897
20
73.8036271
11
14.5298897
21
73.8036271
0
LINE
8
DEFAULT_255_2_778
10
14.5298897
20
73.8036271
11
14.5298897
21
74.7929271
0
LINE
8
DEFAULT_255_2_778
10
14.5298897
20
74.7929271
11
14.5298897
21
74.7929271
0
LINE
8
DEFAULT_255_2_778
10
19.4989897
20
74.4069271
11
19.1029897
21
74.4069271
0
LINE
8
DEFAULT_255_2_778
10
19.1029897
20
74.4069271
11
19.1029897
21
74.7926271
0
LINE
8
DEFAULT_255_2_778
10
19.1029897
20
74.7926271
11
18.9068897
21
74.7926271
0
LINE
8
DEFAULT_255_2_778
10
18.9068897
20
74.7926271
11
18.9068897
21
73.8036271
0
LINE
8
DEFAULT_255_2_778
10
18.9068897
20
73.8036271
11
19.1029897
21
73.8036271
0
LINE
8
DEFAULT_255_2_778
10
19.1029897
20
73.8036271
11
19.1029897
21
74.2354271
0
LINE
8
DEFAULT_255_2_778
10
19.1029897
20
74.2354271
11
19.4989897
21
74.2354271
0
LINE
8
DEFAULT_255_2_778
10
19.4989897
20
74.2354271
11
19.4989897
21
73.8036271
0
LINE
8
DEFAULT_255_2_778
10
19.4989897
20
73.8036271
11
19.6950897
21
73.8036271
0
LINE
8
DEFAULT_255_2_778
10
19.6950897
20
73.8036271
11
19.6950897
21
74.7926271
0
LINE
8
DEFAULT_255_2_778
10
19.6950897
20
74.7926271
11
19.4989897
21
74.7926271
0
LINE
8
DEFAULT_255_2_778
10
19.4989897
20
74.7926271
11
19.4989897
21
74.4069271
0
LINE
8
DEFAULT_255_2_778
10
19.4989897
20
74.4069271
11
19.4989897
21
74.4069271
0
LINE
8
DEFAULT_255_2_778
10
14.8246897
20
73.8036271
11
15.0280897
21
73.8036271
0
LINE
8
DEFAULT_255_2_778
10
15.0280897
20
73.8036271
11
15.0280897
21
74.6215271
0
LINE
8
DEFAULT_255_2_778
10
15.0280897
20
74.6215271
11
15.2696897
21
74.6215271
0
LINE
8
DEFAULT_255_2_778
10
15.2696897
20
74.6215271
11
15.2696897
21
74.7929271
0
LINE
8
DEFAULT_255_2_778
10
15.2696897
20
74.7929271
11
15.0280897
21
74.7929271
0
LINE
8
DEFAULT_255_2_778
10
15.0280897
20
74.7929271
11
14.8246897
21
74.7929271
0
LINE
8
DEFAULT_255_2_778
10
14.8246897
20
74.7929271
11
14.5830897
21
74.7929271
0
LINE
8
DEFAULT_255_2_778
10
14.5830897
20
74.7929271
11
14.5830897
21
74.6215271
0
LINE
8
DEFAULT_255_2_778
10
14.5830897
20
74.6215271
11
14.8246897
21
74.6215271
0
LINE
8
DEFAULT_255_2_778
10
14.8246897
20
74.6215271
11
14.8246897
21
73.8036271
0
LINE
8
DEFAULT_255_2_778
10
14.8246897
20
73.8036271
11
14.8246897
21
73.8036271
0
LINE
8
DEFAULT_255_2_778
10
16.6422897
20
72.6495271
11
16.8454897
21
72.6495271
0
LINE
8
DEFAULT_255_2_778
10
16.8454897
20
72.6495271
11
16.8454897
21
73.4673271
0
LINE
8
DEFAULT_255_2_778
10
16.8454897
20
73.4673271
11
17.0873897
21
73.4673271
0
LINE
8
DEFAULT_255_2_778
10
17.0873897
20
73.4673271
11
17.0873897
21
73.6391271
0
LINE
8
DEFAULT_255_2_778
10
17.0873897
20
73.6391271
11
16.8454897
21
73.6391271
0
LINE
8
DEFAULT_255_2_778
10
16.8454897
20
73.6391271
11
16.6422897
21
73.6391271
0
LINE
8
DEFAULT_255_2_778
10
16.6422897
20
73.6391271
11
16.4004897
21
73.6391271
0
LINE
8
DEFAULT_255_2_778
10
16.4004897
20
73.6391271
11
16.4004897
21
73.4673271
0
LINE
8
DEFAULT_255_2_778
10
16.4004897
20
73.4673271
11
16.6422897
21
73.4673271
0
LINE
8
DEFAULT_255_2_778
10
16.6422897
20
73.4673271
11
16.6422897
21
72.6495271
0
LINE
8
DEFAULT_255_2_778
10
16.6422897
20
72.6495271
11
16.6422897
21
72.6495271
0
LINE
8
DEFAULT_255_2_778
10
16.9007897
20
74.1121271
11
16.9007897
21
74.7926271
0
LINE
8
DEFAULT_255_2_778
10
16.9007897
20
74.7926271
11
16.7015897
21
74.7926271
0
LINE
8
DEFAULT_255_2_778
10
16.7015897
20
74.7926271
11
16.7015897
21
74.0941271
0
LINE
8
DEFAULT_255_2_778
10
16.3120897
20
74.0941271
11
16.3120897
21
74.7926271
0
LINE
8
DEFAULT_255_2_778
10
16.3120897
20
74.7926271
11
16.1162897
21
74.7926271
0
LINE
8
DEFAULT_255_2_778
10
16.1162897
20
74.7926271
11
16.1162897
21
74.1124271
0
LINE
8
DEFAULT_255_2_778
10
15.0000897
20
73.0848271
11
15.4730897
21
73.0848271
0
LINE
8
DEFAULT_255_2_778
10
15.4730897
20
73.0848271
11
15.4730897
21
73.2562271
0
LINE
8
DEFAULT_255_2_778
10
15.4730897
20
73.2562271
11
15.0000897
21
73.2562271
0
LINE
8
DEFAULT_255_2_778
10
15.0000897
20
73.2562271
11
15.0000897
21
73.4671271
0
LINE
8
DEFAULT_255_2_778
10
15.0000897
20
73.4671271
11
15.5320897
21
73.4671271
0
LINE
8
DEFAULT_255_2_778
10
15.5320897
20
73.4671271
11
15.5320897
21
73.6385271
0
LINE
8
DEFAULT_255_2_778
10
15.5320897
20
73.6385271
11
15.0000897
21
73.6385271
0
LINE
8
DEFAULT_255_2_778
10
15.0000897
20
73.6385271
11
14.7997897
21
73.6385271
0
LINE
8
DEFAULT_255_2_778
10
14.7997897
20
73.6385271
11
14.7997897
21
73.4671271
0
LINE
8
DEFAULT_255_2_778
10
14.7997897
20
73.4671271
11
14.7997897
21
72.8207271
0
LINE
8
DEFAULT_255_2_778
10
14.7997897
20
72.8207271
11
14.7997897
21
72.6492271
0
LINE
8
DEFAULT_255_2_778
10
14.7997897
20
72.6492271
11
15.0000897
21
72.6492271
0
LINE
8
DEFAULT_255_2_778
10
15.0000897
20
72.6492271
11
15.5461897
21
72.6492271
0
LINE
8
DEFAULT_255_2_778
10
15.5461897
20
72.6492271
11
15.5461897
21
72.8207271
0
LINE
8
DEFAULT_255_2_778
10
15.5461897
20
72.8207271
11
15.0000897
21
72.8207271
0
LINE
8
DEFAULT_255_2_778
10
15.0000897
20
72.8207271
11
15.0000897
21
73.0845271
0
LINE
8
DEFAULT_255_2_778
10
15.0000897
20
73.0845271
11
15.0000897
21
73.0848271
0
LINE
8
DEFAULT_255_2_778
10
17.4064897
20
74.3936271
11
17.1690897
21
74.3936271
0
LINE
8
DEFAULT_255_2_778
10
17.1690897
20
74.3936271
11
17.1690897
21
74.6352271
0
LINE
8
DEFAULT_255_2_778
10
17.1690897
20
74.6352271
11
17.4175897
21
74.6352271
0
LINE
8
DEFAULT_255_2_778
10
17.4175897
20
74.6352271
11
17.4175897
21
74.6355271
0
LINE
8
DEFAULT_255_2_778
10
17.4027897
20
73.9528271
11
17.1690897
21
73.9528271
0
LINE
8
DEFAULT_255_2_778
10
17.1690897
20
73.9528271
11
17.1690897
21
74.2399271
0
LINE
8
DEFAULT_255_2_778
10
17.1690897
20
74.2399271
11
17.4003897
21
74.2399271
0
LINE
8
DEFAULT_255_2_778
10
17.1767897
20
73.8036271
11
17.4622897
21
73.8036271
0
LINE
8
DEFAULT_255_2_778
10
17.4172897
20
74.7926271
11
17.1770897
21
74.7926271
0
LINE
8
DEFAULT_255_2_778
10
17.1770897
20
74.7926271
11
16.9722897
21
74.7926271
0
LINE
8
DEFAULT_255_2_778
10
16.9722897
20
74.7926271
11
16.9711897
21
74.7926271
0
LINE
8
DEFAULT_255_2_778
10
16.9711897
20
74.7926271
11
16.9711897
21
73.8036271
0
LINE
8
DEFAULT_255_2_778
10
16.9711897
20
73.8036271
11
16.9722897
21
73.8036271
0
LINE
8
DEFAULT_255_2_778
10
16.9722897
20
73.8036271
11
17.1770897
21
73.8036271
0
LINE
8
DEFAULT_255_2_778
10
17.1770897
20
73.8036271
11
17.1767897
21
73.8036271
0
LINE
8
DEFAULT_255_2_778
10
17.3368897
20
73.1993271
11
17.3368897
21
73.4687271
0
LINE
8
DEFAULT_255_2_778
10
17.3368897
20
73.4687271
11
17.5781897
21
73.4687271
0
LINE
8
DEFAULT_255_2_778
10
17.5842897
20
73.1996271
11
17.3370897
21
73.1996271
0
LINE
8
DEFAULT_255_2_778
10
17.3370897
20
73.1996271
11
17.3368897
21
73.1993271
0
LINE
8
DEFAULT_255_2_778
10
17.5879897
20
73.6398271
11
17.3368897
21
73.6398271
0
LINE
8
DEFAULT_255_2_778
10
17.3368897
20
73.6398271
11
17.1383897
21
73.6398271
0
LINE
8
DEFAULT_255_2_778
10
17.1383897
20
73.6398271
11
17.1362897
21
73.6398271
0
LINE
8
DEFAULT_255_2_778
10
17.1362897
20
73.6398271
11
17.1362897
21
72.6506271
0
LINE
8
DEFAULT_255_2_778
10
17.1362897
20
72.6506271
11
17.3368897
21
72.6506271
0
LINE
8
DEFAULT_255_2_778
10
17.3368897
20
72.6506271
11
17.3368897
21
73.0403271
0
LINE
8
DEFAULT_255_2_778
10
17.3368897
20
73.0403271
11
17.5069897
21
73.0403271
0
LINE
8
DEFAULT_255_2_778
10
17.7162897
20
72.6506271
11
17.9175897
21
72.6506271
0
LINE
8
DEFAULT_255_2_778
10
14.2763897
20
73.6388271
11
14.0760897
21
73.6388271
0
LINE
8
DEFAULT_255_2_778
10
14.0760897
20
73.6388271
11
14.0760897
21
72.8210271
0
LINE
8
DEFAULT_255_2_778
10
14.0760897
20
72.8210271
11
14.0760897
21
72.6495271
0
LINE
8
DEFAULT_255_2_778
10
14.0760897
20
72.6495271
11
14.2763897
21
72.6495271
0
LINE
8
DEFAULT_255_2_778
10
14.2763897
20
72.6495271
11
14.7428897
21
72.6495271
0
LINE
8
DEFAULT_255_2_778
10
14.7428897
20
72.6495271
11
14.7428897
21
72.8210271
0
LINE
8
DEFAULT_255_2_778
10
14.7428897
20
72.8210271
11
14.2763897
21
72.8210271
0
LINE
8
DEFAULT_255_2_778
10
14.2763897
20
72.8210271
11
14.2763897
21
73.6388271
0
LINE
8
DEFAULT_255_2_778
10
14.2763897
20
73.6388271
11
14.2763897
21
73.6388271
0
ARC
8
DEFAULT_255_2_778
10
15.4584271
20
73.2646969
40
0.9681224
50
72.4822103
51
81.3184214
0
ARC
8
DEFAULT_255_2_778
10
15.7160297
20
74.0413918
40
0.1503783
50
28.8883513
51
77.0092434
0
ARC
8
DEFAULT_255_2_778
10
15.7432379
20
74.0703196
40
0.113238
50
358.9917455
51
22.7117017
0
ARC
8
DEFAULT_255_2_778
10
15.7394861
20
74.0744918
40
0.1171346
50
289.2958104
51
356.9831562
0
ARC
8
DEFAULT_255_2_778
10
15.6668261
20
74.2319882
40
0.2902651
50
268.4665462
51
292.5613311
0
ARC
8
DEFAULT_255_2_778
10
15.6496856
20
74.1729179
40
0.2312808
50
236.4956947
51
272.3225735
0
ARC
8
DEFAULT_255_2_778
10
15.6106646
20
74.1046839
40
0.1529307
50
178.9722202
51
234.5742435
0
ARC
8
DEFAULT_255_2_778
10
15.5656113
20
74.0951079
40
0.3002058
50
177.6481608
51
245.5596397
0
ARC
8
DEFAULT_255_2_778
10
15.6409971
20
74.2673561
40
0.488217
50
245.8690375
51
267.169035
0
ARC
8
DEFAULT_255_2_778
10
15.6671503
20
74.5183916
40
0.7403648
50
266.1069867
51
270.0547972
0
ARC
8
DEFAULT_255_2_778
10
15.6772894
20
74.3496135
40
0.5716642
50
269.0547216
51
287.7147747
0
ARC
8
DEFAULT_255_2_778
10
15.7598889
20
74.1039091
40
0.3125017
50
286.995984
51
325.1221533
0
ARC
8
DEFAULT_255_2_778
10
15.7678294
20
74.087361
40
0.2966627
50
326.8673922
51
0.8625726
0
ARC
8
DEFAULT_255_2_778
10
15.7898286
20
74.0959409
40
0.2746606
50
359.1417932
51
76.9739731
0
ARC
8
DEFAULT_255_2_778
10
15.6705461
20
73.8150719
40
0.577616
50
71.7185727
51
79.1315439
0
ARC
8
DEFAULT_255_2_778
10
14.2492968
20
66.461467
40
8.0673056
50
79.0662148
51
79.6216572
0
ARC
8
DEFAULT_255_2_778
10
16.4356585
20
78.3391581
40
4.0099443
50
259.1227669
51
259.4665204
0
ARC
8
DEFAULT_255_2_778
10
15.7836732
20
75.0441142
40
0.6513291
50
249.9945768
51
260.7485895
0
ARC
8
DEFAULT_255_2_778
10
15.5880401
20
74.5330999
40
0.1046098
50
178.6705173
51
254.9333545
0
ARC
8
DEFAULT_255_2_778
10
15.6049957
20
74.5296688
40
0.1216785
50
93.288632
51
177.2403935
0
ARC
8
DEFAULT_255_2_778
10
15.6585677
20
74.3426752
40
0.3143588
50
89.6189463
51
101.1057977
0
ARC
8
DEFAULT_255_2_778
10
15.6722733
20
74.454516
40
0.2028439
50
53.5634072
51
93.2825843
0
ARC
8
DEFAULT_255_2_778
10
15.7018505
20
74.5127144
40
0.1388739
50
357.1985816
51
49.1152298
0
ARC
8
DEFAULT_255_2_778
10
15.7254907
20
74.5059274
40
0.3087677
50
359.9999335
51
2.3703878
0
ARC
8
DEFAULT_255_2_778
10
15.7353555
20
74.5074337
40
0.298851
50
2.1600756
51
60.1092229
0
ARC
8
DEFAULT_255_2_778
10
15.6766212
20
74.4008133
40
0.4205645
50
60.4106856
51
86.1444419
0
ARC
8
DEFAULT_255_2_778
10
15.6536151
20
74.2241228
40
0.5985046
50
85.0843314
51
90.0628677
0
ARC
8
DEFAULT_255_2_778
10
15.6529718
20
74.3475466
40
0.4750804
50
90.001616
51
92.2300394
0
ARC
8
DEFAULT_255_2_778
10
15.6281193
20
74.452687
40
0.3696351
50
89.0131319
51
149.6364996
0
ARC
8
DEFAULT_255_2_778
10
15.5505461
20
74.5249055
40
0.2671974
50
154.5962367
51
180.4885883
0
ARC
8
DEFAULT_255_2_778
10
15.5651524
20
74.523384
40
0.281795
50
180.1539064
51
255.1120325
0
ARC
8
DEFAULT_255_2_778
10
15.7094242
20
74.846232
40
0.6333958
50
249.9962237
51
260.4976723
0
ARC
8
DEFAULT_255_2_778
10
18.2470963
20
73.2658351
40
0.967002
50
72.4685023
51
81.3064395
0
ARC
8
DEFAULT_255_2_778
10
18.5045397
20
74.041427
40
0.1503535
50
28.8782248
51
76.9904304
0
ARC
8
DEFAULT_255_2_778
10
18.5317197
20
74.0703189
40
0.1132561
50
358.9922779
51
22.7082666
0
ARC
8
DEFAULT_255_2_778
10
18.5280402
20
74.0744088
40
0.1170763
50
289.2761556
51
357.0223042
0
ARC
8
DEFAULT_255_2_778
10
18.4553612
20
74.2322836
40
0.2905613
50
268.4611814
51
292.5289055
0
ARC
8
DEFAULT_255_2_778
10
18.4381801
20
74.1738175
40
0.2321799
50
236.6698634
51
272.3149402
0
ARC
8
DEFAULT_255_2_778
10
18.39878
20
74.1046762
40
0.1528464
50
178.9687581
51
234.7686008
0
ARC
8
DEFAULT_255_2_778
10
18.3540113
20
74.0951079
40
0.3002058
50
177.6481608
51
245.5596397
0
ARC
8
DEFAULT_255_2_778
10
18.4293971
20
74.2673561
40
0.488217
50
245.8690375
51
267.169035
0
ARC
8
DEFAULT_255_2_778
10
18.4555503
20
74.5183916
40
0.7403648
50
266.1069867
51
270.0547972
0
ARC
8
DEFAULT_255_2_778
10
18.4656836
20
74.3502451
40
0.5722957
50
269.0563423
51
287.7048702
0
ARC
8
DEFAULT_255_2_778
10
18.548344
20
74.1042682
40
0.312856
50
286.9832601
51
325.0871916
0
ARC
8
DEFAULT_255_2_778
10
18.5567708
20
74.0873856
40
0.2964208
50
326.8311942
51
0.8585267
0
ARC
8
DEFAULT_255_2_778
10
18.5785756
20
74.0960282
40
0.2746149
50
359.1234265
51
76.9343785
0
ARC
8
DEFAULT_255_2_778
10
18.4596421
20
73.8161965
40
0.5764934
50
71.6999697
51
79.1198353
0
ARC
8
DEFAULT_255_2_778
10
17.0173657
20
66.3394392
40
8.1910887
50
79.0843627
51
79.6321368
0
ARC
8
DEFAULT_255_2_778
10
19.2200266
20
78.3189177
40
3.9892176
50
259.1314419
51
259.4772924
0
ARC
8
DEFAULT_255_2_778
10
18.5723251
20
75.0435131
40
0.6507003
50
249.9919323
51
260.7592458
0
ARC
8
DEFAULT_255_2_778
10
18.376901
20
74.5330546
40
0.1045718
50
178.6452075
51
254.9151907
0
ARC
8
DEFAULT_255_2_778
10
18.3939581
20
74.5296016
40
0.121744
50
93.2745253
51
177.21023
0
ARC
8
DEFAULT_255_2_778
10
18.4475726
20
74.3425052
40
0.3145287
50
89.6200387
51
101.1027534
0
ARC
8
DEFAULT_255_2_778
10
18.4613489
20
74.4558453
40
0.2015212
50
53.1490002
51
93.3256649
0
ARC
8
DEFAULT_255_2_778
10
18.4902753
20
74.5126519
40
0.1391457
50
357.2298288
51
48.6469881
0
ARC
8
DEFAULT_255_2_778
10
18.5137232
20
74.5059226
40
0.3092351
50
0.0008291
51
2.3676985
0
ARC
8
DEFAULT_255_2_778
10
18.5240744
20
74.5074868
40
0.2988304
50
2.1500394
51
60.0956838
0
ARC
8
DEFAULT_255_2_778
10
18.4654399
20
74.4009909
40
0.4203859
50
60.40452
51
86.1455285
0
ARC
8
DEFAULT_255_2_778
10
18.4424157
20
74.2241686
40
0.5984588
50
85.0841409
51
90.0629301
0
ARC
8
DEFAULT_255_2_778
10
18.4417778
20
74.3471392
40
0.4754878
50
90.0023409
51
92.3231329
0
ARC
8
DEFAULT_255_2_778
10
18.4167555
20
74.4524604
40
0.3698206
50
89.1093915
51
149.6400816
0
ARC
8
DEFAULT_255_2_778
10
18.338761
20
74.5248917
40
0.2669122
50
154.6001925
51
180.486137
0
ARC
8
DEFAULT_255_2_778
10
18.3537607
20
74.5235152
40
0.2819037
50
180.1805176
51
255.132702
0
ARC
8
DEFAULT_255_2_778
10
18.4982264
20
74.8467784
40
0.6339516
50
250.0026216
51
260.4967164
0
ARC
8
DEFAULT_255_2_778
10
16.008917
20
73.0539283
40
0.2519711
50
190.2626864
51
267.3480013
0
ARC
8
DEFAULT_255_2_778
10
16.2443543
20
73.1452548
40
0.5022041
50
179.6723028
51
195.7380858
0
ARC
8
DEFAULT_255_2_778
10
16.1790511
20
73.1607671
40
0.4370755
50
148.7005643
51
181.6572045
0
ARC
8
DEFAULT_255_2_778
10
15.9957576
20
73.2708723
40
0.2232598
50
89.6148479
51
148.4074796
0
ARC
8
DEFAULT_255_2_778
10
16.0060936
20
73.292949
40
0.201372
50
41.9769772
51
92.5146611
0
ARC
8
DEFAULT_255_2_778
10
15.9522078
20
73.2552523
40
0.2667646
50
15.1848537
51
40.2549591
0
ARC
8
DEFAULT_255_2_778
10
16.028123
20
73.2655326
40
0.3935735
50
8.7091682
51
82.0550801
0
ARC
8
DEFAULT_255_2_778
10
15.9931241
20
73.1190871
40
0.543642
50
80.5350289
51
90.1544743
0
ARC
8
DEFAULT_255_2_778
10
15.9818804
20
73.2077192
40
0.4551129
50
88.7689246
51
119.6437418
0
ARC
8
DEFAULT_255_2_778
10
16.0077717
20
73.2114647
40
0.4653013
50
122.644121
51
173.3997839
0
ARC
8
DEFAULT_255_2_778
10
16.2711934
20
73.1471568
40
0.7351371
50
170.7798304
51
180.1348114
0
ARC
8
DEFAULT_255_2_778
10
16.1377257
20
73.1317615
40
0.6018225
50
178.6988735
51
210.5289552
0
ARC
8
DEFAULT_255_2_778
10
15.970325
20
73.0409953
40
0.4115783
50
211.4828222
51
265.8686737
0
ARC
8
DEFAULT_255_2_778
10
15.9909864
20
73.1657011
40
0.5375742
50
264.6297133
51
270.0503073
0
ARC
8
DEFAULT_255_2_778
10
16.0020995
20
73.0975749
40
0.4695684
50
268.7014824
51
300.1403067
0
ARC
8
DEFAULT_255_2_778
10
16.0350333
20
73.0191852
40
0.385394
50
301.7580058
51
353.77968
0
ARC
8
DEFAULT_255_2_778
10
16.0012256
20
73.0135219
40
0.2113379
50
268.8430278
51
350.1661143
0
ARC
8
DEFAULT_255_2_778
10
18.6896799
20
73.0538824
40
0.2519281
50
190.2538303
51
267.3332171
0
ARC
8
DEFAULT_255_2_778
10
18.9252249
20
73.1452581
40
0.5022746
50
179.672724
51
195.7362088
0
ARC
8
DEFAULT_255_2_778
10
18.8600432
20
73.1607917
40
0.4372682
50
148.7196987
51
181.6596982
0
ARC
8
DEFAULT_255_2_778
10
18.676443
20
73.2709906
40
0.2231415
50
89.6108896
51
148.4244661
0
ARC
8
DEFAULT_255_2_778
10
18.686876
20
73.292967
40
0.2013576
50
42.5913083
51
92.5383066
0
ARC
8
DEFAULT_255_2_778
10
18.6345542
20
73.2565973
40
0.2646316
50
15.0085433
51
40.7215892
0
ARC
8
DEFAULT_255_2_778
10
18.708623
20
73.2655326
40
0.3935735
50
8.7091682
51
82.0550801
0
ARC
8
DEFAULT_255_2_778
10
18.6736241
20
73.1190871
40
0.543642
50
80.5350289
51
90.1544743
0
ARC
8
DEFAULT_255_2_778
10
18.6623804
20
73.2077192
40
0.4551129
50
88.7689246
51
119.6437418
0
ARC
8
DEFAULT_255_2_778
10
18.6882717
20
73.2114647
40
0.4653013
50
122.644121
51
173.3997839
0
ARC
8
DEFAULT_255_2_778
10
18.9516934
20
73.1471568
40
0.7351371
50
170.7798304
51
180.1348114
0
ARC
8
DEFAULT_255_2_778
10
18.8177822
20
73.13182
40
0.6013778
50
178.7034849
51
210.5604279
0
ARC
8
DEFAULT_255_2_778
10
18.6511312
20
73.0413377
40
0.4119265
50
211.5090145
51
265.8592607
0
ARC
8
DEFAULT_255_2_778
10
18.6716883
20
73.1654521
40
0.5373252
50
264.628472
51
270.0501277
0
ARC
8
DEFAULT_255_2_778
10
18.682837
20
73.0973685
40
0.4693629
50
268.6963312
51
300.2191972
0
ARC
8
DEFAULT_255_2_778
10
18.7155684
20
73.0194124
40
0.3856821
50
301.8465101
51
353.7503927
0
ARC
8
DEFAULT_255_2_778
10
18.6820648
20
73.0133604
40
0.2111733
50
268.8857714
51
350.2028431
0
LINE
8
DEFAULT_255_2_778
10
15.4577584
20
74.1074271
11
15.2656584
21
74.1074271
0
LINE
8
DEFAULT_255_2_778
10
15.8405584
20
74.5059271
11
16.0342584
21
74.5059271
0
LINE
8
DEFAULT_255_2_778
10
18.2459584
20
74.1074271
11
18.0540584
21
74.1074271
0
LINE
8
DEFAULT_255_2_778
10
18.6292584
20
74.5059271
11
18.8229584
21
74.5059271
0
LINE
8
DEFAULT_255_2_778
10
16.2096584
20
73.3251271
11
16.4171584
21
73.3251271
0
LINE
8
DEFAULT_255_2_778
10
16.4181584
20
72.9774271
11
16.2094584
21
72.9774271
0
LINE
8
DEFAULT_255_2_778
10
18.8901584
20
73.3251271
11
19.0976584
21
73.3251271
0
LINE
8
DEFAULT_255_2_778
10
19.0989584
20
72.9774271
11
18.8901584
21
72.9774271
0
LINE
8
DEFAULT_255_2_778
10
18.6536335
20
46.1697497
11
18.6536335
21
36.9093497
0
LINE
8
DEFAULT_255_2_778
10
18.6536335
20
36.9093497
11
19.9765335
21
36.9093497
0
LINE
8
DEFAULT_255_2_778
10
9.3932335
20
60.7218497
11
10.7161335
21
60.7218497
0
LINE
8
DEFAULT_255_2_778
10
10.7161335
20
60.7218497
11
10.7161335
21
43.5239497
0
LINE
8
DEFAULT_255_2_778
10
9.3932834
20
43.5239333
11
12.0390834
21
43.5239333
0
LINE
8
DEFAULT_255_2_778
10
12.0390834
20
43.5239333
11
12.0390834
21
38.2322333
0
LINE
8
DEFAULT_255_2_778
10
12.0390834
20
38.2322333
11
9.3932834
21
38.2322333
0
LINE
8
DEFAULT_255_2_778
10
9.3932834
20
38.2322333
11
9.3932834
21
43.5239333
0
LINE
8
DEFAULT_255_2_778
10
10.187
20
38.7614666
11
10.187
21
42.9947666
0
LINE
8
DEFAULT_255_2_778
10
9.9224167
20
42.201075
11
10.1870167
21
42.994775
0
LINE
8
DEFAULT_255_2_778
10
10.1870167
20
42.994775
11
10.4516167
21
42.201075
0
LINE
8
DEFAULT_255_2_778
10
10.4516167
20
42.201075
11
9.9224167
21
42.201075
0
LINE
8
DEFAULT_255_2_778
10
11.2453
20
42.9947666
11
11.2453
21
38.7614666
0
LINE
8
DEFAULT_255_2_778
10
10.9807167
20
39.555175
11
11.2453167
21
38.761475
0
LINE
8
DEFAULT_255_2_778
10
11.2453167
20
38.761475
11
11.5099167
21
39.555175
0
LINE
8
DEFAULT_255_2_778
10
11.5099167
20
39.555175
11
10.9807167
21
39.555175
0
LINE
8
DEFAULT_255_2_778
10
10.7161335
20
38.2322494
11
10.7161335
21
21.0343494
0
LINE
8
DEFAULT_255_2_778
10
10.7161335
20
21.0343494
11
9.3932335
21
21.0343494
0
LINE
8
DEFAULT_255_2_778
10
19.9765335
20
60.7218494
11
18.6536335
21
60.7218494
0
LINE
8
DEFAULT_255_2_778
10
18.6536335
20
60.7218494
11
18.6536335
21
51.4614494
0
LINE
8
DEFAULT_255_2_778
10
17.3307834
20
51.4614333
11
19.9765834
21
51.4614333
0
LINE
8
DEFAULT_255_2_778
10
19.9765834
20
51.4614333
11
19.9765834
21
46.1697333
0
LINE
8
DEFAULT_255_2_778
10
19.9765834
20
46.1697333
11
17.3307834
21
46.1697333
0
LINE
8
DEFAULT_255_2_778
10
17.3307834
20
46.1697333
11
17.3307834
21
51.4614333
0
LINE
8
DEFAULT_255_2_778
10
18.1245
20
46.6989666
11
18.1245
21
50.9322666
0
LINE
8
DEFAULT_255_2_778
10
17.8599167
20
50.138575
11
18.1245167
21
50.932275
0
LINE
8
DEFAULT_255_2_778
10
18.1245167
20
50.932275
11
18.3891167
21
50.138575
0
LINE
8
DEFAULT_255_2_778
10
18.3891167
20
50.138575
11
17.8599167
21
50.138575
0
LINE
8
DEFAULT_255_2_778
10
19.1828
20
50.9322666
11
19.1828
21
46.6989666
0
LINE
8
DEFAULT_255_2_778
10
18.9182167
20
47.492675
11
19.1828167
21
46.698975
0
LINE
8
DEFAULT_255_2_778
10
19.1828167
20
46.698975
11
19.4474167
21
47.492675
0
LINE
8
DEFAULT_255_2_778
10
19.4474167
20
47.492675
11
18.9182167
21
47.492675
0
LINE
8
DEFAULT_255_1_234
10
4.9274119
20
68.2616792
11
4.9274119
21
68.1404
0
LINE
8
DEFAULT_255_1_234
10
4.9274119
20
68.1404
11
4.161184
21
68.1404
0
LINE
8
DEFAULT_255_1_234
10
4.161184
20
68.1404
11
4.161184
21
68.2472221
0
LINE
8
DEFAULT_255_1_234
10
4.161184
20
68.2472221
11
4.5659836
21
68.6969995
0
LINE
8
DEFAULT_255_1_234
10
4.2872823
20
68.9652595
11
4.1386952
21
68.9652595
0
LINE
8
DEFAULT_255_1_234
10
4.6535296
20
68.6014218
11
4.3402918
21
68.2616792
0
LINE
8
DEFAULT_255_1_234
10
4.3402918
20
68.2616792
11
4.9274119
21
68.2616792
0
ARC
8
DEFAULT_255_1_234
10
3.216967
20
69.8899527
40
1.8008286
50
318.5132453
51
320.7828378
0
ARC
8
DEFAULT_255_1_234
10
3.7456644
20
69.4596426
40
1.1191493
50
320.7372736
51
323.9737074
0
ARC
8
DEFAULT_255_1_234
10
4.1376501
20
69.1756361
40
0.6350923
50
323.8961724
51
328.6421089
0
ARC
8
DEFAULT_255_1_234
10
4.3423096
20
69.0494031
40
0.3946393
50
328.8299013
51
331.789948
0
ARC
8
DEFAULT_255_1_234
10
4.4420274
20
68.9979509
40
0.2824501
50
331.4255242
51
352.9364833
0
ARC
8
DEFAULT_255_1_234
10
4.4556775
20
68.9948976
40
0.2685315
50
353.2248685
51
0.0169286
0
ARC
8
DEFAULT_255_1_234
10
4.4766652
20
68.997195
40
0.2475536
50
359.4866256
51
15.9339782
0
ARC
8
DEFAULT_255_1_234
10
4.5273637
20
69.0108286
40
0.1950618
50
16.1714718
51
43.5284424
0
ARC
8
DEFAULT_255_1_234
10
4.5350946
20
69.0185573
40
0.184134
50
43.4415429
51
83.1661404
0
ARC
8
DEFAULT_255_1_234
10
4.5216864
20
68.9448771
40
0.258926
50
82.160215
51
90.1505798
0
ARC
8
DEFAULT_255_1_234
10
4.5185291
20
68.8911865
40
0.3126255
50
89.5460705
51
102.5418777
0
ARC
8
DEFAULT_255_1_234
10
4.4942377
20
68.9942665
40
0.2067346
50
102.1739365
51
129.2061916
0
ARC
8
DEFAULT_255_1_234
10
4.4863449
20
69.0067094
40
0.1921118
50
129.7279328
51
135.7542026
0
ARC
8
DEFAULT_255_1_234
10
4.4984977
20
68.9970045
40
0.2075944
50
136.175737
51
166.3674722
0
ARC
8
DEFAULT_255_1_234
10
4.5991896
20
68.9700182
40
0.3118201
50
165.9092917
51
178.8683903
0
ARC
8
DEFAULT_255_1_234
10
4.6856757
20
68.9653179
40
0.3983935
50
178.438168
51
180.0083905
0
ARC
8
DEFAULT_255_1_234
10
4.5455359
20
68.9692231
40
0.4068601
50
163.2878735
51
180.5581814
0
ARC
8
DEFAULT_255_1_234
10
4.4653621
20
68.991284
40
0.3237344
50
133.454115
51
162.9470031
0
ARC
8
DEFAULT_255_1_234
10
4.4832162
20
68.9723
40
0.349795
50
100.7869394
51
133.4384016
0
ARC
8
DEFAULT_255_1_234
10
4.5179934
20
68.8174319
40
0.5084616
50
89.6605301
51
101.3704185
0
ARC
8
DEFAULT_255_1_234
10
4.5246273
20
68.8235496
40
0.502348
50
78.2171172
51
90.4130393
0
ARC
8
DEFAULT_255_1_234
10
4.5601351
20
68.9859637
40
0.3361092
50
55.9268222
51
78.4888551
0
ARC
8
DEFAULT_255_1_234
10
4.5797791
20
69.0198324
40
0.2970617
50
47.9292255
51
55.4054003
0
ARC
8
DEFAULT_255_1_234
10
4.5899352
20
69.0301502
40
0.2825983
50
4.3347696
51
48.0560701
0
ARC
8
DEFAULT_255_1_234
10
4.4803745
20
69.0131601
40
0.393225
50
359.925209
51
5.5967654
0
ARC
8
DEFAULT_255_1_234
10
4.5232637
20
69.0187816
40
0.3503892
50
337.8914096
51
358.9967724
0
ARC
8
DEFAULT_255_1_234
10
4.2519049
20
69.1234706
40
0.6412172
50
326.9135351
51
338.3505194
0
ARC
8
DEFAULT_255_1_234
10
3.8533353
20
69.3789284
40
1.1146189
50
319.6472867
51
327.095818
0
ARC
8
DEFAULT_255_1_234
10
3.4700356
20
69.6951
40
1.6114559
50
317.2586784
51
319.9046139
0
LINE
8
DEFAULT_255_1_234
10
5.7121127
20
69.3098211
11
5.7121127
21
68.533152
0
LINE
8
DEFAULT_255_1_234
10
5.7121127
20
68.533152
11
5.8743538
21
68.533152
0
LINE
8
DEFAULT_255_1_234
10
5.8743538
20
68.533152
11
5.8743538
21
68.4118728
0
LINE
8
DEFAULT_255_1_234
10
5.8743538
20
68.4118728
11
5.7121127
21
68.4118728
0
LINE
8
DEFAULT_255_1_234
10
5.7121127
20
68.4118728
11
5.7121127
21
68.1404
0
LINE
8
DEFAULT_255_1_234
10
5.7121127
20
68.1404
11
5.5627224
21
68.1404
0
LINE
8
DEFAULT_255_1_234
10
5.5627224
20
68.1404
11
5.5627224
21
68.4118728
0
LINE
8
DEFAULT_255_1_234
10
5.5627224
20
68.4118728
11
5.0302181
21
68.4118728
0
LINE
8
DEFAULT_255_1_234
10
5.0302181
20
68.4118728
11
5.0302181
21
68.4994187
0
LINE
8
DEFAULT_255_1_234
10
5.0302181
20
68.4994187
11
5.5538875
21
69.3098211
0
LINE
8
DEFAULT_255_1_234
10
5.5538875
20
69.3098211
11
5.7121127
21
69.3098211
0
LINE
8
DEFAULT_255_1_234
10
5.5450525
20
69.0744912
11
5.1988846
21
68.533152
0
LINE
8
DEFAULT_255_1_234
10
5.1988846
20
68.533152
11
5.5627224
21
68.533152
0
LINE
8
DEFAULT_255_1_234
10
5.5627224
20
68.533152
11
5.5627224
21
69.1066181
0
LINE
8
DEFAULT_255_1_234
10
5.5627224
20
69.1066181
11
5.5450525
21
69.0744912
0
LINE
8
DEFAULT_255_1_234
10
6.101652
20
69.3098211
11
6.434166
21
68.3452093
0
LINE
8
DEFAULT_255_1_234
10
6.434166
20
68.3452093
11
6.7682863
21
69.3098211
0
LINE
8
DEFAULT_255_1_234
10
6.7682863
20
69.3098211
11
6.9369528
21
69.3098211
0
LINE
8
DEFAULT_255_1_234
10
6.9369528
20
69.3098211
11
6.5032389
21
68.1404
0
LINE
8
DEFAULT_255_1_234
10
6.5032389
20
68.1404
11
6.3666994
21
68.1404
0
LINE
8
DEFAULT_255_1_234
10
6.3666994
20
68.1404
11
5.9337887
21
69.3098211
0
LINE
8
DEFAULT_255_1_234
10
5.9337887
20
69.3098211
11
6.101652
21
69.3098211
0
LINE
8
DEFAULT_255_1_234
10
5.0756482
20
5.222701
11
5.0756482
21
4.7938062
0
LINE
8
DEFAULT_255_1_234
10
4.1744872
20
5.1688884
11
4.1744872
21
5.2708915
0
LINE
8
DEFAULT_255_1_234
10
5.0756482
20
5.4668659
11
4.9214389
21
5.4668659
0
LINE
8
DEFAULT_255_1_234
10
4.3294998
20
5.2749073
11
4.3294998
21
5.1793296
0
LINE
8
DEFAULT_255_1_234
10
4.922242
20
4.8347681
11
4.922242
21
5.0974059
0
LINE
8
DEFAULT_255_1_234
10
4.922242
20
5.0974059
11
4.6515725
21
5.0974059
0
LINE
8
DEFAULT_255_1_234
10
4.6515725
20
5.0974059
11
4.6515725
21
5.222701
0
LINE
8
DEFAULT_255_1_234
10
4.6515725
20
5.222701
11
5.0756482
21
5.222701
0
ARC
8
DEFAULT_255_1_234
10
4.7924989
20
4.9931396
40
0.3462765
50
295.8437914
51
324.8549609
0
ARC
8
DEFAULT_255_1_234
10
4.7508956
20
5.0684567
40
0.4322211
50
291.5695085
51
296.4549398
0
ARC
8
DEFAULT_255_1_234
10
4.6998207
20
5.2049275
40
0.5779178
50
278.6622409
51
291.3045483
0
ARC
8
DEFAULT_255_1_234
10
4.6658699
20
5.4197408
40
0.7953952
50
270.020006
51
278.7494541
0
ARC
8
DEFAULT_255_1_234
10
4.6620623
20
5.5514036
40
0.927067
50
269.9969998
51
270.2524872
0
ARC
8
DEFAULT_255_1_234
10
4.6582336
20
5.1430589
40
0.5187361
50
253.5786322
51
270.4175299
0
ARC
8
DEFAULT_255_1_234
10
4.6408992
20
5.0759236
40
0.4494451
50
238.8203306
51
253.2788235
0
ARC
8
DEFAULT_255_1_234
10
4.6389365
20
5.0708231
40
0.4440665
50
206.7883783
51
238.6962764
0
ARC
8
DEFAULT_255_1_234
10
4.7163275
20
5.1172405
40
0.5341121
50
206.1129412
51
207.4916643
0
ARC
8
DEFAULT_255_1_234
10
4.776019
20
5.1426488
40
0.5989041
50
188.6921119
51
205.7821245
0
ARC
8
DEFAULT_255_1_234
10
4.9616552
20
5.174223
40
0.7871862
50
180.3882829
51
188.9219216
0
ARC
8
DEFAULT_255_1_234
10
5.0844366
20
5.2765464
40
0.909967
50
170.2024264
51
180.3560651
0
ARC
8
DEFAULT_255_1_234
10
4.7680884
20
5.3331237
40
0.5886083
50
154.2857445
51
170.3893044
0
ARC
8
DEFAULT_255_1_234
10
4.6399087
20
5.391795
40
0.4476743
50
139.8401567
51
153.9332699
0
ARC
8
DEFAULT_255_1_234
10
4.6039823
20
5.4205577
40
0.4016697
50
98.4190291
51
139.6707122
0
ARC
8
DEFAULT_255_1_234
10
4.6419341
20
5.2360328
40
0.5898566
50
89.7659205
51
99.4415478
0
ARC
8
DEFAULT_255_1_234
10
4.648459
20
5.2425844
40
0.5833147
50
78.0551672
51
90.4042112
0
ARC
8
DEFAULT_255_1_234
10
4.68891
20
5.4244644
40
0.3970055
50
54.6380464
51
78.3339173
0
ARC
8
DEFAULT_255_1_234
10
4.7079156
20
5.4564795
40
0.3599102
50
50.031736
51
54.1558201
0
ARC
8
DEFAULT_255_1_234
10
4.6971944
20
5.4468766
40
0.3741624
50
18.1092409
51
49.7180913
0
ARC
8
DEFAULT_255_1_234
10
4.5515144
20
5.3935089
40
0.5292424
50
7.9672797
51
18.6984571
0
ARC
8
DEFAULT_255_1_234
10
4.5665622
20
5.4058504
40
0.3600838
50
9.7557294
51
27.3215714
0
ARC
8
DEFAULT_255_1_234
10
4.6793094
20
5.4621912
40
0.2340608
50
27.7361077
51
84.5257964
0
ARC
8
DEFAULT_255_1_234
10
4.6465481
20
5.297864
40
0.4011215
50
82.106034
51
90.2001166
0
ARC
8
DEFAULT_255_1_234
10
4.6415698
20
5.3486215
40
0.3503799
50
89.4150119
51
105.5823402
0
ARC
8
DEFAULT_255_1_234
10
4.6158696
20
5.4421867
40
0.2533503
50
105.6678618
51
144.2648758
0
ARC
8
DEFAULT_255_1_234
10
4.7051951
20
5.3786289
40
0.3629787
50
144.3561283
51
162.8564086
0
ARC
8
DEFAULT_255_1_234
10
4.913586
20
5.3117017
40
0.5818441
50
162.6076014
51
173.6780284
0
ARC
8
DEFAULT_255_1_234
10
5.2197004
20
5.274489
40
0.8902007
50
173.4670142
51
179.9730753
0
ARC
8
DEFAULT_255_1_234
10
5.0288675
20
5.175126
40
0.6993804
50
179.6556203
51
190.0080463
0
ARC
8
DEFAULT_255_1_234
10
4.7972504
20
5.1326375
40
0.4639066
50
189.8116607
51
206.6796816
0
ARC
8
DEFAULT_255_1_234
10
4.7127656
20
5.0932503
40
0.3707421
50
207.1031645
51
217.7074368
0
ARC
8
DEFAULT_255_1_234
10
4.6493345
20
5.0380559
40
0.2868417
50
216.7345547
51
265.6812148
0
ARC
8
DEFAULT_255_1_234
10
4.6624136
20
5.1284855
40
0.3780509
50
264.7366618
51
270.0611241
0
ARC
8
DEFAULT_255_1_234
10
4.6647399
20
5.4125111
40
0.662079
50
269.8335834
51
276.0539546
0
ARC
8
DEFAULT_255_1_234
10
4.6854404
20
5.222356
40
0.4708016
50
275.9894168
51
284.4615085
0
ARC
8
DEFAULT_255_1_234
10
4.7052411
20
5.1390663
40
0.3852094
50
284.7034461
51
286.4953897
0
ARC
8
DEFAULT_255_1_234
10
4.7459424
20
5.0079965
40
0.2479842
50
286.0770838
51
304.2625829
0
ARC
8
DEFAULT_255_1_234
10
4.7592838
20
4.9861594
40
0.2224291
50
304.5891602
51
317.1073298
0
LINE
8
DEFAULT_255_1_234
10
6.2314154
20
5.8098211
11
6.2314154
21
4.6404
0
LINE
8
DEFAULT_255_1_234
10
6.2314154
20
4.6404
11
6.0764028
21
4.6404
0
LINE
8
DEFAULT_255_1_234
10
6.0764028
20
4.6404
11
5.4876764
21
5.541561
0
LINE
8
DEFAULT_255_1_234
10
5.4876764
20
5.541561
11
5.4876764
21
4.6404
0
LINE
8
DEFAULT_255_1_234
10
5.4876764
20
4.6404
11
5.3326639
21
4.6404
0
LINE
8
DEFAULT_255_1_234
10
5.3326639
20
4.6404
11
5.3326639
21
5.8098211
0
LINE
8
DEFAULT_255_1_234
10
5.3326639
20
5.8098211
11
5.4876764
21
5.8098211
0
LINE
8
DEFAULT_255_1_234
10
5.4876764
20
5.8098211
11
6.0780092
21
4.9046442
0
LINE
8
DEFAULT_255_1_234
10
6.0780092
20
4.9046442
11
6.0780092
21
5.8098211
0
LINE
8
DEFAULT_255_1_234
10
6.0780092
20
5.8098211
11
6.2314154
21
5.8098211
0
LINE
8
DEFAULT_255_1_234
10
6.8289767
20
4.6404
11
6.5052977
21
4.6404
0
LINE
8
DEFAULT_255_1_234
10
6.5052977
20
4.6404
11
6.5052977
21
5.8098211
0
LINE
8
DEFAULT_255_1_234
10
6.5052977
20
5.8098211
11
6.8354021
21
5.8098211
0
LINE
8
DEFAULT_255_1_234
10
7.3510397
20
5.2644661
11
7.3510397
21
5.1897709
0
LINE
8
DEFAULT_255_1_234
10
6.839418
20
5.6829196
11
6.659507
21
5.6829196
0
LINE
8
DEFAULT_255_1_234
10
6.659507
20
5.6829196
11
6.659507
21
4.7664983
0
LINE
8
DEFAULT_255_1_234
10
6.659507
20
4.7664983
11
6.8217481
21
4.7664983
0
LINE
8
DEFAULT_255_1_234
10
7.1984367
20
5.1929836
11
7.1984367
21
5.2612534
0
ARC
8
DEFAULT_255_1_234
10
6.8392963
20
5.2232894
40
0.5865446
50
75.4101064
51
90.3804066
0
ARC
8
DEFAULT_255_1_234
10
6.8622477
20
5.3189492
40
0.4881916
50
60.145586
51
75.1888407
0
ARC
8
DEFAULT_255_1_234
10
6.8781252
20
5.3466199
40
0.4562893
50
26.5253612
51
60.1450928
0
ARC
8
DEFAULT_255_1_234
10
6.7661002
20
5.2872158
40
0.5830602
50
7.4030428
51
26.8320788
0
ARC
8
DEFAULT_255_1_234
10
6.6066758
20
5.2623804
40
0.7443669
50
0.1605367
51
7.7176192
0
ARC
8
DEFAULT_255_1_234
10
6.6230663
20
5.1859434
40
0.7279835
50
348.7289388
51
0.3012466
0
ARC
8
DEFAULT_255_1_234
10
6.7887093
20
5.1530386
40
0.559104
50
333.0706509
51
348.7181832
0
ARC
8
DEFAULT_255_1_234
10
6.8853851
20
5.1005319
40
0.4491417
50
299.2531685
51
333.4571258
0
ARC
8
DEFAULT_255_1_234
10
6.8492991
20
5.1690828
40
0.5265881
50
278.107187
51
299.0339503
0
ARC
8
DEFAULT_255_1_234
10
6.823707
20
5.3198216
40
0.679442
50
270.4443897
51
278.4511052
0
ARC
8
DEFAULT_255_1_234
10
6.82579
20
5.2269213
40
0.4604407
50
269.4970433
51
284.0205042
0
ARC
8
DEFAULT_255_1_234
10
6.8613201
20
5.0903978
40
0.3193797
50
283.7700273
51
318.1555492
0
ARC
8
DEFAULT_255_1_234
10
6.8275959
20
5.1156367
40
0.3613588
50
318.7415601
51
343.6873628
0
ARC
8
DEFAULT_255_1_234
10
6.6471982
20
5.1719832
40
0.5503313
50
343.3325091
51
355.8548958
0
ARC
8
DEFAULT_255_1_234
10
6.4373666
20
5.1919319
40
0.7610708
50
355.4988528
51
0.0791727
0
ARC
8
DEFAULT_255_1_234
10
6.5156289
20
5.265478
40
0.6828208
50
359.6455037
51
9.8607896
0
ARC
8
DEFAULT_255_1_234
10
6.7516987
20
5.3081099
40
0.4429406
50
9.6571907
51
26.1932807
0
ARC
8
DEFAULT_255_1_234
10
6.8444975
20
5.3512118
40
0.3406537
50
26.5777228
51
40.1532208
0
ARC
8
DEFAULT_255_1_234
10
6.8700702
20
5.3711619
40
0.308246
50
40.3840491
51
80.1431104
0
ARC
8
DEFAULT_255_1_234
10
6.837382
20
5.2262333
40
0.4566909
50
79.2152159
51
89.7445637
0
LINE
8
DEFAULT_255_1_234
10
4.9989023
20
13.4091849
11
4.8438897
21
13.4091849
0
LINE
8
DEFAULT_255_1_234
10
4.1515539
20
12.9168394
11
4.3065665
21
12.9168394
0
ARC
8
DEFAULT_255_1_234
10
4.909771
20
14.3038768
40
1.252368
50
248.9199003
51
254.1439814
0
ARC
8
DEFAULT_255_1_234
10
4.7417205
20
13.8712234
40
0.788226
50
241.633709
51
249.0064503
0
ARC
8
DEFAULT_255_1_234
10
4.58886
20
13.5911317
40
0.4691427
50
230.498225
51
241.8087113
0
ARC
8
DEFAULT_255_1_234
10
4.5104174
20
13.4911906
40
0.3421437
50
227.4064532
51
229.9881192
0
ARC
8
DEFAULT_255_1_234
10
4.4616694
20
13.4436088
40
0.2741476
50
200.6781896
51
228.1763934
0
ARC
8
DEFAULT_255_1_234
10
4.4689005
20
13.4421077
40
0.2804109
50
179.5061581
51
199.8694617
0
ARC
8
DEFAULT_255_1_234
10
4.4679757
20
13.449521
40
0.2795204
50
132.4834203
51
181.0242172
0
ARC
8
DEFAULT_255_1_234
10
4.5275339
20
13.3932704
40
0.3612768
50
129.2532479
51
133.4242687
0
ARC
8
DEFAULT_255_1_234
10
4.5421789
20
13.3712965
40
0.3875675
50
101.98776
51
128.8742646
0
ARC
8
DEFAULT_255_1_234
10
4.5820399
20
13.1991741
40
0.5642249
50
89.5906553
51
102.3169264
0
ARC
8
DEFAULT_255_1_234
10
4.5890891
20
13.2310148
40
0.5323783
50
77.2360837
51
90.3248275
0
ARC
8
DEFAULT_255_1_234
10
4.6097971
20
13.32774
40
0.4334697
50
63.837784
51
77.0809408
0
ARC
8
DEFAULT_255_1_234
10
4.6375732
20
13.3794911
40
0.3747796
50
45.9864267
51
64.1607727
0
ARC
8
DEFAULT_255_1_234
10
4.6636614
20
13.4092866
40
0.3352302
50
32.2747395
51
45.6547121
0
ARC
8
DEFAULT_255_1_234
10
4.6703054
20
13.411188
40
0.328603
50
359.6507365
51
32.6130309
0
ARC
8
DEFAULT_255_1_234
10
4.576015
20
13.411666
40
0.2678863
50
359.469343
51
14.9832209
0
ARC
8
DEFAULT_255_1_234
10
4.6465212
20
13.4305539
40
0.1948938
50
14.9781179
51
48.2004265
0
ARC
8
DEFAULT_255_1_234
10
4.6300856
20
13.4098983
40
0.2212521
50
48.5927837
51
74.1241538
0
ARC
8
DEFAULT_255_1_234
10
4.5967346
20
13.2998248
40
0.3362561
50
73.7888341
51
86.6652678
0
ARC
8
DEFAULT_255_1_234
10
4.5864911
20
13.1790881
40
0.4573953
50
86.2640471
51
90.0526343
0
ARC
8
DEFAULT_255_1_234
10
4.5836624
20
13.2186192
40
0.4178709
50
89.6697524
51
99.2309573
0
ARC
8
DEFAULT_255_1_234
10
4.5594075
20
13.3630964
40
0.2713749
50
99.069534
51
113.7658566
0
ARC
8
DEFAULT_255_1_234
10
4.5320266
20
13.4276677
40
0.2012469
50
114.0401004
51
127.9850673
0
ARC
8
DEFAULT_255_1_234
10
4.507983
20
13.457273
40
0.1631167
50
127.7287463
51
176.7105154
0
ARC
8
DEFAULT_255_1_234
10
4.5758547
20
13.4471693
40
0.2315392
50
175.1779447
51
180.0581938
0
ARC
8
DEFAULT_255_1_234
10
4.4915394
20
13.4459428
40
0.1472271
50
179.6142195
51
228.1246017
0
ARC
8
DEFAULT_255_1_234
10
4.5357063
20
13.4868308
40
0.2072299
50
226.5779593
51
230.8800004
0
ARC
8
DEFAULT_255_1_234
10
4.5828141
20
13.5493636
40
0.2854818
50
231.4635071
51
241.9260842
0
ARC
8
DEFAULT_255_1_234
10
4.7025319
20
13.76968
40
0.53622
50
241.7178533
51
248.3259551
0
ARC
8
DEFAULT_255_1_234
10
4.8410691
20
14.1129064
40
0.9063478
50
248.2007737
51
252.4528373
0
ARC
8
DEFAULT_255_1_234
10
4.9614416
20
14.4850441
40
1.2974635
50
252.3391078
51
254.3469452
0
ARC
8
DEFAULT_255_1_234
10
4.2072119
20
11.7873148
40
1.5037162
50
71.0197183
51
74.4087047
0
ARC
8
DEFAULT_255_1_234
10
4.3766804
20
12.2765111
40
0.9859993
50
66.1847285
51
71.086374
0
ARC
8
DEFAULT_255_1_234
10
4.5323116
20
12.62692
40
0.6025855
50
59.3536294
51
66.2691831
0
ARC
8
DEFAULT_255_1_234
10
4.6211769
20
12.7772609
40
0.4279449
50
49.1020879
51
59.3293958
0
ARC
8
DEFAULT_255_1_234
10
4.7030509
20
12.8705834
40
0.3038015
50
32.7919921
51
49.2505539
0
ARC
8
DEFAULT_255_1_234
10
4.7351599
20
12.8934191
40
0.264448
50
31.1181161
51
32.4005348
0
ARC
8
DEFAULT_255_1_234
10
4.7263136
20
12.8898779
40
0.2738556
50
8.1116974
51
30.7958831
0
ARC
8
DEFAULT_255_1_234
10
4.6452804
20
12.8760753
40
0.3560327
50
359.8389159
51
8.4706516
0
ARC
8
DEFAULT_255_1_234
10
4.7078596
20
12.8712137
40
0.2934776
50
337.4731098
51
0.7537279
0
ARC
8
DEFAULT_255_1_234
10
4.7257291
20
12.8692387
40
0.2762607
50
307.5917067
51
336.4315538
0
ARC
8
DEFAULT_255_1_234
10
4.6797119
20
12.9205102
40
0.3449979
50
307.6551545
51
308.4529766
0
ARC
8
DEFAULT_255_1_234
10
4.6566838
20
12.956025
40
0.3871988
50
284.3734338
51
307.1424381
0
ARC
8
DEFAULT_255_1_234
10
4.6071668
20
13.1381932
40
0.5759636
50
272.4382747
51
284.646547
0
ARC
8
DEFAULT_255_1_234
10
4.5944876
20
13.3181893
40
0.7563528
50
269.9708387
51
272.8178037
0
ARC
8
DEFAULT_255_1_234
10
4.5901916
20
13.1143716
40
0.5525489
50
248.2707594
51
270.4055579
0
ARC
8
DEFAULT_255_1_234
10
4.5847657
20
13.0953192
40
0.5328452
50
246.1383403
51
248.0542782
0
ARC
8
DEFAULT_255_1_234
10
4.5429036
20
13.0073843
40
0.4355005
50
233.1670131
51
246.4950969
0
ARC
8
DEFAULT_255_1_234
10
4.4874941
20
12.9325812
40
0.3424126
50
215.3403242
51
233.0843104
0
ARC
8
DEFAULT_255_1_234
10
4.4602372
20
12.9127549
40
0.3087104
50
179.2419209
51
215.2648451
0
ARC
8
DEFAULT_255_1_234
10
4.5369966
20
12.9141666
40
0.2304457
50
179.335461
51
199.1045811
0
ARC
8
DEFAULT_255_1_234
10
4.5037643
20
12.9054766
40
0.1962176
50
199.8828939
51
232.7063202
0
ARC
8
DEFAULT_255_1_234
10
4.5509911
20
12.9648788
40
0.2720938
50
232.3738199
51
255.5136649
0
ARC
8
DEFAULT_255_1_234
10
4.5850778
20
13.0892835
40
0.4010747
50
255.2446292
51
267.5320849
0
ARC
8
DEFAULT_255_1_234
10
4.5938401
20
13.2125702
40
0.5246356
50
267.1557994
51
270.0286766
0
ARC
8
DEFAULT_255_1_234
10
4.5966173
20
13.168195
40
0.4802668
50
269.7000017
51
278.1660162
0
ARC
8
DEFAULT_255_1_234
10
4.6222178
20
12.9951515
40
0.3053425
50
278.0231263
51
290.625471
0
ARC
8
DEFAULT_255_1_234
10
4.6569865
20
12.9024025
40
0.206291
50
290.6619762
51
307.0370976
0
ARC
8
DEFAULT_255_1_234
10
4.6870254
20
12.8655504
40
0.1587906
50
306.3943566
51
355.3030547
0
ARC
8
DEFAULT_255_1_234
10
4.6358186
20
12.8732113
40
0.2104809
50
354.3660432
51
0.0698737
0
ARC
8
DEFAULT_255_1_234
10
4.6500531
20
12.8754617
40
0.1962563
50
359.417946
51
16.1971788
0
ARC
8
DEFAULT_255_1_234
10
4.6955841
20
12.8879418
40
0.149053
50
16.4723299
51
52.6262157
0
ARC
8
DEFAULT_255_1_234
10
4.6134895
20
12.7795433
40
0.2850296
50
52.7386432
51
62.4979148
0
ARC
8
DEFAULT_255_1_234
10
4.4749972
20
12.5189283
40
0.5801521
50
62.2515216
51
68.1220564
0
ARC
8
DEFAULT_255_1_234
10
4.3029883
20
12.0961872
40
1.0365451
50
68.0062803
51
71.8053402
0
ARC
8
DEFAULT_255_1_234
10
4.1234255
20
11.5576758
40
1.6042013
50
71.7183119
51
73.9258742
0
LINE
8
DEFAULT_255_1_234
10
5.6928445
20
13.7473211
11
5.205318
21
12.4775033
0
LINE
8
DEFAULT_255_1_234
10
5.205318
20
12.4775033
11
5.0776133
21
12.4775033
0
LINE
8
DEFAULT_255_1_234
10
5.0776133
20
12.4775033
11
5.565943
21
13.7473211
0
LINE
8
DEFAULT_255_1_234
10
5.565943
20
13.7473211
11
5.6928445
21
13.7473211
0
LINE
8
DEFAULT_255_1_234
10
6.6526372
20
13.4091849
11
6.4976247
21
13.4091849
0
LINE
8
DEFAULT_255_1_234
10
5.8052888
20
12.9168394
11
5.9603014
21
12.9168394
0
ARC
8
DEFAULT_255_1_234
10
6.5635059
20
14.3038768
40
1.252368
50
248.9199003
51
254.1439814
0
ARC
8
DEFAULT_255_1_234
10
6.3954554
20
13.8712234
40
0.788226
50
241.633709
51
249.0064503
0
ARC
8
DEFAULT_255_1_234
10
6.2425949
20
13.5911317
40
0.4691427
50
230.498225
51
241.8087113
0
ARC
8
DEFAULT_255_1_234
10
6.1641523
20
13.4911906
40
0.3421437
50
227.4064532
51
229.9881192
0
ARC
8
DEFAULT_255_1_234
10
6.1154044
20
13.4436088
40
0.2741476
50
200.6781896
51
228.1763934
0
ARC
8
DEFAULT_255_1_234
10
6.1226354
20
13.4421077
40
0.2804109
50
179.5061581
51
199.8694617
0
ARC
8
DEFAULT_255_1_234
10
6.1217106
20
13.449521
40
0.2795204
50
132.4834203
51
181.0242172
0
ARC
8
DEFAULT_255_1_234
10
6.1812688
20
13.3932704
40
0.3612768
50
129.2532479
51
133.4242687
0
ARC
8
DEFAULT_255_1_234
10
6.1959138
20
13.3712965
40
0.3875675
50
101.98776
51
128.8742646
0
ARC
8
DEFAULT_255_1_234
10
6.2357748
20
13.1991741
40
0.5642249
50
89.5906553
51
102.3169264
0
ARC
8
DEFAULT_255_1_234
10
6.2428241
20
13.2310148
40
0.5323783
50
77.2360837
51
90.3248275
0
ARC
8
DEFAULT_255_1_234
10
6.263532
20
13.32774
40
0.4334697
50
63.837784
51
77.0809408
0
ARC
8
DEFAULT_255_1_234
10
6.2913081
20
13.3794911
40
0.3747796
50
45.9864267
51
64.1607727
0
ARC
8
DEFAULT_255_1_234
10
6.3173963
20
13.4092866
40
0.3352302
50
32.2747395
51
45.6547121
0
ARC
8
DEFAULT_255_1_234
10
6.3240403
20
13.411188
40
0.328603
50
359.6507365
51
32.6130309
0
ARC
8
DEFAULT_255_1_234
10
6.2297499
20
13.411666
40
0.2678863
50
359.469343
51
14.9832209
0
ARC
8
DEFAULT_255_1_234
10
6.3002561
20
13.4305539
40
0.1948938
50
14.9781179
51
48.2004265
0
ARC
8
DEFAULT_255_1_234
10
6.2838205
20
13.4098983
40
0.2212521
50
48.5927837
51
74.1241538
0
ARC
8
DEFAULT_255_1_234
10
6.2504695
20
13.2998248
40
0.3362561
50
73.7888341
51
86.6652678
0
ARC
8
DEFAULT_255_1_234
10
6.240226
20
13.1790881
40
0.4573953
50
86.2640471
51
90.0526343
0
ARC
8
DEFAULT_255_1_234
10
6.2373973
20
13.2186192
40
0.4178709
50
89.6697524
51
99.2309573
0
ARC
8
DEFAULT_255_1_234
10
6.2131424
20
13.3630964
40
0.2713749
50
99.069534
51
113.7658566
0
ARC
8
DEFAULT_255_1_234
10
6.1857615
20
13.4276677
40
0.2012469
50
114.0401004
51
127.9850673
0
ARC
8
DEFAULT_255_1_234
10
6.1617179
20
13.457273
40
0.1631167
50
127.7287463
51
176.7105154
0
ARC
8
DEFAULT_255_1_234
10
6.2295896
20
13.4471693
40
0.2315392
50
175.1779447
51
180.0581938
0
ARC
8
DEFAULT_255_1_234
10
6.1452743
20
13.4459428
40
0.1472271
50
179.6142195
51
228.1246017
0
ARC
8
DEFAULT_255_1_234
10
6.1894412
20
13.4868308
40
0.2072299
50
226.5779593
51
230.8800004
0
ARC
8
DEFAULT_255_1_234
10
6.236549
20
13.5493636
40
0.2854818
50
231.4635071
51
241.9260842
0
ARC
8
DEFAULT_255_1_234
10
6.3562668
20
13.76968
40
0.53622
50
241.7178533
51
248.3259551
0
ARC
8
DEFAULT_255_1_234
10
6.494804
20
14.1129064
40
0.9063478
50
248.2007737
51
252.4528373
0
ARC
8
DEFAULT_255_1_234
10
6.6151765
20
14.4850441
40
1.2974635
50
252.3391078
51
254.3469452
0
ARC
8
DEFAULT_255_1_234
10
5.8609468
20
11.7873148
40
1.5037162
50
71.0197183
51
74.4087047
0
ARC
8
DEFAULT_255_1_234
10
6.0304153
20
12.2765111
40
0.9859993
50
66.1847285
51
71.086374
0
ARC
8
DEFAULT_255_1_234
10
6.1860465
20
12.62692
40
0.6025855
50
59.3536294
51
66.2691831
0
ARC
8
DEFAULT_255_1_234
10
6.2749118
20
12.7772609
40
0.4279449
50
49.1020879
51
59.3293958
0
ARC
8
DEFAULT_255_1_234
10
6.3567858
20
12.8705834
40
0.3038015
50
32.7919921
51
49.2505539
0
ARC
8
DEFAULT_255_1_234
10
6.3888948
20
12.8934191
40
0.264448
50
31.1181161
51
32.4005348
0
ARC
8
DEFAULT_255_1_234
10
6.3800485
20
12.8898779
40
0.2738556
50
8.1116974
51
30.7958831
0
ARC
8
DEFAULT_255_1_234
10
6.2990153
20
12.8760753
40
0.3560327
50
359.8389159
51
8.4706516
0
ARC
8
DEFAULT_255_1_234
10
6.3615945
20
12.8712137
40
0.2934776
50
337.4731098
51
0.7537279
0
ARC
8
DEFAULT_255_1_234
10
6.379464
20
12.8692387
40
0.2762607
50
307.5917067
51
336.4315538
0
ARC
8
DEFAULT_255_1_234
10
6.3334468
20
12.9205102
40
0.3449979
50
307.6551545
51
308.4529766
0
ARC
8
DEFAULT_255_1_234
10
6.3104187
20
12.956025
40
0.3871988
50
284.3734338
51
307.1424381
0
ARC
8
DEFAULT_255_1_234
10
6.2609017
20
13.1381932
40
0.5759636
50
272.4382747
51
284.646547
0
ARC
8
DEFAULT_255_1_234
10
6.2482226
20
13.3181893
40
0.7563528
50
269.9708387
51
272.8178037
0
ARC
8
DEFAULT_255_1_234
10
6.2439265
20
13.1143716
40
0.5525489
50
248.2707594
51
270.4055579
0
ARC
8
DEFAULT_255_1_234
10
6.2385006
20
13.0953192
40
0.5328452
50
246.1383403
51
248.0542782
0
ARC
8
DEFAULT_255_1_234
10
6.1966385
20
13.0073843
40
0.4355005
50
233.1670131
51
246.4950969
0
ARC
8
DEFAULT_255_1_234
10
6.141229
20
12.9325812
40
0.3424126
50
215.3403242
51
233.0843104
0
ARC
8
DEFAULT_255_1_234
10
6.1139721
20
12.9127549
40
0.3087104
50
179.2419209
51
215.2648451
0
ARC
8
DEFAULT_255_1_234
10
6.1907315
20
12.9141666
40
0.2304457
50
179.335461
51
199.1045811
0
ARC
8
DEFAULT_255_1_234
10
6.1574992
20
12.9054766
40
0.1962176
50
199.8828939
51
232.7063202
0
ARC
8
DEFAULT_255_1_234
10
6.204726
20
12.9648788
40
0.2720938
50
232.3738199
51
255.5136649
0
ARC
8
DEFAULT_255_1_234
10
6.2388127
20
13.0892835
40
0.4010747
50
255.2446292
51
267.5320849
0
ARC
8
DEFAULT_255_1_234
10
6.247575
20
13.2125702
40
0.5246356
50
267.1557994
51
270.0286766
0
ARC
8
DEFAULT_255_1_234
10
6.2503522
20
13.168195
40
0.4802668
50
269.7000017
51
278.1660162
0
ARC
8
DEFAULT_255_1_234
10
6.2759527
20
12.9951515
40
0.3053425
50
278.0231263
51
290.625471
0
ARC
8
DEFAULT_255_1_234
10
6.3107214
20
12.9024025
40
0.206291
50
290.6619762
51
307.0370976
0
ARC
8
DEFAULT_255_1_234
10
6.3407604
20
12.8655504
40
0.1587906
50
306.3943566
51
355.3030547
0
ARC
8
DEFAULT_255_1_234
10
6.2895535
20
12.8732113
40
0.2104809
50
354.3660432
51
0.0698737
0
ARC
8
DEFAULT_255_1_234
10
6.303788
20
12.8754617
40
0.1962563
50
359.417946
51
16.1971788
0
ARC
8
DEFAULT_255_1_234
10
6.3493191
20
12.8879418
40
0.149053
50
16.4723299
51
52.6262157
0
ARC
8
DEFAULT_255_1_234
10
6.2672244
20
12.7795433
40
0.2850296
50
52.7386432
51
62.4979148
0
ARC
8
DEFAULT_255_1_234
10
6.1287321
20
12.5189283
40
0.5801521
50
62.2515216
51
68.1220564
0
ARC
8
DEFAULT_255_1_234
10
5.9567232
20
12.0961872
40
1.0365451
50
68.0062803
51
71.8053402
0
ARC
8
DEFAULT_255_1_234
10
5.7771604
20
11.5576758
40
1.6042013
50
71.7183119
51
73.9258742
0
LINE
8
DEFAULT_255_1_234
10
4.3098299
20
21.6848211
11
4.5917439
21
21.2366501
0
LINE
8
DEFAULT_255_1_234
10
4.5917439
20
21.2366501
11
4.8720516
21
21.6848211
0
LINE
8
DEFAULT_255_1_234
10
4.8720516
20
21.6848211
11
5.0535689
21
21.6848211
0
LINE
8
DEFAULT_255_1_234
10
5.0535689
20
21.6848211
11
4.6841089
21
21.1049296
0
LINE
8
DEFAULT_255_1_234
10
4.6841089
20
21.1049296
11
5.0624038
21
20.5154
0
LINE
8
DEFAULT_255_1_234
10
5.0624038
20
20.5154
11
4.8792802
21
20.5154
0
LINE
8
DEFAULT_255_1_234
10
4.8792802
20
20.5154
11
4.5917439
21
20.9716027
0
LINE
8
DEFAULT_255_1_234
10
4.5917439
20
20.9716027
11
4.3026014
21
20.5154
0
LINE
8
DEFAULT_255_1_234
10
4.3026014
20
20.5154
11
4.1202809
21
20.5154
0
LINE
8
DEFAULT_255_1_234
10
4.1202809
20
20.5154
11
4.499379
21
21.1049296
0
LINE
8
DEFAULT_255_1_234
10
4.499379
20
21.1049296
11
4.1291158
21
21.6848211
0
LINE
8
DEFAULT_255_1_234
10
4.1291158
20
21.6848211
11
4.3098299
21
21.6848211
0
LINE
8
DEFAULT_255_1_234
10
5.3900987
20
21.0711963
11
5.271229
21
21.1017169
0
LINE
8
DEFAULT_255_1_234
10
5.271229
20
21.1017169
11
5.3306639
21
21.6848211
0
LINE
8
DEFAULT_255_1_234
10
5.3306639
20
21.6848211
11
5.9298315
21
21.6848211
0
LINE
8
DEFAULT_255_1_234
10
5.9298315
20
21.6848211
11
5.9298315
21
21.5474784
0
LINE
8
DEFAULT_255_1_234
10
5.9298315
20
21.5474784
11
5.4567622
21
21.5474784
0
LINE
8
DEFAULT_255_1_234
10
5.4567622
20
21.5474784
11
5.4214225
21
21.2286184
0
LINE
8
DEFAULT_255_1_234
10
5.229464
20
20.8230156
11
5.3700194
21
20.8230156
0
LINE
8
DEFAULT_255_1_234
10
5.4294542
20
21.1033232
11
5.3900987
21
21.0711963
0
ARC
8
DEFAULT_255_1_234
10
5.6069009
20
20.910623
40
0.3681349
50
93.7182161
51
120.2538958
0
ARC
8
DEFAULT_255_1_234
10
5.6163272
20
20.8298394
40
0.449379
50
89.9660152
51
94.2496022
0
ARC
8
DEFAULT_255_1_234
10
5.6204006
20
20.8887549
40
0.390482
50
73.8043271
51
90.5585896
0
ARC
8
DEFAULT_255_1_234
10
5.6438903
20
20.9745602
40
0.3015334
50
41.3071453
51
73.5430202
0
ARC
8
DEFAULT_255_1_234
10
5.602273
20
20.9387324
40
0.3564457
50
13.5075983
51
41.2174222
0
ARC
8
DEFAULT_255_1_234
10
5.4380934
20
20.8957486
40
0.5261351
50
1.1331335
51
13.8829381
0
ARC
8
DEFAULT_255_1_234
10
5.2969303
20
20.8881665
40
0.6674378
50
359.9919444
51
1.544251
0
ARC
8
DEFAULT_255_1_234
10
5.4246129
20
20.884028
40
0.5397702
50
347.8572367
51
0.4293338
0
ARC
8
DEFAULT_255_1_234
10
5.5996447
20
20.8443736
40
0.3603188
50
323.673004
51
348.1672506
0
ARC
8
DEFAULT_255_1_234
10
5.6290955
20
20.8264168
40
0.3259678
50
316.8171152
51
323.1492751
0
ARC
8
DEFAULT_255_1_234
10
5.6352144
20
20.822746
40
0.3189975
50
281.8396411
51
316.5457803
0
ARC
8
DEFAULT_255_1_234
10
5.5976408
20
20.9782762
40
0.4789527
50
269.5770101
51
282.4214771
0
ARC
8
DEFAULT_255_1_234
10
5.5905219
20
20.9569125
40
0.45759
50
256.2427136
51
270.4486331
0
ARC
8
DEFAULT_255_1_234
10
5.5606121
20
20.8369229
40
0.3339303
50
228.9023911
51
256.3314342
0
ARC
8
DEFAULT_255_1_234
10
5.5532354
20
20.8252746
40
0.32031
50
193.753695
51
228.5271154
0
ARC
8
DEFAULT_255_1_234
10
5.6770308
20
20.86158
40
0.4492253
50
184.924711
51
194.497588
0
ARC
8
DEFAULT_255_1_234
10
5.6962875
20
20.8651591
40
0.3289787
50
187.3600538
51
198.6732863
0
ARC
8
DEFAULT_255_1_234
10
5.5913169
20
20.8287674
40
0.217884
50
198.4451669
51
217.794479
0
ARC
8
DEFAULT_255_1_234
10
5.5617344
20
20.8078085
40
0.1816698
50
218.2887171
51
228.5612368
0
ARC
8
DEFAULT_255_1_234
10
5.5715131
20
20.8209963
40
0.1980329
50
228.9654866
51
258.1234728
0
ARC
8
DEFAULT_255_1_234
10
5.5920841
20
20.9090833
40
0.2884748
50
257.7258293
51
270.401361
0
ARC
8
DEFAULT_255_1_234
10
5.5965727
20
20.8645821
40
0.2439788
50
269.4204404
51
286.4209037
0
ARC
8
DEFAULT_255_1_234
10
5.6114215
20
20.8106657
40
0.1880666
50
286.7251356
51
320.600362
0
ARC
8
DEFAULT_255_1_234
10
5.573104
20
20.8417595
40
0.2374121
50
320.6712579
51
344.5441685
0
ARC
8
DEFAULT_255_1_234
10
5.4574366
20
20.8757045
40
0.3579479
50
344.2412205
51
356.7357071
0
ARC
8
DEFAULT_255_1_234
10
5.3325515
20
20.8860444
40
0.4832297
50
356.3548756
51
0.0500261
0
ARC
8
DEFAULT_255_1_234
10
5.4662024
20
20.889165
40
0.3495889
50
359.5576869
51
12.953486
0
ARC
8
DEFAULT_255_1_234
10
5.5716921
20
20.9147434
40
0.2410532
50
12.6490276
51
41.6081334
0
ARC
8
DEFAULT_255_1_234
10
5.5947292
20
20.9343321
40
0.2108218
50
41.7850273
51
85.9892764
0
ARC
8
DEFAULT_255_1_234
10
5.5824029
20
20.8530462
40
0.2928454
50
84.6957577
51
90.0676183
0
ARC
8
DEFAULT_255_1_234
10
5.5800513
20
20.7861716
40
0.3597255
50
89.6804936
51
99.1614436
0
ARC
8
DEFAULT_255_1_234
10
5.5595144
20
20.9089131
40
0.235281
50
98.9830931
51
113.8908934
0
ARC
8
DEFAULT_255_1_234
10
5.5365554
20
20.9630587
40
0.176479
50
114.1950727
51
127.3641004
0
LINE
8
DEFAULT_255_1_234
10
4.4156299
20
29.6223211
11
4.6975439
21
29.1741501
0
LINE
8
DEFAULT_255_1_234
10
4.6975439
20
29.1741501
11
4.9778516
21
29.6223211
0
LINE
8
DEFAULT_255_1_234
10
4.9778516
20
29.6223211
11
5.1593689
21
29.6223211
0
LINE
8
DEFAULT_255_1_234
10
5.1593689
20
29.6223211
11
4.7899089
21
29.0424296
0
LINE
8
DEFAULT_255_1_234
10
4.7899089
20
29.0424296
11
5.1682038
21
28.4529
0
LINE
8
DEFAULT_255_1_234
10
5.1682038
20
28.4529
11
4.9850802
21
28.4529
0
LINE
8
DEFAULT_255_1_234
10
4.9850802
20
28.4529
11
4.6975439
21
28.9091027
0
LINE
8
DEFAULT_255_1_234
10
4.6975439
20
28.9091027
11
4.4084014
21
28.4529
0
LINE
8
DEFAULT_255_1_234
10
4.4084014
20
28.4529
11
4.2260809
21
28.4529
0
LINE
8
DEFAULT_255_1_234
10
4.2260809
20
28.4529
11
4.605179
21
29.0424296
0
LINE
8
DEFAULT_255_1_234
10
4.605179
20
29.0424296
11
4.2349158
21
29.6223211
0
LINE
8
DEFAULT_255_1_234
10
4.2349158
20
29.6223211
11
4.4156299
21
29.6223211
0
LINE
8
DEFAULT_255_1_234
10
5.936038
20
29.6223211
11
5.936038
21
28.845652
0
LINE
8
DEFAULT_255_1_234
10
5.936038
20
28.845652
11
6.0982791
21
28.845652
0
LINE
8
DEFAULT_255_1_234
10
6.0982791
20
28.845652
11
6.0982791
21
28.7243728
0
LINE
8
DEFAULT_255_1_234
10
6.0982791
20
28.7243728
11
5.936038
21
28.7243728
0
LINE
8
DEFAULT_255_1_234
10
5.936038
20
28.7243728
11
5.936038
21
28.4529
0
LINE
8
DEFAULT_255_1_234
10
5.936038
20
28.4529
11
5.7866477
21
28.4529
0
LINE
8
DEFAULT_255_1_234
10
5.7866477
20
28.4529
11
5.7866477
21
28.7243728
0
LINE
8
DEFAULT_255_1_234
10
5.7866477
20
28.7243728
11
5.2541434
21
28.7243728
0
LINE
8
DEFAULT_255_1_234
10
5.2541434
20
28.7243728
11
5.2541434
21
28.8119187
0
LINE
8
DEFAULT_255_1_234
10
5.2541434
20
28.8119187
11
5.7778127
21
29.6223211
0
LINE
8
DEFAULT_255_1_234
10
5.7778127
20
29.6223211
11
5.936038
21
29.6223211
0
LINE
8
DEFAULT_255_1_234
10
5.7689778
20
29.3869912
11
5.4228099
21
28.845652
0
LINE
8
DEFAULT_255_1_234
10
5.4228099
20
28.845652
11
5.7866477
21
28.845652
0
LINE
8
DEFAULT_255_1_234
10
5.7866477
20
28.845652
11
5.7866477
21
29.4191181
0
LINE
8
DEFAULT_255_1_234
10
5.7866477
20
29.4191181
11
5.7689778
21
29.3869912
0
LINE
8
DEFAULT_255_1_234
10
4.3098299
20
37.5598211
11
4.5917439
21
37.1116501
0
LINE
8
DEFAULT_255_1_234
10
4.5917439
20
37.1116501
11
4.8720516
21
37.5598211
0
LINE
8
DEFAULT_255_1_234
10
4.8720516
20
37.5598211
11
5.0535689
21
37.5598211
0
LINE
8
DEFAULT_255_1_234
10
5.0535689
20
37.5598211
11
4.6841089
21
36.9799296
0
LINE
8
DEFAULT_255_1_234
10
4.6841089
20
36.9799296
11
5.0624038
21
36.3904
0
LINE
8
DEFAULT_255_1_234
10
5.0624038
20
36.3904
11
4.8792802
21
36.3904
0
LINE
8
DEFAULT_255_1_234
10
4.8792802
20
36.3904
11
4.5917439
21
36.8466027
0
LINE
8
DEFAULT_255_1_234
10
4.5917439
20
36.8466027
11
4.3026014
21
36.3904
0
LINE
8
DEFAULT_255_1_234
10
4.3026014
20
36.3904
11
4.1202809
21
36.3904
0
LINE
8
DEFAULT_255_1_234
10
4.1202809
20
36.3904
11
4.499379
21
36.9799296
0
LINE
8
DEFAULT_255_1_234
10
4.499379
20
36.9799296
11
4.1291158
21
37.5598211
0
LINE
8
DEFAULT_255_1_234
10
4.1291158
20
37.5598211
11
4.3098299
21
37.5598211
0
LINE
8
DEFAULT_255_1_234
10
5.419013
20
36.9261169
11
5.419013
21
37.0473962
0
LINE
8
DEFAULT_255_1_234
10
5.419013
20
37.0473962
11
5.5306542
21
37.0473962
0
LINE
8
DEFAULT_255_1_234
10
5.340302
20
37.2530087
11
5.1917148
21
37.2530087
0
LINE
8
DEFAULT_255_1_234
10
5.1812735
20
36.6988188
11
5.3306639
21
36.6988188
0
LINE
8
DEFAULT_255_1_234
10
5.5306542
20
36.9261169
11
5.419013
21
36.9261169
0
ARC
8
DEFAULT_255_1_234
10
5.5277408
20
37.3866713
40
0.3392876
50
270.4919872
51
281.8951556
0
ARC
8
DEFAULT_255_1_234
10
5.551867
20
37.2764702
40
0.2264817
50
281.6691735
51
301.2943132
0
ARC
8
DEFAULT_255_1_234
10
5.568888
20
37.2453304
40
0.1910381
50
301.7833094
51
311.7545298
0
ARC
8
DEFAULT_255_1_234
10
5.5780456
20
37.2351748
40
0.1773635
50
311.7323931
51
354.2802411
0
ARC
8
DEFAULT_255_1_234
10
5.5054081
20
37.2476722
40
0.2509385
50
353.0937916
51
0.1181479
0
ARC
8
DEFAULT_255_1_234
10
5.4592866
20
37.2524386
40
0.2970898
50
359.1805295
51
15.0453146
0
ARC
8
DEFAULT_255_1_234
10
5.5938703
20
37.2916992
40
0.1569564
50
13.9577229
51
77.6713066
0
ARC
8
DEFAULT_255_1_234
10
5.5552232
20
37.1531949
40
0.3006298
50
76.1116566
51
90.7026153
0
ARC
8
DEFAULT_255_1_234
10
5.549307
20
37.1805545
40
0.2732568
50
89.5324876
51
103.531937
0
ARC
8
DEFAULT_255_1_234
10
5.5292514
20
37.2604884
40
0.1908508
50
103.2931773
51
133.5619022
0
ARC
8
DEFAULT_255_1_234
10
5.5248003
20
37.2664375
40
0.1834746
50
133.8349307
51
173.5344437
0
ARC
8
DEFAULT_255_1_234
10
5.5971046
20
37.2536213
40
0.2568033
50
172.5096846
51
180.1366907
0
ARC
8
DEFAULT_255_1_234
10
5.501994
20
37.2570622
40
0.3103056
50
155.3484492
51
180.7484736
0
ARC
8
DEFAULT_255_1_234
10
5.4971029
20
37.2541846
40
0.3070957
50
131.5744599
51
154.4798489
0
ARC
8
DEFAULT_255_1_234
10
5.5284176
20
37.222531
40
0.3515643
50
96.9875458
51
131.9690667
0
ARC
8
DEFAULT_255_1_234
10
5.5503656
20
37.0979636
40
0.4779224
50
89.8596053
51
97.7825159
0
ARC
8
DEFAULT_255_1_234
10
5.5551719
20
37.0717616
40
0.5041361
50
78.3655447
51
90.4131539
0
ARC
8
DEFAULT_255_1_234
10
5.5909637
20
37.2376887
40
0.3344039
50
56.6229102
51
78.638727
0
ARC
8
DEFAULT_255_1_234
10
5.6124581
20
37.2752805
40
0.2912001
50
47.0253525
51
56.0854072
0
ARC
8
DEFAULT_255_1_234
10
5.6144361
20
37.2792223
40
0.2869704
50
10.9208013
51
46.7778124
0
ARC
8
DEFAULT_255_1_234
10
5.4780427
20
37.2476857
40
0.426899
50
359.6364486
51
11.6087304
0
ARC
8
DEFAULT_255_1_234
10
5.6615271
20
37.2461752
40
0.243409
50
332.3549906
51
359.7179418
0
ARC
8
DEFAULT_255_1_234
10
5.5964873
20
37.2770142
40
0.3153459
50
325.2333722
51
332.8745602
0
ARC
8
DEFAULT_255_1_234
10
5.6117496
20
37.2663828
40
0.2967456
50
292.9802137
51
325.2392345
0
ARC
8
DEFAULT_255_1_234
10
5.584287
20
37.3197863
40
0.3566604
50
292.5402179
51
293.6924929
0
ARC
8
DEFAULT_255_1_234
10
5.6235466
20
36.6743091
40
0.3307468
50
57.6435486
51
72.8625112
0
ARC
8
DEFAULT_255_1_234
10
5.6589966
20
36.7317549
40
0.2632492
50
36.7248896
51
57.4697979
0
ARC
8
DEFAULT_255_1_234
10
5.6578598
20
36.733022
40
0.2634081
50
8.0545065
51
36.356114
0
ARC
8
DEFAULT_255_1_234
10
5.5715784
20
36.7175174
40
0.3510261
50
359.8320645
51
8.5869982
0
ARC
8
DEFAULT_255_1_234
10
5.534056
20
36.7127101
40
0.3885653
50
343.9829931
51
0.5571613
0
ARC
8
DEFAULT_255_1_234
10
5.6226757
20
36.6884438
40
0.2966924
50
311.6359546
51
343.7651759
0
ARC
8
DEFAULT_255_1_234
10
5.5848326
20
36.7311102
40
0.3537231
50
279.7829875
51
311.6255694
0
ARC
8
DEFAULT_255_1_234
10
5.5547102
20
36.874828
40
0.5004971
50
269.7286406
51
280.3856417
0
ARC
8
DEFAULT_255_1_234
10
5.5485175
20
36.8706996
40
0.4963778
50
256.6828919
51
270.4412052
0
ARC
8
DEFAULT_255_1_234
10
5.5146471
20
36.7322394
40
0.3538406
50
229.4223008
51
256.8556159
0
ARC
8
DEFAULT_255_1_234
10
5.4731864
20
36.6855736
40
0.2914296
50
181.818294
51
229.6455059
0
ARC
8
DEFAULT_255_1_234
10
5.577182
20
36.6986496
40
0.3959084
50
179.9755256
51
183.2323064
0
ARC
8
DEFAULT_255_1_234
10
5.5599566
20
36.6966037
40
0.2293034
50
179.4465117
51
196.2869258
0
ARC
8
DEFAULT_255_1_234
10
5.5111974
20
36.6832651
40
0.1787621
50
196.5661473
51
227.705904
0
ARC
8
DEFAULT_255_1_234
10
5.5276069
20
36.7016155
40
0.2033784
50
227.7652068
51
257.8762805
0
ARC
8
DEFAULT_255_1_234
10
5.5501039
20
36.7959156
40
0.3003081
50
257.4584385
51
270.426602
0
ARC
8
DEFAULT_255_1_234
10
5.5546605
20
36.8248996
40
0.329292
50
269.5962073
51
280.8789248
0
ARC
8
DEFAULT_255_1_234
10
5.5776134
20
36.7102685
40
0.2123908
50
280.6346389
51
299.8595945
0
ARC
8
DEFAULT_255_1_234
10
5.596704
20
36.6740212
40
0.171457
50
300.3576302
51
314.5517981
0
ARC
8
DEFAULT_255_1_234
10
5.5884101
20
36.6800919
40
0.1816095
50
315.0728369
51
345.0431014
0
ARC
8
DEFAULT_255_1_234
10
5.4960915
20
36.7069841
40
0.2777492
50
344.5986631
51
357.9269593
0
ARC
8
DEFAULT_255_1_234
10
5.4065241
20
36.7131276
40
0.3674917
50
357.4748886
51
0.0231117
0
ARC
8
DEFAULT_255_1_234
10
5.5088351
20
36.7155679
40
0.2651907
50
359.5047933
51
13.4239635
0
ARC
8
DEFAULT_255_1_234
10
5.5954994
20
36.7377478
40
0.1757509
50
12.9498199
51
48.7551375
0
ARC
8
DEFAULT_255_1_234
10
5.5772728
20
36.71284
40
0.2065134
50
49.5088623
51
72.1836453
0
ARC
8
DEFAULT_255_1_234
10
5.5414881
20
36.6066291
40
0.3185836
50
71.9010081
51
84.3554254
0
ARC
8
DEFAULT_255_1_234
10
5.5253513
20
36.4705326
40
0.4556151
50
84.0193428
51
89.333121
0
LINE
8
DEFAULT_255_1_234
10
4.3098299
20
45.4973211
11
4.5917439
21
45.0491501
0
LINE
8
DEFAULT_255_1_234
10
4.5917439
20
45.0491501
11
4.8720516
21
45.4973211
0
LINE
8
DEFAULT_255_1_234
10
4.8720516
20
45.4973211
11
5.0535689
21
45.4973211
0
LINE
8
DEFAULT_255_1_234
10
5.0535689
20
45.4973211
11
4.6841089
21
44.9174296
0
LINE
8
DEFAULT_255_1_234
10
4.6841089
20
44.9174296
11
5.0624038
21
44.3279
0
LINE
8
DEFAULT_255_1_234
10
5.0624038
20
44.3279
11
4.8792802
21
44.3279
0
LINE
8
DEFAULT_255_1_234
10
4.8792802
20
44.3279
11
4.5917439
21
44.7841027
0
LINE
8
DEFAULT_255_1_234
10
4.5917439
20
44.7841027
11
4.3026014
21
44.3279
0
LINE
8
DEFAULT_255_1_234
10
4.3026014
20
44.3279
11
4.1202809
21
44.3279
0
LINE
8
DEFAULT_255_1_234
10
4.1202809
20
44.3279
11
4.499379
21
44.9174296
0
LINE
8
DEFAULT_255_1_234
10
4.499379
20
44.9174296
11
4.1291158
21
45.4973211
0
LINE
8
DEFAULT_255_1_234
10
4.1291158
20
45.4973211
11
4.3098299
21
45.4973211
0
LINE
8
DEFAULT_255_1_234
10
5.9691871
20
44.4491792
11
5.9691871
21
44.3279
0
LINE
8
DEFAULT_255_1_234
10
5.9691871
20
44.3279
11
5.2029592
21
44.3279
0
LINE
8
DEFAULT_255_1_234
10
5.2029592
20
44.3279
11
5.2029592
21
44.4347221
0
LINE
8
DEFAULT_255_1_234
10
5.2029592
20
44.4347221
11
5.6077588
21
44.8844995
0
LINE
8
DEFAULT_255_1_234
10
5.3290575
20
45.1527595
11
5.1804704
21
45.1527595
0
LINE
8
DEFAULT_255_1_234
10
5.6953048
20
44.7889218
11
5.382067
21
44.4491792
0
LINE
8
DEFAULT_255_1_234
10
5.382067
20
44.4491792
11
5.9691871
21
44.4491792
0
ARC
8
DEFAULT_255_1_234
10
4.2587422
20
46.0774527
40
1.8008286
50
318.5132453
51
320.7828378
0
ARC
8
DEFAULT_255_1_234
10
4.7874396
20
45.6471426
40
1.1191493
50
320.7372736
51
323.9737074
0
ARC
8
DEFAULT_255_1_234
10
5.1794252
20
45.3631361
40
0.6350923
50
323.8961724
51
328.6421089
0
ARC
8
DEFAULT_255_1_234
10
5.3840848
20
45.2369031
40
0.3946393
50
328.8299013
51
331.789948
0
ARC
8
DEFAULT_255_1_234
10
5.4838026
20
45.1854509
40
0.2824501
50
331.4255242
51
352.9364833
0
ARC
8
DEFAULT_255_1_234
10
5.4974527
20
45.1823976
40
0.2685315
50
353.2248685
51
0.0169286
0
ARC
8
DEFAULT_255_1_234
10
5.5184404
20
45.184695
40
0.2475536
50
359.4866256
51
15.9339782
0
ARC
8
DEFAULT_255_1_234
10
5.5691389
20
45.1983286
40
0.1950618
50
16.1714718
51
43.5284424
0
ARC
8
DEFAULT_255_1_234
10
5.5768698
20
45.2060573
40
0.184134
50
43.4415429
51
83.1661404
0
ARC
8
DEFAULT_255_1_234
10
5.5634616
20
45.1323771
40
0.258926
50
82.160215
51
90.1505798
0
ARC
8
DEFAULT_255_1_234
10
5.5603043
20
45.0786865
40
0.3126255
50
89.5460705
51
102.5418777
0
ARC
8
DEFAULT_255_1_234
10
5.5360129
20
45.1817665
40
0.2067346
50
102.1739365
51
129.2061916
0
ARC
8
DEFAULT_255_1_234
10
5.5281201
20
45.1942094
40
0.1921118
50
129.7279328
51
135.7542026
0
ARC
8
DEFAULT_255_1_234
10
5.5402729
20
45.1845045
40
0.2075944
50
136.175737
51
166.3674722
0
ARC
8
DEFAULT_255_1_234
10
5.6409648
20
45.1575182
40
0.3118201
50
165.9092917
51
178.8683903
0
ARC
8
DEFAULT_255_1_234
10
5.7274509
20
45.1528179
40
0.3983935
50
178.438168
51
180.0083905
0
ARC
8
DEFAULT_255_1_234
10
5.5873111
20
45.1567231
40
0.4068601
50
163.2878735
51
180.5581814
0
ARC
8
DEFAULT_255_1_234
10
5.5071373
20
45.178784
40
0.3237344
50
133.454115
51
162.9470031
0
ARC
8
DEFAULT_255_1_234
10
5.5249914
20
45.1598
40
0.349795
50
100.7869394
51
133.4384016
0
ARC
8
DEFAULT_255_1_234
10
5.5597686
20
45.0049319
40
0.5084616
50
89.6605301
51
101.3704185
0
ARC
8
DEFAULT_255_1_234
10
5.5664024
20
45.0110496
40
0.502348
50
78.2171172
51
90.4130393
0
ARC
8
DEFAULT_255_1_234
10
5.6019103
20
45.1734637
40
0.3361092
50
55.9268222
51
78.4888551
0
ARC
8
DEFAULT_255_1_234
10
5.6215543
20
45.2073324
40
0.2970617
50
47.9292255
51
55.4054003
0
ARC
8
DEFAULT_255_1_234
10
5.6317103
20
45.2176502
40
0.2825983
50
4.3347696
51
48.0560701
0
ARC
8
DEFAULT_255_1_234
10
5.5221497
20
45.2006601
40
0.393225
50
359.925209
51
5.5967654
0
ARC
8
DEFAULT_255_1_234
10
5.5650389
20
45.2062816
40
0.3503892
50
337.8914096
51
358.9967724
0
ARC
8
DEFAULT_255_1_234
10
5.2936801
20
45.3109706
40
0.6412172
50
326.9135351
51
338.3505194
0
ARC
8
DEFAULT_255_1_234
10
4.8951105
20
45.5664284
40
1.1146189
50
319.6472867
51
327.095818
0
ARC
8
DEFAULT_255_1_234
10
4.5118108
20
45.8826
40
1.6114559
50
317.2586784
51
319.9046139
0
LINE
8
DEFAULT_255_1_234
10
4.3014299
20
53.4348211
11
4.5833439
21
52.9866501
0
LINE
8
DEFAULT_255_1_234
10
4.5833439
20
52.9866501
11
4.8636516
21
53.4348211
0
LINE
8
DEFAULT_255_1_234
10
4.8636516
20
53.4348211
11
5.0451689
21
53.4348211
0
LINE
8
DEFAULT_255_1_234
10
5.0451689
20
53.4348211
11
4.6757089
21
52.8549296
0
LINE
8
DEFAULT_255_1_234
10
4.6757089
20
52.8549296
11
5.0540038
21
52.2654
0
LINE
8
DEFAULT_255_1_234
10
5.0540038
20
52.2654
11
4.8708802
21
52.2654
0
LINE
8
DEFAULT_255_1_234
10
4.8708802
20
52.2654
11
4.5833439
21
52.7216027
0
LINE
8
DEFAULT_255_1_234
10
4.5833439
20
52.7216027
11
4.2942014
21
52.2654
0
LINE
8
DEFAULT_255_1_234
10
4.2942014
20
52.2654
11
4.1118809
21
52.2654
0
LINE
8
DEFAULT_255_1_234
10
4.1118809
20
52.2654
11
4.490979
21
52.8549296
0
LINE
8
DEFAULT_255_1_234
10
4.490979
20
52.8549296
11
4.1207158
21
53.4348211
0
LINE
8
DEFAULT_255_1_234
10
4.1207158
20
53.4348211
11
4.3014299
21
53.4348211
0
LINE
8
DEFAULT_255_1_234
10
5.6828889
20
53.4404433
11
5.6828889
21
52.2654
0
LINE
8
DEFAULT_255_1_234
10
5.6828889
20
52.2654
11
5.5334986
21
52.2654
0
LINE
8
DEFAULT_255_1_234
10
5.5334986
20
52.2654
11
5.5334986
21
53.2557133
0
LINE
8
DEFAULT_255_1_234
10
5.5334986
20
53.2557133
11
5.2339147
21
53.1456785
0
LINE
8
DEFAULT_255_1_234
10
5.2339147
20
53.1456785
11
5.2339147
21
53.2806117
0
LINE
8
DEFAULT_255_1_234
10
5.2339147
20
53.2806117
11
5.6595969
21
53.4404433
0
LINE
8
DEFAULT_255_1_234
10
5.6595969
20
53.4404433
11
5.6828889
21
53.4404433
0
LINE
8
DEFAULT_255_1_234
10
4.3098299
20
61.3723211
11
4.5917439
21
60.9241501
0
LINE
8
DEFAULT_255_1_234
10
4.5917439
20
60.9241501
11
4.8720516
21
61.3723211
0
LINE
8
DEFAULT_255_1_234
10
4.8720516
20
61.3723211
11
5.0535689
21
61.3723211
0
LINE
8
DEFAULT_255_1_234
10
5.0535689
20
61.3723211
11
4.6841089
21
60.7924296
0
LINE
8
DEFAULT_255_1_234
10
4.6841089
20
60.7924296
11
5.0624038
21
60.2029
0
LINE
8
DEFAULT_255_1_234
10
5.0624038
20
60.2029
11
4.8792802
21
60.2029
0
LINE
8
DEFAULT_255_1_234
10
4.8792802
20
60.2029
11
4.5917439
21
60.6591027
0
LINE
8
DEFAULT_255_1_234
10
4.5917439
20
60.6591027
11
4.3026014
21
60.2029
0
LINE
8
DEFAULT_255_1_234
10
4.3026014
20
60.2029
11
4.1202809
21
60.2029
0
LINE
8
DEFAULT_255_1_234
10
4.1202809
20
60.2029
11
4.499379
21
60.7924296
0
LINE
8
DEFAULT_255_1_234
10
4.499379
20
60.7924296
11
4.1291158
21
61.3723211
0
LINE
8
DEFAULT_255_1_234
10
4.1291158
20
61.3723211
11
4.3098299
21
61.3723211
0
LINE
8
DEFAULT_255_1_234
10
5.9362569
20
60.8944327
11
5.9362569
21
60.7016709
0
LINE
8
DEFAULT_255_1_234
10
5.1981402
20
60.6815916
11
5.1981402
21
60.8799755
0
LINE
8
DEFAULT_255_1_234
10
5.7876698
20
60.6615123
11
5.7876698
21
60.9048739
0
LINE
8
DEFAULT_255_1_234
10
5.3467273
20
60.9161184
11
5.3467273
21
60.6783789
0
ARC
8
DEFAULT_255_1_234
10
4.7115459
20
60.6967805
40
1.2247208
50
353.8441951
51
0.2287902
0
ARC
8
DEFAULT_255_1_234
10
5.1754963
20
60.6449806
40
0.7578929
50
344.4934747
51
353.9765454
0
ARC
8
DEFAULT_255_1_234
10
5.4747553
20
60.5598981
40
0.4467846
50
329.2803592
51
344.7472793
0
ARC
8
DEFAULT_255_1_234
10
5.5740378
20
60.5054018
40
0.3336173
50
324.9352394
51
328.6160465
0
ARC
8
DEFAULT_255_1_234
10
5.6117486
20
60.4790427
40
0.2876076
50
280.580143
51
324.9173126
0
ARC
8
DEFAULT_255_1_234
10
5.5716279
20
60.6461099
40
0.4592847
50
269.5977311
51
281.6734359
0
ARC
8
DEFAULT_255_1_234
10
5.5644185
20
60.6341173
40
0.4472986
50
256.6228859
51
270.51044
0
ARC
8
DEFAULT_255_1_234
10
5.5242162
20
60.4792877
40
0.2873874
50
215.8618325
51
257.2788573
0
ARC
8
DEFAULT_255_1_234
10
5.6263194
20
60.5477977
40
0.4102928
50
197.9693508
51
215.2623606
0
ARC
8
DEFAULT_255_1_234
10
5.874831
20
60.6316709
40
0.6725652
50
187.8816417
51
198.2346507
0
ARC
8
DEFAULT_255_1_234
10
6.2706518
20
60.6888079
40
1.0724845
50
180.8976217
51
188.0055519
0
ARC
8
DEFAULT_255_1_234
10
6.5506706
20
60.6991777
40
1.3526448
50
180.7449369
51
181.1510016
0
ARC
8
DEFAULT_255_1_234
10
6.3929435
20
60.8848042
40
1.1948131
50
173.7675579
51
180.231553
0
ARC
8
DEFAULT_255_1_234
10
5.9411582
20
60.9358666
40
0.7401564
50
164.3058563
51
173.9002247
0
ARC
8
DEFAULT_255_1_234
10
5.649965
20
61.0197656
40
0.4371288
50
148.7922025
51
164.568378
0
ARC
8
DEFAULT_255_1_234
10
5.5548103
20
61.0728929
40
0.3282386
50
144.5883898
51
148.1176286
0
ARC
8
DEFAULT_255_1_234
10
5.5205001
20
61.0968315
40
0.2864044
50
101.6440918
51
144.514236
0
ARC
8
DEFAULT_255_1_234
10
5.5630067
20
60.9279069
40
0.4604934
50
89.5284041
51
102.5819763
0
ARC
8
DEFAULT_255_1_234
10
5.5709155
20
60.9240018
40
0.464401
50
77.0437873
51
90.5081339
0
ARC
8
DEFAULT_255_1_234
10
5.6111157
20
61.0882615
40
0.2953195
50
48.2778575
51
77.4994676
0
ARC
8
DEFAULT_255_1_234
10
5.6183788
20
61.1011746
40
0.2808655
50
36.3142134
51
47.6305865
0
ARC
8
DEFAULT_255_1_234
10
5.5315095
20
61.0426515
40
0.3855453
50
18.2931786
51
35.6769206
0
ARC
8
DEFAULT_255_1_234
10
5.2771854
20
60.9553593
40
0.654423
50
8.024666
51
18.5605216
0
ARC
8
DEFAULT_255_1_234
10
4.8608774
20
60.8938792
40
1.0752407
50
1.1274072
51
8.1718305
0
ARC
8
DEFAULT_255_1_234
10
4.5372964
20
60.8811885
40
1.3990231
50
0.5424119
51
1.3863029
0
ARC
8
DEFAULT_255_1_234
10
4.7194342
20
60.9084342
40
1.0682415
50
359.8090433
51
4.9407866
0
ARC
8
DEFAULT_255_1_234
10
5.1404356
20
60.9460113
40
0.6455691
50
4.8362157
51
12.2904523
0
ARC
8
DEFAULT_255_1_234
10
5.4159471
20
61.0073965
40
0.3633074
50
12.0805627
51
23.8173984
0
ARC
8
DEFAULT_255_1_234
10
5.5333176
20
61.0570919
40
0.2358723
50
24.2871213
51
31.3935614
0
ARC
8
DEFAULT_255_1_234
10
5.5857874
20
61.0914233
40
0.1732111
50
30.7407893
51
82.4657128
0
ARC
8
DEFAULT_255_1_234
10
5.5678008
20
61.0030691
40
0.263235
50
81.1060089
51
90.2184952
0
ARC
8
DEFAULT_255_1_234
10
5.5642307
20
61.0288924
40
0.2374236
50
89.3806855
51
105.6762551
0
ARC
8
DEFAULT_255_1_234
10
5.5458938
20
61.0955567
40
0.1682847
50
105.7981136
51
149.7388061
0
ARC
8
DEFAULT_255_1_234
10
5.6523016
20
61.031595
40
0.2924306
50
149.4208916
51
163.6286378
0
ARC
8
DEFAULT_255_1_234
10
5.8613904
20
60.967825
40
0.5110213
50
163.3763315
51
172.1410975
0
ARC
8
DEFAULT_255_1_234
10
6.1914623
20
60.9205518
40
0.8444586
50
172.0259487
51
178.0703232
0
ARC
8
DEFAULT_255_1_234
10
6.4944712
20
60.9061906
40
1.1477868
50
177.8631668
51
179.5044149
0
ARC
8
DEFAULT_255_1_234
10
6.3872117
20
60.6747389
40
1.0404907
50
179.7995573
51
185.2460446
0
ARC
8
DEFAULT_255_1_234
10
5.9829156
20
60.6364513
40
0.6343885
50
185.1411642
51
193.0079639
0
ARC
8
DEFAULT_255_1_234
10
5.7185629
20
60.5739641
40
0.3627568
50
192.7897626
51
205.2507664
0
ARC
8
DEFAULT_255_1_234
10
5.6139176
20
60.5272415
40
0.2481908
50
205.8005384
51
211.2537509
0
ARC
8
DEFAULT_255_1_234
10
5.5615616
20
60.492158
40
0.1852521
50
210.3789793
51
238.4008143
0
ARC
8
DEFAULT_255_1_234
10
5.5596138
20
60.4968376
40
0.1882621
50
239.6520629
51
265.9793761
0
ARC
8
DEFAULT_255_1_234
10
5.5681338
20
60.5640427
40
0.2559272
50
265.1315437
51
270.060332
0
ARC
8
DEFAULT_255_1_234
10
5.5710117
20
60.5316534
40
0.2235528
50
269.3314664
51
287.2178029
0
ARC
8
DEFAULT_255_1_234
10
5.5847969
20
60.4813279
40
0.1714108
50
287.7958004
51
329.080874
0
ARC
8
DEFAULT_255_1_234
10
5.4890426
20
60.541093
40
0.2842745
50
328.6634704
51
343.3325132
0
ARC
8
DEFAULT_255_1_234
10
5.2717446
20
60.6087863
40
0.5118644
50
343.0499468
51
351.9393422
0
ARC
8
DEFAULT_255_1_234
10
4.9250746
20
60.6598949
40
0.8622784
50
351.8069023
51
357.7959224
0
ARC
8
DEFAULT_255_1_234
10
4.6015302
20
60.6766721
40
1.1862365
50
357.5871873
51
359.2677531
0
LINE
8
DEFAULT_255_1_234
10
22.1798119
20
68.2616792
11
22.1798119
21
68.1404
0
LINE
8
DEFAULT_255_1_234
10
22.1798119
20
68.1404
11
21.413584
21
68.1404
0
LINE
8
DEFAULT_255_1_234
10
21.413584
20
68.1404
11
21.413584
21
68.2472221
0
LINE
8
DEFAULT_255_1_234
10
21.413584
20
68.2472221
11
21.8183836
21
68.6969995
0
LINE
8
DEFAULT_255_1_234
10
21.5396823
20
68.9652595
11
21.3910952
21
68.9652595
0
LINE
8
DEFAULT_255_1_234
10
21.9059296
20
68.6014218
11
21.5926918
21
68.2616792
0
LINE
8
DEFAULT_255_1_234
10
21.5926918
20
68.2616792
11
22.1798119
21
68.2616792
0
ARC
8
DEFAULT_255_1_234
10
20.469367
20
69.8899527
40
1.8008286
50
318.5132453
51
320.7828378
0
ARC
8
DEFAULT_255_1_234
10
20.9980644
20
69.4596426
40
1.1191493
50
320.7372736
51
323.9737074
0
ARC
8
DEFAULT_255_1_234
10
21.3900501
20
69.1756361
40
0.6350923
50
323.8961724
51
328.6421089
0
ARC
8
DEFAULT_255_1_234
10
21.5947096
20
69.0494031
40
0.3946393
50
328.8299013
51
331.789948
0
ARC
8
DEFAULT_255_1_234
10
21.6944274
20
68.9979509
40
0.2824501
50
331.4255242
51
352.9364833
0
ARC
8
DEFAULT_255_1_234
10
21.7080775
20
68.9948976
40
0.2685315
50
353.2248685
51
0.0169286
0
ARC
8
DEFAULT_255_1_234
10
21.7290652
20
68.997195
40
0.2475536
50
359.4866256
51
15.9339782
0
ARC
8
DEFAULT_255_1_234
10
21.7797637
20
69.0108286
40
0.1950618
50
16.1714718
51
43.5284424
0
ARC
8
DEFAULT_255_1_234
10
21.7874946
20
69.0185573
40
0.184134
50
43.4415429
51
83.1661404
0
ARC
8
DEFAULT_255_1_234
10
21.7740864
20
68.9448771
40
0.258926
50
82.160215
51
90.1505798
0
ARC
8
DEFAULT_255_1_234
10
21.7709291
20
68.8911865
40
0.3126255
50
89.5460705
51
102.5418777
0
ARC
8
DEFAULT_255_1_234
10
21.7466377
20
68.9942665
40
0.2067346
50
102.1739365
51
129.2061916
0
ARC
8
DEFAULT_255_1_234
10
21.7387449
20
69.0067094
40
0.1921118
50
129.7279328
51
135.7542026
0
ARC
8
DEFAULT_255_1_234
10
21.7508977
20
68.9970045
40
0.2075944
50
136.175737
51
166.3674722
0
ARC
8
DEFAULT_255_1_234
10
21.8515896
20
68.9700182
40
0.3118201
50
165.9092917
51
178.8683903
0
ARC
8
DEFAULT_255_1_234
10
21.9380757
20
68.9653179
40
0.3983935
50
178.438168
51
180.0083905
0
ARC
8
DEFAULT_255_1_234
10
21.7979359
20
68.9692231
40
0.4068601
50
163.2878735
51
180.5581814
0
ARC
8
DEFAULT_255_1_234
10
21.7177621
20
68.991284
40
0.3237344
50
133.454115
51
162.9470031
0
ARC
8
DEFAULT_255_1_234
10
21.7356162
20
68.9723
40
0.349795
50
100.7869394
51
133.4384016
0
ARC
8
DEFAULT_255_1_234
10
21.7703934
20
68.8174319
40
0.5084616
50
89.6605301
51
101.3704185
0
ARC
8
DEFAULT_255_1_234
10
21.7770273
20
68.8235496
40
0.502348
50
78.2171172
51
90.4130393
0
ARC
8
DEFAULT_255_1_234
10
21.8125351
20
68.9859637
40
0.3361092
50
55.9268222
51
78.4888551
0
ARC
8
DEFAULT_255_1_234
10
21.8321791
20
69.0198324
40
0.2970617
50
47.9292255
51
55.4054003
0
ARC
8
DEFAULT_255_1_234
10
21.8423352
20
69.0301502
40
0.2825983
50
4.3347696
51
48.0560701
0
ARC
8
DEFAULT_255_1_234
10
21.7327745
20
69.0131601
40
0.393225
50
359.925209
51
5.5967654
0
ARC
8
DEFAULT_255_1_234
10
21.7756637
20
69.0187816
40
0.3503892
50
337.8914096
51
358.9967724
0
ARC
8
DEFAULT_255_1_234
10
21.5043049
20
69.1234706
40
0.6412172
50
326.9135351
51
338.3505194
0
ARC
8
DEFAULT_255_1_234
10
21.1057353
20
69.3789284
40
1.1146189
50
319.6472867
51
327.095818
0
ARC
8
DEFAULT_255_1_234
10
20.7224356
20
69.6951
40
1.6114559
50
317.2586784
51
319.9046139
0
LINE
8
DEFAULT_255_1_234
10
22.9645127
20
69.3098211
11
22.9645127
21
68.533152
0
LINE
8
DEFAULT_255_1_234
10
22.9645127
20
68.533152
11
23.1267538
21
68.533152
0
LINE
8
DEFAULT_255_1_234
10
23.1267538
20
68.533152
11
23.1267538
21
68.4118728
0
LINE
8
DEFAULT_255_1_234
10
23.1267538
20
68.4118728
11
22.9645127
21
68.4118728
0
LINE
8
DEFAULT_255_1_234
10
22.9645127
20
68.4118728
11
22.9645127
21
68.1404
0
LINE
8
DEFAULT_255_1_234
10
22.9645127
20
68.1404
11
22.8151224
21
68.1404
0
LINE
8
DEFAULT_255_1_234
10
22.8151224
20
68.1404
11
22.8151224
21
68.4118728
0
LINE
8
DEFAULT_255_1_234
10
22.8151224
20
68.4118728
11
22.2826181
21
68.4118728
0
LINE
8
DEFAULT_255_1_234
10
22.2826181
20
68.4118728
11
22.2826181
21
68.4994187
0
LINE
8
DEFAULT_255_1_234
10
22.2826181
20
68.4994187
11
22.8062875
21
69.3098211
0
LINE
8
DEFAULT_255_1_234
10
22.8062875
20
69.3098211
11
22.9645127
21
69.3098211
0
LINE
8
DEFAULT_255_1_234
10
22.7974525
20
69.0744912
11
22.4512846
21
68.533152
0
LINE
8
DEFAULT_255_1_234
10
22.4512846
20
68.533152
11
22.8151224
21
68.533152
0
LINE
8
DEFAULT_255_1_234
10
22.8151224
20
68.533152
11
22.8151224
21
69.1066181
0
LINE
8
DEFAULT_255_1_234
10
22.8151224
20
69.1066181
11
22.7974525
21
69.0744912
0
LINE
8
DEFAULT_255_1_234
10
24.162848
20
68.722701
11
24.162848
21
68.2938062
0
LINE
8
DEFAULT_255_1_234
10
23.261687
20
68.6688884
11
23.261687
21
68.7708915
0
LINE
8
DEFAULT_255_1_234
10
24.162848
20
68.9668659
11
24.0086387
21
68.9668659
0
LINE
8
DEFAULT_255_1_234
10
23.4166996
20
68.7749073
11
23.4166996
21
68.6793296
0
LINE
8
DEFAULT_255_1_234
10
24.0094418
20
68.3347681
11
24.0094418
21
68.5974059
0
LINE
8
DEFAULT_255_1_234
10
24.0094418
20
68.5974059
11
23.7387723
21
68.5974059
0
LINE
8
DEFAULT_255_1_234
10
23.7387723
20
68.5974059
11
23.7387723
21
68.722701
0
LINE
8
DEFAULT_255_1_234
10
23.7387723
20
68.722701
11
24.162848
21
68.722701
0
ARC
8
DEFAULT_255_1_234
10
23.8796987
20
68.4931396
40
0.3462765
50
295.8437914
51
324.8549609
0
ARC
8
DEFAULT_255_1_234
10
23.8380954
20
68.5684567
40
0.4322211
50
291.5695085
51
296.4549398
0
ARC
8
DEFAULT_255_1_234
10
23.7870205
20
68.7049275
40
0.5779178
50
278.6622409
51
291.3045483
0
ARC
8
DEFAULT_255_1_234
10
23.7530697
20
68.9197408
40
0.7953952
50
270.020006
51
278.7494541
0
ARC
8
DEFAULT_255_1_234
10
23.7492621
20
69.0514036
40
0.927067
50
269.9969998
51
270.2524872
0
ARC
8
DEFAULT_255_1_234
10
23.7454334
20
68.6430589
40
0.5187361
50
253.5786322
51
270.4175299
0
ARC
8
DEFAULT_255_1_234
10
23.728099
20
68.5759236
40
0.4494451
50
238.8203306
51
253.2788235
0
ARC
8
DEFAULT_255_1_234
10
23.7261363
20
68.5708231
40
0.4440665
50
206.7883783
51
238.6962764
0
ARC
8
DEFAULT_255_1_234
10
23.8035273
20
68.6172405
40
0.5341121
50
206.1129412
51
207.4916643
0
ARC
8
DEFAULT_255_1_234
10
23.8632188
20
68.6426488
40
0.5989041
50
188.6921119
51
205.7821245
0
ARC
8
DEFAULT_255_1_234
10
24.048855
20
68.674223
40
0.7871862
50
180.3882829
51
188.9219216
0
ARC
8
DEFAULT_255_1_234
10
24.1716364
20
68.7765464
40
0.909967
50
170.2024264
51
180.3560651
0
ARC
8
DEFAULT_255_1_234
10
23.8552882
20
68.8331237
40
0.5886083
50
154.2857445
51
170.3893044
0
ARC
8
DEFAULT_255_1_234
10
23.7271085
20
68.891795
40
0.4476743
50
139.8401567
51
153.9332699
0
ARC
8
DEFAULT_255_1_234
10
23.6911821
20
68.9205577
40
0.4016697
50
98.4190291
51
139.6707122
0
ARC
8
DEFAULT_255_1_234
10
23.7291339
20
68.7360328
40
0.5898566
50
89.7659205
51
99.4415478
0
ARC
8
DEFAULT_255_1_234
10
23.7356588
20
68.7425844
40
0.5833147
50
78.0551672
51
90.4042112
0
ARC
8
DEFAULT_255_1_234
10
23.7761098
20
68.9244644
40
0.3970055
50
54.6380464
51
78.3339173
0
ARC
8
DEFAULT_255_1_234
10
23.7951154
20
68.9564795
40
0.3599102
50
50.031736
51
54.1558201
0
ARC
8
DEFAULT_255_1_234
10
23.7843942
20
68.9468766
40
0.3741624
50
18.1092409
51
49.7180913
0
ARC
8
DEFAULT_255_1_234
10
23.6387142
20
68.8935089
40
0.5292424
50
7.9672797
51
18.6984571
0
ARC
8
DEFAULT_255_1_234
10
23.653762
20
68.9058504
40
0.3600838
50
9.7557294
51
27.3215714
0
ARC
8
DEFAULT_255_1_234
10
23.7665092
20
68.9621912
40
0.2340608
50
27.7361077
51
84.5257964
0
ARC
8
DEFAULT_255_1_234
10
23.7337479
20
68.797864
40
0.4011215
50
82.106034
51
90.2001166
0
ARC
8
DEFAULT_255_1_234
10
23.7287696
20
68.8486215
40
0.3503799
50
89.4150119
51
105.5823402
0
ARC
8
DEFAULT_255_1_234
10
23.7030694
20
68.9421867
40
0.2533503
50
105.6678618
51
144.2648758
0
ARC
8
DEFAULT_255_1_234
10
23.7923949
20
68.8786289
40
0.3629787
50
144.3561283
51
162.8564086
0
ARC
8
DEFAULT_255_1_234
10
24.0007858
20
68.8117017
40
0.5818441
50
162.6076014
51
173.6780284
0
ARC
8
DEFAULT_255_1_234
10
24.3069002
20
68.774489
40
0.8902007
50
173.4670142
51
179.9730753
0
ARC
8
DEFAULT_255_1_234
10
24.1160673
20
68.675126
40
0.6993804
50
179.6556203
51
190.0080463
0
ARC
8
DEFAULT_255_1_234
10
23.8844502
20
68.6326375
40
0.4639066
50
189.8116607
51
206.6796816
0
ARC
8
DEFAULT_255_1_234
10
23.7999654
20
68.5932503
40
0.3707421
50
207.1031645
51
217.7074368
0
ARC
8
DEFAULT_255_1_234
10
23.7365343
20
68.5380559
40
0.2868417
50
216.7345547
51
265.6812148
0
ARC
8
DEFAULT_255_1_234
10
23.7496134
20
68.6284855
40
0.3780509
50
264.7366618
51
270.0611241
0
ARC
8
DEFAULT_255_1_234
10
23.7519397
20
68.9125111
40
0.662079
50
269.8335834
51
276.0539546
0
ARC
8
DEFAULT_255_1_234
10
23.7726402
20
68.722356
40
0.4708016
50
275.9894168
51
284.4615085
0
ARC
8
DEFAULT_255_1_234
10
23.7924409
20
68.6390663
40
0.3852094
50
284.7034461
51
286.4953897
0
ARC
8
DEFAULT_255_1_234
10
23.8331422
20
68.5079965
40
0.2479842
50
286.0770838
51
304.2625829
0
ARC
8
DEFAULT_255_1_234
10
23.8464836
20
68.4861594
40
0.2224291
50
304.5891602
51
317.1073298
0
LINE
8
DEFAULT_255_1_234
10
20.458823
20
5.0114663
11
20.6138355
21
5.0114663
0
LINE
8
DEFAULT_255_1_234
10
19.7134777
20
5.1704947
11
19.7134777
21
5.2829391
0
LINE
8
DEFAULT_255_1_234
10
20.6138355
20
5.4339357
11
20.458823
21
5.4339357
0
LINE
8
DEFAULT_255_1_234
10
19.8684902
20
5.2789232
11
19.8684902
21
5.1656757
0
ARC
8
DEFAULT_255_1_234
10
20.0657742
20
5.0711846
40
0.5513052
50
340.1774281
51
353.7814284
0
ARC
8
DEFAULT_255_1_234
10
20.2229095
20
5.0126582
40
0.3836379
50
311.4558989
51
340.4421614
0
ARC
8
DEFAULT_255_1_234
10
20.2195763
20
5.0237528
40
0.3941894
50
282.4333181
51
310.7513653
0
ARC
8
DEFAULT_255_1_234
10
20.1756502
20
5.2052679
40
0.5809175
50
269.9358511
51
282.809604
0
ARC
8
DEFAULT_255_1_234
10
20.1704568
20
5.3510212
40
0.7266847
50
270.0021091
51
270.3581957
0
ARC
8
DEFAULT_255_1_234
10
20.1651985
20
5.0909585
40
0.4666519
50
250.7884749
51
270.6489167
0
ARC
8
DEFAULT_255_1_234
10
20.148382
20
5.0272319
40
0.4009729
50
219.3627325
51
250.0611886
0
ARC
8
DEFAULT_255_1_234
10
20.2313031
20
5.0977042
40
0.5097822
50
193.5479632
51
219.5756669
0
ARC
8
DEFAULT_255_1_234
10
20.4684652
20
5.1592919
40
0.7547848
50
181.1218675
51
193.87563
0
ARC
8
DEFAULT_255_1_234
10
20.6754833
20
5.170358
40
0.9620055
50
179.9918545
51
181.5394234
0
ARC
8
DEFAULT_255_1_234
10
20.4903935
20
5.2866788
40
0.7769248
50
169.5837241
51
180.2757934
0
ARC
8
DEFAULT_255_1_234
10
20.3066873
20
5.3206229
40
0.590109
50
155.0365899
51
169.6003176
0
ARC
8
DEFAULT_255_1_234
10
20.1931337
20
5.3753677
40
0.4640625
50
136.783148
51
155.2472683
0
ARC
8
DEFAULT_255_1_234
10
20.1541814
20
5.4084562
40
0.4130255
50
121.7633186
51
136.428115
0
ARC
8
DEFAULT_255_1_234
10
20.1676776
20
5.3835227
40
0.4413323
50
95.6459699
51
121.5490577
0
ARC
8
DEFAULT_255_1_234
10
20.1834058
20
5.2726949
40
0.55319
50
89.924208
51
96.1377933
0
ARC
8
DEFAULT_255_1_234
10
20.1884491
20
5.2845542
40
0.5413475
50
76.6779277
51
90.4563316
0
ARC
8
DEFAULT_255_1_234
10
20.2278114
20
5.4436114
40
0.3775041
50
47.485847
51
76.9287264
0
ARC
8
DEFAULT_255_1_234
10
20.2131087
20
5.4336159
40
0.3948286
50
16.5424086
51
46.8933463
0
ARC
8
DEFAULT_255_1_234
10
20.0523244
20
5.3807861
40
0.564021
50
5.4072051
51
17.0365086
0
ARC
8
DEFAULT_255_1_234
10
19.9084261
20
5.3576679
40
0.5556559
50
7.8891745
51
15.9239216
0
ARC
8
DEFAULT_255_1_234
10
20.1071274
20
5.4153631
40
0.3487515
50
15.7653144
51
27.9410532
0
ARC
8
DEFAULT_255_1_234
10
20.2175492
20
5.474479
40
0.2235026
50
27.8166557
51
46.4008329
0
ARC
8
DEFAULT_255_1_234
10
20.2225135
20
5.4739082
40
0.2205286
50
47.4371857
51
75.0698205
0
ARC
8
DEFAULT_255_1_234
10
20.1916529
20
5.3664765
40
0.3322915
50
74.7008593
51
87.8124495
0
ARC
8
DEFAULT_255_1_234
10
20.1843217
20
5.2608844
40
0.4380987
50
87.3814673
51
90.0240855
0
ARC
8
DEFAULT_255_1_234
10
20.180476
20
5.3786291
40
0.3203749
50
89.3451631
51
108.5745436
0
ARC
8
DEFAULT_255_1_234
10
20.1667865
20
5.4299908
40
0.2673494
50
109.2998449
51
143.3037509
0
ARC
8
DEFAULT_255_1_234
10
20.2429938
20
5.3713881
40
0.3634757
50
143.0753173
51
163.1916937
0
ARC
8
DEFAULT_255_1_234
10
20.4381666
20
5.3097967
40
0.5681262
50
162.9373603
51
174.6208611
0
ARC
8
DEFAULT_255_1_234
10
20.7007708
20
5.281001
40
0.8322832
50
174.3419979
51
180.1430411
0
ARC
8
DEFAULT_255_1_234
10
20.6076864
20
5.1615698
40
0.7392076
50
179.6817502
51
189.150529
0
ARC
8
DEFAULT_255_1_234
10
20.3576112
20
5.119919
40
0.4856932
50
188.9910863
51
203.5773039
0
ARC
8
DEFAULT_255_1_234
10
20.2496445
20
5.0751211
40
0.3688271
50
203.9077269
51
215.1312379
0
ARC
8
DEFAULT_255_1_234
10
20.1573539
20
5.0035941
40
0.2522457
50
213.9071664
51
263.8849284
0
ARC
8
DEFAULT_255_1_234
10
20.1698868
20
5.0820518
40
0.3316174
50
263.1758525
51
270.1031083
0
ARC
8
DEFAULT_255_1_234
10
20.173096
20
5.2067365
40
0.4563091
50
269.6719807
51
279.0609165
0
ARC
8
DEFAULT_255_1_234
10
20.1997728
20
5.0454907
40
0.2928759
50
278.8750225
51
293.6346586
0
ARC
8
DEFAULT_255_1_234
10
20.2317936
20
4.97029
40
0.2111472
50
293.8553404
51
310.0518804
0
ARC
8
DEFAULT_255_1_234
10
20.232279
20
4.9640516
40
0.2060917
50
311.0646779
51
332.0108348
0
ARC
8
DEFAULT_255_1_234
10
20.1130517
20
5.0297978
40
0.3422352
50
331.6588543
51
343.2878891
0
ARC
8
DEFAULT_255_1_234
10
19.9068032
20
5.0931798
40
0.5580003
50
343.1446044
51
351.010618
0
ARC
8
DEFAULT_255_1_234
10
19.7526678
20
5.1212871
40
0.7146438
50
350.7157277
51
351.1602153
0
LINE
8
DEFAULT_255_1_234
10
21.7238218
20
5.2612534
11
21.7238218
21
5.1873614
0
LINE
8
DEFAULT_255_1_234
10
20.7833052
20
5.1769201
11
20.7833052
21
5.2612534
0
LINE
8
DEFAULT_255_1_234
10
21.5704156
20
5.1761169
11
21.5704156
21
5.2628597
0
LINE
8
DEFAULT_255_1_234
10
20.9367114
20
5.273301
11
20.9367114
21
5.1873614
0
ARC
8
DEFAULT_255_1_234
10
20.8596244
20
5.1834015
40
0.8642064
50
350.487711
51
0.2625388
0
ARC
8
DEFAULT_255_1_234
10
21.0889486
20
5.1439578
40
0.631518
50
336.0277639
51
350.5787438
0
ARC
8
DEFAULT_255_1_234
10
21.2234309
20
5.0831892
40
0.4839466
50
319.8877444
51
336.1328423
0
ARC
8
DEFAULT_255_1_234
10
21.283695
20
5.034958
40
0.4067874
50
302.4806467
51
319.6143626
0
ARC
8
DEFAULT_255_1_234
10
21.272196
20
5.0571202
40
0.4316636
50
275.8195682
51
302.1884709
0
ARC
8
DEFAULT_255_1_234
10
21.2555593
20
5.1713665
40
0.5470306
50
269.9171439
51
276.3397983
0
ARC
8
DEFAULT_255_1_234
10
21.2510803
20
5.1027681
40
0.4784458
50
252.5219675
51
270.4416499
0
ARC
8
DEFAULT_255_1_234
10
21.2367062
20
5.0488592
40
0.422716
50
237.5352116
51
252.1857531
0
ARC
8
DEFAULT_255_1_234
10
21.2456258
20
5.0602363
40
0.4371052
50
209.063312
51
237.3492538
0
ARC
8
DEFAULT_255_1_234
10
21.3326106
20
5.1148685
40
0.5397041
50
205.1183774
51
209.6470015
0
ARC
8
DEFAULT_255_1_234
10
21.4123143
20
5.148683
40
0.6262326
50
188.7215458
51
204.8240747
0
ARC
8
DEFAULT_255_1_234
10
21.6120671
20
5.1823067
40
0.8287794
50
180.3723947
51
188.9252049
0
ARC
8
DEFAULT_255_1_234
10
21.6093423
20
5.2652402
40
0.8260467
50
169.5253763
51
180.2765336
0
ARC
8
DEFAULT_255_1_234
10
21.4190871
20
5.3002309
40
0.6326007
50
155.8315255
51
169.5089989
0
ARC
8
DEFAULT_255_1_234
10
21.2910373
20
5.3596348
40
0.4914567
50
139.6258461
51
156.0379525
0
ARC
8
DEFAULT_255_1_234
10
21.2320706
20
5.4070799
40
0.4158054
50
122.6416387
51
139.3430715
0
ARC
8
DEFAULT_255_1_234
10
21.2421326
20
5.3887451
40
0.4366739
50
93.0223692
51
122.455762
0
ARC
8
DEFAULT_255_1_234
10
21.2529323
20
5.2922709
40
0.5336137
50
89.975342
51
93.6341897
0
ARC
8
DEFAULT_255_1_234
10
21.2568102
20
5.3321242
40
0.4937738
50
73.746375
51
90.4233405
0
ARC
8
DEFAULT_255_1_234
10
21.2743681
20
5.4001287
40
0.4235786
50
57.662753
51
73.4518111
0
ARC
8
DEFAULT_255_1_234
10
21.2735687
20
5.4022832
40
0.4221899
50
29.1440151
51
57.414694
0
ARC
8
DEFAULT_255_1_234
10
21.1800882
20
5.3439005
40
0.5322966
50
24.0982783
51
29.7323517
0
ARC
8
DEFAULT_255_1_234
10
21.0767157
20
5.3010399
40
0.6441673
50
8.6655297
51
23.8241346
0
ARC
8
DEFAULT_255_1_234
10
20.8532895
20
5.2645854
40
0.8705386
50
359.7806941
51
8.8218784
0
ARC
8
DEFAULT_255_1_234
10
20.7385893
20
5.2671345
40
0.8318373
50
359.7055579
51
8.036044
0
ARC
8
DEFAULT_255_1_234
10
21.0385899
20
5.3108239
40
0.5286768
50
7.8928306
51
20.2962107
0
ARC
8
DEFAULT_255_1_234
10
21.201347
20
5.3708395
40
0.3552073
50
20.3231126
51
36.4992797
0
ARC
8
DEFAULT_255_1_234
10
21.2699016
20
5.4236402
40
0.2686974
50
36.1437156
51
85.6627023
0
ARC
8
DEFAULT_255_1_234
10
21.2536562
20
5.3196221
40
0.373739
50
84.3852322
51
90.0757696
0
ARC
8
DEFAULT_255_1_234
10
21.2494234
20
5.3856839
40
0.3076997
50
89.3038458
51
109.9045693
0
ARC
8
DEFAULT_255_1_234
10
21.2401625
20
5.4239062
40
0.2686424
50
110.8228367
51
143.9179474
0
ARC
8
DEFAULT_255_1_234
10
21.3335285
20
5.3526236
40
0.3860887
50
143.5289163
51
163.2980757
0
ARC
8
DEFAULT_255_1_234
10
21.5243106
20
5.2926433
40
0.5860659
50
163.0418846
51
174.3140048
0
ARC
8
DEFAULT_255_1_234
10
21.7647218
20
5.2648854
40
0.8280531
50
174.0509143
51
179.4176892
0
ARC
8
DEFAULT_255_1_234
10
21.7142957
20
5.1831954
40
0.7775954
50
179.6930361
51
188.7906598
0
ARC
8
DEFAULT_255_1_234
10
21.4479436
20
5.1405935
40
0.5078633
50
188.6331305
51
202.5629587
0
ARC
8
DEFAULT_255_1_234
10
21.3225028
20
5.0901996
40
0.3726913
50
202.8081362
51
216.1193925
0
ARC
8
DEFAULT_255_1_234
10
21.2415598
20
5.0250676
40
0.2689577
50
215.0755913
51
264.6379694
0
ARC
8
DEFAULT_255_1_234
10
21.2542548
20
5.1081513
40
0.3528978
50
263.846392
51
270.0833719
0
ARC
8
DEFAULT_255_1_234
10
21.2583938
20
5.0823374
40
0.3271036
50
269.3649385
51
287.5152008
0
ARC
8
DEFAULT_255_1_234
10
21.2762096
20
5.0176238
40
0.2600406
50
288.0630309
51
323.8113348
0
ARC
8
DEFAULT_255_1_234
10
21.1890937
20
5.0826049
40
0.3687189
50
323.6547608
51
342.6590488
0
ARC
8
DEFAULT_255_1_234
10
20.9859552
20
5.1486952
40
0.5823286
50
342.4091907
51
353.6451149
0
ARC
8
DEFAULT_255_1_234
10
20.7028063
20
5.183919
40
0.8676442
50
353.4029884
51
359.4847795
0
LINE
8
DEFAULT_255_1_234
10
21.9551358
20
5.8098211
11
22.1543229
21
5.8098211
0
LINE
8
DEFAULT_255_1_234
10
22.1543229
20
5.8098211
11
22.5366337
21
4.8556506
0
LINE
8
DEFAULT_255_1_234
10
22.5366337
20
4.8556506
11
22.9189444
21
5.8098211
0
LINE
8
DEFAULT_255_1_234
10
22.9189444
20
5.8098211
11
23.1189347
21
5.8098211
0
LINE
8
DEFAULT_255_1_234
10
23.1189347
20
5.8098211
11
23.1189347
21
4.6404
0
LINE
8
DEFAULT_255_1_234
10
23.1189347
20
4.6404
11
22.9647253
21
4.6404
0
LINE
8
DEFAULT_255_1_234
10
22.9647253
20
4.6404
11
22.9647253
21
5.0957996
0
LINE
8
DEFAULT_255_1_234
10
22.9647253
20
5.0957996
11
22.9791825
21
5.5873419
0
LINE
8
DEFAULT_255_1_234
10
22.9791825
20
5.5873419
11
22.5952654
21
4.6404
0
LINE
8
DEFAULT_255_1_234
10
22.5952654
20
4.6404
11
22.4771988
21
4.6404
0
LINE
8
DEFAULT_255_1_234
10
22.4771988
20
4.6404
11
22.0940849
21
5.5849324
0
LINE
8
DEFAULT_255_1_234
10
22.0940849
20
5.5849324
11
22.1093452
21
5.0957996
0
LINE
8
DEFAULT_255_1_234
10
22.1093452
20
5.0957996
11
22.1093452
21
4.6404
0
LINE
8
DEFAULT_255_1_234
10
22.1093452
20
4.6404
11
21.9551358
21
4.6404
0
LINE
8
DEFAULT_255_1_234
10
21.9551358
20
4.6404
11
21.9551358
21
5.8098211
0
LINE
8
DEFAULT_255_1_234
10
23.5687121
20
5.1761169
11
23.5687121
21
5.2973962
0
LINE
8
DEFAULT_255_1_234
10
23.5687121
20
5.2973962
11
23.6803532
21
5.2973962
0
LINE
8
DEFAULT_255_1_234
10
23.490001
20
5.5030087
11
23.3414139
21
5.5030087
0
LINE
8
DEFAULT_255_1_234
10
23.3309726
20
4.9488188
11
23.4803629
21
4.9488188
0
LINE
8
DEFAULT_255_1_234
10
23.6803532
20
5.1761169
11
23.5687121
21
5.1761169
0
ARC
8
DEFAULT_255_1_234
10
23.6774399
20
5.6366713
40
0.3392876
50
270.4919872
51
281.8951556
0
ARC
8
DEFAULT_255_1_234
10
23.701566
20
5.5264702
40
0.2264817
50
281.6691735
51
301.2943132
0
ARC
8
DEFAULT_255_1_234
10
23.7185871
20
5.4953304
40
0.1910381
50
301.7833094
51
311.7545298
0
ARC
8
DEFAULT_255_1_234
10
23.7277446
20
5.4851748
40
0.1773635
50
311.7323931
51
354.2802411
0
ARC
8
DEFAULT_255_1_234
10
23.6551072
20
5.4976722
40
0.2509385
50
353.0937916
51
0.1181479
0
ARC
8
DEFAULT_255_1_234
10
23.6089856
20
5.5024386
40
0.2970898
50
359.1805295
51
15.0453146
0
ARC
8
DEFAULT_255_1_234
10
23.7435693
20
5.5416992
40
0.1569564
50
13.9577229
51
77.6713066
0
ARC
8
DEFAULT_255_1_234
10
23.7049223
20
5.4031949
40
0.3006298
50
76.1116566
51
90.7026153
0
ARC
8
DEFAULT_255_1_234
10
23.6990061
20
5.4305545
40
0.2732568
50
89.5324876
51
103.531937
0
ARC
8
DEFAULT_255_1_234
10
23.6789505
20
5.5104884
40
0.1908508
50
103.2931773
51
133.5619022
0
ARC
8
DEFAULT_255_1_234
10
23.6744993
20
5.5164375
40
0.1834746
50
133.8349307
51
173.5344437
0
ARC
8
DEFAULT_255_1_234
10
23.7468036
20
5.5036213
40
0.2568033
50
172.5096846
51
180.1366907
0
ARC
8
DEFAULT_255_1_234
10
23.651693
20
5.5070622
40
0.3103056
50
155.3484492
51
180.7484736
0
ARC
8
DEFAULT_255_1_234
10
23.6468019
20
5.5041846
40
0.3070957
50
131.5744599
51
154.4798489
0
ARC
8
DEFAULT_255_1_234
10
23.6781167
20
5.472531
40
0.3515643
50
96.9875458
51
131.9690667
0
ARC
8
DEFAULT_255_1_234
10
23.7000647
20
5.3479636
40
0.4779224
50
89.8596053
51
97.7825159
0
ARC
8
DEFAULT_255_1_234
10
23.704871
20
5.3217616
40
0.5041361
50
78.3655447
51
90.4131539
0
ARC
8
DEFAULT_255_1_234
10
23.7406628
20
5.4876887
40
0.3344039
50
56.6229102
51
78.638727
0
ARC
8
DEFAULT_255_1_234
10
23.7621571
20
5.5252805
40
0.2912001
50
47.0253525
51
56.0854072
0
ARC
8
DEFAULT_255_1_234
10
23.7641351
20
5.5292223
40
0.2869704
50
10.9208013
51
46.7778124
0
ARC
8
DEFAULT_255_1_234
10
23.6277418
20
5.4976857
40
0.426899
50
359.6364486
51
11.6087304
0
ARC
8
DEFAULT_255_1_234
10
23.8112262
20
5.4961752
40
0.243409
50
332.3549906
51
359.7179418
0
ARC
8
DEFAULT_255_1_234
10
23.7461863
20
5.5270142
40
0.3153459
50
325.2333722
51
332.8745602
0
ARC
8
DEFAULT_255_1_234
10
23.7614487
20
5.5163828
40
0.2967456
50
292.9802137
51
325.2392345
0
ARC
8
DEFAULT_255_1_234
10
23.7339861
20
5.5697863
40
0.3566604
50
292.5402179
51
293.6924929
0
ARC
8
DEFAULT_255_1_234
10
23.7732457
20
4.9243091
40
0.3307468
50
57.6435486
51
72.8625112
0
ARC
8
DEFAULT_255_1_234
10
23.8086957
20
4.9817549
40
0.2632492
50
36.7248896
51
57.4697979
0
ARC
8
DEFAULT_255_1_234
10
23.8075589
20
4.983022
40
0.2634081
50
8.0545065
51
36.356114
0
ARC
8
DEFAULT_255_1_234
10
23.7212775
20
4.9675174
40
0.3510261
50
359.8320645
51
8.5869982
0
ARC
8
DEFAULT_255_1_234
10
23.6837551
20
4.9627101
40
0.3885653
50
343.9829931
51
0.5571613
0
ARC
8
DEFAULT_255_1_234
10
23.7723748
20
4.9384438
40
0.2966924
50
311.6359546
51
343.7651759
0
ARC
8
DEFAULT_255_1_234
10
23.7345317
20
4.9811102
40
0.3537231
50
279.7829875
51
311.6255694
0
ARC
8
DEFAULT_255_1_234
10
23.7044093
20
5.124828
40
0.5004971
50
269.7286406
51
280.3856417
0
ARC
8
DEFAULT_255_1_234
10
23.6982166
20
5.1206996
40
0.4963778
50
256.6828919
51
270.4412052
0
ARC
8
DEFAULT_255_1_234
10
23.6643462
20
4.9822394
40
0.3538406
50
229.4223008
51
256.8556159
0
ARC
8
DEFAULT_255_1_234
10
23.6228855
20
4.9355736
40
0.2914296
50
181.818294
51
229.6455059
0
ARC
8
DEFAULT_255_1_234
10
23.7268811
20
4.9486496
40
0.3959084
50
179.9755256
51
183.2323064
0
ARC
8
DEFAULT_255_1_234
10
23.7096557
20
4.9466037
40
0.2293034
50
179.4465117
51
196.2869258
0
ARC
8
DEFAULT_255_1_234
10
23.6608965
20
4.9332651
40
0.1787621
50
196.5661473
51
227.705904
0
ARC
8
DEFAULT_255_1_234
10
23.6773059
20
4.9516155
40
0.2033784
50
227.7652068
51
257.8762805
0
ARC
8
DEFAULT_255_1_234
10
23.699803
20
5.0459156
40
0.3003081
50
257.4584385
51
270.426602
0
ARC
8
DEFAULT_255_1_234
10
23.7043596
20
5.0748996
40
0.329292
50
269.5962073
51
280.8789248
0
ARC
8
DEFAULT_255_1_234
10
23.7273125
20
4.9602685
40
0.2123908
50
280.6346389
51
299.8595945
0
ARC
8
DEFAULT_255_1_234
10
23.7464031
20
4.9240212
40
0.171457
50
300.3576302
51
314.5517981
0
ARC
8
DEFAULT_255_1_234
10
23.7381091
20
4.9300919
40
0.1816095
50
315.0728369
51
345.0431014
0
ARC
8
DEFAULT_255_1_234
10
23.6457906
20
4.9569841
40
0.2777492
50
344.5986631
51
357.9269593
0
ARC
8
DEFAULT_255_1_234
10
23.5562232
20
4.9631276
40
0.3674917
50
357.4748886
51
0.0231117
0
ARC
8
DEFAULT_255_1_234
10
23.6585341
20
4.9655679
40
0.2651907
50
359.5047933
51
13.4239635
0
ARC
8
DEFAULT_255_1_234
10
23.7451985
20
4.9877478
40
0.1757509
50
12.9498199
51
48.7551375
0
ARC
8
DEFAULT_255_1_234
10
23.7269719
20
4.96284
40
0.2065134
50
49.5088623
51
72.1836453
0
ARC
8
DEFAULT_255_1_234
10
23.6911871
20
4.8566291
40
0.3185836
50
71.9010081
51
84.3554254
0
ARC
8
DEFAULT_255_1_234
10
23.6750503
20
4.7205326
40
0.4556151
50
84.0193428
51
89.333121
0
LINE
8
DEFAULT_255_1_234
10
20.458823
20
12.9489663
11
20.6138355
21
12.9489663
0
LINE
8
DEFAULT_255_1_234
10
19.7134777
20
13.1079947
11
19.7134777
21
13.2204391
0
LINE
8
DEFAULT_255_1_234
10
20.6138355
20
13.3714357
11
20.458823
21
13.3714357
0
LINE
8
DEFAULT_255_1_234
10
19.8684902
20
13.2164232
11
19.8684902
21
13.1031757
0
ARC
8
DEFAULT_255_1_234
10
20.0657742
20
13.0086846
40
0.5513052
50
340.1774281
51
353.7814284
0
ARC
8
DEFAULT_255_1_234
10
20.2229095
20
12.9501582
40
0.3836379
50
311.4558989
51
340.4421614
0
ARC
8
DEFAULT_255_1_234
10
20.2195763
20
12.9612528
40
0.3941894
50
282.4333181
51
310.7513653
0
ARC
8
DEFAULT_255_1_234
10
20.1756502
20
13.1427679
40
0.5809175
50
269.9358511
51
282.809604
0
ARC
8
DEFAULT_255_1_234
10
20.1704568
20
13.2885212
40
0.7266847
50
270.0021091
51
270.3581957
0
ARC
8
DEFAULT_255_1_234
10
20.1651985
20
13.0284585
40
0.4666519
50
250.7884749
51
270.6489167
0
ARC
8
DEFAULT_255_1_234
10
20.148382
20
12.9647319
40
0.4009729
50
219.3627325
51
250.0611886
0
ARC
8
DEFAULT_255_1_234
10
20.2313031
20
13.0352042
40
0.5097822
50
193.5479632
51
219.5756669
0
ARC
8
DEFAULT_255_1_234
10
20.4684652
20
13.0967919
40
0.7547848
50
181.1218675
51
193.87563
0
ARC
8
DEFAULT_255_1_234
10
20.6754833
20
13.107858
40
0.9620055
50
179.9918545
51
181.5394234
0
ARC
8
DEFAULT_255_1_234
10
20.4903935
20
13.2241788
40
0.7769248
50
169.5837241
51
180.2757934
0
ARC
8
DEFAULT_255_1_234
10
20.3066873
20
13.2581229
40
0.590109
50
155.0365899
51
169.6003176
0
ARC
8
DEFAULT_255_1_234
10
20.1931337
20
13.3128677
40
0.4640625
50
136.783148
51
155.2472683
0
ARC
8
DEFAULT_255_1_234
10
20.1541814
20
13.3459562
40
0.4130255
50
121.7633186
51
136.428115
0
ARC
8
DEFAULT_255_1_234
10
20.1676776
20
13.3210227
40
0.4413323
50
95.6459699
51
121.5490577
0
ARC
8
DEFAULT_255_1_234
10
20.1834058
20
13.2101949
40
0.55319
50
89.924208
51
96.1377933
0
ARC
8
DEFAULT_255_1_234
10
20.1884491
20
13.2220542
40
0.5413475
50
76.6779277
51
90.4563316
0
ARC
8
DEFAULT_255_1_234
10
20.2278114
20
13.3811114
40
0.3775041
50
47.485847
51
76.9287264
0
ARC
8
DEFAULT_255_1_234
10
20.2131087
20
13.3711159
40
0.3948286
50
16.5424086
51
46.8933463
0
ARC
8
DEFAULT_255_1_234
10
20.0523244
20
13.3182861
40
0.564021
50
5.4072051
51
17.0365086
0
ARC
8
DEFAULT_255_1_234
10
19.9084261
20
13.2951679
40
0.5556559
50
7.8891745
51
15.9239216
0
ARC
8
DEFAULT_255_1_234
10
20.1071274
20
13.3528631
40
0.3487515
50
15.7653144
51
27.9410532
0
ARC
8
DEFAULT_255_1_234
10
20.2175492
20
13.411979
40
0.2235026
50
27.8166557
51
46.4008329
0
ARC
8
DEFAULT_255_1_234
10
20.2225135
20
13.4114082
40
0.2205286
50
47.4371857
51
75.0698205
0
ARC
8
DEFAULT_255_1_234
10
20.1916529
20
13.3039765
40
0.3322915
50
74.7008593
51
87.8124495
0
ARC
8
DEFAULT_255_1_234
10
20.1843217
20
13.1983844
40
0.4380987
50
87.3814673
51
90.0240855
0
ARC
8
DEFAULT_255_1_234
10
20.180476
20
13.3161291
40
0.3203749
50
89.3451631
51
108.5745436
0
ARC
8
DEFAULT_255_1_234
10
20.1667865
20
13.3674908
40
0.2673494
50
109.2998449
51
143.3037509
0
ARC
8
DEFAULT_255_1_234
10
20.2429938
20
13.3088881
40
0.3634757
50
143.0753173
51
163.1916937
0
ARC
8
DEFAULT_255_1_234
10
20.4381666
20
13.2472967
40
0.5681262
50
162.9373603
51
174.6208611
0
ARC
8
DEFAULT_255_1_234
10
20.7007708
20
13.218501
40
0.8322832
50
174.3419979
51
180.1430411
0
ARC
8
DEFAULT_255_1_234
10
20.6076864
20
13.0990698
40
0.7392076
50
179.6817502
51
189.150529
0
ARC
8
DEFAULT_255_1_234
10
20.3576112
20
13.057419
40
0.4856932
50
188.9910863
51
203.5773039
0
ARC
8
DEFAULT_255_1_234
10
20.2496445
20
13.0126211
40
0.3688271
50
203.9077269
51
215.1312379
0
ARC
8
DEFAULT_255_1_234
10
20.1573539
20
12.9410941
40
0.2522457
50
213.9071664
51
263.8849284
0
ARC
8
DEFAULT_255_1_234
10
20.1698868
20
13.0195518
40
0.3316174
50
263.1758525
51
270.1031083
0
ARC
8
DEFAULT_255_1_234
10
20.173096
20
13.1442365
40
0.4563091
50
269.6719807
51
279.0609165
0
ARC
8
DEFAULT_255_1_234
10
20.1997728
20
12.9829907
40
0.2928759
50
278.8750225
51
293.6346586
0
ARC
8
DEFAULT_255_1_234
10
20.2317936
20
12.90779
40
0.2111472
50
293.8553404
51
310.0518804
0
ARC
8
DEFAULT_255_1_234
10
20.232279
20
12.9015516
40
0.2060917
50
311.0646779
51
332.0108348
0
ARC
8
DEFAULT_255_1_234
10
20.1130517
20
12.9672978
40
0.3422352
50
331.6588543
51
343.2878891
0
ARC
8
DEFAULT_255_1_234
10
19.9068032
20
13.0306798
40
0.5580003
50
343.1446044
51
351.010618
0
ARC
8
DEFAULT_255_1_234
10
19.7526678
20
13.0587871
40
0.7146438
50
350.7157277
51
351.1602153
0
LINE
8
DEFAULT_255_1_234
10
21.7238218
20
13.1987534
11
21.7238218
21
13.1248614
0
LINE
8
DEFAULT_255_1_234
10
20.7833052
20
13.1144201
11
20.7833052
21
13.1987534
0
LINE
8
DEFAULT_255_1_234
10
21.5704156
20
13.1136169
11
21.5704156
21
13.2003597
0
LINE
8
DEFAULT_255_1_234
10
20.9367114
20
13.210801
11
20.9367114
21
13.1248614
0
ARC
8
DEFAULT_255_1_234
10
20.8596244
20
13.1209015
40
0.8642064
50
350.487711
51
0.2625388
0
ARC
8
DEFAULT_255_1_234
10
21.0889486
20
13.0814578
40
0.631518
50
336.0277639
51
350.5787438
0
ARC
8
DEFAULT_255_1_234
10
21.2234309
20
13.0206892
40
0.4839466
50
319.8877444
51
336.1328423
0
ARC
8
DEFAULT_255_1_234
10
21.283695
20
12.972458
40
0.4067874
50
302.4806467
51
319.6143626
0
ARC
8
DEFAULT_255_1_234
10
21.272196
20
12.9946202
40
0.4316636
50
275.8195682
51
302.1884709
0
ARC
8
DEFAULT_255_1_234
10
21.2555593
20
13.1088665
40
0.5470306
50
269.9171439
51
276.3397983
0
ARC
8
DEFAULT_255_1_234
10
21.2510803
20
13.0402681
40
0.4784458
50
252.5219675
51
270.4416499
0
ARC
8
DEFAULT_255_1_234
10
21.2367062
20
12.9863592
40
0.422716
50
237.5352116
51
252.1857531
0
ARC
8
DEFAULT_255_1_234
10
21.2456258
20
12.9977363
40
0.4371052
50
209.063312
51
237.3492538
0
ARC
8
DEFAULT_255_1_234
10
21.3326106
20
13.0523685
40
0.5397041
50
205.1183774
51
209.6470015
0
ARC
8
DEFAULT_255_1_234
10
21.4123143
20
13.086183
40
0.6262326
50
188.7215458
51
204.8240747
0
ARC
8
DEFAULT_255_1_234
10
21.6120671
20
13.1198067
40
0.8287794
50
180.3723947
51
188.9252049
0
ARC
8
DEFAULT_255_1_234
10
21.6093423
20
13.2027402
40
0.8260467
50
169.5253763
51
180.2765336
0
ARC
8
DEFAULT_255_1_234
10
21.4190871
20
13.2377309
40
0.6326007
50
155.8315255
51
169.5089989
0
ARC
8
DEFAULT_255_1_234
10
21.2910373
20
13.2971348
40
0.4914567
50
139.6258461
51
156.0379525
0
ARC
8
DEFAULT_255_1_234
10
21.2320706
20
13.3445799
40
0.4158054
50
122.6416387
51
139.3430715
0
ARC
8
DEFAULT_255_1_234
10
21.2421326
20
13.3262451
40
0.4366739
50
93.0223692
51
122.455762
0
ARC
8
DEFAULT_255_1_234
10
21.2529323
20
13.2297709
40
0.5336137
50
89.975342
51
93.6341897
0
ARC
8
DEFAULT_255_1_234
10
21.2568102
20
13.2696242
40
0.4937738
50
73.746375
51
90.4233405
0
ARC
8
DEFAULT_255_1_234
10
21.2743681
20
13.3376287
40
0.4235786
50
57.662753
51
73.4518111
0
ARC
8
DEFAULT_255_1_234
10
21.2735687
20
13.3397832
40
0.4221899
50
29.1440151
51
57.414694
0
ARC
8
DEFAULT_255_1_234
10
21.1800882
20
13.2814005
40
0.5322966
50
24.0982783
51
29.7323517
0
ARC
8
DEFAULT_255_1_234
10
21.0767157
20
13.2385399
40
0.6441673
50
8.6655297
51
23.8241346
0
ARC
8
DEFAULT_255_1_234
10
20.8532895
20
13.2020854
40
0.8705386
50
359.7806941
51
8.8218784
0
ARC
8
DEFAULT_255_1_234
10
20.7385893
20
13.2046345
40
0.8318373
50
359.7055579
51
8.036044
0
ARC
8
DEFAULT_255_1_234
10
21.0385899
20
13.2483239
40
0.5286768
50
7.8928306
51
20.2962107
0
ARC
8
DEFAULT_255_1_234
10
21.201347
20
13.3083395
40
0.3552073
50
20.3231126
51
36.4992797
0
ARC
8
DEFAULT_255_1_234
10
21.2699016
20
13.3611402
40
0.2686974
50
36.1437156
51
85.6627023
0
ARC
8
DEFAULT_255_1_234
10
21.2536562
20
13.2571221
40
0.373739
50
84.3852322
51
90.0757696
0
ARC
8
DEFAULT_255_1_234
10
21.2494234
20
13.3231839
40
0.3076997
50
89.3038458
51
109.9045693
0
ARC
8
DEFAULT_255_1_234
10
21.2401625
20
13.3614062
40
0.2686424
50
110.8228367
51
143.9179474
0
ARC
8
DEFAULT_255_1_234
10
21.3335285
20
13.2901236
40
0.3860887
50
143.5289163
51
163.2980757
0
ARC
8
DEFAULT_255_1_234
10
21.5243106
20
13.2301433
40
0.5860659
50
163.0418846
51
174.3140048
0
ARC
8
DEFAULT_255_1_234
10
21.7647218
20
13.2023854
40
0.8280531
50
174.0509143
51
179.4176892
0
ARC
8
DEFAULT_255_1_234
10
21.7142957
20
13.1206954
40
0.7775954
50
179.6930361
51
188.7906598
0
ARC
8
DEFAULT_255_1_234
10
21.4479436
20
13.0780935
40
0.5078633
50
188.6331305
51
202.5629587
0
ARC
8
DEFAULT_255_1_234
10
21.3225028
20
13.0276996
40
0.3726913
50
202.8081362
51
216.1193925
0
ARC
8
DEFAULT_255_1_234
10
21.2415598
20
12.9625676
40
0.2689577
50
215.0755913
51
264.6379694
0
ARC
8
DEFAULT_255_1_234
10
21.2542548
20
13.0456513
40
0.3528978
50
263.846392
51
270.0833719
0
ARC
8
DEFAULT_255_1_234
10
21.2583938
20
13.0198374
40
0.3271036
50
269.3649385
51
287.5152008
0
ARC
8
DEFAULT_255_1_234
10
21.2762096
20
12.9551238
40
0.2600406
50
288.0630309
51
323.8113348
0
ARC
8
DEFAULT_255_1_234
10
21.1890937
20
13.0201049
40
0.3687189
50
323.6547608
51
342.6590488
0
ARC
8
DEFAULT_255_1_234
10
20.9859552
20
13.0861952
40
0.5823286
50
342.4091907
51
353.6451149
0
ARC
8
DEFAULT_255_1_234
10
20.7028063
20
13.121419
40
0.8676442
50
353.4029884
51
359.4847795
0
LINE
8
DEFAULT_255_1_234
10
21.9551358
20
13.7473211
11
22.1543229
21
13.7473211
0
LINE
8
DEFAULT_255_1_234
10
22.1543229
20
13.7473211
11
22.5366337
21
12.7931506
0
LINE
8
DEFAULT_255_1_234
10
22.5366337
20
12.7931506
11
22.9189444
21
13.7473211
0
LINE
8
DEFAULT_255_1_234
10
22.9189444
20
13.7473211
11
23.1189347
21
13.7473211
0
LINE
8
DEFAULT_255_1_234
10
23.1189347
20
13.7473211
11
23.1189347
21
12.5779
0
LINE
8
DEFAULT_255_1_234
10
23.1189347
20
12.5779
11
22.9647253
21
12.5779
0
LINE
8
DEFAULT_255_1_234
10
22.9647253
20
12.5779
11
22.9647253
21
13.0332996
0
LINE
8
DEFAULT_255_1_234
10
22.9647253
20
13.0332996
11
22.9791825
21
13.5248419
0
LINE
8
DEFAULT_255_1_234
10
22.9791825
20
13.5248419
11
22.5952654
21
12.5779
0
LINE
8
DEFAULT_255_1_234
10
22.5952654
20
12.5779
11
22.4771988
21
12.5779
0
LINE
8
DEFAULT_255_1_234
10
22.4771988
20
12.5779
11
22.0940849
21
13.5224324
0
LINE
8
DEFAULT_255_1_234
10
22.0940849
20
13.5224324
11
22.1093452
21
13.0332996
0
LINE
8
DEFAULT_255_1_234
10
22.1093452
20
13.0332996
11
22.1093452
21
12.5779
0
LINE
8
DEFAULT_255_1_234
10
22.1093452
20
12.5779
11
21.9551358
21
12.5779
0
LINE
8
DEFAULT_255_1_234
10
21.9551358
20
12.5779
11
21.9551358
21
13.7473211
0
LINE
8
DEFAULT_255_1_234
10
24.1188861
20
12.6991792
11
24.1188861
21
12.5779
0
LINE
8
DEFAULT_255_1_234
10
24.1188861
20
12.5779
11
23.3526583
21
12.5779
0
LINE
8
DEFAULT_255_1_234
10
23.3526583
20
12.5779
11
23.3526583
21
12.6847221
0
LINE
8
DEFAULT_255_1_234
10
23.3526583
20
12.6847221
11
23.7574579
21
13.1344995
0
LINE
8
DEFAULT_255_1_234
10
23.4787566
20
13.4027595
11
23.3301694
21
13.4027595
0
LINE
8
DEFAULT_255_1_234
10
23.8450039
20
13.0389218
11
23.5317661
21
12.6991792
0
LINE
8
DEFAULT_255_1_234
10
23.5317661
20
12.6991792
11
24.1188861
21
12.6991792
0
ARC
8
DEFAULT_255_1_234
10
22.4084412
20
14.3274527
40
1.8008286
50
318.5132453
51
320.7828378
0
ARC
8
DEFAULT_255_1_234
10
22.9371387
20
13.8971426
40
1.1191493
50
320.7372736
51
323.9737074
0
ARC
8
DEFAULT_255_1_234
10
23.3291243
20
13.6131361
40
0.6350923
50
323.8961724
51
328.6421089
0
ARC
8
DEFAULT_255_1_234
10
23.5337839
20
13.4869031
40
0.3946393
50
328.8299013
51
331.789948
0
ARC
8
DEFAULT_255_1_234
10
23.6335017
20
13.4354509
40
0.2824501
50
331.4255242
51
352.9364833
0
ARC
8
DEFAULT_255_1_234
10
23.6471518
20
13.4323976
40
0.2685315
50
353.2248685
51
0.0169286
0
ARC
8
DEFAULT_255_1_234
10
23.6681394
20
13.434695
40
0.2475536
50
359.4866256
51
15.9339782
0
ARC
8
DEFAULT_255_1_234
10
23.718838
20
13.4483286
40
0.1950618
50
16.1714718
51
43.5284424
0
ARC
8
DEFAULT_255_1_234
10
23.7265688
20
13.4560573
40
0.184134
50
43.4415429
51
83.1661404
0
ARC
8
DEFAULT_255_1_234
10
23.7131607
20
13.3823771
40
0.258926
50
82.160215
51
90.1505798
0
ARC
8
DEFAULT_255_1_234
10
23.7100034
20
13.3286865
40
0.3126255
50
89.5460705
51
102.5418777
0
ARC
8
DEFAULT_255_1_234
10
23.685712
20
13.4317665
40
0.2067346
50
102.1739365
51
129.2061916
0
ARC
8
DEFAULT_255_1_234
10
23.6778192
20
13.4442094
40
0.1921118
50
129.7279328
51
135.7542026
0
ARC
8
DEFAULT_255_1_234
10
23.6899719
20
13.4345045
40
0.2075944
50
136.175737
51
166.3674722
0
ARC
8
DEFAULT_255_1_234
10
23.7906639
20
13.4075182
40
0.3118201
50
165.9092917
51
178.8683903
0
ARC
8
DEFAULT_255_1_234
10
23.87715
20
13.4028179
40
0.3983935
50
178.438168
51
180.0083905
0
ARC
8
DEFAULT_255_1_234
10
23.7370102
20
13.4067231
40
0.4068601
50
163.2878735
51
180.5581814
0
ARC
8
DEFAULT_255_1_234
10
23.6568363
20
13.428784
40
0.3237344
50
133.454115
51
162.9470031
0
ARC
8
DEFAULT_255_1_234
10
23.6746905
20
13.4098
40
0.349795
50
100.7869394
51
133.4384016
0
ARC
8
DEFAULT_255_1_234
10
23.7094676
20
13.2549319
40
0.5084616
50
89.6605301
51
101.3704185
0
ARC
8
DEFAULT_255_1_234
10
23.7161015
20
13.2610496
40
0.502348
50
78.2171172
51
90.4130393
0
ARC
8
DEFAULT_255_1_234
10
23.7516093
20
13.4234637
40
0.3361092
50
55.9268222
51
78.4888551
0
ARC
8
DEFAULT_255_1_234
10
23.7712534
20
13.4573324
40
0.2970617
50
47.9292255
51
55.4054003
0
ARC
8
DEFAULT_255_1_234
10
23.7814094
20
13.4676502
40
0.2825983
50
4.3347696
51
48.0560701
0
ARC
8
DEFAULT_255_1_234
10
23.6718488
20
13.4506601
40
0.393225
50
359.925209
51
5.5967654
0
ARC
8
DEFAULT_255_1_234
10
23.714738
20
13.4562816
40
0.3503892
50
337.8914096
51
358.9967724
0
ARC
8
DEFAULT_255_1_234
10
23.4433792
20
13.5609706
40
0.6412172
50
326.9135351
51
338.3505194
0
ARC
8
DEFAULT_255_1_234
10
23.0448095
20
13.8164284
40
1.1146189
50
319.6472867
51
327.095818
0
ARC
8
DEFAULT_255_1_234
10
22.6615099
20
14.1326
40
1.6114559
50
317.2586784
51
319.9046139
0
LINE
8
DEFAULT_255_1_234
10
20.467723
20
20.8864663
11
20.6227355
21
20.8864663
0
LINE
8
DEFAULT_255_1_234
10
19.7223777
20
21.0454947
11
19.7223777
21
21.1579391
0
LINE
8
DEFAULT_255_1_234
10
20.6227355
20
21.3089357
11
20.467723
21
21.3089357
0
LINE
8
DEFAULT_255_1_234
10
19.8773902
20
21.1539232
11
19.8773902
21
21.0406757
0
ARC
8
DEFAULT_255_1_234
10
20.0746742
20
20.9461846
40
0.5513052
50
340.1774281
51
353.7814284
0
ARC
8
DEFAULT_255_1_234
10
20.2318095
20
20.8876582
40
0.3836379
50
311.4558989
51
340.4421614
0
ARC
8
DEFAULT_255_1_234
10
20.2284763
20
20.8987528
40
0.3941894
50
282.4333181
51
310.7513653
0
ARC
8
DEFAULT_255_1_234
10
20.1845502
20
21.0802679
40
0.5809175
50
269.9358511
51
282.809604
0
ARC
8
DEFAULT_255_1_234
10
20.1793568
20
21.2260212
40
0.7266847
50
270.0021091
51
270.3581957
0
ARC
8
DEFAULT_255_1_234
10
20.1740985
20
20.9659585
40
0.4666519
50
250.7884749
51
270.6489167
0
ARC
8
DEFAULT_255_1_234
10
20.157282
20
20.9022319
40
0.4009729
50
219.3627325
51
250.0611886
0
ARC
8
DEFAULT_255_1_234
10
20.2402031
20
20.9727042
40
0.5097822
50
193.5479632
51
219.5756669
0
ARC
8
DEFAULT_255_1_234
10
20.4773652
20
21.0342919
40
0.7547848
50
181.1218675
51
193.87563
0
ARC
8
DEFAULT_255_1_234
10
20.6843833
20
21.045358
40
0.9620055
50
179.9918545
51
181.5394234
0
ARC
8
DEFAULT_255_1_234
10
20.4992935
20
21.1616788
40
0.7769248
50
169.5837241
51
180.2757934
0
ARC
8
DEFAULT_255_1_234
10
20.3155873
20
21.1956229
40
0.590109
50
155.0365899
51
169.6003176
0
ARC
8
DEFAULT_255_1_234
10
20.2020337
20
21.2503677
40
0.4640625
50
136.783148
51
155.2472683
0
ARC
8
DEFAULT_255_1_234
10
20.1630814
20
21.2834562
40
0.4130255
50
121.7633186
51
136.428115
0
ARC
8
DEFAULT_255_1_234
10
20.1765776
20
21.2585227
40
0.4413323
50
95.6459699
51
121.5490577
0
ARC
8
DEFAULT_255_1_234
10
20.1923058
20
21.1476949
40
0.55319
50
89.924208
51
96.1377933
0
ARC
8
DEFAULT_255_1_234
10
20.1973491
20
21.1595542
40
0.5413475
50
76.6779277
51
90.4563316
0
ARC
8
DEFAULT_255_1_234
10
20.2367114
20
21.3186114
40
0.3775041
50
47.485847
51
76.9287264
0
ARC
8
DEFAULT_255_1_234
10
20.2220087
20
21.3086159
40
0.3948286
50
16.5424086
51
46.8933463
0
ARC
8
DEFAULT_255_1_234
10
20.0612244
20
21.2557861
40
0.564021
50
5.4072051
51
17.0365086
0
ARC
8
DEFAULT_255_1_234
10
19.9173261
20
21.2326679
40
0.5556559
50
7.8891745
51
15.9239216
0
ARC
8
DEFAULT_255_1_234
10
20.1160274
20
21.2903631
40
0.3487515
50
15.7653144
51
27.9410532
0
ARC
8
DEFAULT_255_1_234
10
20.2264492
20
21.349479
40
0.2235026
50
27.8166557
51
46.4008329
0
ARC
8
DEFAULT_255_1_234
10
20.2314135
20
21.3489082
40
0.2205286
50
47.4371857
51
75.0698205
0
ARC
8
DEFAULT_255_1_234
10
20.2005529
20
21.2414765
40
0.3322915
50
74.7008593
51
87.8124495
0
ARC
8
DEFAULT_255_1_234
10
20.1932217
20
21.1358844
40
0.4380987
50
87.3814673
51
90.0240855
0
ARC
8
DEFAULT_255_1_234
10
20.189376
20
21.2536291
40
0.3203749
50
89.3451631
51
108.5745436
0
ARC
8
DEFAULT_255_1_234
10
20.1756865
20
21.3049908
40
0.2673494
50
109.2998449
51
143.3037509
0
ARC
8
DEFAULT_255_1_234
10
20.2518938
20
21.2463881
40
0.3634757
50
143.0753173
51
163.1916937
0
ARC
8
DEFAULT_255_1_234
10
20.4470666
20
21.1847967
40
0.5681262
50
162.9373603
51
174.6208611
0
ARC
8
DEFAULT_255_1_234
10
20.7096708
20
21.156001
40
0.8322832
50
174.3419979
51
180.1430411
0
ARC
8
DEFAULT_255_1_234
10
20.6165864
20
21.0365698
40
0.7392076
50
179.6817502
51
189.150529
0
ARC
8
DEFAULT_255_1_234
10
20.3665112
20
20.994919
40
0.4856932
50
188.9910863
51
203.5773039
0
ARC
8
DEFAULT_255_1_234
10
20.2585445
20
20.9501211
40
0.3688271
50
203.9077269
51
215.1312379
0
ARC
8
DEFAULT_255_1_234
10
20.1662539
20
20.8785941
40
0.2522457
50
213.9071664
51
263.8849284
0
ARC
8
DEFAULT_255_1_234
10
20.1787868
20
20.9570518
40
0.3316174
50
263.1758525
51
270.1031083
0
ARC
8
DEFAULT_255_1_234
10
20.181996
20
21.0817365
40
0.4563091
50
269.6719807
51
279.0609165
0
ARC
8
DEFAULT_255_1_234
10
20.2086728
20
20.9204907
40
0.2928759
50
278.8750225
51
293.6346586
0
ARC
8
DEFAULT_255_1_234
10
20.2406936
20
20.84529
40
0.2111472
50
293.8553404
51
310.0518804
0
ARC
8
DEFAULT_255_1_234
10
20.241179
20
20.8390516
40
0.2060917
50
311.0646779
51
332.0108348
0
ARC
8
DEFAULT_255_1_234
10
20.1219517
20
20.9047978
40
0.3422352
50
331.6588543
51
343.2878891
0
ARC
8
DEFAULT_255_1_234
10
19.9157032
20
20.9681798
40
0.5580003
50
343.1446044
51
351.010618
0
ARC
8
DEFAULT_255_1_234
10
19.7615678
20
20.9962871
40
0.7146438
50
350.7157277
51
351.1602153
0
LINE
8
DEFAULT_255_1_234
10
21.7327218
20
21.1362534
11
21.7327218
21
21.0623614
0
LINE
8
DEFAULT_255_1_234
10
20.7922052
20
21.0519201
11
20.7922052
21
21.1362534
0
LINE
8
DEFAULT_255_1_234
10
21.5793156
20
21.0511169
11
21.5793156
21
21.1378597
0
LINE
8
DEFAULT_255_1_234
10
20.9456114
20
21.148301
11
20.9456114
21
21.0623614
0
ARC
8
DEFAULT_255_1_234
10
20.8685244
20
21.0584015
40
0.8642064
50
350.487711
51
0.2625388
0
ARC
8
DEFAULT_255_1_234
10
21.0978486
20
21.0189578
40
0.631518
50
336.0277639
51
350.5787438
0
ARC
8
DEFAULT_255_1_234
10
21.2323309
20
20.9581892
40
0.4839466
50
319.8877444
51
336.1328423
0
ARC
8
DEFAULT_255_1_234
10
21.292595
20
20.909958
40
0.4067874
50
302.4806467
51
319.6143626
0
ARC
8
DEFAULT_255_1_234
10
21.281096
20
20.9321202
40
0.4316636
50
275.8195682
51
302.1884709
0
ARC
8
DEFAULT_255_1_234
10
21.2644593
20
21.0463665
40
0.5470306
50
269.9171439
51
276.3397983
0
ARC
8
DEFAULT_255_1_234
10
21.2599803
20
20.9777681
40
0.4784458
50
252.5219675
51
270.4416499
0
ARC
8
DEFAULT_255_1_234
10
21.2456062
20
20.9238592
40
0.422716
50
237.5352116
51
252.1857531
0
ARC
8
DEFAULT_255_1_234
10
21.2545258
20
20.9352363
40
0.4371052
50
209.063312
51
237.3492538
0
ARC
8
DEFAULT_255_1_234
10
21.3415106
20
20.9898685
40
0.5397041
50
205.1183774
51
209.6470015
0
ARC
8
DEFAULT_255_1_234
10
21.4212143
20
21.023683
40
0.6262326
50
188.7215458
51
204.8240747
0
ARC
8
DEFAULT_255_1_234
10
21.6209671
20
21.0573067
40
0.8287794
50
180.3723947
51
188.9252049
0
ARC
8
DEFAULT_255_1_234
10
21.6182423
20
21.1402402
40
0.8260467
50
169.5253763
51
180.2765336
0
ARC
8
DEFAULT_255_1_234
10
21.4279871
20
21.1752309
40
0.6326007
50
155.8315255
51
169.5089989
0
ARC
8
DEFAULT_255_1_234
10
21.2999373
20
21.2346348
40
0.4914567
50
139.6258461
51
156.0379525
0
ARC
8
DEFAULT_255_1_234
10
21.2409706
20
21.2820799
40
0.4158054
50
122.6416387
51
139.3430715
0
ARC
8
DEFAULT_255_1_234
10
21.2510326
20
21.2637451
40
0.4366739
50
93.0223692
51
122.455762
0
ARC
8
DEFAULT_255_1_234
10
21.2618323
20
21.1672709
40
0.5336137
50
89.975342
51
93.6341897
0
ARC
8
DEFAULT_255_1_234
10
21.2657102
20
21.2071242
40
0.4937738
50
73.746375
51
90.4233405
0
ARC
8
DEFAULT_255_1_234
10
21.2832681
20
21.2751287
40
0.4235786
50
57.662753
51
73.4518111
0
ARC
8
DEFAULT_255_1_234
10
21.2824687
20
21.2772832
40
0.4221899
50
29.1440151
51
57.414694
0
ARC
8
DEFAULT_255_1_234
10
21.1889882
20
21.2189005
40
0.5322966
50
24.0982783
51
29.7323517
0
ARC
8
DEFAULT_255_1_234
10
21.0856157
20
21.1760399
40
0.6441673
50
8.6655297
51
23.8241346
0
ARC
8
DEFAULT_255_1_234
10
20.8621895
20
21.1395854
40
0.8705386
50
359.7806941
51
8.8218784
0
ARC
8
DEFAULT_255_1_234
10
20.7474893
20
21.1421345
40
0.8318373
50
359.7055579
51
8.036044
0
ARC
8
DEFAULT_255_1_234
10
21.0474899
20
21.1858239
40
0.5286768
50
7.8928306
51
20.2962107
0
ARC
8
DEFAULT_255_1_234
10
21.210247
20
21.2458395
40
0.3552073
50
20.3231126
51
36.4992797
0
ARC
8
DEFAULT_255_1_234
10
21.2788016
20
21.2986402
40
0.2686974
50
36.1437156
51
85.6627023
0
ARC
8
DEFAULT_255_1_234
10
21.2625562
20
21.1946221
40
0.373739
50
84.3852322
51
90.0757696
0
ARC
8
DEFAULT_255_1_234
10
21.2583234
20
21.2606839
40
0.3076997
50
89.3038458
51
109.9045693
0
ARC
8
DEFAULT_255_1_234
10
21.2490625
20
21.2989062
40
0.2686424
50
110.8228367
51
143.9179474
0
ARC
8
DEFAULT_255_1_234
10
21.3424285
20
21.2276236
40
0.3860887
50
143.5289163
51
163.2980757
0
ARC
8
DEFAULT_255_1_234
10
21.5332106
20
21.1676433
40
0.5860659
50
163.0418846
51
174.3140048
0
ARC
8
DEFAULT_255_1_234
10
21.7736218
20
21.1398854
40
0.8280531
50
174.0509143
51
179.4176892
0
ARC
8
DEFAULT_255_1_234
10
21.7231957
20
21.0581954
40
0.7775954
50
179.6930361
51
188.7906598
0
ARC
8
DEFAULT_255_1_234
10
21.4568436
20
21.0155935
40
0.5078633
50
188.6331305
51
202.5629587
0
ARC
8
DEFAULT_255_1_234
10
21.3314028
20
20.9651996
40
0.3726913
50
202.8081362
51
216.1193925
0
ARC
8
DEFAULT_255_1_234
10
21.2504598
20
20.9000676
40
0.2689577
50
215.0755913
51
264.6379694
0
ARC
8
DEFAULT_255_1_234
10
21.2631548
20
20.9831513
40
0.3528978
50
263.846392
51
270.0833719
0
ARC
8
DEFAULT_255_1_234
10
21.2672938
20
20.9573374
40
0.3271036
50
269.3649385
51
287.5152008
0
ARC
8
DEFAULT_255_1_234
10
21.2851096
20
20.8926238
40
0.2600406
50
288.0630309
51
323.8113348
0
ARC
8
DEFAULT_255_1_234
10
21.1979937
20
20.9576049
40
0.3687189
50
323.6547608
51
342.6590488
0
ARC
8
DEFAULT_255_1_234
10
20.9948552
20
21.0236952
40
0.5823286
50
342.4091907
51
353.6451149
0
ARC
8
DEFAULT_255_1_234
10
20.7117063
20
21.058919
40
0.8676442
50
353.4029884
51
359.4847795
0
LINE
8
DEFAULT_255_1_234
10
21.9640358
20
21.6848211
11
22.1632229
21
21.6848211
0
LINE
8
DEFAULT_255_1_234
10
22.1632229
20
21.6848211
11
22.5455337
21
20.7306506
0
LINE
8
DEFAULT_255_1_234
10
22.5455337
20
20.7306506
11
22.9278444
21
21.6848211
0
LINE
8
DEFAULT_255_1_234
10
22.9278444
20
21.6848211
11
23.1278347
21
21.6848211
0
LINE
8
DEFAULT_255_1_234
10
23.1278347
20
21.6848211
11
23.1278347
21
20.5154
0
LINE
8
DEFAULT_255_1_234
10
23.1278347
20
20.5154
11
22.9736253
21
20.5154
0
LINE
8
DEFAULT_255_1_234
10
22.9736253
20
20.5154
11
22.9736253
21
20.9707996
0
LINE
8
DEFAULT_255_1_234
10
22.9736253
20
20.9707996
11
22.9880825
21
21.4623419
0
LINE
8
DEFAULT_255_1_234
10
22.9880825
20
21.4623419
11
22.6041654
21
20.5154
0
LINE
8
DEFAULT_255_1_234
10
22.6041654
20
20.5154
11
22.4860988
21
20.5154
0
LINE
8
DEFAULT_255_1_234
10
22.4860988
20
20.5154
11
22.1029849
21
21.4599324
0
LINE
8
DEFAULT_255_1_234
10
22.1029849
20
21.4599324
11
22.1182452
21
20.9707996
0
LINE
8
DEFAULT_255_1_234
10
22.1182452
20
20.9707996
11
22.1182452
21
20.5154
0
LINE
8
DEFAULT_255_1_234
10
22.1182452
20
20.5154
11
21.9640358
21
20.5154
0
LINE
8
DEFAULT_255_1_234
10
21.9640358
20
20.5154
11
21.9640358
21
21.6848211
0
LINE
8
DEFAULT_255_1_234
10
23.849888
20
21.6904433
11
23.849888
21
20.5154
0
LINE
8
DEFAULT_255_1_234
10
23.849888
20
20.5154
11
23.7004977
21
20.5154
0
LINE
8
DEFAULT_255_1_234
10
23.7004977
20
20.5154
11
23.7004977
21
21.5057133
0
LINE
8
DEFAULT_255_1_234
10
23.7004977
20
21.5057133
11
23.4009138
21
21.3956785
0
LINE
8
DEFAULT_255_1_234
10
23.4009138
20
21.3956785
11
23.4009138
21
21.5306117
0
LINE
8
DEFAULT_255_1_234
10
23.4009138
20
21.5306117
11
23.8265959
21
21.6904433
0
LINE
8
DEFAULT_255_1_234
10
23.8265959
20
21.6904433
11
23.849888
21
21.6904433
0
LINE
8
DEFAULT_255_1_234
10
20.458823
20
28.8239663
11
20.6138355
21
28.8239663
0
LINE
8
DEFAULT_255_1_234
10
19.7134777
20
28.9829947
11
19.7134777
21
29.0954391
0
LINE
8
DEFAULT_255_1_234
10
20.6138355
20
29.2464357
11
20.458823
21
29.2464357
0
LINE
8
DEFAULT_255_1_234
10
19.8684902
20
29.0914232
11
19.8684902
21
28.9781757
0
ARC
8
DEFAULT_255_1_234
10
20.0657742
20
28.8836846
40
0.5513052
50
340.1774281
51
353.7814284
0
ARC
8
DEFAULT_255_1_234
10
20.2229095
20
28.8251582
40
0.3836379
50
311.4558989
51
340.4421614
0
ARC
8
DEFAULT_255_1_234
10
20.2195763
20
28.8362528
40
0.3941894
50
282.4333181
51
310.7513653
0
ARC
8
DEFAULT_255_1_234
10
20.1756502
20
29.0177679
40
0.5809175
50
269.9358511
51
282.809604
0
ARC
8
DEFAULT_255_1_234
10
20.1704568
20
29.1635212
40
0.7266847
50
270.0021091
51
270.3581957
0
ARC
8
DEFAULT_255_1_234
10
20.1651985
20
28.9034585
40
0.4666519
50
250.7884749
51
270.6489167
0
ARC
8
DEFAULT_255_1_234
10
20.148382
20
28.8397319
40
0.4009729
50
219.3627325
51
250.0611886
0
ARC
8
DEFAULT_255_1_234
10
20.2313031
20
28.9102042
40
0.5097822
50
193.5479632
51
219.5756669
0
ARC
8
DEFAULT_255_1_234
10
20.4684652
20
28.9717919
40
0.7547848
50
181.1218675
51
193.87563
0
ARC
8
DEFAULT_255_1_234
10
20.6754833
20
28.982858
40
0.9620055
50
179.9918545
51
181.5394234
0
ARC
8
DEFAULT_255_1_234
10
20.4903935
20
29.0991788
40
0.7769248
50
169.5837241
51
180.2757934
0
ARC
8
DEFAULT_255_1_234
10
20.3066873
20
29.1331229
40
0.590109
50
155.0365899
51
169.6003176
0
ARC
8
DEFAULT_255_1_234
10
20.1931337
20
29.1878677
40
0.4640625
50
136.783148
51
155.2472683
0
ARC
8
DEFAULT_255_1_234
10
20.1541814
20
29.2209562
40
0.4130255
50
121.7633186
51
136.428115
0
ARC
8
DEFAULT_255_1_234
10
20.1676776
20
29.1960227
40
0.4413323
50
95.6459699
51
121.5490577
0
ARC
8
DEFAULT_255_1_234
10
20.1834058
20
29.0851949
40
0.55319
50
89.924208
51
96.1377933
0
ARC
8
DEFAULT_255_1_234
10
20.1884491
20
29.0970542
40
0.5413475
50
76.6779277
51
90.4563316
0
ARC
8
DEFAULT_255_1_234
10
20.2278114
20
29.2561114
40
0.3775041
50
47.485847
51
76.9287264
0
ARC
8
DEFAULT_255_1_234
10
20.2131087
20
29.2461159
40
0.3948286
50
16.5424086
51
46.8933463
0
ARC
8
DEFAULT_255_1_234
10
20.0523244
20
29.1932861
40
0.564021
50
5.4072051
51
17.0365086
0
ARC
8
DEFAULT_255_1_234
10
19.9084261
20
29.1701679
40
0.5556559
50
7.8891745
51
15.9239216
0
ARC
8
DEFAULT_255_1_234
10
20.1071274
20
29.2278631
40
0.3487515
50
15.7653144
51
27.9410532
0
ARC
8
DEFAULT_255_1_234
10
20.2175492
20
29.286979
40
0.2235026
50
27.8166557
51
46.4008329
0
ARC
8
DEFAULT_255_1_234
10
20.2225135
20
29.2864082
40
0.2205286
50
47.4371857
51
75.0698205
0
ARC
8
DEFAULT_255_1_234
10
20.1916529
20
29.1789765
40
0.3322915
50
74.7008593
51
87.8124495
0
ARC
8
DEFAULT_255_1_234
10
20.1843217
20
29.0733844
40
0.4380987
50
87.3814673
51
90.0240855
0
ARC
8
DEFAULT_255_1_234
10
20.180476
20
29.1911291
40
0.3203749
50
89.3451631
51
108.5745436
0
ARC
8
DEFAULT_255_1_234
10
20.1667865
20
29.2424908
40
0.2673494
50
109.2998449
51
143.3037509
0
ARC
8
DEFAULT_255_1_234
10
20.2429938
20
29.1838881
40
0.3634757
50
143.0753173
51
163.1916937
0
ARC
8
DEFAULT_255_1_234
10
20.4381666
20
29.1222967
40
0.5681262
50
162.9373603
51
174.6208611
0
ARC
8
DEFAULT_255_1_234
10
20.7007708
20
29.093501
40
0.8322832
50
174.3419979
51
180.1430411
0
ARC
8
DEFAULT_255_1_234
10
20.6076864
20
28.9740698
40
0.7392076
50
179.6817502
51
189.150529
0
ARC
8
DEFAULT_255_1_234
10
20.3576112
20
28.932419
40
0.4856932
50
188.9910863
51
203.5773039
0
ARC
8
DEFAULT_255_1_234
10
20.2496445
20
28.8876211
40
0.3688271
50
203.9077269
51
215.1312379
0
ARC
8
DEFAULT_255_1_234
10
20.1573539
20
28.8160941
40
0.2522457
50
213.9071664
51
263.8849284
0
ARC
8
DEFAULT_255_1_234
10
20.1698868
20
28.8945518
40
0.3316174
50
263.1758525
51
270.1031083
0
ARC
8
DEFAULT_255_1_234
10
20.173096
20
29.0192365
40
0.4563091
50
269.6719807
51
279.0609165
0
ARC
8
DEFAULT_255_1_234
10
20.1997728
20
28.8579907
40
0.2928759
50
278.8750225
51
293.6346586
0
ARC
8
DEFAULT_255_1_234
10
20.2317936
20
28.78279
40
0.2111472
50
293.8553404
51
310.0518804
0
ARC
8
DEFAULT_255_1_234
10
20.232279
20
28.7765516
40
0.2060917
50
311.0646779
51
332.0108348
0
ARC
8
DEFAULT_255_1_234
10
20.1130517
20
28.8422978
40
0.3422352
50
331.6588543
51
343.2878891
0
ARC
8
DEFAULT_255_1_234
10
19.9068032
20
28.9056798
40
0.5580003
50
343.1446044
51
351.010618
0
ARC
8
DEFAULT_255_1_234
10
19.7526678
20
28.9337871
40
0.7146438
50
350.7157277
51
351.1602153
0
LINE
8
DEFAULT_255_1_234
10
21.7238218
20
29.0737534
11
21.7238218
21
28.9998614
0
LINE
8
DEFAULT_255_1_234
10
20.7833052
20
28.9894201
11
20.7833052
21
29.0737534
0
LINE
8
DEFAULT_255_1_234
10
21.5704156
20
28.9886169
11
21.5704156
21
29.0753597
0
LINE
8
DEFAULT_255_1_234
10
20.9367114
20
29.085801
11
20.9367114
21
28.9998614
0
ARC
8
DEFAULT_255_1_234
10
20.8596244
20
28.9959015
40
0.8642064
50
350.487711
51
0.2625388
0
ARC
8
DEFAULT_255_1_234
10
21.0889486
20
28.9564578
40
0.631518
50
336.0277639
51
350.5787438
0
ARC
8
DEFAULT_255_1_234
10
21.2234309
20
28.8956892
40
0.4839466
50
319.8877444
51
336.1328423
0
ARC
8
DEFAULT_255_1_234
10
21.283695
20
28.847458
40
0.4067874
50
302.4806467
51
319.6143626
0
ARC
8
DEFAULT_255_1_234
10
21.272196
20
28.8696202
40
0.4316636
50
275.8195682
51
302.1884709
0
ARC
8
DEFAULT_255_1_234
10
21.2555593
20
28.9838665
40
0.5470306
50
269.9171439
51
276.3397983
0
ARC
8
DEFAULT_255_1_234
10
21.2510803
20
28.9152681
40
0.4784458
50
252.5219675
51
270.4416499
0
ARC
8
DEFAULT_255_1_234
10
21.2367062
20
28.8613592
40
0.422716
50
237.5352116
51
252.1857531
0
ARC
8
DEFAULT_255_1_234
10
21.2456258
20
28.8727363
40
0.4371052
50
209.063312
51
237.3492538
0
ARC
8
DEFAULT_255_1_234
10
21.3326106
20
28.9273685
40
0.5397041
50
205.1183774
51
209.6470015
0
ARC
8
DEFAULT_255_1_234
10
21.4123143
20
28.961183
40
0.6262326
50
188.7215458
51
204.8240747
0
ARC
8
DEFAULT_255_1_234
10
21.6120671
20
28.9948067
40
0.8287794
50
180.3723947
51
188.9252049
0
ARC
8
DEFAULT_255_1_234
10
21.6093423
20
29.0777402
40
0.8260467
50
169.5253763
51
180.2765336
0
ARC
8
DEFAULT_255_1_234
10
21.4190871
20
29.1127309
40
0.6326007
50
155.8315255
51
169.5089989
0
ARC
8
DEFAULT_255_1_234
10
21.2910373
20
29.1721348
40
0.4914567
50
139.6258461
51
156.0379525
0
ARC
8
DEFAULT_255_1_234
10
21.2320706
20
29.2195799
40
0.4158054
50
122.6416387
51
139.3430715
0
ARC
8
DEFAULT_255_1_234
10
21.2421326
20
29.2012451
40
0.4366739
50
93.0223692
51
122.455762
0
ARC
8
DEFAULT_255_1_234
10
21.2529323
20
29.1047709
40
0.5336137
50
89.975342
51
93.6341897
0
ARC
8
DEFAULT_255_1_234
10
21.2568102
20
29.1446242
40
0.4937738
50
73.746375
51
90.4233405
0
ARC
8
DEFAULT_255_1_234
10
21.2743681
20
29.2126287
40
0.4235786
50
57.662753
51
73.4518111
0
ARC
8
DEFAULT_255_1_234
10
21.2735687
20
29.2147832
40
0.4221899
50
29.1440151
51
57.414694
0
ARC
8
DEFAULT_255_1_234
10
21.1800882
20
29.1564005
40
0.5322966
50
24.0982783
51
29.7323517
0
ARC
8
DEFAULT_255_1_234
10
21.0767157
20
29.1135399
40
0.6441673
50
8.6655297
51
23.8241346
0
ARC
8
DEFAULT_255_1_234
10
20.8532895
20
29.0770854
40
0.8705386
50
359.7806941
51
8.8218784
0
ARC
8
DEFAULT_255_1_234
10
20.7385893
20
29.0796345
40
0.8318373
50
359.7055579
51
8.036044
0
ARC
8
DEFAULT_255_1_234
10
21.0385899
20
29.1233239
40
0.5286768
50
7.8928306
51
20.2962107
0
ARC
8
DEFAULT_255_1_234
10
21.201347
20
29.1833395
40
0.3552073
50
20.3231126
51
36.4992797
0
ARC
8
DEFAULT_255_1_234
10
21.2699016
20
29.2361402
40
0.2686974
50
36.1437156
51
85.6627023
0
ARC
8
DEFAULT_255_1_234
10
21.2536562
20
29.1321221
40
0.373739
50
84.3852322
51
90.0757696
0
ARC
8
DEFAULT_255_1_234
10
21.2494234
20
29.1981839
40
0.3076997
50
89.3038458
51
109.9045693
0
ARC
8
DEFAULT_255_1_234
10
21.2401625
20
29.2364062
40
0.2686424
50
110.8228367
51
143.9179474
0
ARC
8
DEFAULT_255_1_234
10
21.3335285
20
29.1651236
40
0.3860887
50
143.5289163
51
163.2980757
0
ARC
8
DEFAULT_255_1_234
10
21.5243106
20
29.1051433
40
0.5860659
50
163.0418846
51
174.3140048
0
ARC
8
DEFAULT_255_1_234
10
21.7647218
20
29.0773854
40
0.8280531
50
174.0509143
51
179.4176892
0
ARC
8
DEFAULT_255_1_234
10
21.7142957
20
28.9956954
40
0.7775954
50
179.6930361
51
188.7906598
0
ARC
8
DEFAULT_255_1_234
10
21.4479436
20
28.9530935
40
0.5078633
50
188.6331305
51
202.5629587
0
ARC
8
DEFAULT_255_1_234
10
21.3225028
20
28.9026996
40
0.3726913
50
202.8081362
51
216.1193925
0
ARC
8
DEFAULT_255_1_234
10
21.2415598
20
28.8375676
40
0.2689577
50
215.0755913
51
264.6379694
0
ARC
8
DEFAULT_255_1_234
10
21.2542548
20
28.9206513
40
0.3528978
50
263.846392
51
270.0833719
0
ARC
8
DEFAULT_255_1_234
10
21.2583938
20
28.8948374
40
0.3271036
50
269.3649385
51
287.5152008
0
ARC
8
DEFAULT_255_1_234
10
21.2762096
20
28.8301238
40
0.2600406
50
288.0630309
51
323.8113348
0
ARC
8
DEFAULT_255_1_234
10
21.1890937
20
28.8951049
40
0.3687189
50
323.6547608
51
342.6590488
0
ARC
8
DEFAULT_255_1_234
10
20.9859552
20
28.9611952
40
0.5823286
50
342.4091907
51
353.6451149
0
ARC
8
DEFAULT_255_1_234
10
20.7028063
20
28.996419
40
0.8676442
50
353.4029884
51
359.4847795
0
LINE
8
DEFAULT_255_1_234
10
21.9551358
20
29.6223211
11
22.1543229
21
29.6223211
0
LINE
8
DEFAULT_255_1_234
10
22.1543229
20
29.6223211
11
22.5366337
21
28.6681506
0
LINE
8
DEFAULT_255_1_234
10
22.5366337
20
28.6681506
11
22.9189444
21
29.6223211
0
LINE
8
DEFAULT_255_1_234
10
22.9189444
20
29.6223211
11
23.1189347
21
29.6223211
0
LINE
8
DEFAULT_255_1_234
10
23.1189347
20
29.6223211
11
23.1189347
21
28.4529
0
LINE
8
DEFAULT_255_1_234
10
23.1189347
20
28.4529
11
22.9647253
21
28.4529
0
LINE
8
DEFAULT_255_1_234
10
22.9647253
20
28.4529
11
22.9647253
21
28.9082996
0
LINE
8
DEFAULT_255_1_234
10
22.9647253
20
28.9082996
11
22.9791825
21
29.3998419
0
LINE
8
DEFAULT_255_1_234
10
22.9791825
20
29.3998419
11
22.5952654
21
28.4529
0
LINE
8
DEFAULT_255_1_234
10
22.5952654
20
28.4529
11
22.4771988
21
28.4529
0
LINE
8
DEFAULT_255_1_234
10
22.4771988
20
28.4529
11
22.0940849
21
29.3974324
0
LINE
8
DEFAULT_255_1_234
10
22.0940849
20
29.3974324
11
22.1093452
21
28.9082996
0
LINE
8
DEFAULT_255_1_234
10
22.1093452
20
28.9082996
11
22.1093452
21
28.4529
0
LINE
8
DEFAULT_255_1_234
10
22.1093452
20
28.4529
11
21.9551358
21
28.4529
0
LINE
8
DEFAULT_255_1_234
10
21.9551358
20
28.4529
11
21.9551358
21
29.6223211
0
LINE
8
DEFAULT_255_1_234
10
24.085956
20
29.1444327
11
24.085956
21
28.9516709
0
LINE
8
DEFAULT_255_1_234
10
23.3478393
20
28.9315916
11
23.3478393
21
29.1299755
0
LINE
8
DEFAULT_255_1_234
10
23.9373688
20
28.9115123
11
23.9373688
21
29.1548739
0
LINE
8
DEFAULT_255_1_234
10
23.4964264
20
29.1661184
11
23.4964264
21
28.9283789
0
ARC
8
DEFAULT_255_1_234
10
22.861245
20
28.9467805
40
1.2247208
50
353.8441951
51
0.2287902
0
ARC
8
DEFAULT_255_1_234
10
23.3251953
20
28.8949806
40
0.7578929
50
344.4934747
51
353.9765454
0
ARC
8
DEFAULT_255_1_234
10
23.6244543
20
28.8098981
40
0.4467846
50
329.2803592
51
344.7472793
0
ARC
8
DEFAULT_255_1_234
10
23.7237368
20
28.7554018
40
0.3336173
50
324.9352394
51
328.6160465
0
ARC
8
DEFAULT_255_1_234
10
23.7614477
20
28.7290427
40
0.2876076
50
280.580143
51
324.9173126
0
ARC
8
DEFAULT_255_1_234
10
23.721327
20
28.8961099
40
0.4592847
50
269.5977311
51
281.6734359
0
ARC
8
DEFAULT_255_1_234
10
23.7141175
20
28.8841173
40
0.4472986
50
256.6228859
51
270.51044
0
ARC
8
DEFAULT_255_1_234
10
23.6739153
20
28.7292877
40
0.2873874
50
215.8618325
51
257.2788573
0
ARC
8
DEFAULT_255_1_234
10
23.7760185
20
28.7977977
40
0.4102928
50
197.9693508
51
215.2623606
0
ARC
8
DEFAULT_255_1_234
10
24.02453
20
28.8816709
40
0.6725652
50
187.8816417
51
198.2346507
0
ARC
8
DEFAULT_255_1_234
10
24.4203509
20
28.9388079
40
1.0724845
50
180.8976217
51
188.0055519
0
ARC
8
DEFAULT_255_1_234
10
24.7003697
20
28.9491777
40
1.3526448
50
180.7449369
51
181.1510016
0
ARC
8
DEFAULT_255_1_234
10
24.5426426
20
29.1348042
40
1.1948131
50
173.7675579
51
180.231553
0
ARC
8
DEFAULT_255_1_234
10
24.0908572
20
29.1858666
40
0.7401564
50
164.3058563
51
173.9002247
0
ARC
8
DEFAULT_255_1_234
10
23.7996641
20
29.2697656
40
0.4371288
50
148.7922025
51
164.568378
0
ARC
8
DEFAULT_255_1_234
10
23.7045093
20
29.3228929
40
0.3282386
50
144.5883898
51
148.1176286
0
ARC
8
DEFAULT_255_1_234
10
23.6701991
20
29.3468315
40
0.2864044
50
101.6440918
51
144.514236
0
ARC
8
DEFAULT_255_1_234
10
23.7127058
20
29.1779069
40
0.4604934
50
89.5284041
51
102.5819763
0
ARC
8
DEFAULT_255_1_234
10
23.7206146
20
29.1740018
40
0.464401
50
77.0437873
51
90.5081339
0
ARC
8
DEFAULT_255_1_234
10
23.7608148
20
29.3382615
40
0.2953195
50
48.2778575
51
77.4994676
0
ARC
8
DEFAULT_255_1_234
10
23.7680779
20
29.3511746
40
0.2808655
50
36.3142134
51
47.6305865
0
ARC
8
DEFAULT_255_1_234
10
23.6812086
20
29.2926515
40
0.3855453
50
18.2931786
51
35.6769206
0
ARC
8
DEFAULT_255_1_234
10
23.4268845
20
29.2053593
40
0.654423
50
8.024666
51
18.5605216
0
ARC
8
DEFAULT_255_1_234
10
23.0105765
20
29.1438792
40
1.0752407
50
1.1274072
51
8.1718305
0
ARC
8
DEFAULT_255_1_234
10
22.6869955
20
29.1311885
40
1.3990231
50
0.5424119
51
1.3863029
0
ARC
8
DEFAULT_255_1_234
10
22.8691333
20
29.1584342
40
1.0682415
50
359.8090433
51
4.9407866
0
ARC
8
DEFAULT_255_1_234
10
23.2901347
20
29.1960113
40
0.6455691
50
4.8362157
51
12.2904523
0
ARC
8
DEFAULT_255_1_234
10
23.5656462
20
29.2573965
40
0.3633074
50
12.0805627
51
23.8173984
0
ARC
8
DEFAULT_255_1_234
10
23.6830167
20
29.3070919
40
0.2358723
50
24.2871213
51
31.3935614
0
ARC
8
DEFAULT_255_1_234
10
23.7354864
20
29.3414233
40
0.1732111
50
30.7407893
51
82.4657128
0
ARC
8
DEFAULT_255_1_234
10
23.7174999
20
29.2530691
40
0.263235
50
81.1060089
51
90.2184952
0
ARC
8
DEFAULT_255_1_234
10
23.7139298
20
29.2788924
40
0.2374236
50
89.3806855
51
105.6762551
0
ARC
8
DEFAULT_255_1_234
10
23.6955928
20
29.3455567
40
0.1682847
50
105.7981136
51
149.7388061
0
ARC
8
DEFAULT_255_1_234
10
23.8020007
20
29.281595
40
0.2924306
50
149.4208916
51
163.6286378
0
ARC
8
DEFAULT_255_1_234
10
24.0110895
20
29.217825
40
0.5110213
50
163.3763315
51
172.1410975
0
ARC
8
DEFAULT_255_1_234
10
24.3411614
20
29.1705518
40
0.8444586
50
172.0259487
51
178.0703232
0
ARC
8
DEFAULT_255_1_234
10
24.6441703
20
29.1561906
40
1.1477868
50
177.8631668
51
179.5044149
0
ARC
8
DEFAULT_255_1_234
10
24.5369108
20
28.9247389
40
1.0404907
50
179.7995573
51
185.2460446
0
ARC
8
DEFAULT_255_1_234
10
24.1326147
20
28.8864513
40
0.6343885
50
185.1411642
51
193.0079639
0
ARC
8
DEFAULT_255_1_234
10
23.8682619
20
28.8239641
40
0.3627568
50
192.7897626
51
205.2507664
0
ARC
8
DEFAULT_255_1_234
10
23.7636166
20
28.7772415
40
0.2481908
50
205.8005384
51
211.2537509
0
ARC
8
DEFAULT_255_1_234
10
23.7112607
20
28.742158
40
0.1852521
50
210.3789793
51
238.4008143
0
ARC
8
DEFAULT_255_1_234
10
23.7093129
20
28.7468376
40
0.1882621
50
239.6520629
51
265.9793761
0
ARC
8
DEFAULT_255_1_234
10
23.7178329
20
28.8140427
40
0.2559272
50
265.1315437
51
270.060332
0
ARC
8
DEFAULT_255_1_234
10
23.7207108
20
28.7816534
40
0.2235528
50
269.3314664
51
287.2178029
0
ARC
8
DEFAULT_255_1_234
10
23.734496
20
28.7313279
40
0.1714108
50
287.7958004
51
329.080874
0
ARC
8
DEFAULT_255_1_234
10
23.6387416
20
28.791093
40
0.2842745
50
328.6634704
51
343.3325132
0
ARC
8
DEFAULT_255_1_234
10
23.4214437
20
28.8587863
40
0.5118644
50
343.0499468
51
351.9393422
0
ARC
8
DEFAULT_255_1_234
10
23.0747736
20
28.9098949
40
0.8622784
50
351.8069023
51
357.7959224
0
ARC
8
DEFAULT_255_1_234
10
22.7512292
20
28.9266721
40
1.1862365
50
357.5871873
51
359.2677531
0
LINE
8
DEFAULT_255_1_234
10
22.5167458
20
37.5598211
11
22.8203456
21
36.972701
0
LINE
8
DEFAULT_255_1_234
10
22.8203456
20
36.972701
11
23.1255516
21
37.5598211
0
LINE
8
DEFAULT_255_1_234
10
23.1255516
20
37.5598211
11
23.3006435
21
37.5598211
0
LINE
8
DEFAULT_255_1_234
10
23.3006435
20
37.5598211
11
22.8974502
21
36.8265234
0
LINE
8
DEFAULT_255_1_234
10
22.8974502
20
36.8265234
11
22.8974502
21
36.3904
0
LINE
8
DEFAULT_255_1_234
10
22.8974502
20
36.3904
11
22.7432409
21
36.3904
0
LINE
8
DEFAULT_255_1_234
10
22.7432409
20
36.3904
11
22.7432409
21
36.8265234
0
LINE
8
DEFAULT_255_1_234
10
22.7432409
20
36.8265234
11
22.3400476
21
37.5598211
0
LINE
8
DEFAULT_255_1_234
10
22.3400476
20
37.5598211
11
22.5167458
21
37.5598211
0
LINE
8
DEFAULT_255_1_234
10
23.6291416
20
36.9261169
11
23.6291416
21
37.0473962
0
LINE
8
DEFAULT_255_1_234
10
23.6291416
20
37.0473962
11
23.7407828
21
37.0473962
0
LINE
8
DEFAULT_255_1_234
10
23.5504306
20
37.2530087
11
23.4018434
21
37.2530087
0
LINE
8
DEFAULT_255_1_234
10
23.3914021
20
36.6988188
11
23.5407925
21
36.6988188
0
LINE
8
DEFAULT_255_1_234
10
23.7407828
20
36.9261169
11
23.6291416
21
36.9261169
0
ARC
8
DEFAULT_255_1_234
10
23.7378694
20
37.3866713
40
0.3392876
50
270.4919872
51
281.8951556
0
ARC
8
DEFAULT_255_1_234
10
23.7619956
20
37.2764702
40
0.2264817
50
281.6691735
51
301.2943132
0
ARC
8
DEFAULT_255_1_234
10
23.7790166
20
37.2453304
40
0.1910381
50
301.7833094
51
311.7545298
0
ARC
8
DEFAULT_255_1_234
10
23.7881742
20
37.2351748
40
0.1773635
50
311.7323931
51
354.2802411
0
ARC
8
DEFAULT_255_1_234
10
23.7155367
20
37.2476722
40
0.2509385
50
353.0937916
51
0.1181479
0
ARC
8
DEFAULT_255_1_234
10
23.6694152
20
37.2524386
40
0.2970898
50
359.1805295
51
15.0453146
0
ARC
8
DEFAULT_255_1_234
10
23.8039989
20
37.2916992
40
0.1569564
50
13.9577229
51
77.6713066
0
ARC
8
DEFAULT_255_1_234
10
23.7653518
20
37.1531949
40
0.3006298
50
76.1116566
51
90.7026153
0
ARC
8
DEFAULT_255_1_234
10
23.7594356
20
37.1805545
40
0.2732568
50
89.5324876
51
103.531937
0
ARC
8
DEFAULT_255_1_234
10
23.7393801
20
37.2604884
40
0.1908508
50
103.2931773
51
133.5619022
0
ARC
8
DEFAULT_255_1_234
10
23.7349289
20
37.2664375
40
0.1834746
50
133.8349307
51
173.5344437
0
ARC
8
DEFAULT_255_1_234
10
23.8072332
20
37.2536213
40
0.2568033
50
172.5096846
51
180.1366907
0
ARC
8
DEFAULT_255_1_234
10
23.7121226
20
37.2570622
40
0.3103056
50
155.3484492
51
180.7484736
0
ARC
8
DEFAULT_255_1_234
10
23.7072315
20
37.2541846
40
0.3070957
50
131.5744599
51
154.4798489
0
ARC
8
DEFAULT_255_1_234
10
23.7385462
20
37.222531
40
0.3515643
50
96.9875458
51
131.9690667
0
ARC
8
DEFAULT_255_1_234
10
23.7604942
20
37.0979636
40
0.4779224
50
89.8596053
51
97.7825159
0
ARC
8
DEFAULT_255_1_234
10
23.7653005
20
37.0717616
40
0.5041361
50
78.3655447
51
90.4131539
0
ARC
8
DEFAULT_255_1_234
10
23.8010923
20
37.2376887
40
0.3344039
50
56.6229102
51
78.638727
0
ARC
8
DEFAULT_255_1_234
10
23.8225867
20
37.2752805
40
0.2912001
50
47.0253525
51
56.0854072
0
ARC
8
DEFAULT_255_1_234
10
23.8245647
20
37.2792223
40
0.2869704
50
10.9208013
51
46.7778124
0
ARC
8
DEFAULT_255_1_234
10
23.6881713
20
37.2476857
40
0.426899
50
359.6364486
51
11.6087304
0
ARC
8
DEFAULT_255_1_234
10
23.8716557
20
37.2461752
40
0.243409
50
332.3549906
51
359.7179418
0
ARC
8
DEFAULT_255_1_234
10
23.8066159
20
37.2770142
40
0.3153459
50
325.2333722
51
332.8745602
0
ARC
8
DEFAULT_255_1_234
10
23.8218783
20
37.2663828
40
0.2967456
50
292.9802137
51
325.2392345
0
ARC
8
DEFAULT_255_1_234
10
23.7944157
20
37.3197863
40
0.3566604
50
292.5402179
51
293.6924929
0
ARC
8
DEFAULT_255_1_234
10
23.8336752
20
36.6743091
40
0.3307468
50
57.6435486
51
72.8625112
0
ARC
8
DEFAULT_255_1_234
10
23.8691252
20
36.7317549
40
0.2632492
50
36.7248896
51
57.4697979
0
ARC
8
DEFAULT_255_1_234
10
23.8679885
20
36.733022
40
0.2634081
50
8.0545065
51
36.356114
0
ARC
8
DEFAULT_255_1_234
10
23.781707
20
36.7175174
40
0.3510261
50
359.8320645
51
8.5869982
0
ARC
8
DEFAULT_255_1_234
10
23.7441846
20
36.7127101
40
0.3885653
50
343.9829931
51
0.5571613
0
ARC
8
DEFAULT_255_1_234
10
23.8328043
20
36.6884438
40
0.2966924
50
311.6359546
51
343.7651759
0
ARC
8
DEFAULT_255_1_234
10
23.7949613
20
36.7311102
40
0.3537231
50
279.7829875
51
311.6255694
0
ARC
8
DEFAULT_255_1_234
10
23.7648389
20
36.874828
40
0.5004971
50
269.7286406
51
280.3856417
0
ARC
8
DEFAULT_255_1_234
10
23.7586461
20
36.8706996
40
0.4963778
50
256.6828919
51
270.4412052
0
ARC
8
DEFAULT_255_1_234
10
23.7247757
20
36.7322394
40
0.3538406
50
229.4223008
51
256.8556159
0
ARC
8
DEFAULT_255_1_234
10
23.683315
20
36.6855736
40
0.2914296
50
181.818294
51
229.6455059
0
ARC
8
DEFAULT_255_1_234
10
23.7873106
20
36.6986496
40
0.3959084
50
179.9755256
51
183.2323064
0
ARC
8
DEFAULT_255_1_234
10
23.7700852
20
36.6966037
40
0.2293034
50
179.4465117
51
196.2869258
0
ARC
8
DEFAULT_255_1_234
10
23.721326
20
36.6832651
40
0.1787621
50
196.5661473
51
227.705904
0
ARC
8
DEFAULT_255_1_234
10
23.7377355
20
36.7016155
40
0.2033784
50
227.7652068
51
257.8762805
0
ARC
8
DEFAULT_255_1_234
10
23.7602325
20
36.7959156
40
0.3003081
50
257.4584385
51
270.426602
0
ARC
8
DEFAULT_255_1_234
10
23.7647891
20
36.8248996
40
0.329292
50
269.5962073
51
280.8789248
0
ARC
8
DEFAULT_255_1_234
10
23.787742
20
36.7102685
40
0.2123908
50
280.6346389
51
299.8595945
0
ARC
8
DEFAULT_255_1_234
10
23.8068327
20
36.6740212
40
0.171457
50
300.3576302
51
314.5517981
0
ARC
8
DEFAULT_255_1_234
10
23.7985387
20
36.6800919
40
0.1816095
50
315.0728369
51
345.0431014
0
ARC
8
DEFAULT_255_1_234
10
23.7062201
20
36.7069841
40
0.2777492
50
344.5986631
51
357.9269593
0
ARC
8
DEFAULT_255_1_234
10
23.6166528
20
36.7131276
40
0.3674917
50
357.4748886
51
0.0231117
0
ARC
8
DEFAULT_255_1_234
10
23.7189637
20
36.7155679
40
0.2651907
50
359.5047933
51
13.4239635
0
ARC
8
DEFAULT_255_1_234
10
23.8056281
20
36.7377478
40
0.1757509
50
12.9498199
51
48.7551375
0
ARC
8
DEFAULT_255_1_234
10
23.7874014
20
36.71284
40
0.2065134
50
49.5088623
51
72.1836453
0
ARC
8
DEFAULT_255_1_234
10
23.7516167
20
36.6066291
40
0.3185836
50
71.9010081
51
84.3554254
0
ARC
8
DEFAULT_255_1_234
10
23.7354799
20
36.4705326
40
0.4556151
50
84.0193428
51
89.333121
0
LINE
8
DEFAULT_255_1_234
10
22.5167458
20
45.4973211
11
22.8203456
21
44.910201
0
LINE
8
DEFAULT_255_1_234
10
22.8203456
20
44.910201
11
23.1255516
21
45.4973211
0
LINE
8
DEFAULT_255_1_234
10
23.1255516
20
45.4973211
11
23.3006435
21
45.4973211
0
LINE
8
DEFAULT_255_1_234
10
23.3006435
20
45.4973211
11
22.8974502
21
44.7640234
0
LINE
8
DEFAULT_255_1_234
10
22.8974502
20
44.7640234
11
22.8974502
21
44.3279
0
LINE
8
DEFAULT_255_1_234
10
22.8974502
20
44.3279
11
22.7432409
21
44.3279
0
LINE
8
DEFAULT_255_1_234
10
22.7432409
20
44.3279
11
22.7432409
21
44.7640234
0
LINE
8
DEFAULT_255_1_234
10
22.7432409
20
44.7640234
11
22.3400476
21
45.4973211
0
LINE
8
DEFAULT_255_1_234
10
22.3400476
20
45.4973211
11
22.5167458
21
45.4973211
0
LINE
8
DEFAULT_255_1_234
10
24.1793157
20
44.4491792
11
24.1793157
21
44.3279
0
LINE
8
DEFAULT_255_1_234
10
24.1793157
20
44.3279
11
23.4130878
21
44.3279
0
LINE
8
DEFAULT_255_1_234
10
23.4130878
20
44.3279
11
23.4130878
21
44.4347221
0
LINE
8
DEFAULT_255_1_234
10
23.4130878
20
44.4347221
11
23.8178875
21
44.8844995
0
LINE
8
DEFAULT_255_1_234
10
23.5391861
20
45.1527595
11
23.390599
21
45.1527595
0
LINE
8
DEFAULT_255_1_234
10
23.9054334
20
44.7889218
11
23.5921956
21
44.4491792
0
LINE
8
DEFAULT_255_1_234
10
23.5921956
20
44.4491792
11
24.1793157
21
44.4491792
0
ARC
8
DEFAULT_255_1_234
10
22.4688708
20
46.0774527
40
1.8008286
50
318.5132453
51
320.7828378
0
ARC
8
DEFAULT_255_1_234
10
22.9975682
20
45.6471426
40
1.1191493
50
320.7372736
51
323.9737074
0
ARC
8
DEFAULT_255_1_234
10
23.3895539
20
45.3631361
40
0.6350923
50
323.8961724
51
328.6421089
0
ARC
8
DEFAULT_255_1_234
10
23.5942134
20
45.2369031
40
0.3946393
50
328.8299013
51
331.789948
0
ARC
8
DEFAULT_255_1_234
10
23.6939313
20
45.1854509
40
0.2824501
50
331.4255242
51
352.9364833
0
ARC
8
DEFAULT_255_1_234
10
23.7075813
20
45.1823976
40
0.2685315
50
353.2248685
51
0.0169286
0
ARC
8
DEFAULT_255_1_234
10
23.728569
20
45.184695
40
0.2475536
50
359.4866256
51
15.9339782
0
ARC
8
DEFAULT_255_1_234
10
23.7792675
20
45.1983286
40
0.1950618
50
16.1714718
51
43.5284424
0
ARC
8
DEFAULT_255_1_234
10
23.7869984
20
45.2060573
40
0.184134
50
43.4415429
51
83.1661404
0
ARC
8
DEFAULT_255_1_234
10
23.7735902
20
45.1323771
40
0.258926
50
82.160215
51
90.1505798
0
ARC
8
DEFAULT_255_1_234
10
23.7704329
20
45.0786865
40
0.3126255
50
89.5460705
51
102.5418777
0
ARC
8
DEFAULT_255_1_234
10
23.7461416
20
45.1817665
40
0.2067346
50
102.1739365
51
129.2061916
0
ARC
8
DEFAULT_255_1_234
10
23.7382487
20
45.1942094
40
0.1921118
50
129.7279328
51
135.7542026
0
ARC
8
DEFAULT_255_1_234
10
23.7504015
20
45.1845045
40
0.2075944
50
136.175737
51
166.3674722
0
ARC
8
DEFAULT_255_1_234
10
23.8510934
20
45.1575182
40
0.3118201
50
165.9092917
51
178.8683903
0
ARC
8
DEFAULT_255_1_234
10
23.9375795
20
45.1528179
40
0.3983935
50
178.438168
51
180.0083905
0
ARC
8
DEFAULT_255_1_234
10
23.7974398
20
45.1567231
40
0.4068601
50
163.2878735
51
180.5581814
0
ARC
8
DEFAULT_255_1_234
10
23.7172659
20
45.178784
40
0.3237344
50
133.454115
51
162.9470031
0
ARC
8
DEFAULT_255_1_234
10
23.73512
20
45.1598
40
0.349795
50
100.7869394
51
133.4384016
0
ARC
8
DEFAULT_255_1_234
10
23.7698972
20
45.0049319
40
0.5084616
50
89.6605301
51
101.3704185
0
ARC
8
DEFAULT_255_1_234
10
23.7765311
20
45.0110496
40
0.502348
50
78.2171172
51
90.4130393
0
ARC
8
DEFAULT_255_1_234
10
23.8120389
20
45.1734637
40
0.3361092
50
55.9268222
51
78.4888551
0
ARC
8
DEFAULT_255_1_234
10
23.8316829
20
45.2073324
40
0.2970617
50
47.9292255
51
55.4054003
0
ARC
8
DEFAULT_255_1_234
10
23.841839
20
45.2176502
40
0.2825983
50
4.3347696
51
48.0560701
0
ARC
8
DEFAULT_255_1_234
10
23.7322783
20
45.2006601
40
0.393225
50
359.925209
51
5.5967654
0
ARC
8
DEFAULT_255_1_234
10
23.7751675
20
45.2062816
40
0.3503892
50
337.8914096
51
358.9967724
0
ARC
8
DEFAULT_255_1_234
10
23.5038087
20
45.3109706
40
0.6412172
50
326.9135351
51
338.3505194
0
ARC
8
DEFAULT_255_1_234
10
23.1052391
20
45.5664284
40
1.1146189
50
319.6472867
51
327.095818
0
ARC
8
DEFAULT_255_1_234
10
22.7219394
20
45.8826
40
1.6114559
50
317.2586784
51
319.9046139
0
LINE
8
DEFAULT_255_1_234
10
22.5255458
20
53.4348211
11
22.8291456
21
52.847701
0
LINE
8
DEFAULT_255_1_234
10
22.8291456
20
52.847701
11
23.1343516
21
53.4348211
0
LINE
8
DEFAULT_255_1_234
10
23.1343516
20
53.4348211
11
23.3094435
21
53.4348211
0
LINE
8
DEFAULT_255_1_234
10
23.3094435
20
53.4348211
11
22.9062502
21
52.7015234
0
LINE
8
DEFAULT_255_1_234
10
22.9062502
20
52.7015234
11
22.9062502
21
52.2654
0
LINE
8
DEFAULT_255_1_234
10
22.9062502
20
52.2654
11
22.7520409
21
52.2654
0
LINE
8
DEFAULT_255_1_234
10
22.7520409
20
52.2654
11
22.7520409
21
52.7015234
0
LINE
8
DEFAULT_255_1_234
10
22.7520409
20
52.7015234
11
22.3488476
21
53.4348211
0
LINE
8
DEFAULT_255_1_234
10
22.3488476
20
53.4348211
11
22.5255458
21
53.4348211
0
LINE
8
DEFAULT_255_1_234
10
23.9102175
20
53.4404433
11
23.9102175
21
52.2654
0
LINE
8
DEFAULT_255_1_234
10
23.9102175
20
52.2654
11
23.7608272
21
52.2654
0
LINE
8
DEFAULT_255_1_234
10
23.7608272
20
52.2654
11
23.7608272
21
53.2557133
0
LINE
8
DEFAULT_255_1_234
10
23.7608272
20
53.2557133
11
23.4612434
21
53.1456785
0
LINE
8
DEFAULT_255_1_234
10
23.4612434
20
53.1456785
11
23.4612434
21
53.2806117
0
LINE
8
DEFAULT_255_1_234
10
23.4612434
20
53.2806117
11
23.8869255
21
53.4404433
0
LINE
8
DEFAULT_255_1_234
10
23.8869255
20
53.4404433
11
23.9102175
21
53.4404433
0
LINE
8
DEFAULT_255_1_234
10
22.5167458
20
61.3723211
11
22.8203456
21
60.785201
0
LINE
8
DEFAULT_255_1_234
10
22.8203456
20
60.785201
11
23.1255516
21
61.3723211
0
LINE
8
DEFAULT_255_1_234
10
23.1255516
20
61.3723211
11
23.3006435
21
61.3723211
0
LINE
8
DEFAULT_255_1_234
10
23.3006435
20
61.3723211
11
22.8974502
21
60.6390234
0
LINE
8
DEFAULT_255_1_234
10
22.8974502
20
60.6390234
11
22.8974502
21
60.2029
0
LINE
8
DEFAULT_255_1_234
10
22.8974502
20
60.2029
11
22.7432409
21
60.2029
0
LINE
8
DEFAULT_255_1_234
10
22.7432409
20
60.2029
11
22.7432409
21
60.6390234
0
LINE
8
DEFAULT_255_1_234
10
22.7432409
20
60.6390234
11
22.3400476
21
61.3723211
0
LINE
8
DEFAULT_255_1_234
10
22.3400476
20
61.3723211
11
22.5167458
21
61.3723211
0
LINE
8
DEFAULT_255_1_234
10
24.1463855
20
60.8944327
11
24.1463855
21
60.7016709
0
LINE
8
DEFAULT_255_1_234
10
23.4082688
20
60.6815916
11
23.4082688
21
60.8799755
0
LINE
8
DEFAULT_255_1_234
10
23.9977984
20
60.6615123
11
23.9977984
21
60.9048739
0
LINE
8
DEFAULT_255_1_234
10
23.556856
20
60.9161184
11
23.556856
21
60.6783789
0
ARC
8
DEFAULT_255_1_234
10
22.9216745
20
60.6967805
40
1.2247208
50
353.8441951
51
0.2287902
0
ARC
8
DEFAULT_255_1_234
10
23.3856249
20
60.6449806
40
0.7578929
50
344.4934747
51
353.9765454
0
ARC
8
DEFAULT_255_1_234
10
23.6848839
20
60.5598981
40
0.4467846
50
329.2803592
51
344.7472793
0
ARC
8
DEFAULT_255_1_234
10
23.7841664
20
60.5054018
40
0.3336173
50
324.9352394
51
328.6160465
0
ARC
8
DEFAULT_255_1_234
10
23.8218773
20
60.4790427
40
0.2876076
50
280.580143
51
324.9173126
0
ARC
8
DEFAULT_255_1_234
10
23.7817565
20
60.6461099
40
0.4592847
50
269.5977311
51
281.6734359
0
ARC
8
DEFAULT_255_1_234
10
23.7745471
20
60.6341173
40
0.4472986
50
256.6228859
51
270.51044
0
ARC
8
DEFAULT_255_1_234
10
23.7343449
20
60.4792877
40
0.2873874
50
215.8618325
51
257.2788573
0
ARC
8
DEFAULT_255_1_234
10
23.836448
20
60.5477977
40
0.4102928
50
197.9693508
51
215.2623606
0
ARC
8
DEFAULT_255_1_234
10
24.0849596
20
60.6316709
40
0.6725652
50
187.8816417
51
198.2346507
0
ARC
8
DEFAULT_255_1_234
10
24.4807804
20
60.6888079
40
1.0724845
50
180.8976217
51
188.0055519
0
ARC
8
DEFAULT_255_1_234
10
24.7607992
20
60.6991777
40
1.3526448
50
180.7449369
51
181.1510016
0
ARC
8
DEFAULT_255_1_234
10
24.6030721
20
60.8848042
40
1.1948131
50
173.7675579
51
180.231553
0
ARC
8
DEFAULT_255_1_234
10
24.1512868
20
60.9358666
40
0.7401564
50
164.3058563
51
173.9002247
0
ARC
8
DEFAULT_255_1_234
10
23.8600937
20
61.0197656
40
0.4371288
50
148.7922025
51
164.568378
0
ARC
8
DEFAULT_255_1_234
10
23.7649389
20
61.0728929
40
0.3282386
50
144.5883898
51
148.1176286
0
ARC
8
DEFAULT_255_1_234
10
23.7306287
20
61.0968315
40
0.2864044
50
101.6440918
51
144.514236
0
ARC
8
DEFAULT_255_1_234
10
23.7731354
20
60.9279069
40
0.4604934
50
89.5284041
51
102.5819763
0
ARC
8
DEFAULT_255_1_234
10
23.7810441
20
60.9240018
40
0.464401
50
77.0437873
51
90.5081339
0
ARC
8
DEFAULT_255_1_234
10
23.8212443
20
61.0882615
40
0.2953195
50
48.2778575
51
77.4994676
0
ARC
8
DEFAULT_255_1_234
10
23.8285074
20
61.1011746
40
0.2808655
50
36.3142134
51
47.6305865
0
ARC
8
DEFAULT_255_1_234
10
23.7416381
20
61.0426515
40
0.3855453
50
18.2931786
51
35.6769206
0
ARC
8
DEFAULT_255_1_234
10
23.487314
20
60.9553593
40
0.654423
50
8.024666
51
18.5605216
0
ARC
8
DEFAULT_255_1_234
10
23.071006
20
60.8938792
40
1.0752407
50
1.1274072
51
8.1718305
0
ARC
8
DEFAULT_255_1_234
10
22.7474251
20
60.8811885
40
1.3990231
50
0.5424119
51
1.3863029
0
ARC
8
DEFAULT_255_1_234
10
22.9295629
20
60.9084342
40
1.0682415
50
359.8090433
51
4.9407866
0
ARC
8
DEFAULT_255_1_234
10
23.3505643
20
60.9460113
40
0.6455691
50
4.8362157
51
12.2904523
0
ARC
8
DEFAULT_255_1_234
10
23.6260757
20
61.0073965
40
0.3633074
50
12.0805627
51
23.8173984
0
ARC
8
DEFAULT_255_1_234
10
23.7434463
20
61.0570919
40
0.2358723
50
24.2871213
51
31.3935614
0
ARC
8
DEFAULT_255_1_234
10
23.795916
20
61.0914233
40
0.1732111
50
30.7407893
51
82.4657128
0
ARC
8
DEFAULT_255_1_234
10
23.7779294
20
61.0030691
40
0.263235
50
81.1060089
51
90.2184952
0
ARC
8
DEFAULT_255_1_234
10
23.7743593
20
61.0288924
40
0.2374236
50
89.3806855
51
105.6762551
0
ARC
8
DEFAULT_255_1_234
10
23.7560224
20
61.0955567
40
0.1682847
50
105.7981136
51
149.7388061
0
ARC
8
DEFAULT_255_1_234
10
23.8624302
20
61.031595
40
0.2924306
50
149.4208916
51
163.6286378
0
ARC
8
DEFAULT_255_1_234
10
24.071519
20
60.967825
40
0.5110213
50
163.3763315
51
172.1410975
0
ARC
8
DEFAULT_255_1_234
10
24.4015909
20
60.9205518
40
0.8444586
50
172.0259487
51
178.0703232
0
ARC
8
DEFAULT_255_1_234
10
24.7045999
20
60.9061906
40
1.1477868
50
177.8631668
51
179.5044149
0
ARC
8
DEFAULT_255_1_234
10
24.5973403
20
60.6747389
40
1.0404907
50
179.7995573
51
185.2460446
0
ARC
8
DEFAULT_255_1_234
10
24.1930442
20
60.6364513
40
0.6343885
50
185.1411642
51
193.0079639
0
ARC
8
DEFAULT_255_1_234
10
23.9286915
20
60.5739641
40
0.3627568
50
192.7897626
51
205.2507664
0
ARC
8
DEFAULT_255_1_234
10
23.8240462
20
60.5272415
40
0.2481908
50
205.8005384
51
211.2537509
0
ARC
8
DEFAULT_255_1_234
10
23.7716902
20
60.492158
40
0.1852521
50
210.3789793
51
238.4008143
0
ARC
8
DEFAULT_255_1_234
10
23.7697424
20
60.4968376
40
0.1882621
50
239.6520629
51
265.9793761
0
ARC
8
DEFAULT_255_1_234
10
23.7782624
20
60.5640427
40
0.2559272
50
265.1315437
51
270.060332
0
ARC
8
DEFAULT_255_1_234
10
23.7811403
20
60.5316534
40
0.2235528
50
269.3314664
51
287.2178029
0
ARC
8
DEFAULT_255_1_234
10
23.7949255
20
60.4813279
40
0.1714108
50
287.7958004
51
329.080874
0
ARC
8
DEFAULT_255_1_234
10
23.6991712
20
60.541093
40
0.2842745
50
328.6634704
51
343.3325132
0
ARC
8
DEFAULT_255_1_234
10
23.4818732
20
60.6087863
40
0.5118644
50
343.0499468
51
351.9393422
0
ARC
8
DEFAULT_255_1_234
10
23.1352032
20
60.6598949
40
0.8622784
50
351.8069023
51
357.7959224
0
ARC
8
DEFAULT_255_1_234
10
22.8116588
20
60.6766721
40
1.1862365
50
357.5871873
51
359.2677531
0
ENDSEC
0
EOF