0
SECTION
2
HEADER
9
$MEASUREMENT
70
1
0
ENDSEC
0
SECTION
2
TABLES
0
TABLE
2
LTYPE
0
LTYPE
72
65
70
64
2
CONTINUOUS
3
______
73
0
40
0
0
ENDTAB
0
TABLE
2
LAYER
0
LAYER
2
DEFAULT_255_2_778
70
0
62
255
6
CONTINUOUS
0
LAYER
2
DEFAULT_255_1_234
70
0
62
255
6
CONTINUOUS
0
ENDTAB
0
ENDSEC
0
SECTION
2
ENTITIES
0
ARC
8
DEFAULT_255_2_778
10
3.5700693
20
99.6176527
40
0.7914215
50
129.1312896
51
180.1450914
0
ARC
8
DEFAULT_255_2_778
10
3.5703345
20
99.6181398
40
0.7912112
50
89.854026
51
129.1684493
0
ARC
8
DEFAULT_255_2_778
10
25.7993937
20
99.6178263
40
0.7915249
50
39.4792447
51
90.147911
0
ARC
8
DEFAULT_255_2_778
10
25.7999935
20
99.617673
40
0.7911595
50
359.8533901
51
39.5154338
0
ARC
8
DEFAULT_255_2_778
10
25.7996693
20
-1.9863996
40
0.7914836
50
309.4761667
51
0.1482649
0
ARC
8
DEFAULT_255_2_778
10
25.799398
20
-1.9868307
40
0.7913235
50
269.8517415
51
309.511178
0
ARC
8
DEFAULT_255_2_778
10
3.570342
20
-1.9867725
40
0.7913815
50
219.1282118
51
270.1454017
0
ARC
8
DEFAULT_255_2_778
10
3.5700247
20
-1.98639
40
0.7913769
50
179.8524075
51
219.1641908
0
LINE
8
DEFAULT_255_2_778
10
3.5723503
20
100.4093486
11
25.7973503
21
100.4093486
0
LINE
8
DEFAULT_255_2_778
10
26.5911503
20
99.6156486
11
26.5911503
21
-1.9843514
0
LINE
8
DEFAULT_255_2_778
10
25.7973503
20
-2.7781514
11
3.5723503
21
-2.7781514
0
LINE
8
DEFAULT_255_2_778
10
2.7786503
20
-1.9843514
11
2.7786503
21
99.6156486
0
LINE
8
DEFAULT_255_1_234
10
8.887385
20
-0.0087609
11
8.887385
21
-0.1348592
0
LINE
8
DEFAULT_255_1_234
10
8.887385
20
-0.1348592
11
8.3966458
21
-0.1348592
0
LINE
8
DEFAULT_255_1_234
10
8.3966458
20
-0.1348592
11
8.3966458
21
-0.6513
0
LINE
8
DEFAULT_255_1_234
10
8.3966458
20
-0.6513
11
8.2424364
21
-0.6513
0
LINE
8
DEFAULT_255_1_234
10
8.2424364
20
-0.6513
11
8.2424364
21
0.5181211
0
LINE
8
DEFAULT_255_1_234
10
8.2424364
20
0.5181211
11
8.9668992
21
0.5181211
0
LINE
8
DEFAULT_255_1_234
10
8.9668992
20
0.5181211
11
8.9668992
21
0.3912196
0
LINE
8
DEFAULT_255_1_234
10
8.9668992
20
0.3912196
11
8.3966458
21
0.3912196
0
LINE
8
DEFAULT_255_1_234
10
8.3966458
20
0.3912196
11
8.3966458
21
-0.0087609
0
LINE
8
DEFAULT_255_1_234
10
8.3966458
20
-0.0087609
11
8.887385
21
-0.0087609
0
LINE
8
DEFAULT_255_1_234
10
9.2512227
20
0.5181211
11
9.5331367
21
0.0699501
0
LINE
8
DEFAULT_255_1_234
10
9.5331367
20
0.0699501
11
9.8134444
21
0.5181211
0
LINE
8
DEFAULT_255_1_234
10
9.8134444
20
0.5181211
11
9.9949617
21
0.5181211
0
LINE
8
DEFAULT_255_1_234
10
9.9949617
20
0.5181211
11
9.6255017
21
-0.0617704
0
LINE
8
DEFAULT_255_1_234
10
9.6255017
20
-0.0617704
11
10.0037966
21
-0.6513
0
LINE
8
DEFAULT_255_1_234
10
10.0037966
20
-0.6513
11
9.8206729
21
-0.6513
0
LINE
8
DEFAULT_255_1_234
10
9.8206729
20
-0.6513
11
9.5331367
21
-0.1950973
0
LINE
8
DEFAULT_255_1_234
10
9.5331367
20
-0.1950973
11
9.2439941
21
-0.6513
0
LINE
8
DEFAULT_255_1_234
10
9.2439941
20
-0.6513
11
9.0616737
21
-0.6513
0
LINE
8
DEFAULT_255_1_234
10
9.0616737
20
-0.6513
11
9.4407717
21
-0.0617704
0
LINE
8
DEFAULT_255_1_234
10
9.4407717
20
-0.0617704
11
9.0705086
21
0.5181211
0
LINE
8
DEFAULT_255_1_234
10
9.0705086
20
0.5181211
11
9.2512227
21
0.5181211
0
LINE
8
DEFAULT_255_1_234
10
10.3604058
20
-0.1155831
11
10.3604058
21
0.0056962
0
LINE
8
DEFAULT_255_1_234
10
10.3604058
20
0.0056962
11
10.4720469
21
0.0056962
0
LINE
8
DEFAULT_255_1_234
10
10.2816947
20
0.2113087
11
10.1331076
21
0.2113087
0
LINE
8
DEFAULT_255_1_234
10
10.1226663
20
-0.3428813
11
10.2720566
21
-0.3428813
0
LINE
8
DEFAULT_255_1_234
10
10.4720469
20
-0.1155831
11
10.3604058
21
-0.1155831
0
ARC
8
DEFAULT_255_1_234
10
10.4691336
20
0.3449713
40
0.3392876
50
270.4919872
51
281.8951556
0
ARC
8
DEFAULT_255_1_234
10
10.4932597
20
0.2347702
40
0.2264817
50
281.6691735
51
301.2943132
0
ARC
8
DEFAULT_255_1_234
10
10.5102808
20
0.2036304
40
0.1910381
50
301.7833094
51
311.7545298
0
ARC
8
DEFAULT_255_1_234
10
10.5194383
20
0.1934748
40
0.1773635
50
311.7323931
51
354.2802411
0
ARC
8
DEFAULT_255_1_234
10
10.4468009
20
0.2059722
40
0.2509385
50
353.0937916
51
0.1181479
0
ARC
8
DEFAULT_255_1_234
10
10.4006793
20
0.2107386
40
0.2970898
50
359.1805295
51
15.0453146
0
ARC
8
DEFAULT_255_1_234
10
10.535263
20
0.2499992
40
0.1569564
50
13.9577229
51
77.6713066
0
ARC
8
DEFAULT_255_1_234
10
10.496616
20
0.1114949
40
0.3006298
50
76.1116566
51
90.7026153
0
ARC
8
DEFAULT_255_1_234
10
10.4906998
20
0.1388545
40
0.2732568
50
89.5324876
51
103.531937
0
ARC
8
DEFAULT_255_1_234
10
10.4706442
20
0.2187884
40
0.1908508
50
103.2931773
51
133.5619022
0
ARC
8
DEFAULT_255_1_234
10
10.466193
20
0.2247375
40
0.1834746
50
133.8349307
51
173.5344437
0
ARC
8
DEFAULT_255_1_234
10
10.5384973
20
0.2119213
40
0.2568033
50
172.5096846
51
180.1366907
0
ARC
8
DEFAULT_255_1_234
10
10.4433867
20
0.2153622
40
0.3103056
50
155.3484492
51
180.7484736
0
ARC
8
DEFAULT_255_1_234
10
10.4384956
20
0.2124846
40
0.3070957
50
131.5744599
51
154.4798489
0
ARC
8
DEFAULT_255_1_234
10
10.4698104
20
0.180831
40
0.3515643
50
96.9875458
51
131.9690667
0
ARC
8
DEFAULT_255_1_234
10
10.4917584
20
0.0562636
40
0.4779224
50
89.8596053
51
97.7825159
0
ARC
8
DEFAULT_255_1_234
10
10.4965647
20
0.0300616
40
0.5041361
50
78.3655447
51
90.4131539
0
ARC
8
DEFAULT_255_1_234
10
10.5323565
20
0.1959887
40
0.3344039
50
56.6229102
51
78.638727
0
ARC
8
DEFAULT_255_1_234
10
10.5538508
20
0.2335805
40
0.2912001
50
47.0253525
51
56.0854072
0
ARC
8
DEFAULT_255_1_234
10
10.5558288
20
0.2375223
40
0.2869704
50
10.9208013
51
46.7778124
0
ARC
8
DEFAULT_255_1_234
10
10.4194355
20
0.2059857
40
0.426899
50
359.6364486
51
11.6087304
0
ARC
8
DEFAULT_255_1_234
10
10.6029199
20
0.2044752
40
0.243409
50
332.3549906
51
359.7179418
0
ARC
8
DEFAULT_255_1_234
10
10.53788
20
0.2353142
40
0.3153459
50
325.2333722
51
332.8745602
0
ARC
8
DEFAULT_255_1_234
10
10.5531424
20
0.2246828
40
0.2967456
50
292.9802137
51
325.2392345
0
ARC
8
DEFAULT_255_1_234
10
10.5256798
20
0.2780863
40
0.3566604
50
292.5402179
51
293.6924929
0
ARC
8
DEFAULT_255_1_234
10
10.5649394
20
-0.3673909
40
0.3307468
50
57.6435486
51
72.8625112
0
ARC
8
DEFAULT_255_1_234
10
10.6003894
20
-0.3099451
40
0.2632492
50
36.7248896
51
57.4697979
0
ARC
8
DEFAULT_255_1_234
10
10.5992526
20
-0.308678
40
0.2634081
50
8.0545065
51
36.356114
0
ARC
8
DEFAULT_255_1_234
10
10.5129712
20
-0.3241826
40
0.3510261
50
359.8320645
51
8.5869982
0
ARC
8
DEFAULT_255_1_234
10
10.4754488
20
-0.3289899
40
0.3885653
50
343.9829931
51
0.5571613
0
ARC
8
DEFAULT_255_1_234
10
10.5640685
20
-0.3532562
40
0.2966924
50
311.6359546
51
343.7651759
0
ARC
8
DEFAULT_255_1_234
10
10.5262254
20
-0.3105898
40
0.3537231
50
279.7829875
51
311.6255694
0
ARC
8
DEFAULT_255_1_234
10
10.496103
20
-0.166872
40
0.5004971
50
269.7286406
51
280.3856417
0
ARC
8
DEFAULT_255_1_234
10
10.4899103
20
-0.1710004
40
0.4963778
50
256.6828919
51
270.4412052
0
ARC
8
DEFAULT_255_1_234
10
10.4560399
20
-0.3094606
40
0.3538406
50
229.4223008
51
256.8556159
0
ARC
8
DEFAULT_255_1_234
10
10.4145792
20
-0.3561264
40
0.2914296
50
181.818294
51
229.6455059
0
ARC
8
DEFAULT_255_1_234
10
10.5185748
20
-0.3430504
40
0.3959084
50
179.9755256
51
183.2323064
0
ARC
8
DEFAULT_255_1_234
10
10.5013494
20
-0.3450963
40
0.2293034
50
179.4465117
51
196.2869258
0
ARC
8
DEFAULT_255_1_234
10
10.4525902
20
-0.3584349
40
0.1787621
50
196.5661473
51
227.705904
0
ARC
8
DEFAULT_255_1_234
10
10.4689996
20
-0.3400845
40
0.2033784
50
227.7652068
51
257.8762805
0
ARC
8
DEFAULT_255_1_234
10
10.4914967
20
-0.2457844
40
0.3003081
50
257.4584385
51
270.426602
0
ARC
8
DEFAULT_255_1_234
10
10.4960533
20
-0.2168004
40
0.329292
50
269.5962073
51
280.8789248
0
ARC
8
DEFAULT_255_1_234
10
10.5190062
20
-0.3314315
40
0.2123908
50
280.6346389
51
299.8595945
0
ARC
8
DEFAULT_255_1_234
10
10.5380968
20
-0.3676788
40
0.171457
50
300.3576302
51
314.5517981
0
ARC
8
DEFAULT_255_1_234
10
10.5298028
20
-0.3616081
40
0.1816095
50
315.0728369
51
345.0431014
0
ARC
8
DEFAULT_255_1_234
10
10.4374843
20
-0.3347159
40
0.2777492
50
344.5986631
51
357.9269593
0
ARC
8
DEFAULT_255_1_234
10
10.3479169
20
-0.3285724
40
0.3674917
50
357.4748886
51
0.0231117
0
ARC
8
DEFAULT_255_1_234
10
10.4502278
20
-0.3261321
40
0.2651907
50
359.5047933
51
13.4239635
0
ARC
8
DEFAULT_255_1_234
10
10.5368922
20
-0.3039522
40
0.1757509
50
12.9498199
51
48.7551375
0
ARC
8
DEFAULT_255_1_234
10
10.5186656
20
-0.32886
40
0.2065134
50
49.5088623
51
72.1836453
0
ARC
8
DEFAULT_255_1_234
10
10.4828808
20
-0.4350709
40
0.3185836
50
71.9010081
51
84.3554254
0
ARC
8
DEFAULT_255_1_234
10
10.466744
20
-0.5711674
40
0.4556151
50
84.0193428
51
89.333121
0
LINE
8
DEFAULT_255_1_234
10
11.8824202
20
0.1799849
11
11.7274076
21
0.1799849
0
LINE
8
DEFAULT_255_1_234
10
11.0350718
20
-0.3123606
11
11.1900843
21
-0.3123606
0
ARC
8
DEFAULT_255_1_234
10
11.7932889
20
1.0746768
40
1.252368
50
248.9199003
51
254.1439814
0
ARC
8
DEFAULT_255_1_234
10
11.6252384
20
0.6420234
40
0.788226
50
241.633709
51
249.0064503
0
ARC
8
DEFAULT_255_1_234
10
11.4723778
20
0.3619317
40
0.4691427
50
230.498225
51
241.8087113
0
ARC
8
DEFAULT_255_1_234
10
11.3939353
20
0.2619906
40
0.3421437
50
227.4064532
51
229.9881192
0
ARC
8
DEFAULT_255_1_234
10
11.3451873
20
0.2144088
40
0.2741476
50
200.6781896
51
228.1763934
0
ARC
8
DEFAULT_255_1_234
10
11.3524184
20
0.2129077
40
0.2804109
50
179.5061581
51
199.8694617
0
ARC
8
DEFAULT_255_1_234
10
11.3514935
20
0.220321
40
0.2795204
50
132.4834203
51
181.0242172
0
ARC
8
DEFAULT_255_1_234
10
11.4110518
20
0.1640704
40
0.3612768
50
129.2532479
51
133.4242687
0
ARC
8
DEFAULT_255_1_234
10
11.4256967
20
0.1420965
40
0.3875675
50
101.98776
51
128.8742646
0
ARC
8
DEFAULT_255_1_234
10
11.4655578
20
-0.0300259
40
0.5642249
50
89.5906553
51
102.3169264
0
ARC
8
DEFAULT_255_1_234
10
11.472607
20
0.0018148
40
0.5323783
50
77.2360837
51
90.3248275
0
ARC
8
DEFAULT_255_1_234
10
11.4933149
20
0.09854
40
0.4334697
50
63.837784
51
77.0809408
0
ARC
8
DEFAULT_255_1_234
10
11.5210911
20
0.1502911
40
0.3747796
50
45.9864267
51
64.1607727
0
ARC
8
DEFAULT_255_1_234
10
11.5471792
20
0.1800866
40
0.3352302
50
32.2747395
51
45.6547121
0
ARC
8
DEFAULT_255_1_234
10
11.5538233
20
0.181988
40
0.328603
50
359.6507365
51
32.6130309
0
ARC
8
DEFAULT_255_1_234
10
11.4595328
20
0.182466
40
0.2678863
50
359.469343
51
14.9832209
0
ARC
8
DEFAULT_255_1_234
10
11.5300391
20
0.2013539
40
0.1948938
50
14.9781179
51
48.2004265
0
ARC
8
DEFAULT_255_1_234
10
11.5136035
20
0.1806983
40
0.2212521
50
48.5927837
51
74.1241538
0
ARC
8
DEFAULT_255_1_234
10
11.4802524
20
0.0706248
40
0.3362561
50
73.7888341
51
86.6652678
0
ARC
8
DEFAULT_255_1_234
10
11.470009
20
-0.0501119
40
0.4573953
50
86.2640471
51
90.0526343
0
ARC
8
DEFAULT_255_1_234
10
11.4671803
20
-0.0105808
40
0.4178709
50
89.6697524
51
99.2309573
0
ARC
8
DEFAULT_255_1_234
10
11.4429253
20
0.1338964
40
0.2713749
50
99.069534
51
113.7658566
0
ARC
8
DEFAULT_255_1_234
10
11.4155445
20
0.1984677
40
0.2012469
50
114.0401004
51
127.9850673
0
ARC
8
DEFAULT_255_1_234
10
11.3915009
20
0.228073
40
0.1631167
50
127.7287463
51
176.7105154
0
ARC
8
DEFAULT_255_1_234
10
11.4593726
20
0.2179693
40
0.2315392
50
175.1779447
51
180.0581938
0
ARC
8
DEFAULT_255_1_234
10
11.3750573
20
0.2167428
40
0.1472271
50
179.6142195
51
228.1246017
0
ARC
8
DEFAULT_255_1_234
10
11.4192241
20
0.2576308
40
0.2072299
50
226.5779593
51
230.8800004
0
ARC
8
DEFAULT_255_1_234
10
11.466332
20
0.3201636
40
0.2854818
50
231.4635071
51
241.9260842
0
ARC
8
DEFAULT_255_1_234
10
11.5860498
20
0.54048
40
0.53622
50
241.7178533
51
248.3259551
0
ARC
8
DEFAULT_255_1_234
10
11.724587
20
0.8837064
40
0.9063478
50
248.2007737
51
252.4528373
0
ARC
8
DEFAULT_255_1_234
10
11.8449595
20
1.2558441
40
1.2974635
50
252.3391078
51
254.3469452
0
ARC
8
DEFAULT_255_1_234
10
11.0907297
20
-1.4418852
40
1.5037162
50
71.0197183
51
74.4087047
0
ARC
8
DEFAULT_255_1_234
10
11.2601983
20
-0.9526889
40
0.9859993
50
66.1847285
51
71.086374
0
ARC
8
DEFAULT_255_1_234
10
11.4158295
20
-0.60228
40
0.6025855
50
59.3536294
51
66.2691831
0
ARC
8
DEFAULT_255_1_234
10
11.5046947
20
-0.4519391
40
0.4279449
50
49.1020879
51
59.3293958
0
ARC
8
DEFAULT_255_1_234
10
11.5865687
20
-0.3586166
40
0.3038015
50
32.7919921
51
49.2505539
0
ARC
8
DEFAULT_255_1_234
10
11.6186777
20
-0.3357809
40
0.264448
50
31.1181161
51
32.4005348
0
ARC
8
DEFAULT_255_1_234
10
11.6098315
20
-0.3393221
40
0.2738556
50
8.1116974
51
30.7958831
0
ARC
8
DEFAULT_255_1_234
10
11.5287983
20
-0.3531247
40
0.3560327
50
359.8389159
51
8.4706516
0
ARC
8
DEFAULT_255_1_234
10
11.5913775
20
-0.3579863
40
0.2934776
50
337.4731098
51
0.7537279
0
ARC
8
DEFAULT_255_1_234
10
11.6092469
20
-0.3599613
40
0.2762607
50
307.5917067
51
336.4315538
0
ARC
8
DEFAULT_255_1_234
10
11.5632297
20
-0.3086898
40
0.3449979
50
307.6551545
51
308.4529766
0
ARC
8
DEFAULT_255_1_234
10
11.5402016
20
-0.273175
40
0.3871988
50
284.3734338
51
307.1424381
0
ARC
8
DEFAULT_255_1_234
10
11.4906846
20
-0.0910068
40
0.5759636
50
272.4382747
51
284.646547
0
ARC
8
DEFAULT_255_1_234
10
11.4780055
20
0.0889893
40
0.7563528
50
269.9708387
51
272.8178037
0
ARC
8
DEFAULT_255_1_234
10
11.4737095
20
-0.1148284
40
0.5525489
50
248.2707594
51
270.4055579
0
ARC
8
DEFAULT_255_1_234
10
11.4682836
20
-0.1338808
40
0.5328452
50
246.1383403
51
248.0542782
0
ARC
8
DEFAULT_255_1_234
10
11.4264215
20
-0.2218157
40
0.4355005
50
233.1670131
51
246.4950969
0
ARC
8
DEFAULT_255_1_234
10
11.371012
20
-0.2966188
40
0.3424126
50
215.3403242
51
233.0843104
0
ARC
8
DEFAULT_255_1_234
10
11.3437551
20
-0.3164451
40
0.3087104
50
179.2419209
51
215.2648451
0
ARC
8
DEFAULT_255_1_234
10
11.4205145
20
-0.3150334
40
0.2304457
50
179.335461
51
199.1045811
0
ARC
8
DEFAULT_255_1_234
10
11.3872821
20
-0.3237234
40
0.1962176
50
199.8828939
51
232.7063202
0
ARC
8
DEFAULT_255_1_234
10
11.434509
20
-0.2643212
40
0.2720938
50
232.3738199
51
255.5136649
0
ARC
8
DEFAULT_255_1_234
10
11.4685957
20
-0.1399165
40
0.4010747
50
255.2446292
51
267.5320849
0
ARC
8
DEFAULT_255_1_234
10
11.477358
20
-0.0166298
40
0.5246356
50
267.1557994
51
270.0286766
0
ARC
8
DEFAULT_255_1_234
10
11.4801352
20
-0.061005
40
0.4802668
50
269.7000017
51
278.1660162
0
ARC
8
DEFAULT_255_1_234
10
11.5057357
20
-0.2340485
40
0.3053425
50
278.0231263
51
290.625471
0
ARC
8
DEFAULT_255_1_234
10
11.5405044
20
-0.3267975
40
0.206291
50
290.6619762
51
307.0370976
0
ARC
8
DEFAULT_255_1_234
10
11.5705433
20
-0.3636496
40
0.1587906
50
306.3943566
51
355.3030547
0
ARC
8
DEFAULT_255_1_234
10
11.5193365
20
-0.3559887
40
0.2104809
50
354.3660432
51
0.0698737
0
ARC
8
DEFAULT_255_1_234
10
11.533571
20
-0.3537383
40
0.1962563
50
359.417946
51
16.1971788
0
ARC
8
DEFAULT_255_1_234
10
11.579102
20
-0.3412582
40
0.149053
50
16.4723299
51
52.6262157
0
ARC
8
DEFAULT_255_1_234
10
11.4970074
20
-0.4496567
40
0.2850296
50
52.7386432
51
62.4979148
0
ARC
8
DEFAULT_255_1_234
10
11.3585151
20
-0.7102717
40
0.5801521
50
62.2515216
51
68.1220564
0
ARC
8
DEFAULT_255_1_234
10
11.1865062
20
-1.1330128
40
1.0365451
50
68.0062803
51
71.8053402
0
ARC
8
DEFAULT_255_1_234
10
11.0069433
20
-1.6715242
40
1.6042013
50
71.7183119
51
73.9258742
0
LINE
8
DEFAULT_255_1_234
10
12.3683403
20
-0.0938974
11
12.3683403
21
-0.2151766
0
LINE
8
DEFAULT_255_1_234
10
12.3683403
20
-0.2151766
11
11.9763915
21
-0.2151766
0
LINE
8
DEFAULT_255_1_234
10
11.9763915
20
-0.2151766
11
11.9763915
21
-0.0938974
0
LINE
8
DEFAULT_255_1_234
10
11.9763915
20
-0.0938974
11
12.3683403
21
-0.0938974
0
LINE
8
DEFAULT_255_1_234
10
12.985981
20
0.5237433
11
12.985981
21
-0.6513
0
LINE
8
DEFAULT_255_1_234
10
12.985981
20
-0.6513
11
12.8365907
21
-0.6513
0
LINE
8
DEFAULT_255_1_234
10
12.8365907
20
-0.6513
11
12.8365907
21
0.3390133
0
LINE
8
DEFAULT_255_1_234
10
12.8365907
20
0.3390133
11
12.5370068
21
0.2289785
0
LINE
8
DEFAULT_255_1_234
10
12.5370068
20
0.2289785
11
12.5370068
21
0.3639117
0
LINE
8
DEFAULT_255_1_234
10
12.5370068
20
0.3639117
11
12.962689
21
0.5237433
0
LINE
8
DEFAULT_255_1_234
10
12.962689
20
0.5237433
11
12.985981
21
0.5237433
0
LINE
8
DEFAULT_255_1_234
10
14.04858
20
0.5181211
11
14.04858
21
-0.258548
0
LINE
8
DEFAULT_255_1_234
10
14.04858
20
-0.258548
11
14.2108211
21
-0.258548
0
LINE
8
DEFAULT_255_1_234
10
14.2108211
20
-0.258548
11
14.2108211
21
-0.3798272
0
LINE
8
DEFAULT_255_1_234
10
14.2108211
20
-0.3798272
11
14.04858
21
-0.3798272
0
LINE
8
DEFAULT_255_1_234
10
14.04858
20
-0.3798272
11
14.04858
21
-0.6513
0
LINE
8
DEFAULT_255_1_234
10
14.04858
20
-0.6513
11
13.8991896
21
-0.6513
0
LINE
8
DEFAULT_255_1_234
10
13.8991896
20
-0.6513
11
13.8991896
21
-0.3798272
0
LINE
8
DEFAULT_255_1_234
10
13.8991896
20
-0.3798272
11
13.3666854
21
-0.3798272
0
LINE
8
DEFAULT_255_1_234
10
13.3666854
20
-0.3798272
11
13.3666854
21
-0.2922813
0
LINE
8
DEFAULT_255_1_234
10
13.3666854
20
-0.2922813
11
13.8903547
21
0.5181211
0
LINE
8
DEFAULT_255_1_234
10
13.8903547
20
0.5181211
11
14.04858
21
0.5181211
0
LINE
8
DEFAULT_255_1_234
10
13.8815198
20
0.2827912
11
13.5353519
21
-0.258548
0
LINE
8
DEFAULT_255_1_234
10
13.5353519
20
-0.258548
11
13.8991896
21
-0.258548
0
LINE
8
DEFAULT_255_1_234
10
13.8991896
20
-0.258548
11
13.8991896
21
0.3149181
0
LINE
8
DEFAULT_255_1_234
10
13.8991896
20
0.3149181
11
13.8815198
21
0.2827912
0
LINE
8
DEFAULT_255_1_234
10
14.3835035
20
0.5181211
11
14.5826906
21
0.5181211
0
LINE
8
DEFAULT_255_1_234
10
14.5826906
20
0.5181211
11
14.9650013
21
-0.4360494
0
LINE
8
DEFAULT_255_1_234
10
14.9650013
20
-0.4360494
11
15.3473121
21
0.5181211
0
LINE
8
DEFAULT_255_1_234
10
15.3473121
20
0.5181211
11
15.5473023
21
0.5181211
0
LINE
8
DEFAULT_255_1_234
10
15.5473023
20
0.5181211
11
15.5473023
21
-0.6513
0
LINE
8
DEFAULT_255_1_234
10
15.5473023
20
-0.6513
11
15.393093
21
-0.6513
0
LINE
8
DEFAULT_255_1_234
10
15.393093
20
-0.6513
11
15.393093
21
-0.1959004
0
LINE
8
DEFAULT_255_1_234
10
15.393093
20
-0.1959004
11
15.4075501
21
0.2956419
0
LINE
8
DEFAULT_255_1_234
10
15.4075501
20
0.2956419
11
15.023633
21
-0.6513
0
LINE
8
DEFAULT_255_1_234
10
15.023633
20
-0.6513
11
14.9055665
21
-0.6513
0
LINE
8
DEFAULT_255_1_234
10
14.9055665
20
-0.6513
11
14.5224525
21
0.2932324
0
LINE
8
DEFAULT_255_1_234
10
14.5224525
20
0.2932324
11
14.5377128
21
-0.1959004
0
LINE
8
DEFAULT_255_1_234
10
14.5377128
20
-0.1959004
11
14.5377128
21
-0.6513
0
LINE
8
DEFAULT_255_1_234
10
14.5377128
20
-0.6513
11
14.3835035
21
-0.6513
0
LINE
8
DEFAULT_255_1_234
10
14.3835035
20
-0.6513
11
14.3835035
21
0.5181211
0
LINE
8
DEFAULT_255_1_234
10
16.6042791
20
0.5181211
11
16.6042791
21
0.3912196
0
LINE
8
DEFAULT_255_1_234
10
16.6042791
20
0.3912196
11
16.2283938
21
0.3912196
0
LINE
8
DEFAULT_255_1_234
10
16.2283938
20
0.3912196
11
16.2283938
21
-0.6513
0
LINE
8
DEFAULT_255_1_234
10
16.2283938
20
-0.6513
11
16.0749875
21
-0.6513
0
LINE
8
DEFAULT_255_1_234
10
16.0749875
20
-0.6513
11
16.0749875
21
0.3912196
0
LINE
8
DEFAULT_255_1_234
10
16.0749875
20
0.3912196
11
15.6999054
21
0.3912196
0
LINE
8
DEFAULT_255_1_234
10
15.6999054
20
0.3912196
11
15.6999054
21
0.5181211
0
LINE
8
DEFAULT_255_1_234
10
15.6999054
20
0.5181211
11
16.6042791
21
0.5181211
0
LINE
8
DEFAULT_255_1_234
10
17.2717166
20
0.5181211
11
16.78419
21
-0.7516967
0
LINE
8
DEFAULT_255_1_234
10
16.78419
20
-0.7516967
11
16.6564854
21
-0.7516967
0
LINE
8
DEFAULT_255_1_234
10
16.6564854
20
-0.7516967
11
17.1448151
21
0.5181211
0
LINE
8
DEFAULT_255_1_234
10
17.1448151
20
0.5181211
11
17.2717166
21
0.5181211
0
LINE
8
DEFAULT_255_1_234
10
18.1166554
20
0.0153343
11
18.1166554
21
-0.110764
0
LINE
8
DEFAULT_255_1_234
10
18.1166554
20
-0.110764
11
17.6098527
21
-0.110764
0
LINE
8
DEFAULT_255_1_234
10
17.6098527
20
-0.110764
11
17.6098527
21
-0.5252017
0
LINE
8
DEFAULT_255_1_234
10
17.6098527
20
-0.5252017
11
18.1985792
21
-0.5252017
0
LINE
8
DEFAULT_255_1_234
10
18.1985792
20
-0.5252017
11
18.1985792
21
-0.6513
0
LINE
8
DEFAULT_255_1_234
10
18.1985792
20
-0.6513
11
17.4556434
21
-0.6513
0
LINE
8
DEFAULT_255_1_234
10
17.4556434
20
-0.6513
11
17.4556434
21
0.5181211
0
LINE
8
DEFAULT_255_1_234
10
17.4556434
20
0.5181211
11
18.1905474
21
0.5181211
0
LINE
8
DEFAULT_255_1_234
10
18.1905474
20
0.5181211
11
18.1905474
21
0.3912196
0
LINE
8
DEFAULT_255_1_234
10
18.1905474
20
0.3912196
11
17.6098527
21
0.3912196
0
LINE
8
DEFAULT_255_1_234
10
17.6098527
20
0.3912196
11
17.6098527
21
0.0153343
0
LINE
8
DEFAULT_255_1_234
10
17.6098527
20
0.0153343
11
18.1166554
21
0.0153343
0
LINE
8
DEFAULT_255_1_234
10
19.1664036
20
0.1799849
11
19.0113911
21
0.1799849
0
LINE
8
DEFAULT_255_1_234
10
18.3190552
20
-0.3123606
11
18.4740678
21
-0.3123606
0
ARC
8
DEFAULT_255_1_234
10
19.0772724
20
1.0746768
40
1.252368
50
248.9199003
51
254.1439814
0
ARC
8
DEFAULT_255_1_234
10
18.9092218
20
0.6420234
40
0.788226
50
241.633709
51
249.0064503
0
ARC
8
DEFAULT_255_1_234
10
18.7563613
20
0.3619317
40
0.4691427
50
230.498225
51
241.8087113
0
ARC
8
DEFAULT_255_1_234
10
18.6779187
20
0.2619906
40
0.3421437
50
227.4064532
51
229.9881192
0
ARC
8
DEFAULT_255_1_234
10
18.6291708
20
0.2144088
40
0.2741476
50
200.6781896
51
228.1763934
0
ARC
8
DEFAULT_255_1_234
10
18.6364018
20
0.2129077
40
0.2804109
50
179.5061581
51
199.8694617
0
ARC
8
DEFAULT_255_1_234
10
18.635477
20
0.220321
40
0.2795204
50
132.4834203
51
181.0242172
0
ARC
8
DEFAULT_255_1_234
10
18.6950352
20
0.1640704
40
0.3612768
50
129.2532479
51
133.4242687
0
ARC
8
DEFAULT_255_1_234
10
18.7096802
20
0.1420965
40
0.3875675
50
101.98776
51
128.8742646
0
ARC
8
DEFAULT_255_1_234
10
18.7495412
20
-0.0300259
40
0.5642249
50
89.5906553
51
102.3169264
0
ARC
8
DEFAULT_255_1_234
10
18.7565905
20
0.0018148
40
0.5323783
50
77.2360837
51
90.3248275
0
ARC
8
DEFAULT_255_1_234
10
18.7772984
20
0.09854
40
0.4334697
50
63.837784
51
77.0809408
0
ARC
8
DEFAULT_255_1_234
10
18.8050745
20
0.1502911
40
0.3747796
50
45.9864267
51
64.1607727
0
ARC
8
DEFAULT_255_1_234
10
18.8311627
20
0.1800866
40
0.3352302
50
32.2747395
51
45.6547121
0
ARC
8
DEFAULT_255_1_234
10
18.8378067
20
0.181988
40
0.328603
50
359.6507365
51
32.6130309
0
ARC
8
DEFAULT_255_1_234
10
18.7435163
20
0.182466
40
0.2678863
50
359.469343
51
14.9832209
0
ARC
8
DEFAULT_255_1_234
10
18.8140225
20
0.2013539
40
0.1948938
50
14.9781179
51
48.2004265
0
ARC
8
DEFAULT_255_1_234
10
18.7975869
20
0.1806983
40
0.2212521
50
48.5927837
51
74.1241538
0
ARC
8
DEFAULT_255_1_234
10
18.7642359
20
0.0706248
40
0.3362561
50
73.7888341
51
86.6652678
0
ARC
8
DEFAULT_255_1_234
10
18.7539924
20
-0.0501119
40
0.4573953
50
86.2640471
51
90.0526343
0
ARC
8
DEFAULT_255_1_234
10
18.7511637
20
-0.0105808
40
0.4178709
50
89.6697524
51
99.2309573
0
ARC
8
DEFAULT_255_1_234
10
18.7269088
20
0.1338964
40
0.2713749
50
99.069534
51
113.7658566
0
ARC
8
DEFAULT_255_1_234
10
18.6995279
20
0.1984677
40
0.2012469
50
114.0401004
51
127.9850673
0
ARC
8
DEFAULT_255_1_234
10
18.6754843
20
0.228073
40
0.1631167
50
127.7287463
51
176.7105154
0
ARC
8
DEFAULT_255_1_234
10
18.743356
20
0.2179693
40
0.2315392
50
175.1779447
51
180.0581938
0
ARC
8
DEFAULT_255_1_234
10
18.6590407
20
0.2167428
40
0.1472271
50
179.6142195
51
228.1246017
0
ARC
8
DEFAULT_255_1_234
10
18.7032076
20
0.2576308
40
0.2072299
50
226.5779593
51
230.8800004
0
ARC
8
DEFAULT_255_1_234
10
18.7503155
20
0.3201636
40
0.2854818
50
231.4635071
51
241.9260842
0
ARC
8
DEFAULT_255_1_234
10
18.8700333
20
0.54048
40
0.53622
50
241.7178533
51
248.3259551
0
ARC
8
DEFAULT_255_1_234
10
19.0085704
20
0.8837064
40
0.9063478
50
248.2007737
51
252.4528373
0
ARC
8
DEFAULT_255_1_234
10
19.1289429
20
1.2558441
40
1.2974635
50
252.3391078
51
254.3469452
0
ARC
8
DEFAULT_255_1_234
10
18.3747132
20
-1.4418852
40
1.5037162
50
71.0197183
51
74.4087047
0
ARC
8
DEFAULT_255_1_234
10
18.5441817
20
-0.9526889
40
0.9859993
50
66.1847285
51
71.086374
0
ARC
8
DEFAULT_255_1_234
10
18.6998129
20
-0.60228
40
0.6025855
50
59.3536294
51
66.2691831
0
ARC
8
DEFAULT_255_1_234
10
18.7886782
20
-0.4519391
40
0.4279449
50
49.1020879
51
59.3293958
0
ARC
8
DEFAULT_255_1_234
10
18.8705522
20
-0.3586166
40
0.3038015
50
32.7919921
51
49.2505539
0
ARC
8
DEFAULT_255_1_234
10
18.9026612
20
-0.3357809
40
0.264448
50
31.1181161
51
32.4005348
0
ARC
8
DEFAULT_255_1_234
10
18.8938149
20
-0.3393221
40
0.2738556
50
8.1116974
51
30.7958831
0
ARC
8
DEFAULT_255_1_234
10
18.8127817
20
-0.3531247
40
0.3560327
50
359.8389159
51
8.4706516
0
ARC
8
DEFAULT_255_1_234
10
18.8753609
20
-0.3579863
40
0.2934776
50
337.4731098
51
0.7537279
0
ARC
8
DEFAULT_255_1_234
10
18.8932304
20
-0.3599613
40
0.2762607
50
307.5917067
51
336.4315538
0
ARC
8
DEFAULT_255_1_234
10
18.8472132
20
-0.3086898
40
0.3449979
50
307.6551545
51
308.4529766
0
ARC
8
DEFAULT_255_1_234
10
18.8241851
20
-0.273175
40
0.3871988
50
284.3734338
51
307.1424381
0
ARC
8
DEFAULT_255_1_234
10
18.7746681
20
-0.0910068
40
0.5759636
50
272.4382747
51
284.646547
0
ARC
8
DEFAULT_255_1_234
10
18.761989
20
0.0889893
40
0.7563528
50
269.9708387
51
272.8178037
0
ARC
8
DEFAULT_255_1_234
10
18.7576929
20
-0.1148284
40
0.5525489
50
248.2707594
51
270.4055579
0
ARC
8
DEFAULT_255_1_234
10
18.752267
20
-0.1338808
40
0.5328452
50
246.1383403
51
248.0542782
0
ARC
8
DEFAULT_255_1_234
10
18.7104049
20
-0.2218157
40
0.4355005
50
233.1670131
51
246.4950969
0
ARC
8
DEFAULT_255_1_234
10
18.6549954
20
-0.2966188
40
0.3424126
50
215.3403242
51
233.0843104
0
ARC
8
DEFAULT_255_1_234
10
18.6277386
20
-0.3164451
40
0.3087104
50
179.2419209
51
215.2648451
0
ARC
8
DEFAULT_255_1_234
10
18.7044979
20
-0.3150334
40
0.2304457
50
179.335461
51
199.1045811
0
ARC
8
DEFAULT_255_1_234
10
18.6712656
20
-0.3237234
40
0.1962176
50
199.8828939
51
232.7063202
0
ARC
8
DEFAULT_255_1_234
10
18.7184924
20
-0.2643212
40
0.2720938
50
232.3738199
51
255.5136649
0
ARC
8
DEFAULT_255_1_234
10
18.7525791
20
-0.1399165
40
0.4010747
50
255.2446292
51
267.5320849
0
ARC
8
DEFAULT_255_1_234
10
18.7613414
20
-0.0166298
40
0.5246356
50
267.1557994
51
270.0286766
0
ARC
8
DEFAULT_255_1_234
10
18.7641186
20
-0.061005
40
0.4802668
50
269.7000017
51
278.1660162
0
ARC
8
DEFAULT_255_1_234
10
18.7897191
20
-0.2340485
40
0.3053425
50
278.0231263
51
290.625471
0
ARC
8
DEFAULT_255_1_234
10
18.8244878
20
-0.3267975
40
0.206291
50
290.6619762
51
307.0370976
0
ARC
8
DEFAULT_255_1_234
10
18.8545268
20
-0.3636496
40
0.1587906
50
306.3943566
51
355.3030547
0
ARC
8
DEFAULT_255_1_234
10
18.8033199
20
-0.3559887
40
0.2104809
50
354.3660432
51
0.0698737
0
ARC
8
DEFAULT_255_1_234
10
18.8175544
20
-0.3537383
40
0.1962563
50
359.417946
51
16.1971788
0
ARC
8
DEFAULT_255_1_234
10
18.8630855
20
-0.3412582
40
0.149053
50
16.4723299
51
52.6262157
0
ARC
8
DEFAULT_255_1_234
10
18.7809909
20
-0.4496567
40
0.2850296
50
52.7386432
51
62.4979148
0
ARC
8
DEFAULT_255_1_234
10
18.6424985
20
-0.7102717
40
0.5801521
50
62.2515216
51
68.1220564
0
ARC
8
DEFAULT_255_1_234
10
18.4704896
20
-1.1330128
40
1.0365451
50
68.0062803
51
71.8053402
0
ARC
8
DEFAULT_255_1_234
10
18.2909268
20
-1.6715242
40
1.6042013
50
71.7183119
51
73.9258742
0
LINE
8
DEFAULT_255_1_234
10
20.1422598
20
0.1799849
11
19.9872473
21
0.1799849
0
LINE
8
DEFAULT_255_1_234
10
19.2949114
20
-0.3123606
11
19.449924
21
-0.3123606
0
ARC
8
DEFAULT_255_1_234
10
20.0531286
20
1.0746768
40
1.252368
50
248.9199003
51
254.1439814
0
ARC
8
DEFAULT_255_1_234
10
19.885078
20
0.6420234
40
0.788226
50
241.633709
51
249.0064503
0
ARC
8
DEFAULT_255_1_234
10
19.7322175
20
0.3619317
40
0.4691427
50
230.498225
51
241.8087113
0
ARC
8
DEFAULT_255_1_234
10
19.6537749
20
0.2619906
40
0.3421437
50
227.4064532
51
229.9881192
0
ARC
8
DEFAULT_255_1_234
10
19.605027
20
0.2144088
40
0.2741476
50
200.6781896
51
228.1763934
0
ARC
8
DEFAULT_255_1_234
10
19.612258
20
0.2129077
40
0.2804109
50
179.5061581
51
199.8694617
0
ARC
8
DEFAULT_255_1_234
10
19.6113332
20
0.220321
40
0.2795204
50
132.4834203
51
181.0242172
0
ARC
8
DEFAULT_255_1_234
10
19.6708914
20
0.1640704
40
0.3612768
50
129.2532479
51
133.4242687
0
ARC
8
DEFAULT_255_1_234
10
19.6855364
20
0.1420965
40
0.3875675
50
101.98776
51
128.8742646
0
ARC
8
DEFAULT_255_1_234
10
19.7253974
20
-0.0300259
40
0.5642249
50
89.5906553
51
102.3169264
0
ARC
8
DEFAULT_255_1_234
10
19.7324467
20
0.0018148
40
0.5323783
50
77.2360837
51
90.3248275
0
ARC
8
DEFAULT_255_1_234
10
19.7531546
20
0.09854
40
0.4334697
50
63.837784
51
77.0809408
0
ARC
8
DEFAULT_255_1_234
10
19.7809307
20
0.1502911
40
0.3747796
50
45.9864267
51
64.1607727
0
ARC
8
DEFAULT_255_1_234
10
19.8070189
20
0.1800866
40
0.3352302
50
32.2747395
51
45.6547121
0
ARC
8
DEFAULT_255_1_234
10
19.8136629
20
0.181988
40
0.328603
50
359.6507365
51
32.6130309
0
ARC
8
DEFAULT_255_1_234
10
19.7193725
20
0.182466
40
0.2678863
50
359.469343
51
14.9832209
0
ARC
8
DEFAULT_255_1_234
10
19.7898787
20
0.2013539
40
0.1948938
50
14.9781179
51
48.2004265
0
ARC
8
DEFAULT_255_1_234
10
19.7734431
20
0.1806983
40
0.2212521
50
48.5927837
51
74.1241538
0
ARC
8
DEFAULT_255_1_234
10
19.7400921
20
0.0706248
40
0.3362561
50
73.7888341
51
86.6652678
0
ARC
8
DEFAULT_255_1_234
10
19.7298486
20
-0.0501119
40
0.4573953
50
86.2640471
51
90.0526343
0
ARC
8
DEFAULT_255_1_234
10
19.7270199
20
-0.0105808
40
0.4178709
50
89.6697524
51
99.2309573
0
ARC
8
DEFAULT_255_1_234
10
19.702765
20
0.1338964
40
0.2713749
50
99.069534
51
113.7658566
0
ARC
8
DEFAULT_255_1_234
10
19.6753841
20
0.1984677
40
0.2012469
50
114.0401004
51
127.9850673
0
ARC
8
DEFAULT_255_1_234
10
19.6513405
20
0.228073
40
0.1631167
50
127.7287463
51
176.7105154
0
ARC
8
DEFAULT_255_1_234
10
19.7192122
20
0.2179693
40
0.2315392
50
175.1779447
51
180.0581938
0
ARC
8
DEFAULT_255_1_234
10
19.6348969
20
0.2167428
40
0.1472271
50
179.6142195
51
228.1246017
0
ARC
8
DEFAULT_255_1_234
10
19.6790638
20
0.2576308
40
0.2072299
50
226.5779593
51
230.8800004
0
ARC
8
DEFAULT_255_1_234
10
19.7261717
20
0.3201636
40
0.2854818
50
231.4635071
51
241.9260842
0
ARC
8
DEFAULT_255_1_234
10
19.8458895
20
0.54048
40
0.53622
50
241.7178533
51
248.3259551
0
ARC
8
DEFAULT_255_1_234
10
19.9844266
20
0.8837064
40
0.9063478
50
248.2007737
51
252.4528373
0
ARC
8
DEFAULT_255_1_234
10
20.1047991
20
1.2558441
40
1.2974635
50
252.3391078
51
254.3469452
0
ARC
8
DEFAULT_255_1_234
10
19.3505694
20
-1.4418852
40
1.5037162
50
71.0197183
51
74.4087047
0
ARC
8
DEFAULT_255_1_234
10
19.5200379
20
-0.9526889
40
0.9859993
50
66.1847285
51
71.086374
0
ARC
8
DEFAULT_255_1_234
10
19.6756691
20
-0.60228
40
0.6025855
50
59.3536294
51
66.2691831
0
ARC
8
DEFAULT_255_1_234
10
19.7645344
20
-0.4519391
40
0.4279449
50
49.1020879
51
59.3293958
0
ARC
8
DEFAULT_255_1_234
10
19.8464084
20
-0.3586166
40
0.3038015
50
32.7919921
51
49.2505539
0
ARC
8
DEFAULT_255_1_234
10
19.8785174
20
-0.3357809
40
0.264448
50
31.1181161
51
32.4005348
0
ARC
8
DEFAULT_255_1_234
10
19.8696711
20
-0.3393221
40
0.2738556
50
8.1116974
51
30.7958831
0
ARC
8
DEFAULT_255_1_234
10
19.7886379
20
-0.3531247
40
0.3560327
50
359.8389159
51
8.4706516
0
ARC
8
DEFAULT_255_1_234
10
19.8512171
20
-0.3579863
40
0.2934776
50
337.4731098
51
0.7537279
0
ARC
8
DEFAULT_255_1_234
10
19.8690866
20
-0.3599613
40
0.2762607
50
307.5917067
51
336.4315538
0
ARC
8
DEFAULT_255_1_234
10
19.8230694
20
-0.3086898
40
0.3449979
50
307.6551545
51
308.4529766
0
ARC
8
DEFAULT_255_1_234
10
19.8000413
20
-0.273175
40
0.3871988
50
284.3734338
51
307.1424381
0
ARC
8
DEFAULT_255_1_234
10
19.7505243
20
-0.0910068
40
0.5759636
50
272.4382747
51
284.646547
0
ARC
8
DEFAULT_255_1_234
10
19.7378452
20
0.0889893
40
0.7563528
50
269.9708387
51
272.8178037
0
ARC
8
DEFAULT_255_1_234
10
19.7335491
20
-0.1148284
40
0.5525489
50
248.2707594
51
270.4055579
0
ARC
8
DEFAULT_255_1_234
10
19.7281232
20
-0.1338808
40
0.5328452
50
246.1383403
51
248.0542782
0
ARC
8
DEFAULT_255_1_234
10
19.6862611
20
-0.2218157
40
0.4355005
50
233.1670131
51
246.4950969
0
ARC
8
DEFAULT_255_1_234
10
19.6308516
20
-0.2966188
40
0.3424126
50
215.3403242
51
233.0843104
0
ARC
8
DEFAULT_255_1_234
10
19.6035948
20
-0.3164451
40
0.3087104
50
179.2419209
51
215.2648451
0
ARC
8
DEFAULT_255_1_234
10
19.6803541
20
-0.3150334
40
0.2304457
50
179.335461
51
199.1045811
0
ARC
8
DEFAULT_255_1_234
10
19.6471218
20
-0.3237234
40
0.1962176
50
199.8828939
51
232.7063202
0
ARC
8
DEFAULT_255_1_234
10
19.6943486
20
-0.2643212
40
0.2720938
50
232.3738199
51
255.5136649
0
ARC
8
DEFAULT_255_1_234
10
19.7284353
20
-0.1399165
40
0.4010747
50
255.2446292
51
267.5320849
0
ARC
8
DEFAULT_255_1_234
10
19.7371976
20
-0.0166298
40
0.5246356
50
267.1557994
51
270.0286766
0
ARC
8
DEFAULT_255_1_234
10
19.7399749
20
-0.061005
40
0.4802668
50
269.7000017
51
278.1660162
0
ARC
8
DEFAULT_255_1_234
10
19.7655753
20
-0.2340485
40
0.3053425
50
278.0231263
51
290.625471
0
ARC
8
DEFAULT_255_1_234
10
19.800344
20
-0.3267975
40
0.206291
50
290.6619762
51
307.0370976
0
ARC
8
DEFAULT_255_1_234
10
19.830383
20
-0.3636496
40
0.1587906
50
306.3943566
51
355.3030547
0
ARC
8
DEFAULT_255_1_234
10
19.7791761
20
-0.3559887
40
0.2104809
50
354.3660432
51
0.0698737
0
ARC
8
DEFAULT_255_1_234
10
19.7934106
20
-0.3537383
40
0.1962563
50
359.417946
51
16.1971788
0
ARC
8
DEFAULT_255_1_234
10
19.8389417
20
-0.3412582
40
0.149053
50
16.4723299
51
52.6262157
0
ARC
8
DEFAULT_255_1_234
10
19.7568471
20
-0.4496567
40
0.2850296
50
52.7386432
51
62.4979148
0
ARC
8
DEFAULT_255_1_234
10
19.6183547
20
-0.7102717
40
0.5801521
50
62.2515216
51
68.1220564
0
ARC
8
DEFAULT_255_1_234
10
19.4463458
20
-1.1330128
40
1.0365451
50
68.0062803
51
71.8053402
0
ARC
8
DEFAULT_255_1_234
10
19.266783
20
-1.6715242
40
1.6042013
50
71.7183119
51
73.9258742
0
LINE
8
DEFAULT_255_1_234
10
12.016085
20
94.5797391
11
12.016085
21
94.4536408
0
LINE
8
DEFAULT_255_1_234
10
12.016085
20
94.4536408
11
11.5253458
21
94.4536408
0
LINE
8
DEFAULT_255_1_234
10
11.5253458
20
94.4536408
11
11.5253458
21
93.9372
0
LINE
8
DEFAULT_255_1_234
10
11.5253458
20
93.9372
11
11.3711364
21
93.9372
0
LINE
8
DEFAULT_255_1_234
10
11.3711364
20
93.9372
11
11.3711364
21
95.1066211
0
LINE
8
DEFAULT_255_1_234
10
11.3711364
20
95.1066211
11
12.0955992
21
95.1066211
0
LINE
8
DEFAULT_255_1_234
10
12.0955992
20
95.1066211
11
12.0955992
21
94.9797196
0
LINE
8
DEFAULT_255_1_234
10
12.0955992
20
94.9797196
11
11.5253458
21
94.9797196
0
LINE
8
DEFAULT_255_1_234
10
11.5253458
20
94.9797196
11
11.5253458
21
94.5797391
0
LINE
8
DEFAULT_255_1_234
10
11.5253458
20
94.5797391
11
12.016085
21
94.5797391
0
LINE
8
DEFAULT_255_1_234
10
13.4634042
20
94.7684849
11
13.3083917
21
94.7684849
0
LINE
8
DEFAULT_255_1_234
10
12.6160558
20
94.2761394
11
12.7710684
21
94.2761394
0
ARC
8
DEFAULT_255_1_234
10
13.3742729
20
95.6631768
40
1.252368
50
248.9199003
51
254.1439814
0
ARC
8
DEFAULT_255_1_234
10
13.2062224
20
95.2305234
40
0.788226
50
241.633709
51
249.0064503
0
ARC
8
DEFAULT_255_1_234
10
13.0533619
20
94.9504317
40
0.4691427
50
230.498225
51
241.8087113
0
ARC
8
DEFAULT_255_1_234
10
12.9749193
20
94.8504906
40
0.3421437
50
227.4064532
51
229.9881192
0
ARC
8
DEFAULT_255_1_234
10
12.9261713
20
94.8029088
40
0.2741476
50
200.6781896
51
228.1763934
0
ARC
8
DEFAULT_255_1_234
10
12.9334024
20
94.8014077
40
0.2804109
50
179.5061581
51
199.8694617
0
ARC
8
DEFAULT_255_1_234
10
12.9324776
20
94.808821
40
0.2795204
50
132.4834203
51
181.0242172
0
ARC
8
DEFAULT_255_1_234
10
12.9920358
20
94.7525704
40
0.3612768
50
129.2532479
51
133.4242687
0
ARC
8
DEFAULT_255_1_234
10
13.0066808
20
94.7305965
40
0.3875675
50
101.98776
51
128.8742646
0
ARC
8
DEFAULT_255_1_234
10
13.0465418
20
94.5584741
40
0.5642249
50
89.5906553
51
102.3169264
0
ARC
8
DEFAULT_255_1_234
10
13.0535911
20
94.5903148
40
0.5323783
50
77.2360837
51
90.3248275
0
ARC
8
DEFAULT_255_1_234
10
13.074299
20
94.68704
40
0.4334697
50
63.837784
51
77.0809408
0
ARC
8
DEFAULT_255_1_234
10
13.1020751
20
94.7387911
40
0.3747796
50
45.9864267
51
64.1607727
0
ARC
8
DEFAULT_255_1_234
10
13.1281633
20
94.7685866
40
0.3352302
50
32.2747395
51
45.6547121
0
ARC
8
DEFAULT_255_1_234
10
13.1348073
20
94.770488
40
0.328603
50
359.6507365
51
32.6130309
0
ARC
8
DEFAULT_255_1_234
10
13.0405169
20
94.770966
40
0.2678863
50
359.469343
51
14.9832209
0
ARC
8
DEFAULT_255_1_234
10
13.1110231
20
94.7898539
40
0.1948938
50
14.9781179
51
48.2004265
0
ARC
8
DEFAULT_255_1_234
10
13.0945875
20
94.7691983
40
0.2212521
50
48.5927837
51
74.1241538
0
ARC
8
DEFAULT_255_1_234
10
13.0612365
20
94.6591248
40
0.3362561
50
73.7888341
51
86.6652678
0
ARC
8
DEFAULT_255_1_234
10
13.050993
20
94.5383881
40
0.4573953
50
86.2640471
51
90.0526343
0
ARC
8
DEFAULT_255_1_234
10
13.0481643
20
94.5779192
40
0.4178709
50
89.6697524
51
99.2309573
0
ARC
8
DEFAULT_255_1_234
10
13.0239094
20
94.7223964
40
0.2713749
50
99.069534
51
113.7658566
0
ARC
8
DEFAULT_255_1_234
10
12.9965285
20
94.7869677
40
0.2012469
50
114.0401004
51
127.9850673
0
ARC
8
DEFAULT_255_1_234
10
12.9724849
20
94.816573
40
0.1631167
50
127.7287463
51
176.7105154
0
ARC
8
DEFAULT_255_1_234
10
13.0403566
20
94.8064693
40
0.2315392
50
175.1779447
51
180.0581938
0
ARC
8
DEFAULT_255_1_234
10
12.9560413
20
94.8052428
40
0.1472271
50
179.6142195
51
228.1246017
0
ARC
8
DEFAULT_255_1_234
10
13.0002082
20
94.8461308
40
0.2072299
50
226.5779593
51
230.8800004
0
ARC
8
DEFAULT_255_1_234
10
13.047316
20
94.9086636
40
0.2854818
50
231.4635071
51
241.9260842
0
ARC
8
DEFAULT_255_1_234
10
13.1670338
20
95.12898
40
0.53622
50
241.7178533
51
248.3259551
0
ARC
8
DEFAULT_255_1_234
10
13.305571
20
95.4722064
40
0.9063478
50
248.2007737
51
252.4528373
0
ARC
8
DEFAULT_255_1_234
10
13.4259435
20
95.8443441
40
1.2974635
50
252.3391078
51
254.3469452
0
ARC
8
DEFAULT_255_1_234
10
12.6717138
20
93.1466148
40
1.5037162
50
71.0197183
51
74.4087047
0
ARC
8
DEFAULT_255_1_234
10
12.8411823
20
93.6358111
40
0.9859993
50
66.1847285
51
71.086374
0
ARC
8
DEFAULT_255_1_234
10
12.9968135
20
93.98622
40
0.6025855
50
59.3536294
51
66.2691831
0
ARC
8
DEFAULT_255_1_234
10
13.0856788
20
94.1365609
40
0.4279449
50
49.1020879
51
59.3293958
0
ARC
8
DEFAULT_255_1_234
10
13.1675528
20
94.2298834
40
0.3038015
50
32.7919921
51
49.2505539
0
ARC
8
DEFAULT_255_1_234
10
13.1996618
20
94.2527191
40
0.264448
50
31.1181161
51
32.4005348
0
ARC
8
DEFAULT_255_1_234
10
13.1908155
20
94.2491779
40
0.2738556
50
8.1116974
51
30.7958831
0
ARC
8
DEFAULT_255_1_234
10
13.1097823
20
94.2353753
40
0.3560327
50
359.8389159
51
8.4706516
0
ARC
8
DEFAULT_255_1_234
10
13.1723615
20
94.2305137
40
0.2934776
50
337.4731098
51
0.7537279
0
ARC
8
DEFAULT_255_1_234
10
13.190231
20
94.2285387
40
0.2762607
50
307.5917067
51
336.4315538
0
ARC
8
DEFAULT_255_1_234
10
13.1442138
20
94.2798102
40
0.3449979
50
307.6551545
51
308.4529766
0
ARC
8
DEFAULT_255_1_234
10
13.1211857
20
94.315325
40
0.3871988
50
284.3734338
51
307.1424381
0
ARC
8
DEFAULT_255_1_234
10
13.0716687
20
94.4974932
40
0.5759636
50
272.4382747
51
284.646547
0
ARC
8
DEFAULT_255_1_234
10
13.0589895
20
94.6774893
40
0.7563528
50
269.9708387
51
272.8178037
0
ARC
8
DEFAULT_255_1_234
10
13.0546935
20
94.4736716
40
0.5525489
50
248.2707594
51
270.4055579
0
ARC
8
DEFAULT_255_1_234
10
13.0492676
20
94.4546192
40
0.5328452
50
246.1383403
51
248.0542782
0
ARC
8
DEFAULT_255_1_234
10
13.0074055
20
94.3666843
40
0.4355005
50
233.1670131
51
246.4950969
0
ARC
8
DEFAULT_255_1_234
10
12.951996
20
94.2918812
40
0.3424126
50
215.3403242
51
233.0843104
0
ARC
8
DEFAULT_255_1_234
10
12.9247391
20
94.2720549
40
0.3087104
50
179.2419209
51
215.2648451
0
ARC
8
DEFAULT_255_1_234
10
13.0014985
20
94.2734666
40
0.2304457
50
179.335461
51
199.1045811
0
ARC
8
DEFAULT_255_1_234
10
12.9682662
20
94.2647766
40
0.1962176
50
199.8828939
51
232.7063202
0
ARC
8
DEFAULT_255_1_234
10
13.015493
20
94.3241788
40
0.2720938
50
232.3738199
51
255.5136649
0
ARC
8
DEFAULT_255_1_234
10
13.0495797
20
94.4485835
40
0.4010747
50
255.2446292
51
267.5320849
0
ARC
8
DEFAULT_255_1_234
10
13.058342
20
94.5718702
40
0.5246356
50
267.1557994
51
270.0286766
0
ARC
8
DEFAULT_255_1_234
10
13.0611192
20
94.527495
40
0.4802668
50
269.7000017
51
278.1660162
0
ARC
8
DEFAULT_255_1_234
10
13.0867197
20
94.3544515
40
0.3053425
50
278.0231263
51
290.625471
0
ARC
8
DEFAULT_255_1_234
10
13.1214884
20
94.2617025
40
0.206291
50
290.6619762
51
307.0370976
0
ARC
8
DEFAULT_255_1_234
10
13.1515274
20
94.2248504
40
0.1587906
50
306.3943566
51
355.3030547
0
ARC
8
DEFAULT_255_1_234
10
13.1003205
20
94.2325113
40
0.2104809
50
354.3660432
51
0.0698737
0
ARC
8
DEFAULT_255_1_234
10
13.114555
20
94.2347617
40
0.1962563
50
359.417946
51
16.1971788
0
ARC
8
DEFAULT_255_1_234
10
13.160086
20
94.2472418
40
0.149053
50
16.4723299
51
52.6262157
0
ARC
8
DEFAULT_255_1_234
10
13.0779914
20
94.1388433
40
0.2850296
50
52.7386432
51
62.4979148
0
ARC
8
DEFAULT_255_1_234
10
12.9394991
20
93.8782283
40
0.5801521
50
62.2515216
51
68.1220564
0
ARC
8
DEFAULT_255_1_234
10
12.7674902
20
93.4554872
40
1.0365451
50
68.0062803
51
71.8053402
0
ARC
8
DEFAULT_255_1_234
10
12.5879274
20
92.9169758
40
1.6042013
50
71.7183119
51
73.9258742
0
LINE
8
DEFAULT_255_1_234
10
13.6023533
20
94.3476218
11
13.6023533
21
94.3749297
0
LINE
8
DEFAULT_255_1_234
10
14.3396668
20
94.3909932
11
14.3396668
21
94.3291488
0
LINE
8
DEFAULT_255_1_234
10
14.3396668
20
94.3291488
11
13.7509404
21
94.3291488
0
LINE
8
DEFAULT_255_1_234
10
14.2376638
20
94.1596792
11
14.3284224
21
94.0889999
0
LINE
8
DEFAULT_255_1_234
10
13.7557595
20
94.4512313
11
14.1910797
21
94.4512313
0
LINE
8
DEFAULT_255_1_234
10
14.1910797
20
94.4512313
11
14.1910797
21
94.4624757
0
ARC
8
DEFAULT_255_1_234
10
13.9962898
20
94.3587332
40
0.4376191
50
252.3266134
51
270.5810217
0
ARC
8
DEFAULT_255_1_234
10
13.9757987
20
94.2846644
40
0.3608374
50
223.3000567
51
251.8561855
0
ARC
8
DEFAULT_255_1_234
10
13.9969348
20
94.3051937
40
0.3902993
50
190.9374509
51
223.3654032
0
ARC
8
DEFAULT_255_1_234
10
14.169432
20
94.3441885
40
0.5670891
50
179.6531105
51
191.4989439
0
ARC
8
DEFAULT_255_1_234
10
14.1816332
20
94.3781417
40
0.5792888
50
167.4007466
51
180.3176909
0
ARC
8
DEFAULT_255_1_234
10
14.0764394
20
94.4003885
40
0.471777
50
154.1835823
51
167.250763
0
ARC
8
DEFAULT_255_1_234
10
14.0132861
20
94.4336417
40
0.4004528
50
134.3149965
51
154.5315275
0
ARC
8
DEFAULT_255_1_234
10
13.9915356
20
94.4527228
40
0.371612
50
122.8616532
51
133.9707695
0
ARC
8
DEFAULT_255_1_234
10
13.981193
20
94.4749703
40
0.3473289
50
89.8249009
51
123.4199222
0
ARC
8
DEFAULT_255_1_234
10
13.9861971
20
94.4102967
40
0.4120197
50
74.7876118
51
90.5482747
0
ARC
8
DEFAULT_255_1_234
10
14.0155715
20
94.518803
40
0.2996077
50
39.8178249
51
74.7633718
0
ARC
8
DEFAULT_255_1_234
10
13.9643035
20
94.4788351
40
0.3645855
50
16.8990863
51
39.4829761
0
ARC
8
DEFAULT_255_1_234
10
13.7748331
20
94.4181526
40
0.5635218
50
4.9636328
51
17.2026414
0
ARC
8
DEFAULT_255_1_234
10
13.5330401
20
94.392634
40
0.8066286
50
359.8834553
51
5.2834307
0
ARC
8
DEFAULT_255_1_234
10
14.1367926
20
94.3357803
40
0.3859091
50
180.9846213
51
194.9401313
0
ARC
8
DEFAULT_255_1_234
10
14.0318204
20
94.3070849
40
0.2770883
50
194.80314
51
222.0412631
0
ARC
8
DEFAULT_255_1_234
10
14.0014085
20
94.2769116
40
0.2343055
50
221.5417084
51
268.8614402
0
ARC
8
DEFAULT_255_1_234
10
14.008708
20
94.3445686
40
0.3021528
50
267.732405
51
270.0097136
0
ARC
8
DEFAULT_255_1_234
10
14.010489
20
94.3647105
40
0.3222994
50
269.6924892
51
280.4117579
0
ARC
8
DEFAULT_255_1_234
10
14.0281297
20
94.2728193
40
0.2287344
50
280.2255091
51
298.6338936
0
ARC
8
DEFAULT_255_1_234
10
14.0398089
20
94.2484223
40
0.2017294
50
299.0430333
51
300.4643464
0
ARC
8
DEFAULT_255_1_234
10
13.9718094
20
94.3618038
40
0.3339357
50
300.6577328
51
322.0378878
0
ARC
8
DEFAULT_255_1_234
10
13.9367633
20
94.3922021
40
0.3802736
50
321.6750233
51
322.3046845
0
ARC
8
DEFAULT_255_1_234
10
14.0298595
20
94.275537
40
0.3520454
50
276.9728461
51
328.0035423
0
ARC
8
DEFAULT_255_1_234
10
14.0021648
20
94.4235841
40
0.5024498
50
269.8361028
51
278.0581756
0
ARC
8
DEFAULT_255_1_234
10
13.9794385
20
94.4980757
40
0.202159
50
89.2018686
51
117.2851756
0
ARC
8
DEFAULT_255_1_234
10
13.9847554
20
94.4938752
40
0.2083484
50
118.0551165
51
137.4540413
0
ARC
8
DEFAULT_255_1_234
10
14.0222294
20
94.4598304
40
0.2589774
50
137.5109581
51
158.8516286
0
ARC
8
DEFAULT_255_1_234
10
14.136013
20
94.4139074
40
0.38167
50
158.5845963
51
170.1721436
0
ARC
8
DEFAULT_255_1_234
10
14.2529519
20
94.3906823
40
0.5008657
50
169.8376422
51
173.0566086
0
ARC
8
DEFAULT_255_1_234
10
13.7832593
20
94.4417509
40
0.4083467
50
2.9091802
51
12.8847116
0
ARC
8
DEFAULT_255_1_234
10
13.9203269
20
94.4740101
40
0.2675383
50
12.6957781
51
28.6404489
0
ARC
8
DEFAULT_255_1_234
10
13.974494
20
94.5020458
40
0.2065654
50
29.0169854
51
41.1487595
0
ARC
8
DEFAULT_255_1_234
10
13.9947725
20
94.5197003
40
0.1796786
50
41.1646065
51
85.0013516
0
ARC
8
DEFAULT_255_1_234
10
13.9826822
20
94.4462431
40
0.2539726
50
83.7280015
51
90.0964893
0
LINE
8
DEFAULT_255_1_234
10
14.931606
20
94.8110531
11
14.931606
21
94.6729072
0
LINE
8
DEFAULT_255_1_234
10
14.6601332
20
94.5540375
11
14.6601332
21
93.9372
0
LINE
8
DEFAULT_255_1_234
10
14.6601332
20
93.9372
11
14.511546
21
93.9372
0
LINE
8
DEFAULT_255_1_234
10
14.511546
20
93.9372
11
14.511546
21
94.8062341
0
LINE
8
DEFAULT_255_1_234
10
14.511546
20
94.8062341
11
14.6561173
21
94.8062341
0
LINE
8
DEFAULT_255_1_234
10
14.6561173
20
94.8062341
11
14.6585269
21
94.7058374
0
ARC
8
DEFAULT_255_1_234
10
14.8649465
20
94.2669342
40
0.4114092
50
80.6754243
51
86.8932892
0
ARC
8
DEFAULT_255_1_234
10
14.8588999
20
94.17017
40
0.5083596
50
86.8038578
51
90.0431435
0
ARC
8
DEFAULT_255_1_234
10
14.855198
20
94.4158866
40
0.2626638
50
89.2759698
51
106.6213787
0
ARC
8
DEFAULT_255_1_234
10
14.8347544
20
94.490183
40
0.1856317
50
107.1346045
51
157.6458115
0
ARC
8
DEFAULT_255_1_234
10
14.9039146
20
94.4518311
40
0.2643398
50
155.6586782
51
157.2539184
0
ARC
8
DEFAULT_255_1_234
10
14.8834348
20
94.5687157
40
0.2634121
50
127.8165941
51
148.6302098
0
ARC
8
DEFAULT_255_1_234
10
14.8580817
20
94.5947218
40
0.2273596
50
91.3329982
51
126.7875809
0
ARC
8
DEFAULT_255_1_234
10
14.8656757
20
94.5232195
40
0.299078
50
89.986594
51
92.4688449
0
ARC
8
DEFAULT_255_1_234
10
14.8665152
20
94.5507078
40
0.2715908
50
85.3589899
51
90.1623399
0
ARC
8
DEFAULT_255_1_234
10
14.8749668
20
94.6511164
40
0.1708278
50
78.401942
51
85.4594656
0
ARC
8
DEFAULT_255_1_234
10
14.8894552
20
94.7202236
40
0.1002194
50
67.7858312
51
78.5728455
0
ARC
8
DEFAULT_255_1_234
10
14.9002404
20
94.7481887
40
0.0702548
50
63.4835954
51
67.3062642
0
LINE
8
DEFAULT_255_1_234
10
15.2295834
20
94.8062341
11
15.2295834
21
93.9372
0
LINE
8
DEFAULT_255_1_234
10
15.2295834
20
93.9372
11
15.0809963
21
93.9372
0
LINE
8
DEFAULT_255_1_234
10
15.0809963
20
93.9372
11
15.0809963
21
94.8062341
0
LINE
8
DEFAULT_255_1_234
10
15.0809963
20
94.8062341
11
15.2295834
21
94.8062341
0
ARC
8
DEFAULT_255_1_234
10
15.1668112
20
95.0376889
40
0.097867
50
161.415052
51
180.5526306
0
ARC
8
DEFAULT_255_1_234
10
15.154389
20
95.0411077
40
0.0850062
50
138.1827368
51
160.9307106
0
ARC
8
DEFAULT_255_1_234
10
15.1433835
20
95.0506588
40
0.0704362
50
104.6368899
51
138.0039868
0
ARC
8
DEFAULT_255_1_234
10
15.154099
20
95.0139963
40
0.1086221
50
92.0600725
51
105.2189128
0
ARC
8
DEFAULT_255_1_234
10
15.1564338
20
94.9797117
40
0.1429728
50
89.9756393
51
92.5012496
0
ARC
8
DEFAULT_255_1_234
10
15.1574358
20
95.0022731
40
0.1204151
50
78.0235316
51
90.4478182
0
ARC
8
DEFAULT_255_1_234
10
15.166645
20
95.0436295
40
0.0780493
50
55.051506
51
78.3369085
0
ARC
8
DEFAULT_255_1_234
10
15.1716724
20
95.0520711
40
0.0682538
50
42.0501187
51
54.4513741
0
ARC
8
DEFAULT_255_1_234
10
15.1581591
20
95.0396798
40
0.0865878
50
1.7497075
51
42.1496013
0
ARC
8
DEFAULT_255_1_234
10
15.1326924
20
95.0367738
40
0.1121515
50
359.9852656
51
2.8364544
0
ARC
8
DEFAULT_255_1_234
10
15.1492916
20
95.0358229
40
0.0955566
50
342.1070653
51
0.552888
0
ARC
8
DEFAULT_255_1_234
10
15.1635614
20
95.0318904
40
0.0807713
50
316.7107116
51
341.6516965
0
ARC
8
DEFAULT_255_1_234
10
15.1702651
20
95.0258823
40
0.0717724
50
285.4397031
51
316.5324284
0
ARC
8
DEFAULT_255_1_234
10
15.1592568
20
95.0624554
40
0.1099597
50
272.3547054
51
285.8953117
0
ARC
8
DEFAULT_255_1_234
10
15.1565726
20
95.0990048
40
0.1465932
50
269.9695369
51
272.8160237
0
ARC
8
DEFAULT_255_1_234
10
15.1555907
20
95.0770863
40
0.1246779
50
258.8431134
51
270.4153935
0
ARC
8
DEFAULT_255_1_234
10
15.1465949
20
95.0335414
40
0.0802162
50
238.5431189
51
259.1288175
0
ARC
8
DEFAULT_255_1_234
10
15.1397834
20
95.0211856
40
0.0661247
50
222.5062634
51
237.9906969
0
ARC
8
DEFAULT_255_1_234
10
15.1525422
20
95.0327889
40
0.0833707
50
184.1069131
51
222.460413
0
ARC
8
DEFAULT_255_1_234
10
15.1794662
20
95.0366349
40
0.1105176
50
179.9429482
51
185.0960898
0
LINE
8
DEFAULT_255_1_234
10
15.4295737
20
94.3476218
11
15.4295737
21
94.3749297
0
LINE
8
DEFAULT_255_1_234
10
16.1668873
20
94.3909932
11
16.1668873
21
94.3291488
0
LINE
8
DEFAULT_255_1_234
10
16.1668873
20
94.3291488
11
15.5781609
21
94.3291488
0
LINE
8
DEFAULT_255_1_234
10
16.0648842
20
94.1596792
11
16.1556429
21
94.0889999
0
LINE
8
DEFAULT_255_1_234
10
15.5829799
20
94.4512313
11
16.0183001
21
94.4512313
0
LINE
8
DEFAULT_255_1_234
10
16.0183001
20
94.4512313
11
16.0183001
21
94.4624757
0
ARC
8
DEFAULT_255_1_234
10
15.8235102
20
94.3587332
40
0.4376191
50
252.3266134
51
270.5810217
0
ARC
8
DEFAULT_255_1_234
10
15.8030192
20
94.2846644
40
0.3608374
50
223.3000567
51
251.8561855
0
ARC
8
DEFAULT_255_1_234
10
15.8241552
20
94.3051937
40
0.3902993
50
190.9374509
51
223.3654032
0
ARC
8
DEFAULT_255_1_234
10
15.9966524
20
94.3441885
40
0.5670891
50
179.6531105
51
191.4989439
0
ARC
8
DEFAULT_255_1_234
10
16.0088537
20
94.3781417
40
0.5792888
50
167.4007466
51
180.3176909
0
ARC
8
DEFAULT_255_1_234
10
15.9036598
20
94.4003885
40
0.471777
50
154.1835823
51
167.250763
0
ARC
8
DEFAULT_255_1_234
10
15.8405066
20
94.4336417
40
0.4004528
50
134.3149965
51
154.5315275
0
ARC
8
DEFAULT_255_1_234
10
15.8187561
20
94.4527228
40
0.371612
50
122.8616532
51
133.9707695
0
ARC
8
DEFAULT_255_1_234
10
15.8084135
20
94.4749703
40
0.3473289
50
89.8249009
51
123.4199222
0
ARC
8
DEFAULT_255_1_234
10
15.8134176
20
94.4102967
40
0.4120197
50
74.7876118
51
90.5482747
0
ARC
8
DEFAULT_255_1_234
10
15.8427919
20
94.518803
40
0.2996077
50
39.8178249
51
74.7633718
0
ARC
8
DEFAULT_255_1_234
10
15.7915239
20
94.4788351
40
0.3645855
50
16.8990863
51
39.4829761
0
ARC
8
DEFAULT_255_1_234
10
15.6020536
20
94.4181526
40
0.5635218
50
4.9636328
51
17.2026414
0
ARC
8
DEFAULT_255_1_234
10
15.3602606
20
94.392634
40
0.8066286
50
359.8834553
51
5.2834307
0
ARC
8
DEFAULT_255_1_234
10
15.9640131
20
94.3357803
40
0.3859091
50
180.9846213
51
194.9401313
0
ARC
8
DEFAULT_255_1_234
10
15.8590408
20
94.3070849
40
0.2770883
50
194.80314
51
222.0412631
0
ARC
8
DEFAULT_255_1_234
10
15.828629
20
94.2769116
40
0.2343055
50
221.5417084
51
268.8614402
0
ARC
8
DEFAULT_255_1_234
10
15.8359285
20
94.3445686
40
0.3021528
50
267.732405
51
270.0097136
0
ARC
8
DEFAULT_255_1_234
10
15.8377095
20
94.3647105
40
0.3222994
50
269.6924892
51
280.4117579
0
ARC
8
DEFAULT_255_1_234
10
15.8553502
20
94.2728193
40
0.2287344
50
280.2255091
51
298.6338936
0
ARC
8
DEFAULT_255_1_234
10
15.8670294
20
94.2484223
40
0.2017294
50
299.0430333
51
300.4643464
0
ARC
8
DEFAULT_255_1_234
10
15.7990299
20
94.3618038
40
0.3339357
50
300.6577328
51
322.0378878
0
ARC
8
DEFAULT_255_1_234
10
15.7639838
20
94.3922021
40
0.3802736
50
321.6750233
51
322.3046845
0
ARC
8
DEFAULT_255_1_234
10
15.8570799
20
94.275537
40
0.3520454
50
276.9728461
51
328.0035423
0
ARC
8
DEFAULT_255_1_234
10
15.8293852
20
94.4235841
40
0.5024498
50
269.8361028
51
278.0581756
0
ARC
8
DEFAULT_255_1_234
10
15.806659
20
94.4980757
40
0.202159
50
89.2018686
51
117.2851756
0
ARC
8
DEFAULT_255_1_234
10
15.8119759
20
94.4938752
40
0.2083484
50
118.0551165
51
137.4540413
0
ARC
8
DEFAULT_255_1_234
10
15.8494499
20
94.4598304
40
0.2589774
50
137.5109581
51
158.8516286
0
ARC
8
DEFAULT_255_1_234
10
15.9632334
20
94.4139074
40
0.38167
50
158.5845963
51
170.1721436
0
ARC
8
DEFAULT_255_1_234
10
16.0801723
20
94.3906823
40
0.5008657
50
169.8376422
51
173.0566086
0
ARC
8
DEFAULT_255_1_234
10
15.6104797
20
94.4417509
40
0.4083467
50
2.9091802
51
12.8847116
0
ARC
8
DEFAULT_255_1_234
10
15.7475474
20
94.4740101
40
0.2675383
50
12.6957781
51
28.6404489
0
ARC
8
DEFAULT_255_1_234
10
15.8017145
20
94.5020458
40
0.2065654
50
29.0169854
51
41.1487595
0
ARC
8
DEFAULT_255_1_234
10
15.821993
20
94.5197003
40
0.1796786
50
41.1646065
51
85.0013516
0
ARC
8
DEFAULT_255_1_234
10
15.8099027
20
94.4462431
40
0.2539726
50
83.7280015
51
90.0964893
0
LINE
8
DEFAULT_255_1_234
10
16.9853214
20
94.5508248
11
16.8359311
21
94.5508248
0
LINE
8
DEFAULT_255_1_234
10
16.3026237
20
94.2046569
11
16.4512108
21
94.2046569
0
ARC
8
DEFAULT_255_1_234
10
16.717113
20
94.1691959
40
0.1276617
50
359.3334982
51
18.5871358
0
ARC
8
DEFAULT_255_1_234
10
16.7379767
20
94.1747133
40
0.1061371
50
19.3540742
51
54.6485071
0
ARC
8
DEFAULT_255_1_234
10
16.6875669
20
94.1051919
40
0.1920087
50
54.3827097
51
65.0622807
0
ARC
8
DEFAULT_255_1_234
10
16.6107065
20
93.94349
40
0.3710447
50
64.8282493
51
71.4200025
0
ARC
8
DEFAULT_255_1_234
10
16.5204941
20
93.6788107
40
0.6506741
50
71.3164301
51
75.8006402
0
ARC
8
DEFAULT_255_1_234
10
16.4363761
20
93.3547561
40
0.9854641
50
75.6809531
51
78.0061883
0
ARC
8
DEFAULT_255_1_234
10
16.8812294
20
95.452677
40
1.1591028
50
254.6901892
51
258.0466452
0
ARC
8
DEFAULT_255_1_234
10
16.7774202
20
95.0767781
40
0.7691345
50
249.9010773
51
254.755261
0
ARC
8
DEFAULT_255_1_234
10
16.6770544
20
94.8041982
40
0.478665
50
243.3097214
51
249.9709442
0
ARC
8
DEFAULT_255_1_234
10
16.6141565
20
94.6787778
40
0.3383568
50
234.4047477
51
243.2862168
0
ARC
8
DEFAULT_255_1_234
10
16.5519089
20
94.5928232
40
0.2322322
50
220.8667099
51
234.5493881
0
ARC
8
DEFAULT_255_1_234
10
16.517703
20
94.5616817
40
0.1859923
50
214.3062465
51
220.5065136
0
ARC
8
DEFAULT_255_1_234
10
16.5151109
20
94.558588
40
0.1821108
50
186.912965
51
213.9618616
0
ARC
8
DEFAULT_255_1_234
10
16.5683204
20
94.5672009
40
0.2359799
50
179.8808832
51
187.4339886
0
ARC
8
DEFAULT_255_1_234
10
16.5528337
20
94.5692088
40
0.2204978
50
132.005434
51
180.3942919
0
ARC
8
DEFAULT_255_1_234
10
16.6184951
20
94.5086083
40
0.3095791
50
129.2319861
51
133.5302299
0
ARC
8
DEFAULT_255_1_234
10
16.6238459
20
94.4991928
40
0.3202615
50
100.4410011
51
128.9081242
0
ARC
8
DEFAULT_255_1_234
10
16.6512343
20
94.3706455
40
0.4516583
50
89.6985377
51
100.9026564
0
ARC
8
DEFAULT_255_1_234
10
16.6569384
20
94.3546166
40
0.4676928
50
77.6965325
51
90.4076836
0
ARC
8
DEFAULT_255_1_234
10
16.6900369
20
94.4973413
40
0.3211988
50
50.7276602
51
78.0399361
0
ARC
8
DEFAULT_255_1_234
10
16.7344827
20
94.5491296
40
0.2529778
50
25.7545084
51
51.0957453
0
ARC
8
DEFAULT_255_1_234
10
16.7346052
20
94.5541206
40
0.250738
50
359.2468627
51
24.7394243
0
ARC
8
DEFAULT_255_1_234
10
16.7061504
20
94.5512664
40
0.1297815
50
359.8050318
51
45.1544908
0
ARC
8
DEFAULT_255_1_234
10
16.6654646
20
94.5164794
40
0.1831883
50
43.8047702
51
49.6271585
0
ARC
8
DEFAULT_255_1_234
10
16.6662547
20
94.5165678
40
0.18261
50
49.7980766
51
82.1218353
0
ARC
8
DEFAULT_255_1_234
10
16.6543519
20
94.4518998
40
0.2483163
50
81.4465357
51
90.1710293
0
ARC
8
DEFAULT_255_1_234
10
16.6519122
20
94.399288
40
0.300932
50
89.6766211
51
99.1264602
0
ARC
8
DEFAULT_255_1_234
10
16.6347584
20
94.5026537
40
0.1961547
50
98.968313
51
113.4570237
0
ARC
8
DEFAULT_255_1_234
10
16.6151669
20
94.5494965
40
0.1453859
50
113.722589
51
127.4763106
0
ARC
8
DEFAULT_255_1_234
10
16.5983315
20
94.5695124
40
0.1192639
50
126.9083309
51
150.3165862
0
ARC
8
DEFAULT_255_1_234
10
16.5935648
20
94.5745981
40
0.112623
50
151.3635175
51
180.0701457
0
ARC
8
DEFAULT_255_1_234
10
16.6244432
20
94.572499
40
0.1435149
50
179.2169974
51
179.9954013
0
ARC
8
DEFAULT_255_1_234
10
16.5883489
20
94.5712056
40
0.1074286
50
179.3040112
51
198.4225446
0
ARC
8
DEFAULT_255_1_234
10
16.5691623
20
94.5662127
40
0.0876573
50
199.2895851
51
238.6034594
0
ARC
8
DEFAULT_255_1_234
10
16.629447
20
94.660845
40
0.1998512
50
237.9846301
51
246.8744712
0
ARC
8
DEFAULT_255_1_234
10
16.7152415
20
94.8571205
40
0.4140547
50
246.6234531
51
251.8168941
0
ARC
8
DEFAULT_255_1_234
10
16.8182958
20
95.1665905
40
0.7402308
50
251.713434
51
255.0778414
0
ARC
8
DEFAULT_255_1_234
10
16.9382221
20
95.6132563
40
1.2027155
50
255.0367487
51
257.4705983
0
ARC
8
DEFAULT_255_1_234
10
16.4274231
20
93.3118863
40
1.1546601
50
73.6837552
51
77.5016755
0
ARC
8
DEFAULT_255_1_234
10
16.5363005
20
93.6818581
40
0.7690009
50
68.7044154
51
73.7249639
0
ARC
8
DEFAULT_255_1_234
10
16.6266026
20
93.9145654
40
0.5193873
50
63.590599
51
68.6626804
0
ARC
8
DEFAULT_255_1_234
10
16.7037045
20
94.0683123
40
0.3473927
50
54.7106439
51
63.7013633
0
ARC
8
DEFAULT_255_1_234
10
16.76615
20
94.15554
40
0.2401192
50
41.0622434
51
54.8487496
0
ARC
8
DEFAULT_255_1_234
10
16.8002886
20
94.1868592
40
0.1938094
50
34.4950568
51
40.7105546
0
ARC
8
DEFAULT_255_1_234
10
16.8049693
20
94.1917078
40
0.1872106
50
9.3763373
51
34.0833615
0
ARC
8
DEFAULT_255_1_234
10
16.7396564
20
94.1791728
40
0.2536988
50
359.7694872
51
9.7663171
0
ARC
8
DEFAULT_255_1_234
10
16.7594065
20
94.1748764
40
0.2339696
50
335.8654732
51
0.8022045
0
ARC
8
DEFAULT_255_1_234
10
16.7669109
20
94.1762197
40
0.2277108
50
307.7357725
51
334.7849066
0
ARC
8
DEFAULT_255_1_234
10
16.7268285
20
94.2212645
40
0.2878951
50
307.0241536
51
308.5578354
0
ARC
8
DEFAULT_255_1_234
10
16.7010616
20
94.2598801
40
0.3342515
50
282.9362969
51
306.5646424
0
ARC
8
DEFAULT_255_1_234
10
16.6648914
20
94.4066108
40
0.4853615
50
271.1026298
51
283.2200835
0
ARC
8
DEFAULT_255_1_234
10
16.6585157
20
94.5307418
40
0.6096052
50
269.9919117
51
271.4772449
0
ARC
8
DEFAULT_255_1_234
10
16.6558913
20
94.4229436
40
0.5018135
50
259.0723564
51
270.289833
0
ARC
8
DEFAULT_255_1_234
10
16.6346645
20
94.3112271
40
0.388099
50
245.4963068
51
259.0227342
0
ARC
8
DEFAULT_255_1_234
10
16.6068601
20
94.2530615
40
0.3236422
50
228.9684658
51
245.7044727
0
ARC
8
DEFAULT_255_1_234
10
16.5803045
20
94.2203575
40
0.2815426
50
214.4011705
51
228.6759915
0
ARC
8
DEFAULT_255_1_234
10
16.5513785
20
94.204529
40
0.2487548
50
179.9705531
51
215.1572795
0
ARC
8
DEFAULT_255_1_234
10
16.6214385
20
94.2118806
40
0.1703809
50
182.4299387
51
203.0329699
0
ARC
8
DEFAULT_255_1_234
10
16.6030043
20
94.2062396
40
0.1512226
50
203.798802
51
232.548466
0
ARC
8
DEFAULT_255_1_234
10
16.6306564
20
94.2413826
40
0.1959374
50
232.3782728
51
256.3934612
0
ARC
8
DEFAULT_255_1_234
10
16.6536926
20
94.3303842
40
0.2878639
50
256.104506
51
268.4626716
0
ARC
8
DEFAULT_255_1_234
10
16.658341
20
94.4100487
40
0.3676329
50
268.0715632
51
270.0138206
0
ARC
8
DEFAULT_255_1_234
10
16.6601935
20
94.3828083
40
0.3403971
50
269.7031147
51
278.8341955
0
ARC
8
DEFAULT_255_1_234
10
16.6784028
20
94.2697876
40
0.2259217
50
278.6728789
51
292.8232582
0
ARC
8
DEFAULT_255_1_234
10
16.6984566
20
94.2196449
40
0.171929
50
293.1452328
51
303.6655899
0
ARC
8
DEFAULT_255_1_234
10
16.7249445
20
94.1820204
40
0.1259367
50
303.1248165
51
321.742847
0
ARC
8
DEFAULT_255_1_234
10
16.7435325
20
94.1657156
40
0.1012531
50
322.4748573
51
1.1291126
0
LINE
8
DEFAULT_255_2_778
10
10.5738396
20
96.4618073
11
9.3932396
21
96.4618073
0
LINE
8
DEFAULT_255_2_778
10
9.3932396
20
96.4618073
11
9.9837396
21
97.4844073
0
LINE
8
DEFAULT_255_2_778
10
9.9837396
20
97.4844073
11
11.1643396
21
97.4844073
0
LINE
8
DEFAULT_255_2_778
10
11.1643396
20
97.4844073
11
10.5738396
21
96.4618073
0
LINE
8
DEFAULT_255_2_778
10
10.5738396
20
96.4618073
11
10.5738396
21
96.4618073
0
LINE
8
DEFAULT_255_2_778
10
11.7546396
20
96.4618073
11
12.9354396
21
96.4618073
0
LINE
8
DEFAULT_255_2_778
10
12.9354396
20
96.4618073
11
12.3451396
21
97.4844073
0
LINE
8
DEFAULT_255_2_778
10
12.3451396
20
97.4844073
11
11.1643396
21
97.4844073
0
LINE
8
DEFAULT_255_2_778
10
11.1643396
20
97.4844073
11
11.7546396
21
96.4618073
0
LINE
8
DEFAULT_255_2_778
10
11.7546396
20
96.4618073
11
11.7546396
21
96.4618073
0
LINE
8
DEFAULT_255_2_778
10
11.7545823
20
98.5070146
11
11.1642823
21
99.5296146
0
LINE
8
DEFAULT_255_2_778
10
11.1642823
20
99.5296146
11
10.5737823
21
98.5070146
0
LINE
8
DEFAULT_255_2_778
10
10.5737823
20
98.5070146
11
11.1642823
21
97.4844146
0
LINE
8
DEFAULT_255_2_778
10
11.1642823
20
97.4844146
11
11.7545823
21
98.5070146
0
LINE
8
DEFAULT_255_2_778
10
11.7545823
20
98.5070146
11
11.7545823
21
98.5070146
0
ARC
8
DEFAULT_255_2_778
10
16.5183731
20
98.1532426
40
0.5650491
50
268.7543645
51
289.1417717
0
ARC
8
DEFAULT_255_2_778
10
16.606208
20
97.8980531
40
0.2951681
50
289.2776255
51
3.7648372
0
ARC
8
DEFAULT_255_2_778
10
16.3901618
20
97.9246085
40
0.5106278
50
359.1949826
51
0.0020862
0
ARC
8
DEFAULT_255_2_778
10
16.547449
20
97.9105832
40
0.1541914
50
280.2616216
51
358.5297855
0
ARC
8
DEFAULT_255_2_778
10
16.5080075
20
98.023155
40
0.2726346
50
269.5969454
51
284.2065679
0
ARC
8
DEFAULT_255_2_778
10
16.4981967
20
98.0075316
40
0.2571258
50
246.5290903
51
271.7590909
0
ARC
8
DEFAULT_255_2_778
10
16.4527148
20
97.8995009
40
0.1399248
50
188.1071678
51
245.9934684
0
ARC
8
DEFAULT_255_2_778
10
16.4829007
20
97.9064617
40
0.1708111
50
179.9445314
51
188.990814
0
ARC
8
DEFAULT_255_2_778
10
16.4924507
20
97.9132849
40
0.3763411
50
178.2272621
51
205.8283807
0
ARC
8
DEFAULT_255_2_778
10
16.4132476
20
97.8955833
40
0.2979176
50
209.4028057
51
263.0375728
0
ARC
8
DEFAULT_255_2_778
10
16.5005111
20
98.2702629
40
0.6816586
50
259.5722942
51
270.4689037
0
ARC
8
DEFAULT_255_2_778
10
17.411252
20
98.3264767
40
0.1217154
50
2.0482843
51
87.015299
0
ARC
8
DEFAULT_255_2_778
10
17.4060617
20
98.3308852
40
0.126828
50
353.0600847
51
359.9737428
0
ARC
8
DEFAULT_255_2_778
10
17.4110442
20
98.3277555
40
0.1215295
50
270.5739762
51
354.2410513
0
ARC
8
DEFAULT_255_2_778
10
17.4065059
20
98.3639297
40
0.1578027
50
269.9941256
51
272.0902921
0
ARC
8
DEFAULT_255_2_778
10
17.414084
20
97.9130295
40
0.1400686
50
358.2807293
51
95.6106825
0
ARC
8
DEFAULT_255_2_778
10
17.4103233
20
97.9091963
40
0.1437669
50
266.9962473
51
359.8528392
0
ARC
8
DEFAULT_255_2_778
10
17.4725249
20
97.9494988
40
0.3335288
50
268.2414507
51
302.0223478
0
ARC
8
DEFAULT_255_2_778
10
17.5091261
20
97.874183
40
0.2504234
50
304.0600275
51
2.0468005
0
ARC
8
DEFAULT_255_2_778
10
17.4832788
20
97.8808521
40
0.2761203
50
0.4720601
51
65.8403529
0
ARC
8
DEFAULT_255_2_778
10
17.5191655
20
97.9456061
40
0.2024466
50
67.606893
51
75.8693222
0
ARC
8
DEFAULT_255_2_778
10
17.5042026
20
98.353222
40
0.2208874
50
286.9473417
51
358.0074963
0
ARC
8
DEFAULT_255_2_778
10
17.4710866
20
98.3620045
40
0.2544031
50
356.2897886
51
0.0050857
0
ARC
8
DEFAULT_255_2_778
10
17.497262
20
98.3670946
40
0.2282839
50
358.7280137
51
81.8073164
0
ARC
8
DEFAULT_255_2_778
10
17.4216369
20
98.1156283
40
0.4895182
50
77.2355086
51
90.5088275
0
ARC
8
DEFAULT_255_2_778
10
17.5842742
20
97.1511263
40
0.130243
50
89.9974494
51
92.6776592
0
ARC
8
DEFAULT_255_2_778
10
17.5843316
20
97.1516872
40
0.129682
50
45.0880141
51
90.022782
0
ARC
8
DEFAULT_255_2_778
10
17.5844118
20
97.151719
40
0.1296029
50
0.001866
51
45.1031959
0
ARC
8
DEFAULT_255_2_778
10
17.5845123
20
97.1517202
40
0.1295026
50
357.4803735
51
0.0013544
0
ARC
8
DEFAULT_255_2_778
10
17.5901979
20
97.1478512
40
0.1237052
50
339.8672523
51
359.1550732
0
ARC
8
DEFAULT_255_2_778
10
17.5794513
20
97.1450079
40
0.1329691
50
272.0853006
51
342.6124646
0
ARC
8
DEFAULT_255_2_778
10
17.6596145
20
97.1832661
40
0.2575135
50
286.787355
51
290.6121696
0
ARC
8
DEFAULT_255_2_778
10
17.6689461
20
97.1689533
40
0.24086
50
289.7330405
51
342.3216972
0
ARC
8
DEFAULT_255_2_778
10
17.641261
20
97.1737954
40
0.268735
50
343.130572
51
0.3905272
0
ARC
8
DEFAULT_255_2_778
10
17.6578783
20
97.1911767
40
0.2525904
50
356.4706028
51
80.1788963
0
ARC
8
DEFAULT_255_2_778
10
17.5921649
20
96.9642163
40
0.4881286
50
77.1212301
51
90.4900821
0
ARC
8
DEFAULT_255_2_778
10
17.5166337
20
96.666536
40
0.1865405
50
50.1507009
51
92.9634648
0
ARC
8
DEFAULT_255_2_778
10
17.5301354
20
96.6948678
40
0.1563319
50
12.621233
51
47.2950617
0
ARC
8
DEFAULT_255_2_778
10
16.8485884
20
96.5619726
40
0.8506657
50
2.8173892
51
11.3253986
0
ARC
8
DEFAULT_255_2_778
10
-29.2295733
20
93.0656175
40
47.060992
50
4.3048394
51
4.3117143
0
ARC
8
DEFAULT_255_2_778
10
18.5500859
20
96.638084
40
0.8523717
50
182.6850102
51
191.2954256
0
ARC
8
DEFAULT_255_2_778
10
17.9656837
20
96.5317399
40
0.2586603
50
193.5512904
51
195.3825538
0
ARC
8
DEFAULT_255_2_778
10
19.3415679
20
96.7893916
40
1.4608773
50
182.5958701
51
192.9049706
0
ARC
8
DEFAULT_255_2_778
10
17.6207606
20
96.7177215
40
0.261487
50
1.2064311
51
30.4123358
0
ARC
8
DEFAULT_255_2_778
10
17.6663626
20
96.732776
40
0.2147766
50
33.1081154
51
71.7312197
0
LINE
8
DEFAULT_255_2_778
10
13.4657897
20
96.8973271
11
13.9385897
21
96.8973271
0
LINE
8
DEFAULT_255_2_778
10
13.9385897
20
96.8973271
11
13.9385897
21
97.0687271
0
LINE
8
DEFAULT_255_2_778
10
13.9385897
20
97.0687271
11
13.4657897
21
97.0687271
0
LINE
8
DEFAULT_255_2_778
10
13.4657897
20
97.0687271
11
13.4657897
21
97.2796271
0
LINE
8
DEFAULT_255_2_778
10
13.4657897
20
97.2796271
11
13.9977897
21
97.2796271
0
LINE
8
DEFAULT_255_2_778
10
13.9977897
20
97.2796271
11
13.9977897
21
97.4510271
0
LINE
8
DEFAULT_255_2_778
10
13.9977897
20
97.4510271
11
13.4657897
21
97.4510271
0
LINE
8
DEFAULT_255_2_778
10
13.4657897
20
97.4510271
11
13.2651897
21
97.4510271
0
LINE
8
DEFAULT_255_2_778
10
13.2651897
20
97.4510271
11
13.2651897
21
97.2796271
0
LINE
8
DEFAULT_255_2_778
10
13.2651897
20
97.2796271
11
13.2651897
21
96.6332271
0
LINE
8
DEFAULT_255_2_778
10
13.2651897
20
96.6332271
11
13.2651897
21
96.4617271
0
LINE
8
DEFAULT_255_2_778
10
13.2651897
20
96.4617271
11
13.4657897
21
96.4617271
0
LINE
8
DEFAULT_255_2_778
10
13.4657897
20
96.4617271
11
14.0118897
21
96.4617271
0
LINE
8
DEFAULT_255_2_778
10
14.0118897
20
96.4617271
11
14.0118897
21
96.6332271
0
LINE
8
DEFAULT_255_2_778
10
14.0118897
20
96.6332271
11
13.4657897
21
96.6332271
0
LINE
8
DEFAULT_255_2_778
10
13.4657897
20
96.6332271
11
13.4657897
21
96.8970271
0
LINE
8
DEFAULT_255_2_778
10
13.4657897
20
96.8970271
11
13.4657897
21
96.8973271
0
LINE
8
DEFAULT_255_2_778
10
13.4519897
20
98.3514271
11
13.6620897
21
97.6161271
0
LINE
8
DEFAULT_255_2_778
10
13.6620897
20
97.6161271
11
13.6704897
21
97.6161271
0
LINE
8
DEFAULT_255_2_778
10
13.6704897
20
97.6161271
11
13.8464897
21
97.6161271
0
LINE
8
DEFAULT_255_2_778
10
13.8464897
20
97.6161271
11
13.8546897
21
97.6161271
0
LINE
8
DEFAULT_255_2_778
10
13.8546897
20
97.6161271
11
14.0647897
21
98.3514271
0
LINE
8
DEFAULT_255_2_778
10
14.0647897
20
98.3514271
11
14.0647897
21
97.6161271
0
LINE
8
DEFAULT_255_2_778
10
14.0647897
20
97.6161271
11
14.2515897
21
97.6161271
0
LINE
8
DEFAULT_255_2_778
10
14.2515897
20
97.6161271
11
14.2515897
21
98.6054271
0
LINE
8
DEFAULT_255_2_778
10
14.2515897
20
98.6054271
11
14.1496897
21
98.6054271
0
LINE
8
DEFAULT_255_2_778
10
14.1496897
20
98.6054271
11
14.0615897
21
98.6054271
0
LINE
8
DEFAULT_255_2_778
10
14.0615897
20
98.6054271
11
13.9655897
21
98.6054271
0
LINE
8
DEFAULT_255_2_778
10
13.9655897
20
98.6054271
11
13.7583897
21
97.9111271
0
LINE
8
DEFAULT_255_2_778
10
13.7583897
20
97.9111271
11
13.5511897
21
98.6054271
0
LINE
8
DEFAULT_255_2_778
10
13.5511897
20
98.6054271
11
13.4551897
21
98.6054271
0
LINE
8
DEFAULT_255_2_778
10
13.4551897
20
98.6054271
11
13.3669897
21
98.6054271
0
LINE
8
DEFAULT_255_2_778
10
13.3669897
20
98.6054271
11
13.2651897
21
98.6054271
0
LINE
8
DEFAULT_255_2_778
10
13.2651897
20
98.6054271
11
13.2651897
21
97.6161271
0
LINE
8
DEFAULT_255_2_778
10
13.2651897
20
97.6161271
11
13.4519897
21
97.6161271
0
LINE
8
DEFAULT_255_2_778
10
13.4519897
20
97.6161271
11
13.4519897
21
98.3514271
0
LINE
8
DEFAULT_255_2_778
10
13.4519897
20
98.3514271
11
13.4519897
21
98.3514271
0
LINE
8
DEFAULT_255_2_778
10
18.0056897
20
98.6054271
11
17.8064897
21
98.6054271
0
LINE
8
DEFAULT_255_2_778
10
17.8064897
20
98.6054271
11
17.8064897
21
97.6161271
0
LINE
8
DEFAULT_255_2_778
10
17.8064897
20
97.6161271
11
18.0056897
21
97.6161271
0
LINE
8
DEFAULT_255_2_778
10
18.0056897
20
97.6161271
11
18.0056897
21
98.6054271
0
LINE
8
DEFAULT_255_2_778
10
18.0056897
20
98.6054271
11
18.0056897
21
98.6054271
0
LINE
8
DEFAULT_255_2_778
10
18.1681897
20
97.4513271
11
17.9689897
21
97.4513271
0
LINE
8
DEFAULT_255_2_778
10
17.9689897
20
97.4513271
11
17.9689897
21
96.4620271
0
LINE
8
DEFAULT_255_2_778
10
17.9689897
20
96.4620271
11
18.1681897
21
96.4620271
0
LINE
8
DEFAULT_255_2_778
10
18.1681897
20
96.4620271
11
18.1681897
21
97.4513271
0
LINE
8
DEFAULT_255_2_778
10
18.1681897
20
97.4513271
11
18.1681897
21
97.4513271
0
LINE
8
DEFAULT_255_2_778
10
19.9765897
20
98.6054271
11
19.7773897
21
98.6054271
0
LINE
8
DEFAULT_255_2_778
10
19.7773897
20
98.6054271
11
19.7773897
21
97.6161271
0
LINE
8
DEFAULT_255_2_778
10
19.7773897
20
97.6161271
11
19.9765897
21
97.6161271
0
LINE
8
DEFAULT_255_2_778
10
19.9765897
20
97.6161271
11
19.9765897
21
98.6054271
0
LINE
8
DEFAULT_255_2_778
10
19.9765897
20
98.6054271
11
19.9765897
21
98.6054271
0
LINE
8
DEFAULT_255_2_778
10
14.5298897
20
98.6054271
11
14.3306897
21
98.6054271
0
LINE
8
DEFAULT_255_2_778
10
14.3306897
20
98.6054271
11
14.3306897
21
97.6161271
0
LINE
8
DEFAULT_255_2_778
10
14.3306897
20
97.6161271
11
14.5298897
21
97.6161271
0
LINE
8
DEFAULT_255_2_778
10
14.5298897
20
97.6161271
11
14.5298897
21
98.6054271
0
LINE
8
DEFAULT_255_2_778
10
14.5298897
20
98.6054271
11
14.5298897
21
98.6054271
0
LINE
8
DEFAULT_255_2_778
10
19.4989897
20
98.2194271
11
19.1029897
21
98.2194271
0
LINE
8
DEFAULT_255_2_778
10
19.1029897
20
98.2194271
11
19.1029897
21
98.6051271
0
LINE
8
DEFAULT_255_2_778
10
19.1029897
20
98.6051271
11
18.9068897
21
98.6051271
0
LINE
8
DEFAULT_255_2_778
10
18.9068897
20
98.6051271
11
18.9068897
21
97.6161271
0
LINE
8
DEFAULT_255_2_778
10
18.9068897
20
97.6161271
11
19.1029897
21
97.6161271
0
LINE
8
DEFAULT_255_2_778
10
19.1029897
20
97.6161271
11
19.1029897
21
98.0479271
0
LINE
8
DEFAULT_255_2_778
10
19.1029897
20
98.0479271
11
19.4989897
21
98.0479271
0
LINE
8
DEFAULT_255_2_778
10
19.4989897
20
98.0479271
11
19.4989897
21
97.6161271
0
LINE
8
DEFAULT_255_2_778
10
19.4989897
20
97.6161271
11
19.6950897
21
97.6161271
0
LINE
8
DEFAULT_255_2_778
10
19.6950897
20
97.6161271
11
19.6950897
21
98.6051271
0
LINE
8
DEFAULT_255_2_778
10
19.6950897
20
98.6051271
11
19.4989897
21
98.6051271
0
LINE
8
DEFAULT_255_2_778
10
19.4989897
20
98.6051271
11
19.4989897
21
98.2194271
0
LINE
8
DEFAULT_255_2_778
10
19.4989897
20
98.2194271
11
19.4989897
21
98.2194271
0
LINE
8
DEFAULT_255_2_778
10
14.8246897
20
97.6161271
11
15.0280897
21
97.6161271
0
LINE
8
DEFAULT_255_2_778
10
15.0280897
20
97.6161271
11
15.0280897
21
98.4340271
0
LINE
8
DEFAULT_255_2_778
10
15.0280897
20
98.4340271
11
15.2696897
21
98.4340271
0
LINE
8
DEFAULT_255_2_778
10
15.2696897
20
98.4340271
11
15.2696897
21
98.6054271
0
LINE
8
DEFAULT_255_2_778
10
15.2696897
20
98.6054271
11
15.0280897
21
98.6054271
0
LINE
8
DEFAULT_255_2_778
10
15.0280897
20
98.6054271
11
14.8246897
21
98.6054271
0
LINE
8
DEFAULT_255_2_778
10
14.8246897
20
98.6054271
11
14.5830897
21
98.6054271
0
LINE
8
DEFAULT_255_2_778
10
14.5830897
20
98.6054271
11
14.5830897
21
98.4340271
0
LINE
8
DEFAULT_255_2_778
10
14.5830897
20
98.4340271
11
14.8246897
21
98.4340271
0
LINE
8
DEFAULT_255_2_778
10
14.8246897
20
98.4340271
11
14.8246897
21
97.6161271
0
LINE
8
DEFAULT_255_2_778
10
14.8246897
20
97.6161271
11
14.8246897
21
97.6161271
0
LINE
8
DEFAULT_255_2_778
10
16.6422897
20
96.4620271
11
16.8454897
21
96.4620271
0
LINE
8
DEFAULT_255_2_778
10
16.8454897
20
96.4620271
11
16.8454897
21
97.2798271
0
LINE
8
DEFAULT_255_2_778
10
16.8454897
20
97.2798271
11
17.0873897
21
97.2798271
0
LINE
8
DEFAULT_255_2_778
10
17.0873897
20
97.2798271
11
17.0873897
21
97.4516271
0
LINE
8
DEFAULT_255_2_778
10
17.0873897
20
97.4516271
11
16.8454897
21
97.4516271
0
LINE
8
DEFAULT_255_2_778
10
16.8454897
20
97.4516271
11
16.6422897
21
97.4516271
0
LINE
8
DEFAULT_255_2_778
10
16.6422897
20
97.4516271
11
16.4004897
21
97.4516271
0
LINE
8
DEFAULT_255_2_778
10
16.4004897
20
97.4516271
11
16.4004897
21
97.2798271
0
LINE
8
DEFAULT_255_2_778
10
16.4004897
20
97.2798271
11
16.6422897
21
97.2798271
0
LINE
8
DEFAULT_255_2_778
10
16.6422897
20
97.2798271
11
16.6422897
21
96.4620271
0
LINE
8
DEFAULT_255_2_778
10
16.6422897
20
96.4620271
11
16.6422897
21
96.4620271
0
LINE
8
DEFAULT_255_2_778
10
16.9007897
20
97.9246271
11
16.9007897
21
98.6051271
0
LINE
8
DEFAULT_255_2_778
10
16.9007897
20
98.6051271
11
16.7015897
21
98.6051271
0
LINE
8
DEFAULT_255_2_778
10
16.7015897
20
98.6051271
11
16.7015897
21
97.9066271
0
LINE
8
DEFAULT_255_2_778
10
16.3120897
20
97.9066271
11
16.3120897
21
98.6051271
0
LINE
8
DEFAULT_255_2_778
10
16.3120897
20
98.6051271
11
16.1162897
21
98.6051271
0
LINE
8
DEFAULT_255_2_778
10
16.1162897
20
98.6051271
11
16.1162897
21
97.9249271
0
LINE
8
DEFAULT_255_2_778
10
15.0000897
20
96.8973271
11
15.4730897
21
96.8973271
0
LINE
8
DEFAULT_255_2_778
10
15.4730897
20
96.8973271
11
15.4730897
21
97.0687271
0
LINE
8
DEFAULT_255_2_778
10
15.4730897
20
97.0687271
11
15.0000897
21
97.0687271
0
LINE
8
DEFAULT_255_2_778
10
15.0000897
20
97.0687271
11
15.0000897
21
97.2796271
0
LINE
8
DEFAULT_255_2_778
10
15.0000897
20
97.2796271
11
15.5320897
21
97.2796271
0
LINE
8
DEFAULT_255_2_778
10
15.5320897
20
97.2796271
11
15.5320897
21
97.4510271
0
LINE
8
DEFAULT_255_2_778
10
15.5320897
20
97.4510271
11
15.0000897
21
97.4510271
0
LINE
8
DEFAULT_255_2_778
10
15.0000897
20
97.4510271
11
14.7997897
21
97.4510271
0
LINE
8
DEFAULT_255_2_778
10
14.7997897
20
97.4510271
11
14.7997897
21
97.2796271
0
LINE
8
DEFAULT_255_2_778
10
14.7997897
20
97.2796271
11
14.7997897
21
96.6332271
0
LINE
8
DEFAULT_255_2_778
10
14.7997897
20
96.6332271
11
14.7997897
21
96.4617271
0
LINE
8
DEFAULT_255_2_778
10
14.7997897
20
96.4617271
11
15.0000897
21
96.4617271
0
LINE
8
DEFAULT_255_2_778
10
15.0000897
20
96.4617271
11
15.5461897
21
96.4617271
0
LINE
8
DEFAULT_255_2_778
10
15.5461897
20
96.4617271
11
15.5461897
21
96.6332271
0
LINE
8
DEFAULT_255_2_778
10
15.5461897
20
96.6332271
11
15.0000897
21
96.6332271
0
LINE
8
DEFAULT_255_2_778
10
15.0000897
20
96.6332271
11
15.0000897
21
96.8970271
0
LINE
8
DEFAULT_255_2_778
10
15.0000897
20
96.8970271
11
15.0000897
21
96.8973271
0
LINE
8
DEFAULT_255_2_778
10
17.4064897
20
98.2061271
11
17.1690897
21
98.2061271
0
LINE
8
DEFAULT_255_2_778
10
17.1690897
20
98.2061271
11
17.1690897
21
98.4477271
0
LINE
8
DEFAULT_255_2_778
10
17.1690897
20
98.4477271
11
17.4175897
21
98.4477271
0
LINE
8
DEFAULT_255_2_778
10
17.4175897
20
98.4477271
11
17.4175897
21
98.4480271
0
LINE
8
DEFAULT_255_2_778
10
17.4027897
20
97.7653271
11
17.1690897
21
97.7653271
0
LINE
8
DEFAULT_255_2_778
10
17.1690897
20
97.7653271
11
17.1690897
21
98.0524271
0
LINE
8
DEFAULT_255_2_778
10
17.1690897
20
98.0524271
11
17.4003897
21
98.0524271
0
LINE
8
DEFAULT_255_2_778
10
17.1767897
20
97.6161271
11
17.4622897
21
97.6161271
0
LINE
8
DEFAULT_255_2_778
10
17.4172897
20
98.6051271
11
17.1770897
21
98.6051271
0
LINE
8
DEFAULT_255_2_778
10
17.1770897
20
98.6051271
11
16.9722897
21
98.6051271
0
LINE
8
DEFAULT_255_2_778
10
16.9722897
20
98.6051271
11
16.9711897
21
98.6051271
0
LINE
8
DEFAULT_255_2_778
10
16.9711897
20
98.6051271
11
16.9711897
21
97.6161271
0
LINE
8
DEFAULT_255_2_778
10
16.9711897
20
97.6161271
11
16.9722897
21
97.6161271
0
LINE
8
DEFAULT_255_2_778
10
16.9722897
20
97.6161271
11
17.1770897
21
97.6161271
0
LINE
8
DEFAULT_255_2_778
10
17.1770897
20
97.6161271
11
17.1767897
21
97.6161271
0
LINE
8
DEFAULT_255_2_778
10
17.3368897
20
97.0118271
11
17.3368897
21
97.2812271
0
LINE
8
DEFAULT_255_2_778
10
17.3368897
20
97.2812271
11
17.5781897
21
97.2812271
0
LINE
8
DEFAULT_255_2_778
10
17.5842897
20
97.0121271
11
17.3370897
21
97.0121271
0
LINE
8
DEFAULT_255_2_778
10
17.3370897
20
97.0121271
11
17.3368897
21
97.0118271
0
LINE
8
DEFAULT_255_2_778
10
17.5879897
20
97.4523271
11
17.3368897
21
97.4523271
0
LINE
8
DEFAULT_255_2_778
10
17.3368897
20
97.4523271
11
17.1383897
21
97.4523271
0
LINE
8
DEFAULT_255_2_778
10
17.1383897
20
97.4523271
11
17.1362897
21
97.4523271
0
LINE
8
DEFAULT_255_2_778
10
17.1362897
20
97.4523271
11
17.1362897
21
96.4631271
0
LINE
8
DEFAULT_255_2_778
10
17.1362897
20
96.4631271
11
17.3368897
21
96.4631271
0
LINE
8
DEFAULT_255_2_778
10
17.3368897
20
96.4631271
11
17.3368897
21
96.8528271
0
LINE
8
DEFAULT_255_2_778
10
17.3368897
20
96.8528271
11
17.5069897
21
96.8528271
0
LINE
8
DEFAULT_255_2_778
10
17.7162897
20
96.4631271
11
17.9175897
21
96.4631271
0
LINE
8
DEFAULT_255_2_778
10
14.2763897
20
97.4513271
11
14.0760897
21
97.4513271
0
LINE
8
DEFAULT_255_2_778
10
14.0760897
20
97.4513271
11
14.0760897
21
96.6335271
0
LINE
8
DEFAULT_255_2_778
10
14.0760897
20
96.6335271
11
14.0760897
21
96.4620271
0
LINE
8
DEFAULT_255_2_778
10
14.0760897
20
96.4620271
11
14.2763897
21
96.4620271
0
LINE
8
DEFAULT_255_2_778
10
14.2763897
20
96.4620271
11
14.7428897
21
96.4620271
0
LINE
8
DEFAULT_255_2_778
10
14.7428897
20
96.4620271
11
14.7428897
21
96.6335271
0
LINE
8
DEFAULT_255_2_778
10
14.7428897
20
96.6335271
11
14.2763897
21
96.6335271
0
LINE
8
DEFAULT_255_2_778
10
14.2763897
20
96.6335271
11
14.2763897
21
97.4513271
0
LINE
8
DEFAULT_255_2_778
10
14.2763897
20
97.4513271
11
14.2763897
21
97.4513271
0
ARC
8
DEFAULT_255_2_778
10
15.4584271
20
97.0771969
40
0.9681224
50
72.4822103
51
81.3184214
0
ARC
8
DEFAULT_255_2_778
10
15.7160297
20
97.8538918
40
0.1503783
50
28.8883513
51
77.0092434
0
ARC
8
DEFAULT_255_2_778
10
15.7432379
20
97.8828196
40
0.113238
50
358.9917455
51
22.7117017
0
ARC
8
DEFAULT_255_2_778
10
15.7394861
20
97.8869918
40
0.1171346
50
289.2958104
51
356.9831562
0
ARC
8
DEFAULT_255_2_778
10
15.6668261
20
98.0444882
40
0.2902651
50
268.4665462
51
292.5613311
0
ARC
8
DEFAULT_255_2_778
10
15.6496856
20
97.9854179
40
0.2312808
50
236.4956947
51
272.3225735
0
ARC
8
DEFAULT_255_2_778
10
15.6106646
20
97.9171839
40
0.1529307
50
178.9722202
51
234.5742435
0
ARC
8
DEFAULT_255_2_778
10
15.5656113
20
97.9076079
40
0.3002058
50
177.6481608
51
245.5596397
0
ARC
8
DEFAULT_255_2_778
10
15.6409971
20
98.0798561
40
0.488217
50
245.8690375
51
267.169035
0
ARC
8
DEFAULT_255_2_778
10
15.6671503
20
98.3308916
40
0.7403648
50
266.1069867
51
270.0547972
0
ARC
8
DEFAULT_255_2_778
10
15.6772894
20
98.1621135
40
0.5716642
50
269.0547216
51
287.7147747
0
ARC
8
DEFAULT_255_2_778
10
15.7598889
20
97.9164091
40
0.3125017
50
286.995984
51
325.1221533
0
ARC
8
DEFAULT_255_2_778
10
15.7678294
20
97.899861
40
0.2966627
50
326.8673922
51
0.8625726
0
ARC
8
DEFAULT_255_2_778
10
15.7898286
20
97.9084409
40
0.2746606
50
359.1417932
51
76.9739731
0
ARC
8
DEFAULT_255_2_778
10
15.6705461
20
97.6275719
40
0.577616
50
71.7185727
51
79.1315439
0
ARC
8
DEFAULT_255_2_778
10
14.2492968
20
90.273967
40
8.0673056
50
79.0662148
51
79.6216572
0
ARC
8
DEFAULT_255_2_778
10
16.4356585
20
102.1516581
40
4.0099443
50
259.1227669
51
259.4665204
0
ARC
8
DEFAULT_255_2_778
10
15.7836732
20
98.8566142
40
0.6513291
50
249.9945768
51
260.7485895
0
ARC
8
DEFAULT_255_2_778
10
15.5880401
20
98.3455999
40
0.1046098
50
178.6705173
51
254.9333545
0
ARC
8
DEFAULT_255_2_778
10
15.6049957
20
98.3421688
40
0.1216785
50
93.288632
51
177.2403935
0
ARC
8
DEFAULT_255_2_778
10
15.6585677
20
98.1551752
40
0.3143588
50
89.6189463
51
101.1057977
0
ARC
8
DEFAULT_255_2_778
10
15.6722733
20
98.267016
40
0.2028439
50
53.5634072
51
93.2825843
0
ARC
8
DEFAULT_255_2_778
10
15.7018505
20
98.3252144
40
0.1388739
50
357.1985816
51
49.1152298
0
ARC
8
DEFAULT_255_2_778
10
15.7254907
20
98.3184274
40
0.3087677
50
359.9999335
51
2.3703878
0
ARC
8
DEFAULT_255_2_778
10
15.7353555
20
98.3199337
40
0.298851
50
2.1600756
51
60.1092229
0
ARC
8
DEFAULT_255_2_778
10
15.6766212
20
98.2133133
40
0.4205645
50
60.4106856
51
86.1444419
0
ARC
8
DEFAULT_255_2_778
10
15.6536151
20
98.0366228
40
0.5985046
50
85.0843314
51
90.0628677
0
ARC
8
DEFAULT_255_2_778
10
15.6529718
20
98.1600466
40
0.4750804
50
90.001616
51
92.2300394
0
ARC
8
DEFAULT_255_2_778
10
15.6281193
20
98.265187
40
0.3696351
50
89.0131319
51
149.6364996
0
ARC
8
DEFAULT_255_2_778
10
15.5505461
20
98.3374055
40
0.2671974
50
154.5962367
51
180.4885883
0
ARC
8
DEFAULT_255_2_778
10
15.5651524
20
98.335884
40
0.281795
50
180.1539064
51
255.1120325
0
ARC
8
DEFAULT_255_2_778
10
15.7094242
20
98.658732
40
0.6333958
50
249.9962237
51
260.4976723
0
ARC
8
DEFAULT_255_2_778
10
18.2470963
20
97.0783351
40
0.967002
50
72.4685023
51
81.3064395
0
ARC
8
DEFAULT_255_2_778
10
18.5045397
20
97.853927
40
0.1503535
50
28.8782248
51
76.9904304
0
ARC
8
DEFAULT_255_2_778
10
18.5317197
20
97.8828189
40
0.1132561
50
358.9922779
51
22.7082666
0
ARC
8
DEFAULT_255_2_778
10
18.5280402
20
97.8869088
40
0.1170763
50
289.2761556
51
357.0223042
0
ARC
8
DEFAULT_255_2_778
10
18.4553612
20
98.0447836
40
0.2905613
50
268.4611814
51
292.5289055
0
ARC
8
DEFAULT_255_2_778
10
18.4381801
20
97.9863175
40
0.2321799
50
236.6698634
51
272.3149402
0
ARC
8
DEFAULT_255_2_778
10
18.39878
20
97.9171762
40
0.1528464
50
178.9687581
51
234.7686008
0
ARC
8
DEFAULT_255_2_778
10
18.3540113
20
97.9076079
40
0.3002058
50
177.6481608
51
245.5596397
0
ARC
8
DEFAULT_255_2_778
10
18.4293971
20
98.0798561
40
0.488217
50
245.8690375
51
267.169035
0
ARC
8
DEFAULT_255_2_778
10
18.4555503
20
98.3308916
40
0.7403648
50
266.1069867
51
270.0547972
0
ARC
8
DEFAULT_255_2_778
10
18.4656836
20
98.1627451
40
0.5722957
50
269.0563423
51
287.7048702
0
ARC
8
DEFAULT_255_2_778
10
18.548344
20
97.9167682
40
0.312856
50
286.9832601
51
325.0871916
0
ARC
8
DEFAULT_255_2_778
10
18.5567708
20
97.8998856
40
0.2964208
50
326.8311942
51
0.8585267
0
ARC
8
DEFAULT_255_2_778
10
18.5785756
20
97.9085282
40
0.2746149
50
359.1234265
51
76.9343785
0
ARC
8
DEFAULT_255_2_778
10
18.4596421
20
97.6286965
40
0.5764934
50
71.6999697
51
79.1198353
0
ARC
8
DEFAULT_255_2_778
10
17.0173657
20
90.1519392
40
8.1910887
50
79.0843627
51
79.6321368
0
ARC
8
DEFAULT_255_2_778
10
19.2200266
20
102.1314177
40
3.9892176
50
259.1314419
51
259.4772924
0
ARC
8
DEFAULT_255_2_778
10
18.5723251
20
98.8560131
40
0.6507003
50
249.9919323
51
260.7592458
0
ARC
8
DEFAULT_255_2_778
10
18.376901
20
98.3455546
40
0.1045718
50
178.6452075
51
254.9151907
0
ARC
8
DEFAULT_255_2_778
10
18.3939581
20
98.3421016
40
0.121744
50
93.2745253
51
177.21023
0
ARC
8
DEFAULT_255_2_778
10
18.4475726
20
98.1550052
40
0.3145287
50
89.6200387
51
101.1027534
0
ARC
8
DEFAULT_255_2_778
10
18.4613489
20
98.2683453
40
0.2015212
50
53.1490002
51
93.3256649
0
ARC
8
DEFAULT_255_2_778
10
18.4902753
20
98.3251519
40
0.1391457
50
357.2298288
51
48.6469881
0
ARC
8
DEFAULT_255_2_778
10
18.5137232
20
98.3184226
40
0.3092351
50
0.0008291
51
2.3676985
0
ARC
8
DEFAULT_255_2_778
10
18.5240744
20
98.3199868
40
0.2988304
50
2.1500394
51
60.0956838
0
ARC
8
DEFAULT_255_2_778
10
18.4654399
20
98.2134909
40
0.4203859
50
60.40452
51
86.1455285
0
ARC
8
DEFAULT_255_2_778
10
18.4424157
20
98.0366686
40
0.5984588
50
85.0841409
51
90.0629301
0
ARC
8
DEFAULT_255_2_778
10
18.4417778
20
98.1596392
40
0.4754878
50
90.0023409
51
92.3231329
0
ARC
8
DEFAULT_255_2_778
10
18.4167555
20
98.2649604
40
0.3698206
50
89.1093915
51
149.6400816
0
ARC
8
DEFAULT_255_2_778
10
18.338761
20
98.3373917
40
0.2669122
50
154.6001925
51
180.486137
0
ARC
8
DEFAULT_255_2_778
10
18.3537607
20
98.3360152
40
0.2819037
50
180.1805176
51
255.132702
0
ARC
8
DEFAULT_255_2_778
10
18.4982264
20
98.6592784
40
0.6339516
50
250.0026216
51
260.4967164
0
ARC
8
DEFAULT_255_2_778
10
16.008917
20
96.8664283
40
0.2519711
50
190.2626864
51
267.3480013
0
ARC
8
DEFAULT_255_2_778
10
16.2443543
20
96.9577548
40
0.5022041
50
179.6723028
51
195.7380858
0
ARC
8
DEFAULT_255_2_778
10
16.1790511
20
96.9732671
40
0.4370755
50
148.7005643
51
181.6572045
0
ARC
8
DEFAULT_255_2_778
10
15.9957576
20
97.0833723
40
0.2232598
50
89.6148479
51
148.4074796
0
ARC
8
DEFAULT_255_2_778
10
16.0060936
20
97.105449
40
0.201372
50
41.9769772
51
92.5146611
0
ARC
8
DEFAULT_255_2_778
10
15.9522078
20
97.0677523
40
0.2667646
50
15.1848537
51
40.2549591
0
ARC
8
DEFAULT_255_2_778
10
16.028123
20
97.0780326
40
0.3935735
50
8.7091682
51
82.0550801
0
ARC
8
DEFAULT_255_2_778
10
15.9931241
20
96.9315871
40
0.543642
50
80.5350289
51
90.1544743
0
ARC
8
DEFAULT_255_2_778
10
15.9818804
20
97.0202192
40
0.4551129
50
88.7689246
51
119.6437418
0
ARC
8
DEFAULT_255_2_778
10
16.0077717
20
97.0239647
40
0.4653013
50
122.644121
51
173.3997839
0
ARC
8
DEFAULT_255_2_778
10
16.2711934
20
96.9596568
40
0.7351371
50
170.7798304
51
180.1348114
0
ARC
8
DEFAULT_255_2_778
10
16.1377257
20
96.9442615
40
0.6018225
50
178.6988735
51
210.5289552
0
ARC
8
DEFAULT_255_2_778
10
15.970325
20
96.8534953
40
0.4115783
50
211.4828222
51
265.8686737
0
ARC
8
DEFAULT_255_2_778
10
15.9909864
20
96.9782011
40
0.5375742
50
264.6297133
51
270.0503073
0
ARC
8
DEFAULT_255_2_778
10
16.0020995
20
96.9100749
40
0.4695684
50
268.7014824
51
300.1403067
0
ARC
8
DEFAULT_255_2_778
10
16.0350333
20
96.8316852
40
0.385394
50
301.7580058
51
353.77968
0
ARC
8
DEFAULT_255_2_778
10
16.0012256
20
96.8260219
40
0.2113379
50
268.8430278
51
350.1661143
0
ARC
8
DEFAULT_255_2_778
10
18.6896799
20
96.8663824
40
0.2519281
50
190.2538303
51
267.3332171
0
ARC
8
DEFAULT_255_2_778
10
18.9252249
20
96.9577581
40
0.5022746
50
179.672724
51
195.7362088
0
ARC
8
DEFAULT_255_2_778
10
18.8600432
20
96.9732917
40
0.4372682
50
148.7196987
51
181.6596982
0
ARC
8
DEFAULT_255_2_778
10
18.676443
20
97.0834906
40
0.2231415
50
89.6108896
51
148.4244661
0
ARC
8
DEFAULT_255_2_778
10
18.686876
20
97.105467
40
0.2013576
50
42.5913083
51
92.5383066
0
ARC
8
DEFAULT_255_2_778
10
18.6345542
20
97.0690973
40
0.2646316
50
15.0085433
51
40.7215892
0
ARC
8
DEFAULT_255_2_778
10
18.708623
20
97.0780326
40
0.3935735
50
8.7091682
51
82.0550801
0
ARC
8
DEFAULT_255_2_778
10
18.6736241
20
96.9315871
40
0.543642
50
80.5350289
51
90.1544743
0
ARC
8
DEFAULT_255_2_778
10
18.6623804
20
97.0202192
40
0.4551129
50
88.7689246
51
119.6437418
0
ARC
8
DEFAULT_255_2_778
10
18.6882717
20
97.0239647
40
0.4653013
50
122.644121
51
173.3997839
0
ARC
8
DEFAULT_255_2_778
10
18.9516934
20
96.9596568
40
0.7351371
50
170.7798304
51
180.1348114
0
ARC
8
DEFAULT_255_2_778
10
18.8177822
20
96.94432
40
0.6013778
50
178.7034849
51
210.5604279
0
ARC
8
DEFAULT_255_2_778
10
18.6511312
20
96.8538377
40
0.4119265
50
211.5090145
51
265.8592607
0
ARC
8
DEFAULT_255_2_778
10
18.6716883
20
96.9779521
40
0.5373252
50
264.628472
51
270.0501277
0
ARC
8
DEFAULT_255_2_778
10
18.682837
20
96.9098685
40
0.4693629
50
268.6963312
51
300.2191972
0
ARC
8
DEFAULT_255_2_778
10
18.7155684
20
96.8319124
40
0.3856821
50
301.8465101
51
353.7503927
0
ARC
8
DEFAULT_255_2_778
10
18.6820648
20
96.8258604
40
0.2111733
50
268.8857714
51
350.2028431
0
LINE
8
DEFAULT_255_2_778
10
15.4577584
20
97.9199271
11
15.2656584
21
97.9199271
0
LINE
8
DEFAULT_255_2_778
10
15.8405584
20
98.3184271
11
16.0342584
21
98.3184271
0
LINE
8
DEFAULT_255_2_778
10
18.2459584
20
97.9199271
11
18.0540584
21
97.9199271
0
LINE
8
DEFAULT_255_2_778
10
18.6292584
20
98.3184271
11
18.8229584
21
98.3184271
0
LINE
8
DEFAULT_255_2_778
10
16.2096584
20
97.1376271
11
16.4171584
21
97.1376271
0
LINE
8
DEFAULT_255_2_778
10
16.4181584
20
96.7899271
11
16.2094584
21
96.7899271
0
LINE
8
DEFAULT_255_2_778
10
18.8901584
20
97.1376271
11
19.0976584
21
97.1376271
0
LINE
8
DEFAULT_255_2_778
10
19.0989584
20
96.7899271
11
18.8901584
21
96.7899271
0
LINE
8
DEFAULT_255_2_778
10
18.6536335
20
50.1385492
11
18.6536335
21
21.0343492
0
LINE
8
DEFAULT_255_2_778
10
18.6536335
20
21.0343492
11
19.9765335
21
21.0343492
0
LINE
8
DEFAULT_255_2_778
10
9.3932335
20
76.5968492
11
10.7161335
21
76.5968492
0
LINE
8
DEFAULT_255_2_778
10
10.7161335
20
76.5968492
11
10.7161335
21
51.4614492
0
LINE
8
DEFAULT_255_2_778
10
9.3932834
20
51.4614333
11
12.0390834
21
51.4614333
0
LINE
8
DEFAULT_255_2_778
10
12.0390834
20
51.4614333
11
12.0390834
21
46.1697333
0
LINE
8
DEFAULT_255_2_778
10
12.0390834
20
46.1697333
11
9.3932834
21
46.1697333
0
LINE
8
DEFAULT_255_2_778
10
9.3932834
20
46.1697333
11
9.3932834
21
51.4614333
0
LINE
8
DEFAULT_255_2_778
10
10.187
20
46.6989666
11
10.187
21
50.9322666
0
LINE
8
DEFAULT_255_2_778
10
9.9224167
20
50.138575
11
10.1870167
21
50.932275
0
LINE
8
DEFAULT_255_2_778
10
10.1870167
20
50.932275
11
10.4516167
21
50.138575
0
LINE
8
DEFAULT_255_2_778
10
10.4516167
20
50.138575
11
9.9224167
21
50.138575
0
LINE
8
DEFAULT_255_2_778
10
11.2453
20
50.9322666
11
11.2453
21
46.6989666
0
LINE
8
DEFAULT_255_2_778
10
10.9807167
20
47.492675
11
11.2453167
21
46.698975
0
LINE
8
DEFAULT_255_2_778
10
11.2453167
20
46.698975
11
11.5099167
21
47.492675
0
LINE
8
DEFAULT_255_2_778
10
11.5099167
20
47.492675
11
10.9807167
21
47.492675
0
LINE
8
DEFAULT_255_2_778
10
10.7161335
20
46.1697991
11
10.7161335
21
21.0343991
0
LINE
8
DEFAULT_255_2_778
10
10.7161335
20
21.0343991
11
9.3932335
21
21.0343991
0
LINE
8
DEFAULT_255_2_778
10
19.9765335
20
84.5343991
11
18.6536335
21
84.5343991
0
LINE
8
DEFAULT_255_2_778
10
18.6536335
20
84.5343991
11
18.6536335
21
55.4301991
0
LINE
8
DEFAULT_255_2_778
10
17.3307834
20
55.4302333
11
19.9765834
21
55.4302333
0
LINE
8
DEFAULT_255_2_778
10
19.9765834
20
55.4302333
11
19.9765834
21
50.1385333
0
LINE
8
DEFAULT_255_2_778
10
19.9765834
20
50.1385333
11
17.3307834
21
50.1385333
0
LINE
8
DEFAULT_255_2_778
10
17.3307834
20
50.1385333
11
17.3307834
21
55.4302333
0
LINE
8
DEFAULT_255_2_778
10
18.1245
20
50.6677666
11
18.1245
21
54.9010666
0
LINE
8
DEFAULT_255_2_778
10
17.8599167
20
54.107375
11
18.1245167
21
54.901075
0
LINE
8
DEFAULT_255_2_778
10
18.1245167
20
54.901075
11
18.3891167
21
54.107375
0
LINE
8
DEFAULT_255_2_778
10
18.3891167
20
54.107375
11
17.8599167
21
54.107375
0
LINE
8
DEFAULT_255_2_778
10
19.1828
20
54.9010666
11
19.1828
21
50.6677666
0
LINE
8
DEFAULT_255_2_778
10
18.9182167
20
51.461475
11
19.1828167
21
50.667775
0
LINE
8
DEFAULT_255_2_778
10
19.1828167
20
50.667775
11
19.4474167
21
51.461475
0
LINE
8
DEFAULT_255_2_778
10
19.4474167
20
51.461475
11
18.9182167
21
51.461475
0
LINE
8
DEFAULT_255_1_234
10
4.2126489
20
93.1223211
11
4.2126489
21
92.0789983
0
LINE
8
DEFAULT_255_1_234
10
4.2126489
20
92.0789983
11
4.7668389
21
92.0789983
0
LINE
8
DEFAULT_255_1_234
10
4.7668389
20
92.0789983
11
4.7668389
21
91.9529
0
LINE
8
DEFAULT_255_1_234
10
4.7668389
20
91.9529
11
4.0576364
21
91.9529
0
LINE
8
DEFAULT_255_1_234
10
4.0576364
20
91.9529
11
4.0576364
21
93.1223211
0
LINE
8
DEFAULT_255_1_234
10
4.0576364
20
93.1223211
11
4.2126489
21
93.1223211
0
LINE
8
DEFAULT_255_1_234
10
5.0743482
20
5.222701
11
5.0743482
21
4.7938062
0
LINE
8
DEFAULT_255_1_234
10
4.1731872
20
5.1688884
11
4.1731872
21
5.2708915
0
LINE
8
DEFAULT_255_1_234
10
5.0743482
20
5.4668659
11
4.9201389
21
5.4668659
0
LINE
8
DEFAULT_255_1_234
10
4.3281998
20
5.2749073
11
4.3281998
21
5.1793296
0
LINE
8
DEFAULT_255_1_234
10
4.920942
20
4.8347681
11
4.920942
21
5.0974059
0
LINE
8
DEFAULT_255_1_234
10
4.920942
20
5.0974059
11
4.6502725
21
5.0974059
0
LINE
8
DEFAULT_255_1_234
10
4.6502725
20
5.0974059
11
4.6502725
21
5.222701
0
LINE
8
DEFAULT_255_1_234
10
4.6502725
20
5.222701
11
5.0743482
21
5.222701
0
ARC
8
DEFAULT_255_1_234
10
4.7911989
20
4.9931396
40
0.3462765
50
295.8437914
51
324.8549609
0
ARC
8
DEFAULT_255_1_234
10
4.7495956
20
5.0684567
40
0.4322211
50
291.5695085
51
296.4549398
0
ARC
8
DEFAULT_255_1_234
10
4.6985207
20
5.2049275
40
0.5779178
50
278.6622409
51
291.3045483
0
ARC
8
DEFAULT_255_1_234
10
4.6645699
20
5.4197408
40
0.7953952
50
270.020006
51
278.7494541
0
ARC
8
DEFAULT_255_1_234
10
4.6607623
20
5.5514036
40
0.927067
50
269.9969998
51
270.2524872
0
ARC
8
DEFAULT_255_1_234
10
4.6569336
20
5.1430589
40
0.5187361
50
253.5786322
51
270.4175299
0
ARC
8
DEFAULT_255_1_234
10
4.6395992
20
5.0759236
40
0.4494451
50
238.8203306
51
253.2788235
0
ARC
8
DEFAULT_255_1_234
10
4.6376365
20
5.0708231
40
0.4440665
50
206.7883783
51
238.6962764
0
ARC
8
DEFAULT_255_1_234
10
4.7150275
20
5.1172405
40
0.5341121
50
206.1129412
51
207.4916643
0
ARC
8
DEFAULT_255_1_234
10
4.774719
20
5.1426488
40
0.5989041
50
188.6921119
51
205.7821245
0
ARC
8
DEFAULT_255_1_234
10
4.9603552
20
5.174223
40
0.7871862
50
180.3882829
51
188.9219216
0
ARC
8
DEFAULT_255_1_234
10
5.0831366
20
5.2765464
40
0.909967
50
170.2024264
51
180.3560651
0
ARC
8
DEFAULT_255_1_234
10
4.7667884
20
5.3331237
40
0.5886083
50
154.2857445
51
170.3893044
0
ARC
8
DEFAULT_255_1_234
10
4.6386087
20
5.391795
40
0.4476743
50
139.8401567
51
153.9332699
0
ARC
8
DEFAULT_255_1_234
10
4.6026823
20
5.4205577
40
0.4016697
50
98.4190291
51
139.6707122
0
ARC
8
DEFAULT_255_1_234
10
4.6406341
20
5.2360328
40
0.5898566
50
89.7659205
51
99.4415478
0
ARC
8
DEFAULT_255_1_234
10
4.647159
20
5.2425844
40
0.5833147
50
78.0551672
51
90.4042112
0
ARC
8
DEFAULT_255_1_234
10
4.68761
20
5.4244644
40
0.3970055
50
54.6380464
51
78.3339173
0
ARC
8
DEFAULT_255_1_234
10
4.7066156
20
5.4564795
40
0.3599102
50
50.031736
51
54.1558201
0
ARC
8
DEFAULT_255_1_234
10
4.6958944
20
5.4468766
40
0.3741624
50
18.1092409
51
49.7180913
0
ARC
8
DEFAULT_255_1_234
10
4.5502144
20
5.3935089
40
0.5292424
50
7.9672797
51
18.6984571
0
ARC
8
DEFAULT_255_1_234
10
4.5652622
20
5.4058504
40
0.3600838
50
9.7557294
51
27.3215714
0
ARC
8
DEFAULT_255_1_234
10
4.6780094
20
5.4621912
40
0.2340608
50
27.7361077
51
84.5257964
0
ARC
8
DEFAULT_255_1_234
10
4.6452481
20
5.297864
40
0.4011215
50
82.106034
51
90.2001166
0
ARC
8
DEFAULT_255_1_234
10
4.6402698
20
5.3486215
40
0.3503799
50
89.4150119
51
105.5823402
0
ARC
8
DEFAULT_255_1_234
10
4.6145696
20
5.4421867
40
0.2533503
50
105.6678618
51
144.2648758
0
ARC
8
DEFAULT_255_1_234
10
4.7038951
20
5.3786289
40
0.3629787
50
144.3561283
51
162.8564086
0
ARC
8
DEFAULT_255_1_234
10
4.912286
20
5.3117017
40
0.5818441
50
162.6076014
51
173.6780284
0
ARC
8
DEFAULT_255_1_234
10
5.2184004
20
5.274489
40
0.8902007
50
173.4670142
51
179.9730753
0
ARC
8
DEFAULT_255_1_234
10
5.0275675
20
5.175126
40
0.6993804
50
179.6556203
51
190.0080463
0
ARC
8
DEFAULT_255_1_234
10
4.7959504
20
5.1326375
40
0.4639066
50
189.8116607
51
206.6796816
0
ARC
8
DEFAULT_255_1_234
10
4.7114656
20
5.0932503
40
0.3707421
50
207.1031645
51
217.7074368
0
ARC
8
DEFAULT_255_1_234
10
4.6480345
20
5.0380559
40
0.2868417
50
216.7345547
51
265.6812148
0
ARC
8
DEFAULT_255_1_234
10
4.6611136
20
5.1284855
40
0.3780509
50
264.7366618
51
270.0611241
0
ARC
8
DEFAULT_255_1_234
10
4.6634399
20
5.4125111
40
0.662079
50
269.8335834
51
276.0539546
0
ARC
8
DEFAULT_255_1_234
10
4.6841404
20
5.222356
40
0.4708016
50
275.9894168
51
284.4615085
0
ARC
8
DEFAULT_255_1_234
10
4.7039411
20
5.1390663
40
0.3852094
50
284.7034461
51
286.4953897
0
ARC
8
DEFAULT_255_1_234
10
4.7446424
20
5.0079965
40
0.2479842
50
286.0770838
51
304.2625829
0
ARC
8
DEFAULT_255_1_234
10
4.7579838
20
4.9861594
40
0.2224291
50
304.5891602
51
317.1073298
0
LINE
8
DEFAULT_255_1_234
10
6.2301154
20
5.8098211
11
6.2301154
21
4.6404
0
LINE
8
DEFAULT_255_1_234
10
6.2301154
20
4.6404
11
6.0751028
21
4.6404
0
LINE
8
DEFAULT_255_1_234
10
6.0751028
20
4.6404
11
5.4863764
21
5.541561
0
LINE
8
DEFAULT_255_1_234
10
5.4863764
20
5.541561
11
5.4863764
21
4.6404
0
LINE
8
DEFAULT_255_1_234
10
5.4863764
20
4.6404
11
5.3313639
21
4.6404
0
LINE
8
DEFAULT_255_1_234
10
5.3313639
20
4.6404
11
5.3313639
21
5.8098211
0
LINE
8
DEFAULT_255_1_234
10
5.3313639
20
5.8098211
11
5.4863764
21
5.8098211
0
LINE
8
DEFAULT_255_1_234
10
5.4863764
20
5.8098211
11
6.0767092
21
4.9046442
0
LINE
8
DEFAULT_255_1_234
10
6.0767092
20
4.9046442
11
6.0767092
21
5.8098211
0
LINE
8
DEFAULT_255_1_234
10
6.0767092
20
5.8098211
11
6.2301154
21
5.8098211
0
LINE
8
DEFAULT_255_1_234
10
6.8276767
20
4.6404
11
6.5039977
21
4.6404
0
LINE
8
DEFAULT_255_1_234
10
6.5039977
20
4.6404
11
6.5039977
21
5.8098211
0
LINE
8
DEFAULT_255_1_234
10
6.5039977
20
5.8098211
11
6.8341021
21
5.8098211
0
LINE
8
DEFAULT_255_1_234
10
7.3497397
20
5.2644661
11
7.3497397
21
5.1897709
0
LINE
8
DEFAULT_255_1_234
10
6.838118
20
5.6829196
11
6.658207
21
5.6829196
0
LINE
8
DEFAULT_255_1_234
10
6.658207
20
5.6829196
11
6.658207
21
4.7664983
0
LINE
8
DEFAULT_255_1_234
10
6.658207
20
4.7664983
11
6.8204481
21
4.7664983
0
LINE
8
DEFAULT_255_1_234
10
7.1971367
20
5.1929836
11
7.1971367
21
5.2612534
0
ARC
8
DEFAULT_255_1_234
10
6.8379963
20
5.2232894
40
0.5865446
50
75.4101064
51
90.3804066
0
ARC
8
DEFAULT_255_1_234
10
6.8609477
20
5.3189492
40
0.4881916
50
60.145586
51
75.1888407
0
ARC
8
DEFAULT_255_1_234
10
6.8768252
20
5.3466199
40
0.4562893
50
26.5253612
51
60.1450928
0
ARC
8
DEFAULT_255_1_234
10
6.7648002
20
5.2872158
40
0.5830602
50
7.4030428
51
26.8320788
0
ARC
8
DEFAULT_255_1_234
10
6.6053758
20
5.2623804
40
0.7443669
50
0.1605367
51
7.7176192
0
ARC
8
DEFAULT_255_1_234
10
6.6217663
20
5.1859434
40
0.7279835
50
348.7289388
51
0.3012466
0
ARC
8
DEFAULT_255_1_234
10
6.7874093
20
5.1530386
40
0.559104
50
333.0706509
51
348.7181832
0
ARC
8
DEFAULT_255_1_234
10
6.8840851
20
5.1005319
40
0.4491417
50
299.2531685
51
333.4571258
0
ARC
8
DEFAULT_255_1_234
10
6.8479991
20
5.1690828
40
0.5265881
50
278.107187
51
299.0339503
0
ARC
8
DEFAULT_255_1_234
10
6.822407
20
5.3198216
40
0.679442
50
270.4443897
51
278.4511052
0
ARC
8
DEFAULT_255_1_234
10
6.82449
20
5.2269213
40
0.4604407
50
269.4970433
51
284.0205042
0
ARC
8
DEFAULT_255_1_234
10
6.8600201
20
5.0903978
40
0.3193797
50
283.7700273
51
318.1555492
0
ARC
8
DEFAULT_255_1_234
10
6.8262959
20
5.1156367
40
0.3613588
50
318.7415601
51
343.6873628
0
ARC
8
DEFAULT_255_1_234
10
6.6458982
20
5.1719832
40
0.5503313
50
343.3325091
51
355.8548958
0
ARC
8
DEFAULT_255_1_234
10
6.4360666
20
5.1919319
40
0.7610708
50
355.4988528
51
0.0791727
0
ARC
8
DEFAULT_255_1_234
10
6.5143289
20
5.265478
40
0.6828208
50
359.6455037
51
9.8607896
0
ARC
8
DEFAULT_255_1_234
10
6.7503987
20
5.3081099
40
0.4429406
50
9.6571907
51
26.1932807
0
ARC
8
DEFAULT_255_1_234
10
6.8431975
20
5.3512118
40
0.3406537
50
26.5777228
51
40.1532208
0
ARC
8
DEFAULT_255_1_234
10
6.8687702
20
5.3711619
40
0.308246
50
40.3840491
51
80.1431104
0
ARC
8
DEFAULT_255_1_234
10
6.836082
20
5.2262333
40
0.4566909
50
79.2152159
51
89.7445637
0
LINE
8
DEFAULT_255_1_234
10
4.9989023
20
13.4091849
11
4.8438897
21
13.4091849
0
LINE
8
DEFAULT_255_1_234
10
4.1515539
20
12.9168394
11
4.3065665
21
12.9168394
0
ARC
8
DEFAULT_255_1_234
10
4.909771
20
14.3038768
40
1.252368
50
248.9199003
51
254.1439814
0
ARC
8
DEFAULT_255_1_234
10
4.7417205
20
13.8712234
40
0.788226
50
241.633709
51
249.0064503
0
ARC
8
DEFAULT_255_1_234
10
4.58886
20
13.5911317
40
0.4691427
50
230.498225
51
241.8087113
0
ARC
8
DEFAULT_255_1_234
10
4.5104174
20
13.4911906
40
0.3421437
50
227.4064532
51
229.9881192
0
ARC
8
DEFAULT_255_1_234
10
4.4616694
20
13.4436088
40
0.2741476
50
200.6781896
51
228.1763934
0
ARC
8
DEFAULT_255_1_234
10
4.4689005
20
13.4421077
40
0.2804109
50
179.5061581
51
199.8694617
0
ARC
8
DEFAULT_255_1_234
10
4.4679757
20
13.449521
40
0.2795204
50
132.4834203
51
181.0242172
0
ARC
8
DEFAULT_255_1_234
10
4.5275339
20
13.3932704
40
0.3612768
50
129.2532479
51
133.4242687
0
ARC
8
DEFAULT_255_1_234
10
4.5421789
20
13.3712965
40
0.3875675
50
101.98776
51
128.8742646
0
ARC
8
DEFAULT_255_1_234
10
4.5820399
20
13.1991741
40
0.5642249
50
89.5906553
51
102.3169264
0
ARC
8
DEFAULT_255_1_234
10
4.5890891
20
13.2310148
40
0.5323783
50
77.2360837
51
90.3248275
0
ARC
8
DEFAULT_255_1_234
10
4.6097971
20
13.32774
40
0.4334697
50
63.837784
51
77.0809408
0
ARC
8
DEFAULT_255_1_234
10
4.6375732
20
13.3794911
40
0.3747796
50
45.9864267
51
64.1607727
0
ARC
8
DEFAULT_255_1_234
10
4.6636614
20
13.4092866
40
0.3352302
50
32.2747395
51
45.6547121
0
ARC
8
DEFAULT_255_1_234
10
4.6703054
20
13.411188
40
0.328603
50
359.6507365
51
32.6130309
0
ARC
8
DEFAULT_255_1_234
10
4.576015
20
13.411666
40
0.2678863
50
359.469343
51
14.9832209
0
ARC
8
DEFAULT_255_1_234
10
4.6465212
20
13.4305539
40
0.1948938
50
14.9781179
51
48.2004265
0
ARC
8
DEFAULT_255_1_234
10
4.6300856
20
13.4098983
40
0.2212521
50
48.5927837
51
74.1241538
0
ARC
8
DEFAULT_255_1_234
10
4.5967346
20
13.2998248
40
0.3362561
50
73.7888341
51
86.6652678
0
ARC
8
DEFAULT_255_1_234
10
4.5864911
20
13.1790881
40
0.4573953
50
86.2640471
51
90.0526343
0
ARC
8
DEFAULT_255_1_234
10
4.5836624
20
13.2186192
40
0.4178709
50
89.6697524
51
99.2309573
0
ARC
8
DEFAULT_255_1_234
10
4.5594075
20
13.3630964
40
0.2713749
50
99.069534
51
113.7658566
0
ARC
8
DEFAULT_255_1_234
10
4.5320266
20
13.4276677
40
0.2012469
50
114.0401004
51
127.9850673
0
ARC
8
DEFAULT_255_1_234
10
4.507983
20
13.457273
40
0.1631167
50
127.7287463
51
176.7105154
0
ARC
8
DEFAULT_255_1_234
10
4.5758547
20
13.4471693
40
0.2315392
50
175.1779447
51
180.0581938
0
ARC
8
DEFAULT_255_1_234
10
4.4915394
20
13.4459428
40
0.1472271
50
179.6142195
51
228.1246017
0
ARC
8
DEFAULT_255_1_234
10
4.5357063
20
13.4868308
40
0.2072299
50
226.5779593
51
230.8800004
0
ARC
8
DEFAULT_255_1_234
10
4.5828141
20
13.5493636
40
0.2854818
50
231.4635071
51
241.9260842
0
ARC
8
DEFAULT_255_1_234
10
4.7025319
20
13.76968
40
0.53622
50
241.7178533
51
248.3259551
0
ARC
8
DEFAULT_255_1_234
10
4.8410691
20
14.1129064
40
0.9063478
50
248.2007737
51
252.4528373
0
ARC
8
DEFAULT_255_1_234
10
4.9614416
20
14.4850441
40
1.2974635
50
252.3391078
51
254.3469452
0
ARC
8
DEFAULT_255_1_234
10
4.2072119
20
11.7873148
40
1.5037162
50
71.0197183
51
74.4087047
0
ARC
8
DEFAULT_255_1_234
10
4.3766804
20
12.2765111
40
0.9859993
50
66.1847285
51
71.086374
0
ARC
8
DEFAULT_255_1_234
10
4.5323116
20
12.62692
40
0.6025855
50
59.3536294
51
66.2691831
0
ARC
8
DEFAULT_255_1_234
10
4.6211769
20
12.7772609
40
0.4279449
50
49.1020879
51
59.3293958
0
ARC
8
DEFAULT_255_1_234
10
4.7030509
20
12.8705834
40
0.3038015
50
32.7919921
51
49.2505539
0
ARC
8
DEFAULT_255_1_234
10
4.7351599
20
12.8934191
40
0.264448
50
31.1181161
51
32.4005348
0
ARC
8
DEFAULT_255_1_234
10
4.7263136
20
12.8898779
40
0.2738556
50
8.1116974
51
30.7958831
0
ARC
8
DEFAULT_255_1_234
10
4.6452804
20
12.8760753
40
0.3560327
50
359.8389159
51
8.4706516
0
ARC
8
DEFAULT_255_1_234
10
4.7078596
20
12.8712137
40
0.2934776
50
337.4731098
51
0.7537279
0
ARC
8
DEFAULT_255_1_234
10
4.7257291
20
12.8692387
40
0.2762607
50
307.5917067
51
336.4315538
0
ARC
8
DEFAULT_255_1_234
10
4.6797119
20
12.9205102
40
0.3449979
50
307.6551545
51
308.4529766
0
ARC
8
DEFAULT_255_1_234
10
4.6566838
20
12.956025
40
0.3871988
50
284.3734338
51
307.1424381
0
ARC
8
DEFAULT_255_1_234
10
4.6071668
20
13.1381932
40
0.5759636
50
272.4382747
51
284.646547
0
ARC
8
DEFAULT_255_1_234
10
4.5944876
20
13.3181893
40
0.7563528
50
269.9708387
51
272.8178037
0
ARC
8
DEFAULT_255_1_234
10
4.5901916
20
13.1143716
40
0.5525489
50
248.2707594
51
270.4055579
0
ARC
8
DEFAULT_255_1_234
10
4.5847657
20
13.0953192
40
0.5328452
50
246.1383403
51
248.0542782
0
ARC
8
DEFAULT_255_1_234
10
4.5429036
20
13.0073843
40
0.4355005
50
233.1670131
51
246.4950969
0
ARC
8
DEFAULT_255_1_234
10
4.4874941
20
12.9325812
40
0.3424126
50
215.3403242
51
233.0843104
0
ARC
8
DEFAULT_255_1_234
10
4.4602372
20
12.9127549
40
0.3087104
50
179.2419209
51
215.2648451
0
ARC
8
DEFAULT_255_1_234
10
4.5369966
20
12.9141666
40
0.2304457
50
179.335461
51
199.1045811
0
ARC
8
DEFAULT_255_1_234
10
4.5037643
20
12.9054766
40
0.1962176
50
199.8828939
51
232.7063202
0
ARC
8
DEFAULT_255_1_234
10
4.5509911
20
12.9648788
40
0.2720938
50
232.3738199
51
255.5136649
0
ARC
8
DEFAULT_255_1_234
10
4.5850778
20
13.0892835
40
0.4010747
50
255.2446292
51
267.5320849
0
ARC
8
DEFAULT_255_1_234
10
4.5938401
20
13.2125702
40
0.5246356
50
267.1557994
51
270.0286766
0
ARC
8
DEFAULT_255_1_234
10
4.5966173
20
13.168195
40
0.4802668
50
269.7000017
51
278.1660162
0
ARC
8
DEFAULT_255_1_234
10
4.6222178
20
12.9951515
40
0.3053425
50
278.0231263
51
290.625471
0
ARC
8
DEFAULT_255_1_234
10
4.6569865
20
12.9024025
40
0.206291
50
290.6619762
51
307.0370976
0
ARC
8
DEFAULT_255_1_234
10
4.6870254
20
12.8655504
40
0.1587906
50
306.3943566
51
355.3030547
0
ARC
8
DEFAULT_255_1_234
10
4.6358186
20
12.8732113
40
0.2104809
50
354.3660432
51
0.0698737
0
ARC
8
DEFAULT_255_1_234
10
4.6500531
20
12.8754617
40
0.1962563
50
359.417946
51
16.1971788
0
ARC
8
DEFAULT_255_1_234
10
4.6955841
20
12.8879418
40
0.149053
50
16.4723299
51
52.6262157
0
ARC
8
DEFAULT_255_1_234
10
4.6134895
20
12.7795433
40
0.2850296
50
52.7386432
51
62.4979148
0
ARC
8
DEFAULT_255_1_234
10
4.4749972
20
12.5189283
40
0.5801521
50
62.2515216
51
68.1220564
0
ARC
8
DEFAULT_255_1_234
10
4.3029883
20
12.0961872
40
1.0365451
50
68.0062803
51
71.8053402
0
ARC
8
DEFAULT_255_1_234
10
4.1234255
20
11.5576758
40
1.6042013
50
71.7183119
51
73.9258742
0
LINE
8
DEFAULT_255_1_234
10
5.6928445
20
13.7473211
11
5.205318
21
12.4775033
0
LINE
8
DEFAULT_255_1_234
10
5.205318
20
12.4775033
11
5.0776133
21
12.4775033
0
LINE
8
DEFAULT_255_1_234
10
5.0776133
20
12.4775033
11
5.565943
21
13.7473211
0
LINE
8
DEFAULT_255_1_234
10
5.565943
20
13.7473211
11
5.6928445
21
13.7473211
0
LINE
8
DEFAULT_255_1_234
10
6.6526372
20
13.4091849
11
6.4976247
21
13.4091849
0
LINE
8
DEFAULT_255_1_234
10
5.8052888
20
12.9168394
11
5.9603014
21
12.9168394
0
ARC
8
DEFAULT_255_1_234
10
6.5635059
20
14.3038768
40
1.252368
50
248.9199003
51
254.1439814
0
ARC
8
DEFAULT_255_1_234
10
6.3954554
20
13.8712234
40
0.788226
50
241.633709
51
249.0064503
0
ARC
8
DEFAULT_255_1_234
10
6.2425949
20
13.5911317
40
0.4691427
50
230.498225
51
241.8087113
0
ARC
8
DEFAULT_255_1_234
10
6.1641523
20
13.4911906
40
0.3421437
50
227.4064532
51
229.9881192
0
ARC
8
DEFAULT_255_1_234
10
6.1154044
20
13.4436088
40
0.2741476
50
200.6781896
51
228.1763934
0
ARC
8
DEFAULT_255_1_234
10
6.1226354
20
13.4421077
40
0.2804109
50
179.5061581
51
199.8694617
0
ARC
8
DEFAULT_255_1_234
10
6.1217106
20
13.449521
40
0.2795204
50
132.4834203
51
181.0242172
0
ARC
8
DEFAULT_255_1_234
10
6.1812688
20
13.3932704
40
0.3612768
50
129.2532479
51
133.4242687
0
ARC
8
DEFAULT_255_1_234
10
6.1959138
20
13.3712965
40
0.3875675
50
101.98776
51
128.8742646
0
ARC
8
DEFAULT_255_1_234
10
6.2357748
20
13.1991741
40
0.5642249
50
89.5906553
51
102.3169264
0
ARC
8
DEFAULT_255_1_234
10
6.2428241
20
13.2310148
40
0.5323783
50
77.2360837
51
90.3248275
0
ARC
8
DEFAULT_255_1_234
10
6.263532
20
13.32774
40
0.4334697
50
63.837784
51
77.0809408
0
ARC
8
DEFAULT_255_1_234
10
6.2913081
20
13.3794911
40
0.3747796
50
45.9864267
51
64.1607727
0
ARC
8
DEFAULT_255_1_234
10
6.3173963
20
13.4092866
40
0.3352302
50
32.2747395
51
45.6547121
0
ARC
8
DEFAULT_255_1_234
10
6.3240403
20
13.411188
40
0.328603
50
359.6507365
51
32.6130309
0
ARC
8
DEFAULT_255_1_234
10
6.2297499
20
13.411666
40
0.2678863
50
359.469343
51
14.9832209
0
ARC
8
DEFAULT_255_1_234
10
6.3002561
20
13.4305539
40
0.1948938
50
14.9781179
51
48.2004265
0
ARC
8
DEFAULT_255_1_234
10
6.2838205
20
13.4098983
40
0.2212521
50
48.5927837
51
74.1241538
0
ARC
8
DEFAULT_255_1_234
10
6.2504695
20
13.2998248
40
0.3362561
50
73.7888341
51
86.6652678
0
ARC
8
DEFAULT_255_1_234
10
6.240226
20
13.1790881
40
0.4573953
50
86.2640471
51
90.0526343
0
ARC
8
DEFAULT_255_1_234
10
6.2373973
20
13.2186192
40
0.4178709
50
89.6697524
51
99.2309573
0
ARC
8
DEFAULT_255_1_234
10
6.2131424
20
13.3630964
40
0.2713749
50
99.069534
51
113.7658566
0
ARC
8
DEFAULT_255_1_234
10
6.1857615
20
13.4276677
40
0.2012469
50
114.0401004
51
127.9850673
0
ARC
8
DEFAULT_255_1_234
10
6.1617179
20
13.457273
40
0.1631167
50
127.7287463
51
176.7105154
0
ARC
8
DEFAULT_255_1_234
10
6.2295896
20
13.4471693
40
0.2315392
50
175.1779447
51
180.0581938
0
ARC
8
DEFAULT_255_1_234
10
6.1452743
20
13.4459428
40
0.1472271
50
179.6142195
51
228.1246017
0
ARC
8
DEFAULT_255_1_234
10
6.1894412
20
13.4868308
40
0.2072299
50
226.5779593
51
230.8800004
0
ARC
8
DEFAULT_255_1_234
10
6.236549
20
13.5493636
40
0.2854818
50
231.4635071
51
241.9260842
0
ARC
8
DEFAULT_255_1_234
10
6.3562668
20
13.76968
40
0.53622
50
241.7178533
51
248.3259551
0
ARC
8
DEFAULT_255_1_234
10
6.494804
20
14.1129064
40
0.9063478
50
248.2007737
51
252.4528373
0
ARC
8
DEFAULT_255_1_234
10
6.6151765
20
14.4850441
40
1.2974635
50
252.3391078
51
254.3469452
0
ARC
8
DEFAULT_255_1_234
10
5.8609468
20
11.7873148
40
1.5037162
50
71.0197183
51
74.4087047
0
ARC
8
DEFAULT_255_1_234
10
6.0304153
20
12.2765111
40
0.9859993
50
66.1847285
51
71.086374
0
ARC
8
DEFAULT_255_1_234
10
6.1860465
20
12.62692
40
0.6025855
50
59.3536294
51
66.2691831
0
ARC
8
DEFAULT_255_1_234
10
6.2749118
20
12.7772609
40
0.4279449
50
49.1020879
51
59.3293958
0
ARC
8
DEFAULT_255_1_234
10
6.3567858
20
12.8705834
40
0.3038015
50
32.7919921
51
49.2505539
0
ARC
8
DEFAULT_255_1_234
10
6.3888948
20
12.8934191
40
0.264448
50
31.1181161
51
32.4005348
0
ARC
8
DEFAULT_255_1_234
10
6.3800485
20
12.8898779
40
0.2738556
50
8.1116974
51
30.7958831
0
ARC
8
DEFAULT_255_1_234
10
6.2990153
20
12.8760753
40
0.3560327
50
359.8389159
51
8.4706516
0
ARC
8
DEFAULT_255_1_234
10
6.3615945
20
12.8712137
40
0.2934776
50
337.4731098
51
0.7537279
0
ARC
8
DEFAULT_255_1_234
10
6.379464
20
12.8692387
40
0.2762607
50
307.5917067
51
336.4315538
0
ARC
8
DEFAULT_255_1_234
10
6.3334468
20
12.9205102
40
0.3449979
50
307.6551545
51
308.4529766
0
ARC
8
DEFAULT_255_1_234
10
6.3104187
20
12.956025
40
0.3871988
50
284.3734338
51
307.1424381
0
ARC
8
DEFAULT_255_1_234
10
6.2609017
20
13.1381932
40
0.5759636
50
272.4382747
51
284.646547
0
ARC
8
DEFAULT_255_1_234
10
6.2482226
20
13.3181893
40
0.7563528
50
269.9708387
51
272.8178037
0
ARC
8
DEFAULT_255_1_234
10
6.2439265
20
13.1143716
40
0.5525489
50
248.2707594
51
270.4055579
0
ARC
8
DEFAULT_255_1_234
10
6.2385006
20
13.0953192
40
0.5328452
50
246.1383403
51
248.0542782
0
ARC
8
DEFAULT_255_1_234
10
6.1966385
20
13.0073843
40
0.4355005
50
233.1670131
51
246.4950969
0
ARC
8
DEFAULT_255_1_234
10
6.141229
20
12.9325812
40
0.3424126
50
215.3403242
51
233.0843104
0
ARC
8
DEFAULT_255_1_234
10
6.1139721
20
12.9127549
40
0.3087104
50
179.2419209
51
215.2648451
0
ARC
8
DEFAULT_255_1_234
10
6.1907315
20
12.9141666
40
0.2304457
50
179.335461
51
199.1045811
0
ARC
8
DEFAULT_255_1_234
10
6.1574992
20
12.9054766
40
0.1962176
50
199.8828939
51
232.7063202
0
ARC
8
DEFAULT_255_1_234
10
6.204726
20
12.9648788
40
0.2720938
50
232.3738199
51
255.5136649
0
ARC
8
DEFAULT_255_1_234
10
6.2388127
20
13.0892835
40
0.4010747
50
255.2446292
51
267.5320849
0
ARC
8
DEFAULT_255_1_234
10
6.247575
20
13.2125702
40
0.5246356
50
267.1557994
51
270.0286766
0
ARC
8
DEFAULT_255_1_234
10
6.2503522
20
13.168195
40
0.4802668
50
269.7000017
51
278.1660162
0
ARC
8
DEFAULT_255_1_234
10
6.2759527
20
12.9951515
40
0.3053425
50
278.0231263
51
290.625471
0
ARC
8
DEFAULT_255_1_234
10
6.3107214
20
12.9024025
40
0.206291
50
290.6619762
51
307.0370976
0
ARC
8
DEFAULT_255_1_234
10
6.3407604
20
12.8655504
40
0.1587906
50
306.3943566
51
355.3030547
0
ARC
8
DEFAULT_255_1_234
10
6.2895535
20
12.8732113
40
0.2104809
50
354.3660432
51
0.0698737
0
ARC
8
DEFAULT_255_1_234
10
6.303788
20
12.8754617
40
0.1962563
50
359.417946
51
16.1971788
0
ARC
8
DEFAULT_255_1_234
10
6.3493191
20
12.8879418
40
0.149053
50
16.4723299
51
52.6262157
0
ARC
8
DEFAULT_255_1_234
10
6.2672244
20
12.7795433
40
0.2850296
50
52.7386432
51
62.4979148
0
ARC
8
DEFAULT_255_1_234
10
6.1287321
20
12.5189283
40
0.5801521
50
62.2515216
51
68.1220564
0
ARC
8
DEFAULT_255_1_234
10
5.9567232
20
12.0961872
40
1.0365451
50
68.0062803
51
71.8053402
0
ARC
8
DEFAULT_255_1_234
10
5.7771604
20
11.5576758
40
1.6042013
50
71.7183119
51
73.9258742
0
LINE
8
DEFAULT_255_1_234
10
4.3078299
20
21.6848211
11
4.5897439
21
21.2366501
0
LINE
8
DEFAULT_255_1_234
10
4.5897439
20
21.2366501
11
4.8700516
21
21.6848211
0
LINE
8
DEFAULT_255_1_234
10
4.8700516
20
21.6848211
11
5.0515689
21
21.6848211
0
LINE
8
DEFAULT_255_1_234
10
5.0515689
20
21.6848211
11
4.6821089
21
21.1049296
0
LINE
8
DEFAULT_255_1_234
10
4.6821089
20
21.1049296
11
5.0604038
21
20.5154
0
LINE
8
DEFAULT_255_1_234
10
5.0604038
20
20.5154
11
4.8772802
21
20.5154
0
LINE
8
DEFAULT_255_1_234
10
4.8772802
20
20.5154
11
4.5897439
21
20.9716027
0
LINE
8
DEFAULT_255_1_234
10
4.5897439
20
20.9716027
11
4.3006014
21
20.5154
0
LINE
8
DEFAULT_255_1_234
10
4.3006014
20
20.5154
11
4.1182809
21
20.5154
0
LINE
8
DEFAULT_255_1_234
10
4.1182809
20
20.5154
11
4.497379
21
21.1049296
0
LINE
8
DEFAULT_255_1_234
10
4.497379
20
21.1049296
11
4.1271158
21
21.6848211
0
LINE
8
DEFAULT_255_1_234
10
4.1271158
20
21.6848211
11
4.3078299
21
21.6848211
0
LINE
8
DEFAULT_255_1_234
10
5.9559426
20
21.6848211
11
5.9559426
21
21.601291
0
LINE
8
DEFAULT_255_1_234
10
5.9559426
20
21.601291
11
5.4716288
21
20.5154
0
LINE
8
DEFAULT_255_1_234
10
5.4716288
20
20.5154
11
5.3158131
21
20.5154
0
LINE
8
DEFAULT_255_1_234
10
5.3158131
20
20.5154
11
5.7985206
21
21.5627387
0
LINE
8
DEFAULT_255_1_234
10
5.7985206
20
21.5627387
11
5.1656196
21
21.5627387
0
LINE
8
DEFAULT_255_1_234
10
5.1656196
20
21.5627387
11
5.1656196
21
21.6848211
0
LINE
8
DEFAULT_255_1_234
10
5.1656196
20
21.6848211
11
5.9559426
21
21.6848211
0
LINE
8
DEFAULT_255_1_234
10
4.3078299
20
29.6223211
11
4.5897439
21
29.1741501
0
LINE
8
DEFAULT_255_1_234
10
4.5897439
20
29.1741501
11
4.8700516
21
29.6223211
0
LINE
8
DEFAULT_255_1_234
10
4.8700516
20
29.6223211
11
5.0515689
21
29.6223211
0
LINE
8
DEFAULT_255_1_234
10
5.0515689
20
29.6223211
11
4.6821089
21
29.0424296
0
LINE
8
DEFAULT_255_1_234
10
4.6821089
20
29.0424296
11
5.0604038
21
28.4529
0
LINE
8
DEFAULT_255_1_234
10
5.0604038
20
28.4529
11
4.8772802
21
28.4529
0
LINE
8
DEFAULT_255_1_234
10
4.8772802
20
28.4529
11
4.5897439
21
28.9091027
0
LINE
8
DEFAULT_255_1_234
10
4.5897439
20
28.9091027
11
4.3006014
21
28.4529
0
LINE
8
DEFAULT_255_1_234
10
4.3006014
20
28.4529
11
4.1182809
21
28.4529
0
LINE
8
DEFAULT_255_1_234
10
4.1182809
20
28.4529
11
4.497379
21
29.0424296
0
LINE
8
DEFAULT_255_1_234
10
4.497379
20
29.0424296
11
4.1271158
21
29.6223211
0
LINE
8
DEFAULT_255_1_234
10
4.1271158
20
29.6223211
11
4.3078299
21
29.6223211
0
LINE
8
DEFAULT_255_1_234
10
5.7575587
20
29.6231243
11
5.7840634
21
29.6231243
0
LINE
8
DEFAULT_255_1_234
10
5.7840634
20
29.6231243
11
5.7840634
21
29.497026
0
LINE
8
DEFAULT_255_1_234
10
5.7840634
20
29.497026
11
5.7567555
21
29.497026
0
LINE
8
DEFAULT_255_1_234
10
5.2097941
20
28.8978583
11
5.2097941
21
28.9548836
0
LINE
8
DEFAULT_255_1_234
10
5.3591845
20
28.9356075
11
5.3591845
21
28.8809917
0
ARC
8
DEFAULT_255_1_234
10
5.7619903
20
28.9972455
40
0.4998079
50
90.6001036
51
104.514704
0
ARC
8
DEFAULT_255_1_234
10
5.7231419
20
29.1417131
40
0.3502176
50
104.2855254
51
133.862935
0
ARC
8
DEFAULT_255_1_234
10
5.7395176
20
29.130883
40
0.3693984
50
134.5302688
51
161.6210873
0
ARC
8
DEFAULT_255_1_234
10
5.9048365
20
29.0725895
40
0.5446739
50
161.2849839
51
174.2076652
0
ARC
8
DEFAULT_255_1_234
10
6.0455302
20
29.0531787
40
0.6866274
50
173.7810589
51
174.9254635
0
ARC
8
DEFAULT_255_1_234
10
5.5905134
20
28.9148839
40
0.3033419
50
95.8330959
51
138.9954921
0
ARC
8
DEFAULT_255_1_234
10
5.612849
20
28.7870375
40
0.4328947
50
89.8753725
51
97.0544009
0
ARC
8
DEFAULT_255_1_234
10
5.6175956
20
28.8705748
40
0.3493769
50
71.6407809
51
90.6240094
0
ARC
8
DEFAULT_255_1_234
10
5.6326529
20
28.9260082
40
0.2920396
50
39.6367836
51
71.019018
0
ARC
8
DEFAULT_255_1_234
10
5.5690002
20
28.8709998
40
0.3761538
50
10.658731
51
39.9043955
0
ARC
8
DEFAULT_255_1_234
10
5.4142085
20
28.8373686
40
0.5345136
50
359.682601
51
11.132623
0
ARC
8
DEFAULT_255_1_234
10
5.4102216
20
28.830301
40
0.5385081
50
347.2486944
51
0.4369317
0
ARC
8
DEFAULT_255_1_234
10
5.5769693
20
28.7901807
40
0.3670249
50
318.1409698
51
347.6118597
0
ARC
8
DEFAULT_255_1_234
10
5.6094686
20
28.7634702
40
0.3250007
50
275.6342139
51
317.8248465
0
ARC
8
DEFAULT_255_1_234
10
5.5873797
20
28.8934219
40
0.4565864
50
269.8874292
51
276.7917694
0
ARC
8
DEFAULT_255_1_234
10
5.5818868
20
28.7908743
40
0.3540676
50
246.9140195
51
270.7437342
0
ARC
8
DEFAULT_255_1_234
10
5.5825258
20
28.7766384
40
0.3412781
50
218.1665114
51
245.878116
0
ARC
8
DEFAULT_255_1_234
10
5.6704719
20
28.8502279
40
0.455911
50
191.4115814
51
218.6077802
0
ARC
8
DEFAULT_255_1_234
10
5.8642808
20
28.8936833
40
0.6545001
50
179.6345085
51
191.7836486
0
ARC
8
DEFAULT_255_1_234
10
6.4225145
20
28.9615697
40
1.2127388
50
171.4525249
51
180.3158839
0
ARC
8
DEFAULT_255_1_234
10
5.9830021
20
29.0299608
40
0.7679464
50
157.9802646
51
171.6246686
0
ARC
8
DEFAULT_255_1_234
10
5.7616042
20
29.1182421
40
0.5296008
50
141.4298019
51
157.854097
0
ARC
8
DEFAULT_255_1_234
10
5.6974362
20
29.1636381
40
0.4511509
50
102.8715806
51
140.8564722
0
ARC
8
DEFAULT_255_1_234
10
5.7621978
20
28.9196552
40
0.7034845
50
90.3778349
51
103.5869322
0
ARC
8
DEFAULT_255_1_234
10
5.5883754
20
28.859173
40
0.2370698
50
89.8751008
51
126.2071704
0
ARC
8
DEFAULT_255_1_234
10
5.5929544
20
28.8437303
40
0.2522934
50
124.9745049
51
144.895901
0
ARC
8
DEFAULT_255_1_234
10
5.5753734
20
28.858056
40
0.2296779
50
145.2974905
51
160.2660252
0
ARC
8
DEFAULT_255_1_234
10
5.8826273
20
28.8778071
40
0.5234525
50
179.6514266
51
190.2855912
0
ARC
8
DEFAULT_255_1_234
10
5.713241
20
28.8458786
40
0.3510893
50
190.0945431
51
207.5098196
0
ARC
8
DEFAULT_255_1_234
10
5.656668
20
28.8189623
40
0.288489
50
207.9583163
51
216.3251085
0
ARC
8
DEFAULT_255_1_234
10
5.6226788
20
28.7910105
40
0.2445587
50
215.7661442
51
232.5456785
0
ARC
8
DEFAULT_255_1_234
10
5.5843771
20
28.7423482
40
0.1826382
50
232.8005391
51
270.6605633
0
ARC
8
DEFAULT_255_1_234
10
5.5889472
20
28.7787612
40
0.2190529
50
269.35537
51
288.4744281
0
ARC
8
DEFAULT_255_1_234
10
5.5982369
20
28.7438118
40
0.1829749
50
289.1833337
51
322.9683818
0
ARC
8
DEFAULT_255_1_234
10
5.5370891
20
28.7920391
40
0.2608399
50
322.6007884
51
346.5182367
0
ARC
8
DEFAULT_255_1_234
10
5.4213487
20
28.8215616
40
0.3802777
50
346.2582162
51
358.7741648
0
ARC
8
DEFAULT_255_1_234
10
5.3195156
20
28.8270965
40
0.4822176
50
358.3755224
51
0.0098023
0
ARC
8
DEFAULT_255_1_234
10
5.3951343
20
28.8298657
40
0.4066078
50
359.6214041
51
11.2839074
0
ARC
8
DEFAULT_255_1_234
10
5.522849
20
28.8565066
40
0.2761514
50
11.0482309
51
31.8146458
0
ARC
8
DEFAULT_255_1_234
10
5.5537533
20
28.8732584
40
0.2410679
50
32.3035391
51
38.082671
0
ARC
8
DEFAULT_255_1_234
10
5.5958193
20
28.9113662
40
0.1844966
50
36.825067
51
85.7415724
0
ARC
8
DEFAULT_255_1_234
10
5.5891026
20
28.8613301
40
0.2349122
50
85.0140713
51
90.0513278
0
LINE
8
DEFAULT_255_1_234
10
4.3078299
20
37.5598211
11
4.5897439
21
37.1116501
0
LINE
8
DEFAULT_255_1_234
10
4.5897439
20
37.1116501
11
4.8700516
21
37.5598211
0
LINE
8
DEFAULT_255_1_234
10
4.8700516
20
37.5598211
11
5.0515689
21
37.5598211
0
LINE
8
DEFAULT_255_1_234
10
5.0515689
20
37.5598211
11
4.6821089
21
36.9799296
0
LINE
8
DEFAULT_255_1_234
10
4.6821089
20
36.9799296
11
5.0604038
21
36.3904
0
LINE
8
DEFAULT_255_1_234
10
5.0604038
20
36.3904
11
4.8772802
21
36.3904
0
LINE
8
DEFAULT_255_1_234
10
4.8772802
20
36.3904
11
4.5897439
21
36.8466027
0
LINE
8
DEFAULT_255_1_234
10
4.5897439
20
36.8466027
11
4.3006014
21
36.3904
0
LINE
8
DEFAULT_255_1_234
10
4.3006014
20
36.3904
11
4.1182809
21
36.3904
0
LINE
8
DEFAULT_255_1_234
10
4.1182809
20
36.3904
11
4.497379
21
36.9799296
0
LINE
8
DEFAULT_255_1_234
10
4.497379
20
36.9799296
11
4.1271158
21
37.5598211
0
LINE
8
DEFAULT_255_1_234
10
4.1271158
20
37.5598211
11
4.3078299
21
37.5598211
0
LINE
8
DEFAULT_255_1_234
10
5.3880987
20
36.9461963
11
5.269229
21
36.9767169
0
LINE
8
DEFAULT_255_1_234
10
5.269229
20
36.9767169
11
5.3286639
21
37.5598211
0
LINE
8
DEFAULT_255_1_234
10
5.3286639
20
37.5598211
11
5.9278315
21
37.5598211
0
LINE
8
DEFAULT_255_1_234
10
5.9278315
20
37.5598211
11
5.9278315
21
37.4224784
0
LINE
8
DEFAULT_255_1_234
10
5.9278315
20
37.4224784
11
5.4547622
21
37.4224784
0
LINE
8
DEFAULT_255_1_234
10
5.4547622
20
37.4224784
11
5.4194225
21
37.1036184
0
LINE
8
DEFAULT_255_1_234
10
5.227464
20
36.6980156
11
5.3680194
21
36.6980156
0
LINE
8
DEFAULT_255_1_234
10
5.4274542
20
36.9783232
11
5.3880987
21
36.9461963
0
ARC
8
DEFAULT_255_1_234
10
5.6049009
20
36.785623
40
0.3681349
50
93.7182161
51
120.2538958
0
ARC
8
DEFAULT_255_1_234
10
5.6143272
20
36.7048394
40
0.449379
50
89.9660152
51
94.2496022
0
ARC
8
DEFAULT_255_1_234
10
5.6184006
20
36.7637549
40
0.390482
50
73.8043271
51
90.5585896
0
ARC
8
DEFAULT_255_1_234
10
5.6418903
20
36.8495602
40
0.3015334
50
41.3071453
51
73.5430202
0
ARC
8
DEFAULT_255_1_234
10
5.600273
20
36.8137324
40
0.3564457
50
13.5075983
51
41.2174222
0
ARC
8
DEFAULT_255_1_234
10
5.4360934
20
36.7707486
40
0.5261351
50
1.1331335
51
13.8829381
0
ARC
8
DEFAULT_255_1_234
10
5.2949303
20
36.7631665
40
0.6674378
50
359.9919444
51
1.544251
0
ARC
8
DEFAULT_255_1_234
10
5.4226129
20
36.759028
40
0.5397702
50
347.8572367
51
0.4293338
0
ARC
8
DEFAULT_255_1_234
10
5.5976447
20
36.7193736
40
0.3603188
50
323.673004
51
348.1672506
0
ARC
8
DEFAULT_255_1_234
10
5.6270955
20
36.7014168
40
0.3259678
50
316.8171152
51
323.1492751
0
ARC
8
DEFAULT_255_1_234
10
5.6332144
20
36.697746
40
0.3189975
50
281.8396411
51
316.5457803
0
ARC
8
DEFAULT_255_1_234
10
5.5956408
20
36.8532762
40
0.4789527
50
269.5770101
51
282.4214771
0
ARC
8
DEFAULT_255_1_234
10
5.5885219
20
36.8319125
40
0.45759
50
256.2427136
51
270.4486331
0
ARC
8
DEFAULT_255_1_234
10
5.5586121
20
36.7119229
40
0.3339303
50
228.9023911
51
256.3314342
0
ARC
8
DEFAULT_255_1_234
10
5.5512354
20
36.7002746
40
0.32031
50
193.753695
51
228.5271154
0
ARC
8
DEFAULT_255_1_234
10
5.6750308
20
36.73658
40
0.4492253
50
184.924711
51
194.497588
0
ARC
8
DEFAULT_255_1_234
10
5.6942875
20
36.7401591
40
0.3289787
50
187.3600538
51
198.6732863
0
ARC
8
DEFAULT_255_1_234
10
5.5893169
20
36.7037674
40
0.217884
50
198.4451669
51
217.794479
0
ARC
8
DEFAULT_255_1_234
10
5.5597344
20
36.6828085
40
0.1816698
50
218.2887171
51
228.5612368
0
ARC
8
DEFAULT_255_1_234
10
5.5695131
20
36.6959963
40
0.1980329
50
228.9654866
51
258.1234728
0
ARC
8
DEFAULT_255_1_234
10
5.5900841
20
36.7840833
40
0.2884748
50
257.7258293
51
270.401361
0
ARC
8
DEFAULT_255_1_234
10
5.5945727
20
36.7395821
40
0.2439788
50
269.4204404
51
286.4209037
0
ARC
8
DEFAULT_255_1_234
10
5.6094215
20
36.6856657
40
0.1880666
50
286.7251356
51
320.600362
0
ARC
8
DEFAULT_255_1_234
10
5.571104
20
36.7167595
40
0.2374121
50
320.6712579
51
344.5441685
0
ARC
8
DEFAULT_255_1_234
10
5.4554366
20
36.7507045
40
0.3579479
50
344.2412205
51
356.7357071
0
ARC
8
DEFAULT_255_1_234
10
5.3305515
20
36.7610444
40
0.4832297
50
356.3548756
51
0.0500261
0
ARC
8
DEFAULT_255_1_234
10
5.4642024
20
36.764165
40
0.3495889
50
359.5576869
51
12.953486
0
ARC
8
DEFAULT_255_1_234
10
5.5696921
20
36.7897434
40
0.2410532
50
12.6490276
51
41.6081334
0
ARC
8
DEFAULT_255_1_234
10
5.5927292
20
36.8093321
40
0.2108218
50
41.7850273
51
85.9892764
0
ARC
8
DEFAULT_255_1_234
10
5.5804029
20
36.7280462
40
0.2928454
50
84.6957577
51
90.0676183
0
ARC
8
DEFAULT_255_1_234
10
5.5780513
20
36.6611716
40
0.3597255
50
89.6804936
51
99.1614436
0
ARC
8
DEFAULT_255_1_234
10
5.5575144
20
36.7839131
40
0.235281
50
98.9830931
51
113.8908934
0
ARC
8
DEFAULT_255_1_234
10
5.5345554
20
36.8380587
40
0.176479
50
114.1950727
51
127.3641004
0
LINE
8
DEFAULT_255_1_234
10
4.4137299
20
45.4973211
11
4.6956439
21
45.0491501
0
LINE
8
DEFAULT_255_1_234
10
4.6956439
20
45.0491501
11
4.9759516
21
45.4973211
0
LINE
8
DEFAULT_255_1_234
10
4.9759516
20
45.4973211
11
5.1574689
21
45.4973211
0
LINE
8
DEFAULT_255_1_234
10
5.1574689
20
45.4973211
11
4.7880089
21
44.9174296
0
LINE
8
DEFAULT_255_1_234
10
4.7880089
20
44.9174296
11
5.1663038
21
44.3279
0
LINE
8
DEFAULT_255_1_234
10
5.1663038
20
44.3279
11
4.9831802
21
44.3279
0
LINE
8
DEFAULT_255_1_234
10
4.9831802
20
44.3279
11
4.6956439
21
44.7841027
0
LINE
8
DEFAULT_255_1_234
10
4.6956439
20
44.7841027
11
4.4065014
21
44.3279
0
LINE
8
DEFAULT_255_1_234
10
4.4065014
20
44.3279
11
4.2241809
21
44.3279
0
LINE
8
DEFAULT_255_1_234
10
4.2241809
20
44.3279
11
4.603279
21
44.9174296
0
LINE
8
DEFAULT_255_1_234
10
4.603279
20
44.9174296
11
4.2330158
21
45.4973211
0
LINE
8
DEFAULT_255_1_234
10
4.2330158
20
45.4973211
11
4.4137299
21
45.4973211
0
LINE
8
DEFAULT_255_1_234
10
5.934138
20
45.4973211
11
5.934138
21
44.720652
0
LINE
8
DEFAULT_255_1_234
10
5.934138
20
44.720652
11
6.0963791
21
44.720652
0
LINE
8
DEFAULT_255_1_234
10
6.0963791
20
44.720652
11
6.0963791
21
44.5993728
0
LINE
8
DEFAULT_255_1_234
10
6.0963791
20
44.5993728
11
5.934138
21
44.5993728
0
LINE
8
DEFAULT_255_1_234
10
5.934138
20
44.5993728
11
5.934138
21
44.3279
0
LINE
8
DEFAULT_255_1_234
10
5.934138
20
44.3279
11
5.7847477
21
44.3279
0
LINE
8
DEFAULT_255_1_234
10
5.7847477
20
44.3279
11
5.7847477
21
44.5993728
0
LINE
8
DEFAULT_255_1_234
10
5.7847477
20
44.5993728
11
5.2522434
21
44.5993728
0
LINE
8
DEFAULT_255_1_234
10
5.2522434
20
44.5993728
11
5.2522434
21
44.6869187
0
LINE
8
DEFAULT_255_1_234
10
5.2522434
20
44.6869187
11
5.7759127
21
45.4973211
0
LINE
8
DEFAULT_255_1_234
10
5.7759127
20
45.4973211
11
5.934138
21
45.4973211
0
LINE
8
DEFAULT_255_1_234
10
5.7670778
20
45.2619912
11
5.4209099
21
44.720652
0
LINE
8
DEFAULT_255_1_234
10
5.4209099
20
44.720652
11
5.7847477
21
44.720652
0
LINE
8
DEFAULT_255_1_234
10
5.7847477
20
44.720652
11
5.7847477
21
45.2941181
0
LINE
8
DEFAULT_255_1_234
10
5.7847477
20
45.2941181
11
5.7670778
21
45.2619912
0
LINE
8
DEFAULT_255_1_234
10
4.3078299
20
53.4348211
11
4.5897439
21
52.9866501
0
LINE
8
DEFAULT_255_1_234
10
4.5897439
20
52.9866501
11
4.8700516
21
53.4348211
0
LINE
8
DEFAULT_255_1_234
10
4.8700516
20
53.4348211
11
5.0515689
21
53.4348211
0
LINE
8
DEFAULT_255_1_234
10
5.0515689
20
53.4348211
11
4.6821089
21
52.8549296
0
LINE
8
DEFAULT_255_1_234
10
4.6821089
20
52.8549296
11
5.0604038
21
52.2654
0
LINE
8
DEFAULT_255_1_234
10
5.0604038
20
52.2654
11
4.8772802
21
52.2654
0
LINE
8
DEFAULT_255_1_234
10
4.8772802
20
52.2654
11
4.5897439
21
52.7216027
0
LINE
8
DEFAULT_255_1_234
10
4.5897439
20
52.7216027
11
4.3006014
21
52.2654
0
LINE
8
DEFAULT_255_1_234
10
4.3006014
20
52.2654
11
4.1182809
21
52.2654
0
LINE
8
DEFAULT_255_1_234
10
4.1182809
20
52.2654
11
4.497379
21
52.8549296
0
LINE
8
DEFAULT_255_1_234
10
4.497379
20
52.8549296
11
4.1271158
21
53.4348211
0
LINE
8
DEFAULT_255_1_234
10
4.1271158
20
53.4348211
11
4.3078299
21
53.4348211
0
LINE
8
DEFAULT_255_1_234
10
5.417013
20
52.8011169
11
5.417013
21
52.9223962
0
LINE
8
DEFAULT_255_1_234
10
5.417013
20
52.9223962
11
5.5286542
21
52.9223962
0
LINE
8
DEFAULT_255_1_234
10
5.338302
20
53.1280087
11
5.1897148
21
53.1280087
0
LINE
8
DEFAULT_255_1_234
10
5.1792735
20
52.5738188
11
5.3286639
21
52.5738188
0
LINE
8
DEFAULT_255_1_234
10
5.5286542
20
52.8011169
11
5.417013
21
52.8011169
0
ARC
8
DEFAULT_255_1_234
10
5.5257408
20
53.2616713
40
0.3392876
50
270.4919872
51
281.8951556
0
ARC
8
DEFAULT_255_1_234
10
5.549867
20
53.1514702
40
0.2264817
50
281.6691735
51
301.2943132
0
ARC
8
DEFAULT_255_1_234
10
5.566888
20
53.1203304
40
0.1910381
50
301.7833094
51
311.7545298
0
ARC
8
DEFAULT_255_1_234
10
5.5760456
20
53.1101748
40
0.1773635
50
311.7323931
51
354.2802411
0
ARC
8
DEFAULT_255_1_234
10
5.5034081
20
53.1226722
40
0.2509385
50
353.0937916
51
0.1181479
0
ARC
8
DEFAULT_255_1_234
10
5.4572866
20
53.1274386
40
0.2970898
50
359.1805295
51
15.0453146
0
ARC
8
DEFAULT_255_1_234
10
5.5918703
20
53.1666992
40
0.1569564
50
13.9577229
51
77.6713066
0
ARC
8
DEFAULT_255_1_234
10
5.5532232
20
53.0281949
40
0.3006298
50
76.1116566
51
90.7026153
0
ARC
8
DEFAULT_255_1_234
10
5.547307
20
53.0555545
40
0.2732568
50
89.5324876
51
103.531937
0
ARC
8
DEFAULT_255_1_234
10
5.5272514
20
53.1354884
40
0.1908508
50
103.2931773
51
133.5619022
0
ARC
8
DEFAULT_255_1_234
10
5.5228003
20
53.1414375
40
0.1834746
50
133.8349307
51
173.5344437
0
ARC
8
DEFAULT_255_1_234
10
5.5951046
20
53.1286213
40
0.2568033
50
172.5096846
51
180.1366907
0
ARC
8
DEFAULT_255_1_234
10
5.499994
20
53.1320622
40
0.3103056
50
155.3484492
51
180.7484736
0
ARC
8
DEFAULT_255_1_234
10
5.4951029
20
53.1291846
40
0.3070957
50
131.5744599
51
154.4798489
0
ARC
8
DEFAULT_255_1_234
10
5.5264176
20
53.097531
40
0.3515643
50
96.9875458
51
131.9690667
0
ARC
8
DEFAULT_255_1_234
10
5.5483656
20
52.9729636
40
0.4779224
50
89.8596053
51
97.7825159
0
ARC
8
DEFAULT_255_1_234
10
5.5531719
20
52.9467616
40
0.5041361
50
78.3655447
51
90.4131539
0
ARC
8
DEFAULT_255_1_234
10
5.5889637
20
53.1126887
40
0.3344039
50
56.6229102
51
78.638727
0
ARC
8
DEFAULT_255_1_234
10
5.6104581
20
53.1502805
40
0.2912001
50
47.0253525
51
56.0854072
0
ARC
8
DEFAULT_255_1_234
10
5.6124361
20
53.1542223
40
0.2869704
50
10.9208013
51
46.7778124
0
ARC
8
DEFAULT_255_1_234
10
5.4760427
20
53.1226857
40
0.426899
50
359.6364486
51
11.6087304
0
ARC
8
DEFAULT_255_1_234
10
5.6595271
20
53.1211752
40
0.243409
50
332.3549906
51
359.7179418
0
ARC
8
DEFAULT_255_1_234
10
5.5944873
20
53.1520142
40
0.3153459
50
325.2333722
51
332.8745602
0
ARC
8
DEFAULT_255_1_234
10
5.6097496
20
53.1413828
40
0.2967456
50
292.9802137
51
325.2392345
0
ARC
8
DEFAULT_255_1_234
10
5.582287
20
53.1947863
40
0.3566604
50
292.5402179
51
293.6924929
0
ARC
8
DEFAULT_255_1_234
10
5.6215466
20
52.5493091
40
0.3307468
50
57.6435486
51
72.8625112
0
ARC
8
DEFAULT_255_1_234
10
5.6569966
20
52.6067549
40
0.2632492
50
36.7248896
51
57.4697979
0
ARC
8
DEFAULT_255_1_234
10
5.6558598
20
52.608022
40
0.2634081
50
8.0545065
51
36.356114
0
ARC
8
DEFAULT_255_1_234
10
5.5695784
20
52.5925174
40
0.3510261
50
359.8320645
51
8.5869982
0
ARC
8
DEFAULT_255_1_234
10
5.532056
20
52.5877101
40
0.3885653
50
343.9829931
51
0.5571613
0
ARC
8
DEFAULT_255_1_234
10
5.6206757
20
52.5634438
40
0.2966924
50
311.6359546
51
343.7651759
0
ARC
8
DEFAULT_255_1_234
10
5.5828326
20
52.6061102
40
0.3537231
50
279.7829875
51
311.6255694
0
ARC
8
DEFAULT_255_1_234
10
5.5527102
20
52.749828
40
0.5004971
50
269.7286406
51
280.3856417
0
ARC
8
DEFAULT_255_1_234
10
5.5465175
20
52.7456996
40
0.4963778
50
256.6828919
51
270.4412052
0
ARC
8
DEFAULT_255_1_234
10
5.5126471
20
52.6072394
40
0.3538406
50
229.4223008
51
256.8556159
0
ARC
8
DEFAULT_255_1_234
10
5.4711864
20
52.5605736
40
0.2914296
50
181.818294
51
229.6455059
0
ARC
8
DEFAULT_255_1_234
10
5.575182
20
52.5736496
40
0.3959084
50
179.9755256
51
183.2323064
0
ARC
8
DEFAULT_255_1_234
10
5.5579566
20
52.5716037
40
0.2293034
50
179.4465117
51
196.2869258
0
ARC
8
DEFAULT_255_1_234
10
5.5091974
20
52.5582651
40
0.1787621
50
196.5661473
51
227.705904
0
ARC
8
DEFAULT_255_1_234
10
5.5256069
20
52.5766155
40
0.2033784
50
227.7652068
51
257.8762805
0
ARC
8
DEFAULT_255_1_234
10
5.5481039
20
52.6709156
40
0.3003081
50
257.4584385
51
270.426602
0
ARC
8
DEFAULT_255_1_234
10
5.5526605
20
52.6998996
40
0.329292
50
269.5962073
51
280.8789248
0
ARC
8
DEFAULT_255_1_234
10
5.5756134
20
52.5852685
40
0.2123908
50
280.6346389
51
299.8595945
0
ARC
8
DEFAULT_255_1_234
10
5.594704
20
52.5490212
40
0.171457
50
300.3576302
51
314.5517981
0
ARC
8
DEFAULT_255_1_234
10
5.5864101
20
52.5550919
40
0.1816095
50
315.0728369
51
345.0431014
0
ARC
8
DEFAULT_255_1_234
10
5.4940915
20
52.5819841
40
0.2777492
50
344.5986631
51
357.9269593
0
ARC
8
DEFAULT_255_1_234
10
5.4045241
20
52.5881276
40
0.3674917
50
357.4748886
51
0.0231117
0
ARC
8
DEFAULT_255_1_234
10
5.5068351
20
52.5905679
40
0.2651907
50
359.5047933
51
13.4239635
0
ARC
8
DEFAULT_255_1_234
10
5.5934994
20
52.6127478
40
0.1757509
50
12.9498199
51
48.7551375
0
ARC
8
DEFAULT_255_1_234
10
5.5752728
20
52.58784
40
0.2065134
50
49.5088623
51
72.1836453
0
ARC
8
DEFAULT_255_1_234
10
5.5394881
20
52.4816291
40
0.3185836
50
71.9010081
51
84.3554254
0
ARC
8
DEFAULT_255_1_234
10
5.5233513
20
52.3455326
40
0.4556151
50
84.0193428
51
89.333121
0
LINE
8
DEFAULT_255_1_234
10
4.3078299
20
61.3723211
11
4.5897439
21
60.9241501
0
LINE
8
DEFAULT_255_1_234
10
4.5897439
20
60.9241501
11
4.8700516
21
61.3723211
0
LINE
8
DEFAULT_255_1_234
10
4.8700516
20
61.3723211
11
5.0515689
21
61.3723211
0
LINE
8
DEFAULT_255_1_234
10
5.0515689
20
61.3723211
11
4.6821089
21
60.7924296
0
LINE
8
DEFAULT_255_1_234
10
4.6821089
20
60.7924296
11
5.0604038
21
60.2029
0
LINE
8
DEFAULT_255_1_234
10
5.0604038
20
60.2029
11
4.8772802
21
60.2029
0
LINE
8
DEFAULT_255_1_234
10
4.8772802
20
60.2029
11
4.5897439
21
60.6591027
0
LINE
8
DEFAULT_255_1_234
10
4.5897439
20
60.6591027
11
4.3006014
21
60.2029
0
LINE
8
DEFAULT_255_1_234
10
4.3006014
20
60.2029
11
4.1182809
21
60.2029
0
LINE
8
DEFAULT_255_1_234
10
4.1182809
20
60.2029
11
4.497379
21
60.7924296
0
LINE
8
DEFAULT_255_1_234
10
4.497379
20
60.7924296
11
4.1271158
21
61.3723211
0
LINE
8
DEFAULT_255_1_234
10
4.1271158
20
61.3723211
11
4.3078299
21
61.3723211
0
LINE
8
DEFAULT_255_1_234
10
5.9671871
20
60.3241792
11
5.9671871
21
60.2029
0
LINE
8
DEFAULT_255_1_234
10
5.9671871
20
60.2029
11
5.2009592
21
60.2029
0
LINE
8
DEFAULT_255_1_234
10
5.2009592
20
60.2029
11
5.2009592
21
60.3097221
0
LINE
8
DEFAULT_255_1_234
10
5.2009592
20
60.3097221
11
5.6057588
21
60.7594995
0
LINE
8
DEFAULT_255_1_234
10
5.3270575
20
61.0277595
11
5.1784704
21
61.0277595
0
LINE
8
DEFAULT_255_1_234
10
5.6933048
20
60.6639218
11
5.380067
21
60.3241792
0
LINE
8
DEFAULT_255_1_234
10
5.380067
20
60.3241792
11
5.9671871
21
60.3241792
0
ARC
8
DEFAULT_255_1_234
10
4.2567422
20
61.9524527
40
1.8008286
50
318.5132453
51
320.7828378
0
ARC
8
DEFAULT_255_1_234
10
4.7854396
20
61.5221426
40
1.1191493
50
320.7372736
51
323.9737074
0
ARC
8
DEFAULT_255_1_234
10
5.1774252
20
61.2381361
40
0.6350923
50
323.8961724
51
328.6421089
0
ARC
8
DEFAULT_255_1_234
10
5.3820848
20
61.1119031
40
0.3946393
50
328.8299013
51
331.789948
0
ARC
8
DEFAULT_255_1_234
10
5.4818026
20
61.0604509
40
0.2824501
50
331.4255242
51
352.9364833
0
ARC
8
DEFAULT_255_1_234
10
5.4954527
20
61.0573976
40
0.2685315
50
353.2248685
51
0.0169286
0
ARC
8
DEFAULT_255_1_234
10
5.5164404
20
61.059695
40
0.2475536
50
359.4866256
51
15.9339782
0
ARC
8
DEFAULT_255_1_234
10
5.5671389
20
61.0733286
40
0.1950618
50
16.1714718
51
43.5284424
0
ARC
8
DEFAULT_255_1_234
10
5.5748698
20
61.0810573
40
0.184134
50
43.4415429
51
83.1661404
0
ARC
8
DEFAULT_255_1_234
10
5.5614616
20
61.0073771
40
0.258926
50
82.160215
51
90.1505798
0
ARC
8
DEFAULT_255_1_234
10
5.5583043
20
60.9536865
40
0.3126255
50
89.5460705
51
102.5418777
0
ARC
8
DEFAULT_255_1_234
10
5.5340129
20
61.0567665
40
0.2067346
50
102.1739365
51
129.2061916
0
ARC
8
DEFAULT_255_1_234
10
5.5261201
20
61.0692094
40
0.1921118
50
129.7279328
51
135.7542026
0
ARC
8
DEFAULT_255_1_234
10
5.5382729
20
61.0595045
40
0.2075944
50
136.175737
51
166.3674722
0
ARC
8
DEFAULT_255_1_234
10
5.6389648
20
61.0325182
40
0.3118201
50
165.9092917
51
178.8683903
0
ARC
8
DEFAULT_255_1_234
10
5.7254509
20
61.0278179
40
0.3983935
50
178.438168
51
180.0083905
0
ARC
8
DEFAULT_255_1_234
10
5.5853111
20
61.0317231
40
0.4068601
50
163.2878735
51
180.5581814
0
ARC
8
DEFAULT_255_1_234
10
5.5051373
20
61.053784
40
0.3237344
50
133.454115
51
162.9470031
0
ARC
8
DEFAULT_255_1_234
10
5.5229914
20
61.0348
40
0.349795
50
100.7869394
51
133.4384016
0
ARC
8
DEFAULT_255_1_234
10
5.5577686
20
60.8799319
40
0.5084616
50
89.6605301
51
101.3704185
0
ARC
8
DEFAULT_255_1_234
10
5.5644024
20
60.8860496
40
0.502348
50
78.2171172
51
90.4130393
0
ARC
8
DEFAULT_255_1_234
10
5.5999103
20
61.0484637
40
0.3361092
50
55.9268222
51
78.4888551
0
ARC
8
DEFAULT_255_1_234
10
5.6195543
20
61.0823324
40
0.2970617
50
47.9292255
51
55.4054003
0
ARC
8
DEFAULT_255_1_234
10
5.6297103
20
61.0926502
40
0.2825983
50
4.3347696
51
48.0560701
0
ARC
8
DEFAULT_255_1_234
10
5.5201497
20
61.0756601
40
0.393225
50
359.925209
51
5.5967654
0
ARC
8
DEFAULT_255_1_234
10
5.5630389
20
61.0812816
40
0.3503892
50
337.8914096
51
358.9967724
0
ARC
8
DEFAULT_255_1_234
10
5.2916801
20
61.1859706
40
0.6412172
50
326.9135351
51
338.3505194
0
ARC
8
DEFAULT_255_1_234
10
4.8931105
20
61.4414284
40
1.1146189
50
319.6472867
51
327.095818
0
ARC
8
DEFAULT_255_1_234
10
4.5098108
20
61.7576
40
1.6114559
50
317.2586784
51
319.9046139
0
LINE
8
DEFAULT_255_1_234
10
4.2994299
20
69.3098211
11
4.5813439
21
68.8616501
0
LINE
8
DEFAULT_255_1_234
10
4.5813439
20
68.8616501
11
4.8616516
21
69.3098211
0
LINE
8
DEFAULT_255_1_234
10
4.8616516
20
69.3098211
11
5.0431689
21
69.3098211
0
LINE
8
DEFAULT_255_1_234
10
5.0431689
20
69.3098211
11
4.6737089
21
68.7299296
0
LINE
8
DEFAULT_255_1_234
10
4.6737089
20
68.7299296
11
5.0520038
21
68.1404
0
LINE
8
DEFAULT_255_1_234
10
5.0520038
20
68.1404
11
4.8688802
21
68.1404
0
LINE
8
DEFAULT_255_1_234
10
4.8688802
20
68.1404
11
4.5813439
21
68.5966027
0
LINE
8
DEFAULT_255_1_234
10
4.5813439
20
68.5966027
11
4.2922014
21
68.1404
0
LINE
8
DEFAULT_255_1_234
10
4.2922014
20
68.1404
11
4.1098809
21
68.1404
0
LINE
8
DEFAULT_255_1_234
10
4.1098809
20
68.1404
11
4.488979
21
68.7299296
0
LINE
8
DEFAULT_255_1_234
10
4.488979
20
68.7299296
11
4.1187158
21
69.3098211
0
LINE
8
DEFAULT_255_1_234
10
4.1187158
20
69.3098211
11
4.2994299
21
69.3098211
0
LINE
8
DEFAULT_255_1_234
10
5.6808889
20
69.3154433
11
5.6808889
21
68.1404
0
LINE
8
DEFAULT_255_1_234
10
5.6808889
20
68.1404
11
5.5314986
21
68.1404
0
LINE
8
DEFAULT_255_1_234
10
5.5314986
20
68.1404
11
5.5314986
21
69.1307133
0
LINE
8
DEFAULT_255_1_234
10
5.5314986
20
69.1307133
11
5.2319147
21
69.0206785
0
LINE
8
DEFAULT_255_1_234
10
5.2319147
20
69.0206785
11
5.2319147
21
69.1556117
0
LINE
8
DEFAULT_255_1_234
10
5.2319147
20
69.1556117
11
5.6575969
21
69.3154433
0
LINE
8
DEFAULT_255_1_234
10
5.6575969
20
69.3154433
11
5.6808889
21
69.3154433
0
LINE
8
DEFAULT_255_1_234
10
4.3078299
20
77.2473211
11
4.5897439
21
76.7991501
0
LINE
8
DEFAULT_255_1_234
10
4.5897439
20
76.7991501
11
4.8700516
21
77.2473211
0
LINE
8
DEFAULT_255_1_234
10
4.8700516
20
77.2473211
11
5.0515689
21
77.2473211
0
LINE
8
DEFAULT_255_1_234
10
5.0515689
20
77.2473211
11
4.6821089
21
76.6674296
0
LINE
8
DEFAULT_255_1_234
10
4.6821089
20
76.6674296
11
5.0604038
21
76.0779
0
LINE
8
DEFAULT_255_1_234
10
5.0604038
20
76.0779
11
4.8772802
21
76.0779
0
LINE
8
DEFAULT_255_1_234
10
4.8772802
20
76.0779
11
4.5897439
21
76.5341027
0
LINE
8
DEFAULT_255_1_234
10
4.5897439
20
76.5341027
11
4.3006014
21
76.0779
0
LINE
8
DEFAULT_255_1_234
10
4.3006014
20
76.0779
11
4.1182809
21
76.0779
0
LINE
8
DEFAULT_255_1_234
10
4.1182809
20
76.0779
11
4.497379
21
76.6674296
0
LINE
8
DEFAULT_255_1_234
10
4.497379
20
76.6674296
11
4.1271158
21
77.2473211
0
LINE
8
DEFAULT_255_1_234
10
4.1271158
20
77.2473211
11
4.3078299
21
77.2473211
0
LINE
8
DEFAULT_255_1_234
10
5.9342569
20
76.7694327
11
5.9342569
21
76.5766709
0
LINE
8
DEFAULT_255_1_234
10
5.1961402
20
76.5565916
11
5.1961402
21
76.7549755
0
LINE
8
DEFAULT_255_1_234
10
5.7856698
20
76.5365123
11
5.7856698
21
76.7798739
0
LINE
8
DEFAULT_255_1_234
10
5.3447273
20
76.7911184
11
5.3447273
21
76.5533789
0
ARC
8
DEFAULT_255_1_234
10
4.7095459
20
76.5717805
40
1.2247208
50
353.8441951
51
0.2287902
0
ARC
8
DEFAULT_255_1_234
10
5.1734963
20
76.5199806
40
0.7578929
50
344.4934747
51
353.9765454
0
ARC
8
DEFAULT_255_1_234
10
5.4727553
20
76.4348981
40
0.4467846
50
329.2803592
51
344.7472793
0
ARC
8
DEFAULT_255_1_234
10
5.5720378
20
76.3804018
40
0.3336173
50
324.9352394
51
328.6160465
0
ARC
8
DEFAULT_255_1_234
10
5.6097486
20
76.3540427
40
0.2876076
50
280.580143
51
324.9173126
0
ARC
8
DEFAULT_255_1_234
10
5.5696279
20
76.5211099
40
0.4592847
50
269.5977311
51
281.6734359
0
ARC
8
DEFAULT_255_1_234
10
5.5624185
20
76.5091173
40
0.4472986
50
256.6228859
51
270.51044
0
ARC
8
DEFAULT_255_1_234
10
5.5222162
20
76.3542877
40
0.2873874
50
215.8618325
51
257.2788573
0
ARC
8
DEFAULT_255_1_234
10
5.6243194
20
76.4227977
40
0.4102928
50
197.9693508
51
215.2623606
0
ARC
8
DEFAULT_255_1_234
10
5.872831
20
76.5066709
40
0.6725652
50
187.8816417
51
198.2346507
0
ARC
8
DEFAULT_255_1_234
10
6.2686518
20
76.5638079
40
1.0724845
50
180.8976217
51
188.0055519
0
ARC
8
DEFAULT_255_1_234
10
6.5486706
20
76.5741777
40
1.3526448
50
180.7449369
51
181.1510016
0
ARC
8
DEFAULT_255_1_234
10
6.3909435
20
76.7598042
40
1.1948131
50
173.7675579
51
180.231553
0
ARC
8
DEFAULT_255_1_234
10
5.9391582
20
76.8108666
40
0.7401564
50
164.3058563
51
173.9002247
0
ARC
8
DEFAULT_255_1_234
10
5.647965
20
76.8947656
40
0.4371288
50
148.7922025
51
164.568378
0
ARC
8
DEFAULT_255_1_234
10
5.5528103
20
76.9478929
40
0.3282386
50
144.5883898
51
148.1176286
0
ARC
8
DEFAULT_255_1_234
10
5.5185001
20
76.9718315
40
0.2864044
50
101.6440918
51
144.514236
0
ARC
8
DEFAULT_255_1_234
10
5.5610067
20
76.8029069
40
0.4604934
50
89.5284041
51
102.5819763
0
ARC
8
DEFAULT_255_1_234
10
5.5689155
20
76.7990018
40
0.464401
50
77.0437873
51
90.5081339
0
ARC
8
DEFAULT_255_1_234
10
5.6091157
20
76.9632615
40
0.2953195
50
48.2778575
51
77.4994676
0
ARC
8
DEFAULT_255_1_234
10
5.6163788
20
76.9761746
40
0.2808655
50
36.3142134
51
47.6305865
0
ARC
8
DEFAULT_255_1_234
10
5.5295095
20
76.9176515
40
0.3855453
50
18.2931786
51
35.6769206
0
ARC
8
DEFAULT_255_1_234
10
5.2751854
20
76.8303593
40
0.654423
50
8.024666
51
18.5605216
0
ARC
8
DEFAULT_255_1_234
10
4.8588774
20
76.7688792
40
1.0752407
50
1.1274072
51
8.1718305
0
ARC
8
DEFAULT_255_1_234
10
4.5352964
20
76.7561885
40
1.3990231
50
0.5424119
51
1.3863029
0
ARC
8
DEFAULT_255_1_234
10
4.7174342
20
76.7834342
40
1.0682415
50
359.8090433
51
4.9407866
0
ARC
8
DEFAULT_255_1_234
10
5.1384356
20
76.8210113
40
0.6455691
50
4.8362157
51
12.2904523
0
ARC
8
DEFAULT_255_1_234
10
5.4139471
20
76.8823965
40
0.3633074
50
12.0805627
51
23.8173984
0
ARC
8
DEFAULT_255_1_234
10
5.5313176
20
76.9320919
40
0.2358723
50
24.2871213
51
31.3935614
0
ARC
8
DEFAULT_255_1_234
10
5.5837874
20
76.9664233
40
0.1732111
50
30.7407893
51
82.4657128
0
ARC
8
DEFAULT_255_1_234
10
5.5658008
20
76.8780691
40
0.263235
50
81.1060089
51
90.2184952
0
ARC
8
DEFAULT_255_1_234
10
5.5622307
20
76.9038924
40
0.2374236
50
89.3806855
51
105.6762551
0
ARC
8
DEFAULT_255_1_234
10
5.5438938
20
76.9705567
40
0.1682847
50
105.7981136
51
149.7388061
0
ARC
8
DEFAULT_255_1_234
10
5.6503016
20
76.906595
40
0.2924306
50
149.4208916
51
163.6286378
0
ARC
8
DEFAULT_255_1_234
10
5.8593904
20
76.842825
40
0.5110213
50
163.3763315
51
172.1410975
0
ARC
8
DEFAULT_255_1_234
10
6.1894623
20
76.7955518
40
0.8444586
50
172.0259487
51
178.0703232
0
ARC
8
DEFAULT_255_1_234
10
6.4924712
20
76.7811906
40
1.1477868
50
177.8631668
51
179.5044149
0
ARC
8
DEFAULT_255_1_234
10
6.3852117
20
76.5497389
40
1.0404907
50
179.7995573
51
185.2460446
0
ARC
8
DEFAULT_255_1_234
10
5.9809156
20
76.5114513
40
0.6343885
50
185.1411642
51
193.0079639
0
ARC
8
DEFAULT_255_1_234
10
5.7165629
20
76.4489641
40
0.3627568
50
192.7897626
51
205.2507664
0
ARC
8
DEFAULT_255_1_234
10
5.6119176
20
76.4022415
40
0.2481908
50
205.8005384
51
211.2537509
0
ARC
8
DEFAULT_255_1_234
10
5.5595616
20
76.367158
40
0.1852521
50
210.3789793
51
238.4008143
0
ARC
8
DEFAULT_255_1_234
10
5.5576138
20
76.3718376
40
0.1882621
50
239.6520629
51
265.9793761
0
ARC
8
DEFAULT_255_1_234
10
5.5661338
20
76.4390427
40
0.2559272
50
265.1315437
51
270.060332
0
ARC
8
DEFAULT_255_1_234
10
5.5690117
20
76.4066534
40
0.2235528
50
269.3314664
51
287.2178029
0
ARC
8
DEFAULT_255_1_234
10
5.5827969
20
76.3563279
40
0.1714108
50
287.7958004
51
329.080874
0
ARC
8
DEFAULT_255_1_234
10
5.4870426
20
76.416093
40
0.2842745
50
328.6634704
51
343.3325132
0
ARC
8
DEFAULT_255_1_234
10
5.2697446
20
76.4837863
40
0.5118644
50
343.0499468
51
351.9393422
0
ARC
8
DEFAULT_255_1_234
10
4.9230746
20
76.5348949
40
0.8622784
50
351.8069023
51
357.7959224
0
ARC
8
DEFAULT_255_1_234
10
4.5995302
20
76.5516721
40
1.1862365
50
357.5871873
51
359.2677531
0
LINE
8
DEFAULT_255_1_234
10
4.9447879
20
85.1848211
11
4.9447879
21
84.0154
0
LINE
8
DEFAULT_255_1_234
10
4.9447879
20
84.0154
11
4.7897753
21
84.0154
0
LINE
8
DEFAULT_255_1_234
10
4.7897753
20
84.0154
11
4.2010489
21
84.916561
0
LINE
8
DEFAULT_255_1_234
10
4.2010489
20
84.916561
11
4.2010489
21
84.0154
0
LINE
8
DEFAULT_255_1_234
10
4.2010489
20
84.0154
11
4.0460364
21
84.0154
0
LINE
8
DEFAULT_255_1_234
10
4.0460364
20
84.0154
11
4.0460364
21
85.1848211
0
LINE
8
DEFAULT_255_1_234
10
4.0460364
20
85.1848211
11
4.2010489
21
85.1848211
0
LINE
8
DEFAULT_255_1_234
10
4.2010489
20
85.1848211
11
4.7913817
21
84.2796442
0
LINE
8
DEFAULT_255_1_234
10
4.7913817
20
84.2796442
11
4.7913817
21
85.1848211
0
LINE
8
DEFAULT_255_1_234
10
4.7913817
20
85.1848211
11
4.9447879
21
85.1848211
0
LINE
8
DEFAULT_255_1_234
10
22.2170119
20
92.0741792
11
22.2170119
21
91.9529
0
LINE
8
DEFAULT_255_1_234
10
22.2170119
20
91.9529
11
21.450784
21
91.9529
0
LINE
8
DEFAULT_255_1_234
10
21.450784
20
91.9529
11
21.450784
21
92.0597221
0
LINE
8
DEFAULT_255_1_234
10
21.450784
20
92.0597221
11
21.8555836
21
92.5094995
0
LINE
8
DEFAULT_255_1_234
10
21.5768823
20
92.7777595
11
21.4282952
21
92.7777595
0
LINE
8
DEFAULT_255_1_234
10
21.9431296
20
92.4139218
11
21.6298918
21
92.0741792
0
LINE
8
DEFAULT_255_1_234
10
21.6298918
20
92.0741792
11
22.2170119
21
92.0741792
0
ARC
8
DEFAULT_255_1_234
10
20.506567
20
93.7024527
40
1.8008286
50
318.5132453
51
320.7828378
0
ARC
8
DEFAULT_255_1_234
10
21.0352644
20
93.2721426
40
1.1191493
50
320.7372736
51
323.9737074
0
ARC
8
DEFAULT_255_1_234
10
21.4272501
20
92.9881361
40
0.6350923
50
323.8961724
51
328.6421089
0
ARC
8
DEFAULT_255_1_234
10
21.6319096
20
92.8619031
40
0.3946393
50
328.8299013
51
331.789948
0
ARC
8
DEFAULT_255_1_234
10
21.7316274
20
92.8104509
40
0.2824501
50
331.4255242
51
352.9364833
0
ARC
8
DEFAULT_255_1_234
10
21.7452775
20
92.8073976
40
0.2685315
50
353.2248685
51
0.0169286
0
ARC
8
DEFAULT_255_1_234
10
21.7662652
20
92.809695
40
0.2475536
50
359.4866256
51
15.9339782
0
ARC
8
DEFAULT_255_1_234
10
21.8169637
20
92.8233286
40
0.1950618
50
16.1714718
51
43.5284424
0
ARC
8
DEFAULT_255_1_234
10
21.8246946
20
92.8310573
40
0.184134
50
43.4415429
51
83.1661404
0
ARC
8
DEFAULT_255_1_234
10
21.8112864
20
92.7573771
40
0.258926
50
82.160215
51
90.1505798
0
ARC
8
DEFAULT_255_1_234
10
21.8081291
20
92.7036865
40
0.3126255
50
89.5460705
51
102.5418777
0
ARC
8
DEFAULT_255_1_234
10
21.7838377
20
92.8067665
40
0.2067346
50
102.1739365
51
129.2061916
0
ARC
8
DEFAULT_255_1_234
10
21.7759449
20
92.8192094
40
0.1921118
50
129.7279328
51
135.7542026
0
ARC
8
DEFAULT_255_1_234
10
21.7880977
20
92.8095045
40
0.2075944
50
136.175737
51
166.3674722
0
ARC
8
DEFAULT_255_1_234
10
21.8887896
20
92.7825182
40
0.3118201
50
165.9092917
51
178.8683903
0
ARC
8
DEFAULT_255_1_234
10
21.9752757
20
92.7778179
40
0.3983935
50
178.438168
51
180.0083905
0
ARC
8
DEFAULT_255_1_234
10
21.8351359
20
92.7817231
40
0.4068601
50
163.2878735
51
180.5581814
0
ARC
8
DEFAULT_255_1_234
10
21.7549621
20
92.803784
40
0.3237344
50
133.454115
51
162.9470031
0
ARC
8
DEFAULT_255_1_234
10
21.7728162
20
92.7848
40
0.349795
50
100.7869394
51
133.4384016
0
ARC
8
DEFAULT_255_1_234
10
21.8075934
20
92.6299319
40
0.5084616
50
89.6605301
51
101.3704185
0
ARC
8
DEFAULT_255_1_234
10
21.8142273
20
92.6360496
40
0.502348
50
78.2171172
51
90.4130393
0
ARC
8
DEFAULT_255_1_234
10
21.8497351
20
92.7984637
40
0.3361092
50
55.9268222
51
78.4888551
0
ARC
8
DEFAULT_255_1_234
10
21.8693791
20
92.8323324
40
0.2970617
50
47.9292255
51
55.4054003
0
ARC
8
DEFAULT_255_1_234
10
21.8795352
20
92.8426502
40
0.2825983
50
4.3347696
51
48.0560701
0
ARC
8
DEFAULT_255_1_234
10
21.7699745
20
92.8256601
40
0.393225
50
359.925209
51
5.5967654
0
ARC
8
DEFAULT_255_1_234
10
21.8128637
20
92.8312816
40
0.3503892
50
337.8914096
51
358.9967724
0
ARC
8
DEFAULT_255_1_234
10
21.5415049
20
92.9359706
40
0.6412172
50
326.9135351
51
338.3505194
0
ARC
8
DEFAULT_255_1_234
10
21.1429353
20
93.1914284
40
1.1146189
50
319.6472867
51
327.095818
0
ARC
8
DEFAULT_255_1_234
10
20.7596356
20
93.5076
40
1.6114559
50
317.2586784
51
319.9046139
0
LINE
8
DEFAULT_255_1_234
10
23.0017127
20
93.1223211
11
23.0017127
21
92.345652
0
LINE
8
DEFAULT_255_1_234
10
23.0017127
20
92.345652
11
23.1639538
21
92.345652
0
LINE
8
DEFAULT_255_1_234
10
23.1639538
20
92.345652
11
23.1639538
21
92.2243728
0
LINE
8
DEFAULT_255_1_234
10
23.1639538
20
92.2243728
11
23.0017127
21
92.2243728
0
LINE
8
DEFAULT_255_1_234
10
23.0017127
20
92.2243728
11
23.0017127
21
91.9529
0
LINE
8
DEFAULT_255_1_234
10
23.0017127
20
91.9529
11
22.8523224
21
91.9529
0
LINE
8
DEFAULT_255_1_234
10
22.8523224
20
91.9529
11
22.8523224
21
92.2243728
0
LINE
8
DEFAULT_255_1_234
10
22.8523224
20
92.2243728
11
22.3198181
21
92.2243728
0
LINE
8
DEFAULT_255_1_234
10
22.3198181
20
92.2243728
11
22.3198181
21
92.3119187
0
LINE
8
DEFAULT_255_1_234
10
22.3198181
20
92.3119187
11
22.8434875
21
93.1223211
0
LINE
8
DEFAULT_255_1_234
10
22.8434875
20
93.1223211
11
23.0017127
21
93.1223211
0
LINE
8
DEFAULT_255_1_234
10
22.8346525
20
92.8869912
11
22.4884846
21
92.345652
0
LINE
8
DEFAULT_255_1_234
10
22.4884846
20
92.345652
11
22.8523224
21
92.345652
0
LINE
8
DEFAULT_255_1_234
10
22.8523224
20
92.345652
11
22.8523224
21
92.9191181
0
LINE
8
DEFAULT_255_1_234
10
22.8523224
20
92.9191181
11
22.8346525
21
92.8869912
0
LINE
8
DEFAULT_255_1_234
10
23.391252
20
93.1223211
11
23.723766
21
92.1577093
0
LINE
8
DEFAULT_255_1_234
10
23.723766
20
92.1577093
11
24.0578863
21
93.1223211
0
LINE
8
DEFAULT_255_1_234
10
24.0578863
20
93.1223211
11
24.2265528
21
93.1223211
0
LINE
8
DEFAULT_255_1_234
10
24.2265528
20
93.1223211
11
23.7928389
21
91.9529
0
LINE
8
DEFAULT_255_1_234
10
23.7928389
20
91.9529
11
23.6562994
21
91.9529
0
LINE
8
DEFAULT_255_1_234
10
23.6562994
20
91.9529
11
23.2233887
21
93.1223211
0
LINE
8
DEFAULT_255_1_234
10
23.2233887
20
93.1223211
11
23.391252
21
93.1223211
0
LINE
8
DEFAULT_255_1_234
10
23.1654817
20
13.2694327
11
23.1654817
21
13.0766709
0
LINE
8
DEFAULT_255_1_234
10
22.427365
20
13.0565916
11
22.427365
21
13.2549755
0
LINE
8
DEFAULT_255_1_234
10
23.0168946
20
13.0365123
11
23.0168946
21
13.2798739
0
LINE
8
DEFAULT_255_1_234
10
22.5759521
20
13.2911184
11
22.5759521
21
13.0533789
0
ARC
8
DEFAULT_255_1_234
10
21.9407707
20
13.0717805
40
1.2247208
50
353.8441951
51
0.2287902
0
ARC
8
DEFAULT_255_1_234
10
22.4047211
20
13.0199806
40
0.7578929
50
344.4934747
51
353.9765454
0
ARC
8
DEFAULT_255_1_234
10
22.7039801
20
12.9348981
40
0.4467846
50
329.2803592
51
344.7472793
0
ARC
8
DEFAULT_255_1_234
10
22.8032626
20
12.8804018
40
0.3336173
50
324.9352394
51
328.6160465
0
ARC
8
DEFAULT_255_1_234
10
22.8409734
20
12.8540427
40
0.2876076
50
280.580143
51
324.9173126
0
ARC
8
DEFAULT_255_1_234
10
22.8008527
20
13.0211099
40
0.4592847
50
269.5977311
51
281.6734359
0
ARC
8
DEFAULT_255_1_234
10
22.7936433
20
13.0091173
40
0.4472986
50
256.6228859
51
270.51044
0
ARC
8
DEFAULT_255_1_234
10
22.753441
20
12.8542877
40
0.2873874
50
215.8618325
51
257.2788573
0
ARC
8
DEFAULT_255_1_234
10
22.8555442
20
12.9227977
40
0.4102928
50
197.9693508
51
215.2623606
0
ARC
8
DEFAULT_255_1_234
10
23.1040558
20
13.0066709
40
0.6725652
50
187.8816417
51
198.2346507
0
ARC
8
DEFAULT_255_1_234
10
23.4998766
20
13.0638079
40
1.0724845
50
180.8976217
51
188.0055519
0
ARC
8
DEFAULT_255_1_234
10
23.7798954
20
13.0741777
40
1.3526448
50
180.7449369
51
181.1510016
0
ARC
8
DEFAULT_255_1_234
10
23.6221683
20
13.2598042
40
1.1948131
50
173.7675579
51
180.231553
0
ARC
8
DEFAULT_255_1_234
10
23.170383
20
13.3108666
40
0.7401564
50
164.3058563
51
173.9002247
0
ARC
8
DEFAULT_255_1_234
10
22.8791899
20
13.3947656
40
0.4371288
50
148.7922025
51
164.568378
0
ARC
8
DEFAULT_255_1_234
10
22.7840351
20
13.4478929
40
0.3282386
50
144.5883898
51
148.1176286
0
ARC
8
DEFAULT_255_1_234
10
22.7497249
20
13.4718315
40
0.2864044
50
101.6440918
51
144.514236
0
ARC
8
DEFAULT_255_1_234
10
22.7922315
20
13.3029069
40
0.4604934
50
89.5284041
51
102.5819763
0
ARC
8
DEFAULT_255_1_234
10
22.8001403
20
13.2990018
40
0.464401
50
77.0437873
51
90.5081339
0
ARC
8
DEFAULT_255_1_234
10
22.8403405
20
13.4632615
40
0.2953195
50
48.2778575
51
77.4994676
0
ARC
8
DEFAULT_255_1_234
10
22.8476036
20
13.4761746
40
0.2808655
50
36.3142134
51
47.6305865
0
ARC
8
DEFAULT_255_1_234
10
22.7607343
20
13.4176515
40
0.3855453
50
18.2931786
51
35.6769206
0
ARC
8
DEFAULT_255_1_234
10
22.5064102
20
13.3303593
40
0.654423
50
8.024666
51
18.5605216
0
ARC
8
DEFAULT_255_1_234
10
22.0901022
20
13.2688792
40
1.0752407
50
1.1274072
51
8.1718305
0
ARC
8
DEFAULT_255_1_234
10
21.7665213
20
13.2561885
40
1.3990231
50
0.5424119
51
1.3863029
0
ARC
8
DEFAULT_255_1_234
10
21.948659
20
13.2834342
40
1.0682415
50
359.8090433
51
4.9407866
0
ARC
8
DEFAULT_255_1_234
10
22.3696604
20
13.3210113
40
0.6455691
50
4.8362157
51
12.2904523
0
ARC
8
DEFAULT_255_1_234
10
22.6451719
20
13.3823965
40
0.3633074
50
12.0805627
51
23.8173984
0
ARC
8
DEFAULT_255_1_234
10
22.7625425
20
13.4320919
40
0.2358723
50
24.2871213
51
31.3935614
0
ARC
8
DEFAULT_255_1_234
10
22.8150122
20
13.4664233
40
0.1732111
50
30.7407893
51
82.4657128
0
ARC
8
DEFAULT_255_1_234
10
22.7970256
20
13.3780691
40
0.263235
50
81.1060089
51
90.2184952
0
ARC
8
DEFAULT_255_1_234
10
22.7934555
20
13.4038924
40
0.2374236
50
89.3806855
51
105.6762551
0
ARC
8
DEFAULT_255_1_234
10
22.7751186
20
13.4705567
40
0.1682847
50
105.7981136
51
149.7388061
0
ARC
8
DEFAULT_255_1_234
10
22.8815264
20
13.406595
40
0.2924306
50
149.4208916
51
163.6286378
0
ARC
8
DEFAULT_255_1_234
10
23.0906152
20
13.342825
40
0.5110213
50
163.3763315
51
172.1410975
0
ARC
8
DEFAULT_255_1_234
10
23.4206871
20
13.2955518
40
0.8444586
50
172.0259487
51
178.0703232
0
ARC
8
DEFAULT_255_1_234
10
23.723696
20
13.2811906
40
1.1477868
50
177.8631668
51
179.5044149
0
ARC
8
DEFAULT_255_1_234
10
23.6164365
20
13.0497389
40
1.0404907
50
179.7995573
51
185.2460446
0
ARC
8
DEFAULT_255_1_234
10
23.2121404
20
13.0114513
40
0.6343885
50
185.1411642
51
193.0079639
0
ARC
8
DEFAULT_255_1_234
10
22.9477877
20
12.9489641
40
0.3627568
50
192.7897626
51
205.2507664
0
ARC
8
DEFAULT_255_1_234
10
22.8431424
20
12.9022415
40
0.2481908
50
205.8005384
51
211.2537509
0
ARC
8
DEFAULT_255_1_234
10
22.7907864
20
12.867158
40
0.1852521
50
210.3789793
51
238.4008143
0
ARC
8
DEFAULT_255_1_234
10
22.7888386
20
12.8718376
40
0.1882621
50
239.6520629
51
265.9793761
0
ARC
8
DEFAULT_255_1_234
10
22.7973586
20
12.9390427
40
0.2559272
50
265.1315437
51
270.060332
0
ARC
8
DEFAULT_255_1_234
10
22.8002365
20
12.9066534
40
0.2235528
50
269.3314664
51
287.2178029
0
ARC
8
DEFAULT_255_1_234
10
22.8140217
20
12.8563279
40
0.1714108
50
287.7958004
51
329.080874
0
ARC
8
DEFAULT_255_1_234
10
22.7182674
20
12.916093
40
0.2842745
50
328.6634704
51
343.3325132
0
ARC
8
DEFAULT_255_1_234
10
22.5009694
20
12.9837863
40
0.5118644
50
343.0499468
51
351.9393422
0
ARC
8
DEFAULT_255_1_234
10
22.1542994
20
13.0348949
40
0.8622784
50
351.8069023
51
357.7959224
0
ARC
8
DEFAULT_255_1_234
10
21.830755
20
13.0516721
40
1.1862365
50
357.5871873
51
359.2677531
0
LINE
8
DEFAULT_255_1_234
10
23.4490021
20
13.7473211
11
23.7815161
21
12.7827093
0
LINE
8
DEFAULT_255_1_234
10
23.7815161
20
12.7827093
11
24.1156364
21
13.7473211
0
LINE
8
DEFAULT_255_1_234
10
24.1156364
20
13.7473211
11
24.2843029
21
13.7473211
0
LINE
8
DEFAULT_255_1_234
10
24.2843029
20
13.7473211
11
23.850589
21
12.5779
0
LINE
8
DEFAULT_255_1_234
10
23.850589
20
12.5779
11
23.7140495
21
12.5779
0
LINE
8
DEFAULT_255_1_234
10
23.7140495
20
12.5779
11
23.2811388
21
13.7473211
0
LINE
8
DEFAULT_255_1_234
10
23.2811388
20
13.7473211
11
23.4490021
21
13.7473211
0
LINE
8
DEFAULT_255_1_234
10
22.5173458
20
21.6848211
11
22.8209456
21
21.097701
0
LINE
8
DEFAULT_255_1_234
10
22.8209456
20
21.097701
11
23.1261516
21
21.6848211
0
LINE
8
DEFAULT_255_1_234
10
23.1261516
20
21.6848211
11
23.3012435
21
21.6848211
0
LINE
8
DEFAULT_255_1_234
10
23.3012435
20
21.6848211
11
22.8980502
21
20.9515234
0
LINE
8
DEFAULT_255_1_234
10
22.8980502
20
20.9515234
11
22.8980502
21
20.5154
0
LINE
8
DEFAULT_255_1_234
10
22.8980502
20
20.5154
11
22.7438409
21
20.5154
0
LINE
8
DEFAULT_255_1_234
10
22.7438409
20
20.5154
11
22.7438409
21
20.9515234
0
LINE
8
DEFAULT_255_1_234
10
22.7438409
20
20.9515234
11
22.3406476
21
21.6848211
0
LINE
8
DEFAULT_255_1_234
10
22.3406476
20
21.6848211
11
22.5173458
21
21.6848211
0
LINE
8
DEFAULT_255_1_234
10
23.6008273
20
21.0711963
11
23.4819576
21
21.1017169
0
LINE
8
DEFAULT_255_1_234
10
23.4819576
20
21.1017169
11
23.5413925
21
21.6848211
0
LINE
8
DEFAULT_255_1_234
10
23.5413925
20
21.6848211
11
24.1405602
21
21.6848211
0
LINE
8
DEFAULT_255_1_234
10
24.1405602
20
21.6848211
11
24.1405602
21
21.5474784
0
LINE
8
DEFAULT_255_1_234
10
24.1405602
20
21.5474784
11
23.6674908
21
21.5474784
0
LINE
8
DEFAULT_255_1_234
10
23.6674908
20
21.5474784
11
23.6321511
21
21.2286184
0
LINE
8
DEFAULT_255_1_234
10
23.4401926
20
20.8230156
11
23.580748
21
20.8230156
0
LINE
8
DEFAULT_255_1_234
10
23.6401829
20
21.1033232
11
23.6008273
21
21.0711963
0
ARC
8
DEFAULT_255_1_234
10
23.8176295
20
20.910623
40
0.3681349
50
93.7182161
51
120.2538958
0
ARC
8
DEFAULT_255_1_234
10
23.8270558
20
20.8298394
40
0.449379
50
89.9660152
51
94.2496022
0
ARC
8
DEFAULT_255_1_234
10
23.8311292
20
20.8887549
40
0.390482
50
73.8043271
51
90.5585896
0
ARC
8
DEFAULT_255_1_234
10
23.8546189
20
20.9745602
40
0.3015334
50
41.3071453
51
73.5430202
0
ARC
8
DEFAULT_255_1_234
10
23.8130016
20
20.9387324
40
0.3564457
50
13.5075983
51
41.2174222
0
ARC
8
DEFAULT_255_1_234
10
23.648822
20
20.8957486
40
0.5261351
50
1.1331335
51
13.8829381
0
ARC
8
DEFAULT_255_1_234
10
23.5076589
20
20.8881665
40
0.6674378
50
359.9919444
51
1.544251
0
ARC
8
DEFAULT_255_1_234
10
23.6353415
20
20.884028
40
0.5397702
50
347.8572367
51
0.4293338
0
ARC
8
DEFAULT_255_1_234
10
23.8103733
20
20.8443736
40
0.3603188
50
323.673004
51
348.1672506
0
ARC
8
DEFAULT_255_1_234
10
23.8398241
20
20.8264168
40
0.3259678
50
316.8171152
51
323.1492751
0
ARC
8
DEFAULT_255_1_234
10
23.845943
20
20.822746
40
0.3189975
50
281.8396411
51
316.5457803
0
ARC
8
DEFAULT_255_1_234
10
23.8083694
20
20.9782762
40
0.4789527
50
269.5770101
51
282.4214771
0
ARC
8
DEFAULT_255_1_234
10
23.8012505
20
20.9569125
40
0.45759
50
256.2427136
51
270.4486331
0
ARC
8
DEFAULT_255_1_234
10
23.7713408
20
20.8369229
40
0.3339303
50
228.9023911
51
256.3314342
0
ARC
8
DEFAULT_255_1_234
10
23.763964
20
20.8252746
40
0.32031
50
193.753695
51
228.5271154
0
ARC
8
DEFAULT_255_1_234
10
23.8877594
20
20.86158
40
0.4492253
50
184.924711
51
194.497588
0
ARC
8
DEFAULT_255_1_234
10
23.9070161
20
20.8651591
40
0.3289787
50
187.3600538
51
198.6732863
0
ARC
8
DEFAULT_255_1_234
10
23.8020455
20
20.8287674
40
0.217884
50
198.4451669
51
217.794479
0
ARC
8
DEFAULT_255_1_234
10
23.772463
20
20.8078085
40
0.1816698
50
218.2887171
51
228.5612368
0
ARC
8
DEFAULT_255_1_234
10
23.7822417
20
20.8209963
40
0.1980329
50
228.9654866
51
258.1234728
0
ARC
8
DEFAULT_255_1_234
10
23.8028127
20
20.9090833
40
0.2884748
50
257.7258293
51
270.401361
0
ARC
8
DEFAULT_255_1_234
10
23.8073014
20
20.8645821
40
0.2439788
50
269.4204404
51
286.4209037
0
ARC
8
DEFAULT_255_1_234
10
23.8221501
20
20.8106657
40
0.1880666
50
286.7251356
51
320.600362
0
ARC
8
DEFAULT_255_1_234
10
23.7838326
20
20.8417595
40
0.2374121
50
320.6712579
51
344.5441685
0
ARC
8
DEFAULT_255_1_234
10
23.6681652
20
20.8757045
40
0.3579479
50
344.2412205
51
356.7357071
0
ARC
8
DEFAULT_255_1_234
10
23.5432801
20
20.8860444
40
0.4832297
50
356.3548756
51
0.0500261
0
ARC
8
DEFAULT_255_1_234
10
23.676931
20
20.889165
40
0.3495889
50
359.5576869
51
12.953486
0
ARC
8
DEFAULT_255_1_234
10
23.7824207
20
20.9147434
40
0.2410532
50
12.6490276
51
41.6081334
0
ARC
8
DEFAULT_255_1_234
10
23.8054578
20
20.9343321
40
0.2108218
50
41.7850273
51
85.9892764
0
ARC
8
DEFAULT_255_1_234
10
23.7931315
20
20.8530462
40
0.2928454
50
84.6957577
51
90.0676183
0
ARC
8
DEFAULT_255_1_234
10
23.7907799
20
20.7861716
40
0.3597255
50
89.6804936
51
99.1614436
0
ARC
8
DEFAULT_255_1_234
10
23.770243
20
20.9089131
40
0.235281
50
98.9830931
51
113.8908934
0
ARC
8
DEFAULT_255_1_234
10
23.747284
20
20.9630587
40
0.176479
50
114.1950727
51
127.3641004
0
LINE
8
DEFAULT_255_1_234
10
22.4115458
20
29.6223211
11
22.7151456
21
29.035201
0
LINE
8
DEFAULT_255_1_234
10
22.7151456
20
29.035201
11
23.0203516
21
29.6223211
0
LINE
8
DEFAULT_255_1_234
10
23.0203516
20
29.6223211
11
23.1954435
21
29.6223211
0
LINE
8
DEFAULT_255_1_234
10
23.1954435
20
29.6223211
11
22.7922502
21
28.8890234
0
LINE
8
DEFAULT_255_1_234
10
22.7922502
20
28.8890234
11
22.7922502
21
28.4529
0
LINE
8
DEFAULT_255_1_234
10
22.7922502
20
28.4529
11
22.6380409
21
28.4529
0
LINE
8
DEFAULT_255_1_234
10
22.6380409
20
28.4529
11
22.6380409
21
28.8890234
0
LINE
8
DEFAULT_255_1_234
10
22.6380409
20
28.8890234
11
22.2348476
21
29.6223211
0
LINE
8
DEFAULT_255_1_234
10
22.2348476
20
29.6223211
11
22.4115458
21
29.6223211
0
LINE
8
DEFAULT_255_1_234
10
23.9351666
20
29.6223211
11
23.9351666
21
28.845652
0
LINE
8
DEFAULT_255_1_234
10
23.9351666
20
28.845652
11
24.0974077
21
28.845652
0
LINE
8
DEFAULT_255_1_234
10
24.0974077
20
28.845652
11
24.0974077
21
28.7243728
0
LINE
8
DEFAULT_255_1_234
10
24.0974077
20
28.7243728
11
23.9351666
21
28.7243728
0
LINE
8
DEFAULT_255_1_234
10
23.9351666
20
28.7243728
11
23.9351666
21
28.4529
0
LINE
8
DEFAULT_255_1_234
10
23.9351666
20
28.4529
11
23.7857763
21
28.4529
0
LINE
8
DEFAULT_255_1_234
10
23.7857763
20
28.4529
11
23.7857763
21
28.7243728
0
LINE
8
DEFAULT_255_1_234
10
23.7857763
20
28.7243728
11
23.253272
21
28.7243728
0
LINE
8
DEFAULT_255_1_234
10
23.253272
20
28.7243728
11
23.253272
21
28.8119187
0
LINE
8
DEFAULT_255_1_234
10
23.253272
20
28.8119187
11
23.7769414
21
29.6223211
0
LINE
8
DEFAULT_255_1_234
10
23.7769414
20
29.6223211
11
23.9351666
21
29.6223211
0
LINE
8
DEFAULT_255_1_234
10
23.7681064
20
29.3869912
11
23.4219385
21
28.845652
0
LINE
8
DEFAULT_255_1_234
10
23.4219385
20
28.845652
11
23.7857763
21
28.845652
0
LINE
8
DEFAULT_255_1_234
10
23.7857763
20
28.845652
11
23.7857763
21
29.4191181
0
LINE
8
DEFAULT_255_1_234
10
23.7857763
20
29.4191181
11
23.7681064
21
29.3869912
0
LINE
8
DEFAULT_255_1_234
10
22.5173458
20
37.5598211
11
22.8209456
21
36.972701
0
LINE
8
DEFAULT_255_1_234
10
22.8209456
20
36.972701
11
23.1261516
21
37.5598211
0
LINE
8
DEFAULT_255_1_234
10
23.1261516
20
37.5598211
11
23.3012435
21
37.5598211
0
LINE
8
DEFAULT_255_1_234
10
23.3012435
20
37.5598211
11
22.8980502
21
36.8265234
0
LINE
8
DEFAULT_255_1_234
10
22.8980502
20
36.8265234
11
22.8980502
21
36.3904
0
LINE
8
DEFAULT_255_1_234
10
22.8980502
20
36.3904
11
22.7438409
21
36.3904
0
LINE
8
DEFAULT_255_1_234
10
22.7438409
20
36.3904
11
22.7438409
21
36.8265234
0
LINE
8
DEFAULT_255_1_234
10
22.7438409
20
36.8265234
11
22.3406476
21
37.5598211
0
LINE
8
DEFAULT_255_1_234
10
22.3406476
20
37.5598211
11
22.5173458
21
37.5598211
0
LINE
8
DEFAULT_255_1_234
10
23.6297416
20
36.9261169
11
23.6297416
21
37.0473962
0
LINE
8
DEFAULT_255_1_234
10
23.6297416
20
37.0473962
11
23.7413828
21
37.0473962
0
LINE
8
DEFAULT_255_1_234
10
23.5510306
20
37.2530087
11
23.4024434
21
37.2530087
0
LINE
8
DEFAULT_255_1_234
10
23.3920021
20
36.6988188
11
23.5413925
21
36.6988188
0
LINE
8
DEFAULT_255_1_234
10
23.7413828
20
36.9261169
11
23.6297416
21
36.9261169
0
ARC
8
DEFAULT_255_1_234
10
23.7384694
20
37.3866713
40
0.3392876
50
270.4919872
51
281.8951556
0
ARC
8
DEFAULT_255_1_234
10
23.7625956
20
37.2764702
40
0.2264817
50
281.6691735
51
301.2943132
0
ARC
8
DEFAULT_255_1_234
10
23.7796166
20
37.2453304
40
0.1910381
50
301.7833094
51
311.7545298
0
ARC
8
DEFAULT_255_1_234
10
23.7887742
20
37.2351748
40
0.1773635
50
311.7323931
51
354.2802411
0
ARC
8
DEFAULT_255_1_234
10
23.7161367
20
37.2476722
40
0.2509385
50
353.0937916
51
0.1181479
0
ARC
8
DEFAULT_255_1_234
10
23.6700152
20
37.2524386
40
0.2970898
50
359.1805295
51
15.0453146
0
ARC
8
DEFAULT_255_1_234
10
23.8045989
20
37.2916992
40
0.1569564
50
13.9577229
51
77.6713066
0
ARC
8
DEFAULT_255_1_234
10
23.7659518
20
37.1531949
40
0.3006298
50
76.1116566
51
90.7026153
0
ARC
8
DEFAULT_255_1_234
10
23.7600356
20
37.1805545
40
0.2732568
50
89.5324876
51
103.531937
0
ARC
8
DEFAULT_255_1_234
10
23.7399801
20
37.2604884
40
0.1908508
50
103.2931773
51
133.5619022
0
ARC
8
DEFAULT_255_1_234
10
23.7355289
20
37.2664375
40
0.1834746
50
133.8349307
51
173.5344437
0
ARC
8
DEFAULT_255_1_234
10
23.8078332
20
37.2536213
40
0.2568033
50
172.5096846
51
180.1366907
0
ARC
8
DEFAULT_255_1_234
10
23.7127226
20
37.2570622
40
0.3103056
50
155.3484492
51
180.7484736
0
ARC
8
DEFAULT_255_1_234
10
23.7078315
20
37.2541846
40
0.3070957
50
131.5744599
51
154.4798489
0
ARC
8
DEFAULT_255_1_234
10
23.7391462
20
37.222531
40
0.3515643
50
96.9875458
51
131.9690667
0
ARC
8
DEFAULT_255_1_234
10
23.7610942
20
37.0979636
40
0.4779224
50
89.8596053
51
97.7825159
0
ARC
8
DEFAULT_255_1_234
10
23.7659005
20
37.0717616
40
0.5041361
50
78.3655447
51
90.4131539
0
ARC
8
DEFAULT_255_1_234
10
23.8016923
20
37.2376887
40
0.3344039
50
56.6229102
51
78.638727
0
ARC
8
DEFAULT_255_1_234
10
23.8231867
20
37.2752805
40
0.2912001
50
47.0253525
51
56.0854072
0
ARC
8
DEFAULT_255_1_234
10
23.8251647
20
37.2792223
40
0.2869704
50
10.9208013
51
46.7778124
0
ARC
8
DEFAULT_255_1_234
10
23.6887713
20
37.2476857
40
0.426899
50
359.6364486
51
11.6087304
0
ARC
8
DEFAULT_255_1_234
10
23.8722557
20
37.2461752
40
0.243409
50
332.3549906
51
359.7179418
0
ARC
8
DEFAULT_255_1_234
10
23.8072159
20
37.2770142
40
0.3153459
50
325.2333722
51
332.8745602
0
ARC
8
DEFAULT_255_1_234
10
23.8224783
20
37.2663828
40
0.2967456
50
292.9802137
51
325.2392345
0
ARC
8
DEFAULT_255_1_234
10
23.7950157
20
37.3197863
40
0.3566604
50
292.5402179
51
293.6924929
0
ARC
8
DEFAULT_255_1_234
10
23.8342752
20
36.6743091
40
0.3307468
50
57.6435486
51
72.8625112
0
ARC
8
DEFAULT_255_1_234
10
23.8697252
20
36.7317549
40
0.2632492
50
36.7248896
51
57.4697979
0
ARC
8
DEFAULT_255_1_234
10
23.8685885
20
36.733022
40
0.2634081
50
8.0545065
51
36.356114
0
ARC
8
DEFAULT_255_1_234
10
23.782307
20
36.7175174
40
0.3510261
50
359.8320645
51
8.5869982
0
ARC
8
DEFAULT_255_1_234
10
23.7447846
20
36.7127101
40
0.3885653
50
343.9829931
51
0.5571613
0
ARC
8
DEFAULT_255_1_234
10
23.8334043
20
36.6884438
40
0.2966924
50
311.6359546
51
343.7651759
0
ARC
8
DEFAULT_255_1_234
10
23.7955613
20
36.7311102
40
0.3537231
50
279.7829875
51
311.6255694
0
ARC
8
DEFAULT_255_1_234
10
23.7654389
20
36.874828
40
0.5004971
50
269.7286406
51
280.3856417
0
ARC
8
DEFAULT_255_1_234
10
23.7592461
20
36.8706996
40
0.4963778
50
256.6828919
51
270.4412052
0
ARC
8
DEFAULT_255_1_234
10
23.7253757
20
36.7322394
40
0.3538406
50
229.4223008
51
256.8556159
0
ARC
8
DEFAULT_255_1_234
10
23.683915
20
36.6855736
40
0.2914296
50
181.818294
51
229.6455059
0
ARC
8
DEFAULT_255_1_234
10
23.7879106
20
36.6986496
40
0.3959084
50
179.9755256
51
183.2323064
0
ARC
8
DEFAULT_255_1_234
10
23.7706852
20
36.6966037
40
0.2293034
50
179.4465117
51
196.2869258
0
ARC
8
DEFAULT_255_1_234
10
23.721926
20
36.6832651
40
0.1787621
50
196.5661473
51
227.705904
0
ARC
8
DEFAULT_255_1_234
10
23.7383355
20
36.7016155
40
0.2033784
50
227.7652068
51
257.8762805
0
ARC
8
DEFAULT_255_1_234
10
23.7608325
20
36.7959156
40
0.3003081
50
257.4584385
51
270.426602
0
ARC
8
DEFAULT_255_1_234
10
23.7653891
20
36.8248996
40
0.329292
50
269.5962073
51
280.8789248
0
ARC
8
DEFAULT_255_1_234
10
23.788342
20
36.7102685
40
0.2123908
50
280.6346389
51
299.8595945
0
ARC
8
DEFAULT_255_1_234
10
23.8074327
20
36.6740212
40
0.171457
50
300.3576302
51
314.5517981
0
ARC
8
DEFAULT_255_1_234
10
23.7991387
20
36.6800919
40
0.1816095
50
315.0728369
51
345.0431014
0
ARC
8
DEFAULT_255_1_234
10
23.7068201
20
36.7069841
40
0.2777492
50
344.5986631
51
357.9269593
0
ARC
8
DEFAULT_255_1_234
10
23.6172528
20
36.7131276
40
0.3674917
50
357.4748886
51
0.0231117
0
ARC
8
DEFAULT_255_1_234
10
23.7195637
20
36.7155679
40
0.2651907
50
359.5047933
51
13.4239635
0
ARC
8
DEFAULT_255_1_234
10
23.8062281
20
36.7377478
40
0.1757509
50
12.9498199
51
48.7551375
0
ARC
8
DEFAULT_255_1_234
10
23.7880014
20
36.71284
40
0.2065134
50
49.5088623
51
72.1836453
0
ARC
8
DEFAULT_255_1_234
10
23.7522167
20
36.6066291
40
0.3185836
50
71.9010081
51
84.3554254
0
ARC
8
DEFAULT_255_1_234
10
23.7360799
20
36.4705326
40
0.4556151
50
84.0193428
51
89.333121
0
LINE
8
DEFAULT_255_1_234
10
22.5173458
20
45.4973211
11
22.8209456
21
44.910201
0
LINE
8
DEFAULT_255_1_234
10
22.8209456
20
44.910201
11
23.1261516
21
45.4973211
0
LINE
8
DEFAULT_255_1_234
10
23.1261516
20
45.4973211
11
23.3012435
21
45.4973211
0
LINE
8
DEFAULT_255_1_234
10
23.3012435
20
45.4973211
11
22.8980502
21
44.7640234
0
LINE
8
DEFAULT_255_1_234
10
22.8980502
20
44.7640234
11
22.8980502
21
44.3279
0
LINE
8
DEFAULT_255_1_234
10
22.8980502
20
44.3279
11
22.7438409
21
44.3279
0
LINE
8
DEFAULT_255_1_234
10
22.7438409
20
44.3279
11
22.7438409
21
44.7640234
0
LINE
8
DEFAULT_255_1_234
10
22.7438409
20
44.7640234
11
22.3406476
21
45.4973211
0
LINE
8
DEFAULT_255_1_234
10
22.3406476
20
45.4973211
11
22.5173458
21
45.4973211
0
LINE
8
DEFAULT_255_1_234
10
24.1799157
20
44.4491792
11
24.1799157
21
44.3279
0
LINE
8
DEFAULT_255_1_234
10
24.1799157
20
44.3279
11
23.4136878
21
44.3279
0
LINE
8
DEFAULT_255_1_234
10
23.4136878
20
44.3279
11
23.4136878
21
44.4347221
0
LINE
8
DEFAULT_255_1_234
10
23.4136878
20
44.4347221
11
23.8184875
21
44.8844995
0
LINE
8
DEFAULT_255_1_234
10
23.5397861
20
45.1527595
11
23.391199
21
45.1527595
0
LINE
8
DEFAULT_255_1_234
10
23.9060334
20
44.7889218
11
23.5927956
21
44.4491792
0
LINE
8
DEFAULT_255_1_234
10
23.5927956
20
44.4491792
11
24.1799157
21
44.4491792
0
ARC
8
DEFAULT_255_1_234
10
22.4694708
20
46.0774527
40
1.8008286
50
318.5132453
51
320.7828378
0
ARC
8
DEFAULT_255_1_234
10
22.9981682
20
45.6471426
40
1.1191493
50
320.7372736
51
323.9737074
0
ARC
8
DEFAULT_255_1_234
10
23.3901539
20
45.3631361
40
0.6350923
50
323.8961724
51
328.6421089
0
ARC
8
DEFAULT_255_1_234
10
23.5948134
20
45.2369031
40
0.3946393
50
328.8299013
51
331.789948
0
ARC
8
DEFAULT_255_1_234
10
23.6945313
20
45.1854509
40
0.2824501
50
331.4255242
51
352.9364833
0
ARC
8
DEFAULT_255_1_234
10
23.7081813
20
45.1823976
40
0.2685315
50
353.2248685
51
0.0169286
0
ARC
8
DEFAULT_255_1_234
10
23.729169
20
45.184695
40
0.2475536
50
359.4866256
51
15.9339782
0
ARC
8
DEFAULT_255_1_234
10
23.7798675
20
45.1983286
40
0.1950618
50
16.1714718
51
43.5284424
0
ARC
8
DEFAULT_255_1_234
10
23.7875984
20
45.2060573
40
0.184134
50
43.4415429
51
83.1661404
0
ARC
8
DEFAULT_255_1_234
10
23.7741902
20
45.1323771
40
0.258926
50
82.160215
51
90.1505798
0
ARC
8
DEFAULT_255_1_234
10
23.7710329
20
45.0786865
40
0.3126255
50
89.5460705
51
102.5418777
0
ARC
8
DEFAULT_255_1_234
10
23.7467416
20
45.1817665
40
0.2067346
50
102.1739365
51
129.2061916
0
ARC
8
DEFAULT_255_1_234
10
23.7388487
20
45.1942094
40
0.1921118
50
129.7279328
51
135.7542026
0
ARC
8
DEFAULT_255_1_234
10
23.7510015
20
45.1845045
40
0.2075944
50
136.175737
51
166.3674722
0
ARC
8
DEFAULT_255_1_234
10
23.8516934
20
45.1575182
40
0.3118201
50
165.9092917
51
178.8683903
0
ARC
8
DEFAULT_255_1_234
10
23.9381795
20
45.1528179
40
0.3983935
50
178.438168
51
180.0083905
0
ARC
8
DEFAULT_255_1_234
10
23.7980398
20
45.1567231
40
0.4068601
50
163.2878735
51
180.5581814
0
ARC
8
DEFAULT_255_1_234
10
23.7178659
20
45.178784
40
0.3237344
50
133.454115
51
162.9470031
0
ARC
8
DEFAULT_255_1_234
10
23.73572
20
45.1598
40
0.349795
50
100.7869394
51
133.4384016
0
ARC
8
DEFAULT_255_1_234
10
23.7704972
20
45.0049319
40
0.5084616
50
89.6605301
51
101.3704185
0
ARC
8
DEFAULT_255_1_234
10
23.7771311
20
45.0110496
40
0.502348
50
78.2171172
51
90.4130393
0
ARC
8
DEFAULT_255_1_234
10
23.8126389
20
45.1734637
40
0.3361092
50
55.9268222
51
78.4888551
0
ARC
8
DEFAULT_255_1_234
10
23.8322829
20
45.2073324
40
0.2970617
50
47.9292255
51
55.4054003
0
ARC
8
DEFAULT_255_1_234
10
23.842439
20
45.2176502
40
0.2825983
50
4.3347696
51
48.0560701
0
ARC
8
DEFAULT_255_1_234
10
23.7328783
20
45.2006601
40
0.393225
50
359.925209
51
5.5967654
0
ARC
8
DEFAULT_255_1_234
10
23.7757675
20
45.2062816
40
0.3503892
50
337.8914096
51
358.9967724
0
ARC
8
DEFAULT_255_1_234
10
23.5044087
20
45.3109706
40
0.6412172
50
326.9135351
51
338.3505194
0
ARC
8
DEFAULT_255_1_234
10
23.1058391
20
45.5664284
40
1.1146189
50
319.6472867
51
327.095818
0
ARC
8
DEFAULT_255_1_234
10
22.7225394
20
45.8826
40
1.6114559
50
317.2586784
51
319.9046139
0
LINE
8
DEFAULT_255_1_234
10
22.5261458
20
53.4348211
11
22.8297456
21
52.847701
0
LINE
8
DEFAULT_255_1_234
10
22.8297456
20
52.847701
11
23.1349516
21
53.4348211
0
LINE
8
DEFAULT_255_1_234
10
23.1349516
20
53.4348211
11
23.3100435
21
53.4348211
0
LINE
8
DEFAULT_255_1_234
10
23.3100435
20
53.4348211
11
22.9068502
21
52.7015234
0
LINE
8
DEFAULT_255_1_234
10
22.9068502
20
52.7015234
11
22.9068502
21
52.2654
0
LINE
8
DEFAULT_255_1_234
10
22.9068502
20
52.2654
11
22.7526409
21
52.2654
0
LINE
8
DEFAULT_255_1_234
10
22.7526409
20
52.2654
11
22.7526409
21
52.7015234
0
LINE
8
DEFAULT_255_1_234
10
22.7526409
20
52.7015234
11
22.3494476
21
53.4348211
0
LINE
8
DEFAULT_255_1_234
10
22.3494476
20
53.4348211
11
22.5261458
21
53.4348211
0
LINE
8
DEFAULT_255_1_234
10
23.9108175
20
53.4404433
11
23.9108175
21
52.2654
0
LINE
8
DEFAULT_255_1_234
10
23.9108175
20
52.2654
11
23.7614272
21
52.2654
0
LINE
8
DEFAULT_255_1_234
10
23.7614272
20
52.2654
11
23.7614272
21
53.2557133
0
LINE
8
DEFAULT_255_1_234
10
23.7614272
20
53.2557133
11
23.4618434
21
53.1456785
0
LINE
8
DEFAULT_255_1_234
10
23.4618434
20
53.1456785
11
23.4618434
21
53.2806117
0
LINE
8
DEFAULT_255_1_234
10
23.4618434
20
53.2806117
11
23.8875255
21
53.4404433
0
LINE
8
DEFAULT_255_1_234
10
23.8875255
20
53.4404433
11
23.9108175
21
53.4404433
0
LINE
8
DEFAULT_255_1_234
10
22.5173458
20
61.3723211
11
22.8209456
21
60.785201
0
LINE
8
DEFAULT_255_1_234
10
22.8209456
20
60.785201
11
23.1261516
21
61.3723211
0
LINE
8
DEFAULT_255_1_234
10
23.1261516
20
61.3723211
11
23.3012435
21
61.3723211
0
LINE
8
DEFAULT_255_1_234
10
23.3012435
20
61.3723211
11
22.8980502
21
60.6390234
0
LINE
8
DEFAULT_255_1_234
10
22.8980502
20
60.6390234
11
22.8980502
21
60.2029
0
LINE
8
DEFAULT_255_1_234
10
22.8980502
20
60.2029
11
22.7438409
21
60.2029
0
LINE
8
DEFAULT_255_1_234
10
22.7438409
20
60.2029
11
22.7438409
21
60.6390234
0
LINE
8
DEFAULT_255_1_234
10
22.7438409
20
60.6390234
11
22.3406476
21
61.3723211
0
LINE
8
DEFAULT_255_1_234
10
22.3406476
20
61.3723211
11
22.5173458
21
61.3723211
0
LINE
8
DEFAULT_255_1_234
10
24.1469855
20
60.8944327
11
24.1469855
21
60.7016709
0
LINE
8
DEFAULT_255_1_234
10
23.4088688
20
60.6815916
11
23.4088688
21
60.8799755
0
LINE
8
DEFAULT_255_1_234
10
23.9983984
20
60.6615123
11
23.9983984
21
60.9048739
0
LINE
8
DEFAULT_255_1_234
10
23.557456
20
60.9161184
11
23.557456
21
60.6783789
0
ARC
8
DEFAULT_255_1_234
10
22.9222745
20
60.6967805
40
1.2247208
50
353.8441951
51
0.2287902
0
ARC
8
DEFAULT_255_1_234
10
23.3862249
20
60.6449806
40
0.7578929
50
344.4934747
51
353.9765454
0
ARC
8
DEFAULT_255_1_234
10
23.6854839
20
60.5598981
40
0.4467846
50
329.2803592
51
344.7472793
0
ARC
8
DEFAULT_255_1_234
10
23.7847664
20
60.5054018
40
0.3336173
50
324.9352394
51
328.6160465
0
ARC
8
DEFAULT_255_1_234
10
23.8224773
20
60.4790427
40
0.2876076
50
280.580143
51
324.9173126
0
ARC
8
DEFAULT_255_1_234
10
23.7823565
20
60.6461099
40
0.4592847
50
269.5977311
51
281.6734359
0
ARC
8
DEFAULT_255_1_234
10
23.7751471
20
60.6341173
40
0.4472986
50
256.6228859
51
270.51044
0
ARC
8
DEFAULT_255_1_234
10
23.7349449
20
60.4792877
40
0.2873874
50
215.8618325
51
257.2788573
0
ARC
8
DEFAULT_255_1_234
10
23.837048
20
60.5477977
40
0.4102928
50
197.9693508
51
215.2623606
0
ARC
8
DEFAULT_255_1_234
10
24.0855596
20
60.6316709
40
0.6725652
50
187.8816417
51
198.2346507
0
ARC
8
DEFAULT_255_1_234
10
24.4813804
20
60.6888079
40
1.0724845
50
180.8976217
51
188.0055519
0
ARC
8
DEFAULT_255_1_234
10
24.7613992
20
60.6991777
40
1.3526448
50
180.7449369
51
181.1510016
0
ARC
8
DEFAULT_255_1_234
10
24.6036721
20
60.8848042
40
1.1948131
50
173.7675579
51
180.231553
0
ARC
8
DEFAULT_255_1_234
10
24.1518868
20
60.9358666
40
0.7401564
50
164.3058563
51
173.9002247
0
ARC
8
DEFAULT_255_1_234
10
23.8606937
20
61.0197656
40
0.4371288
50
148.7922025
51
164.568378
0
ARC
8
DEFAULT_255_1_234
10
23.7655389
20
61.0728929
40
0.3282386
50
144.5883898
51
148.1176286
0
ARC
8
DEFAULT_255_1_234
10
23.7312287
20
61.0968315
40
0.2864044
50
101.6440918
51
144.514236
0
ARC
8
DEFAULT_255_1_234
10
23.7737354
20
60.9279069
40
0.4604934
50
89.5284041
51
102.5819763
0
ARC
8
DEFAULT_255_1_234
10
23.7816441
20
60.9240018
40
0.464401
50
77.0437873
51
90.5081339
0
ARC
8
DEFAULT_255_1_234
10
23.8218443
20
61.0882615
40
0.2953195
50
48.2778575
51
77.4994676
0
ARC
8
DEFAULT_255_1_234
10
23.8291074
20
61.1011746
40
0.2808655
50
36.3142134
51
47.6305865
0
ARC
8
DEFAULT_255_1_234
10
23.7422381
20
61.0426515
40
0.3855453
50
18.2931786
51
35.6769206
0
ARC
8
DEFAULT_255_1_234
10
23.487914
20
60.9553593
40
0.654423
50
8.024666
51
18.5605216
0
ARC
8
DEFAULT_255_1_234
10
23.071606
20
60.8938792
40
1.0752407
50
1.1274072
51
8.1718305
0
ARC
8
DEFAULT_255_1_234
10
22.7480251
20
60.8811885
40
1.3990231
50
0.5424119
51
1.3863029
0
ARC
8
DEFAULT_255_1_234
10
22.9301629
20
60.9084342
40
1.0682415
50
359.8090433
51
4.9407866
0
ARC
8
DEFAULT_255_1_234
10
23.3511643
20
60.9460113
40
0.6455691
50
4.8362157
51
12.2904523
0
ARC
8
DEFAULT_255_1_234
10
23.6266757
20
61.0073965
40
0.3633074
50
12.0805627
51
23.8173984
0
ARC
8
DEFAULT_255_1_234
10
23.7440463
20
61.0570919
40
0.2358723
50
24.2871213
51
31.3935614
0
ARC
8
DEFAULT_255_1_234
10
23.796516
20
61.0914233
40
0.1732111
50
30.7407893
51
82.4657128
0
ARC
8
DEFAULT_255_1_234
10
23.7785294
20
61.0030691
40
0.263235
50
81.1060089
51
90.2184952
0
ARC
8
DEFAULT_255_1_234
10
23.7749593
20
61.0288924
40
0.2374236
50
89.3806855
51
105.6762551
0
ARC
8
DEFAULT_255_1_234
10
23.7566224
20
61.0955567
40
0.1682847
50
105.7981136
51
149.7388061
0
ARC
8
DEFAULT_255_1_234
10
23.8630302
20
61.031595
40
0.2924306
50
149.4208916
51
163.6286378
0
ARC
8
DEFAULT_255_1_234
10
24.072119
20
60.967825
40
0.5110213
50
163.3763315
51
172.1410975
0
ARC
8
DEFAULT_255_1_234
10
24.4021909
20
60.9205518
40
0.8444586
50
172.0259487
51
178.0703232
0
ARC
8
DEFAULT_255_1_234
10
24.7051999
20
60.9061906
40
1.1477868
50
177.8631668
51
179.5044149
0
ARC
8
DEFAULT_255_1_234
10
24.5979403
20
60.6747389
40
1.0404907
50
179.7995573
51
185.2460446
0
ARC
8
DEFAULT_255_1_234
10
24.1936442
20
60.6364513
40
0.6343885
50
185.1411642
51
193.0079639
0
ARC
8
DEFAULT_255_1_234
10
23.9292915
20
60.5739641
40
0.3627568
50
192.7897626
51
205.2507664
0
ARC
8
DEFAULT_255_1_234
10
23.8246462
20
60.5272415
40
0.2481908
50
205.8005384
51
211.2537509
0
ARC
8
DEFAULT_255_1_234
10
23.7722902
20
60.492158
40
0.1852521
50
210.3789793
51
238.4008143
0
ARC
8
DEFAULT_255_1_234
10
23.7703424
20
60.4968376
40
0.1882621
50
239.6520629
51
265.9793761
0
ARC
8
DEFAULT_255_1_234
10
23.7788624
20
60.5640427
40
0.2559272
50
265.1315437
51
270.060332
0
ARC
8
DEFAULT_255_1_234
10
23.7817403
20
60.5316534
40
0.2235528
50
269.3314664
51
287.2178029
0
ARC
8
DEFAULT_255_1_234
10
23.7955255
20
60.4813279
40
0.1714108
50
287.7958004
51
329.080874
0
ARC
8
DEFAULT_255_1_234
10
23.6997712
20
60.541093
40
0.2842745
50
328.6634704
51
343.3325132
0
ARC
8
DEFAULT_255_1_234
10
23.4824732
20
60.6087863
40
0.5118644
50
343.0499468
51
351.9393422
0
ARC
8
DEFAULT_255_1_234
10
23.1358032
20
60.6598949
40
0.8622784
50
351.8069023
51
357.7959224
0
ARC
8
DEFAULT_255_1_234
10
22.8122588
20
60.6766721
40
1.1862365
50
357.5871873
51
359.2677531
0
LINE
8
DEFAULT_255_1_234
10
21.9184265
20
69.1090276
11
21.9184265
21
68.7676788
0
LINE
8
DEFAULT_255_1_234
10
21.9184265
20
68.7676788
11
22.244515
21
68.7676788
0
LINE
8
DEFAULT_255_1_234
10
22.244515
20
68.7676788
11
22.244515
21
68.6271233
0
LINE
8
DEFAULT_255_1_234
10
22.244515
20
68.6271233
11
21.9184265
21
68.6271233
0
LINE
8
DEFAULT_255_1_234
10
21.9184265
20
68.6271233
11
21.9184265
21
68.2576634
0
LINE
8
DEFAULT_255_1_234
10
21.9184265
20
68.2576634
11
21.7690361
21
68.2576634
0
LINE
8
DEFAULT_255_1_234
10
21.7690361
20
68.2576634
11
21.7690361
21
68.6271233
0
LINE
8
DEFAULT_255_1_234
10
21.7690361
20
68.6271233
11
21.4429476
21
68.6271233
0
LINE
8
DEFAULT_255_1_234
10
21.4429476
20
68.6271233
11
21.4429476
21
68.7676788
0
LINE
8
DEFAULT_255_1_234
10
21.4429476
20
68.7676788
11
21.7690361
21
68.7676788
0
LINE
8
DEFAULT_255_1_234
10
21.7690361
20
68.7676788
11
21.7690361
21
69.1090276
0
LINE
8
DEFAULT_255_1_234
10
21.7690361
20
69.1090276
11
21.9184265
21
69.1090276
0
LINE
8
DEFAULT_255_1_234
10
22.503137
20
69.3098211
11
22.835651
21
68.3452093
0
LINE
8
DEFAULT_255_1_234
10
22.835651
20
68.3452093
11
23.1697713
21
69.3098211
0
LINE
8
DEFAULT_255_1_234
10
23.1697713
20
69.3098211
11
23.3384378
21
69.3098211
0
LINE
8
DEFAULT_255_1_234
10
23.3384378
20
69.3098211
11
22.9047239
21
68.1404
0
LINE
8
DEFAULT_255_1_234
10
22.9047239
20
68.1404
11
22.7681844
21
68.1404
0
LINE
8
DEFAULT_255_1_234
10
22.7681844
20
68.1404
11
22.3352737
21
69.3098211
0
LINE
8
DEFAULT_255_1_234
10
22.3352737
20
69.3098211
11
22.503137
21
69.3098211
0
LINE
8
DEFAULT_255_1_234
10
24.2227322
20
68.2616792
11
24.2227322
21
68.1404
0
LINE
8
DEFAULT_255_1_234
10
24.2227322
20
68.1404
11
23.4565043
21
68.1404
0
LINE
8
DEFAULT_255_1_234
10
23.4565043
20
68.1404
11
23.4565043
21
68.2472221
0
LINE
8
DEFAULT_255_1_234
10
23.4565043
20
68.2472221
11
23.861304
21
68.6969995
0
LINE
8
DEFAULT_255_1_234
10
23.5826026
20
68.9652595
11
23.4340155
21
68.9652595
0
LINE
8
DEFAULT_255_1_234
10
23.9488499
20
68.6014218
11
23.6356121
21
68.2616792
0
LINE
8
DEFAULT_255_1_234
10
23.6356121
20
68.2616792
11
24.2227322
21
68.2616792
0
ARC
8
DEFAULT_255_1_234
10
22.5122873
20
69.8899527
40
1.8008286
50
318.5132453
51
320.7828378
0
ARC
8
DEFAULT_255_1_234
10
23.0409847
20
69.4596426
40
1.1191493
50
320.7372736
51
323.9737074
0
ARC
8
DEFAULT_255_1_234
10
23.4329704
20
69.1756361
40
0.6350923
50
323.8961724
51
328.6421089
0
ARC
8
DEFAULT_255_1_234
10
23.6376299
20
69.0494031
40
0.3946393
50
328.8299013
51
331.789948
0
ARC
8
DEFAULT_255_1_234
10
23.7373478
20
68.9979509
40
0.2824501
50
331.4255242
51
352.9364833
0
ARC
8
DEFAULT_255_1_234
10
23.7509978
20
68.9948976
40
0.2685315
50
353.2248685
51
0.0169286
0
ARC
8
DEFAULT_255_1_234
10
23.7719855
20
68.997195
40
0.2475536
50
359.4866256
51
15.9339782
0
ARC
8
DEFAULT_255_1_234
10
23.822684
20
69.0108286
40
0.1950618
50
16.1714718
51
43.5284424
0
ARC
8
DEFAULT_255_1_234
10
23.8304149
20
69.0185573
40
0.184134
50
43.4415429
51
83.1661404
0
ARC
8
DEFAULT_255_1_234
10
23.8170067
20
68.9448771
40
0.258926
50
82.160215
51
90.1505798
0
ARC
8
DEFAULT_255_1_234
10
23.8138495
20
68.8911865
40
0.3126255
50
89.5460705
51
102.5418777
0
ARC
8
DEFAULT_255_1_234
10
23.7895581
20
68.9942665
40
0.2067346
50
102.1739365
51
129.2061916
0
ARC
8
DEFAULT_255_1_234
10
23.7816652
20
69.0067094
40
0.1921118
50
129.7279328
51
135.7542026
0
ARC
8
DEFAULT_255_1_234
10
23.793818
20
68.9970045
40
0.2075944
50
136.175737
51
166.3674722
0
ARC
8
DEFAULT_255_1_234
10
23.8945099
20
68.9700182
40
0.3118201
50
165.9092917
51
178.8683903
0
ARC
8
DEFAULT_255_1_234
10
23.9809961
20
68.9653179
40
0.3983935
50
178.438168
51
180.0083905
0
ARC
8
DEFAULT_255_1_234
10
23.8408563
20
68.9692231
40
0.4068601
50
163.2878735
51
180.5581814
0
ARC
8
DEFAULT_255_1_234
10
23.7606824
20
68.991284
40
0.3237344
50
133.454115
51
162.9470031
0
ARC
8
DEFAULT_255_1_234
10
23.7785365
20
68.9723
40
0.349795
50
100.7869394
51
133.4384016
0
ARC
8
DEFAULT_255_1_234
10
23.8133137
20
68.8174319
40
0.5084616
50
89.6605301
51
101.3704185
0
ARC
8
DEFAULT_255_1_234
10
23.8199476
20
68.8235496
40
0.502348
50
78.2171172
51
90.4130393
0
ARC
8
DEFAULT_255_1_234
10
23.8554554
20
68.9859637
40
0.3361092
50
55.9268222
51
78.4888551
0
ARC
8
DEFAULT_255_1_234
10
23.8750994
20
69.0198324
40
0.2970617
50
47.9292255
51
55.4054003
0
ARC
8
DEFAULT_255_1_234
10
23.8852555
20
69.0301502
40
0.2825983
50
4.3347696
51
48.0560701
0
ARC
8
DEFAULT_255_1_234
10
23.7756948
20
69.0131601
40
0.393225
50
359.925209
51
5.5967654
0
ARC
8
DEFAULT_255_1_234
10
23.818584
20
69.0187816
40
0.3503892
50
337.8914096
51
358.9967724
0
ARC
8
DEFAULT_255_1_234
10
23.5472252
20
69.1234706
40
0.6412172
50
326.9135351
51
338.3505194
0
ARC
8
DEFAULT_255_1_234
10
23.1486556
20
69.3789284
40
1.1146189
50
319.6472867
51
327.095818
0
ARC
8
DEFAULT_255_1_234
10
22.7653559
20
69.6951
40
1.6114559
50
317.2586784
51
319.9046139
0
LINE
8
DEFAULT_255_1_234
10
21.9263265
20
77.0465276
11
21.9263265
21
76.7051788
0
LINE
8
DEFAULT_255_1_234
10
21.9263265
20
76.7051788
11
22.252415
21
76.7051788
0
LINE
8
DEFAULT_255_1_234
10
22.252415
20
76.7051788
11
22.252415
21
76.5646233
0
LINE
8
DEFAULT_255_1_234
10
22.252415
20
76.5646233
11
21.9263265
21
76.5646233
0
LINE
8
DEFAULT_255_1_234
10
21.9263265
20
76.5646233
11
21.9263265
21
76.1951634
0
LINE
8
DEFAULT_255_1_234
10
21.9263265
20
76.1951634
11
21.7769361
21
76.1951634
0
LINE
8
DEFAULT_255_1_234
10
21.7769361
20
76.1951634
11
21.7769361
21
76.5646233
0
LINE
8
DEFAULT_255_1_234
10
21.7769361
20
76.5646233
11
21.4508476
21
76.5646233
0
LINE
8
DEFAULT_255_1_234
10
21.4508476
20
76.5646233
11
21.4508476
21
76.7051788
0
LINE
8
DEFAULT_255_1_234
10
21.4508476
20
76.7051788
11
21.7769361
21
76.7051788
0
LINE
8
DEFAULT_255_1_234
10
21.7769361
20
76.7051788
11
21.7769361
21
77.0465276
0
LINE
8
DEFAULT_255_1_234
10
21.7769361
20
77.0465276
11
21.9263265
21
77.0465276
0
LINE
8
DEFAULT_255_1_234
10
22.511037
20
77.2473211
11
22.843551
21
76.2827093
0
LINE
8
DEFAULT_255_1_234
10
22.843551
20
76.2827093
11
23.1776713
21
77.2473211
0
LINE
8
DEFAULT_255_1_234
10
23.1776713
20
77.2473211
11
23.3463378
21
77.2473211
0
LINE
8
DEFAULT_255_1_234
10
23.3463378
20
77.2473211
11
22.9126239
21
76.0779
0
LINE
8
DEFAULT_255_1_234
10
22.9126239
20
76.0779
11
22.7760844
21
76.0779
0
LINE
8
DEFAULT_255_1_234
10
22.7760844
20
76.0779
11
22.3431737
21
77.2473211
0
LINE
8
DEFAULT_255_1_234
10
22.3431737
20
77.2473211
11
22.511037
21
77.2473211
0
LINE
8
DEFAULT_255_1_234
10
23.952734
20
77.2529433
11
23.952734
21
76.0779
0
LINE
8
DEFAULT_255_1_234
10
23.952734
20
76.0779
11
23.8033437
21
76.0779
0
LINE
8
DEFAULT_255_1_234
10
23.8033437
20
76.0779
11
23.8033437
21
77.0682133
0
LINE
8
DEFAULT_255_1_234
10
23.8033437
20
77.0682133
11
23.5037599
21
76.9581785
0
LINE
8
DEFAULT_255_1_234
10
23.5037599
20
76.9581785
11
23.5037599
21
77.0931117
0
LINE
8
DEFAULT_255_1_234
10
23.5037599
20
77.0931117
11
23.929442
21
77.2529433
0
LINE
8
DEFAULT_255_1_234
10
23.929442
20
77.2529433
11
23.952734
21
77.2529433
0
LINE
8
DEFAULT_255_1_234
10
21.9184265
20
84.9840276
11
21.9184265
21
84.6426788
0
LINE
8
DEFAULT_255_1_234
10
21.9184265
20
84.6426788
11
22.244515
21
84.6426788
0
LINE
8
DEFAULT_255_1_234
10
22.244515
20
84.6426788
11
22.244515
21
84.5021233
0
LINE
8
DEFAULT_255_1_234
10
22.244515
20
84.5021233
11
21.9184265
21
84.5021233
0
LINE
8
DEFAULT_255_1_234
10
21.9184265
20
84.5021233
11
21.9184265
21
84.1326634
0
LINE
8
DEFAULT_255_1_234
10
21.9184265
20
84.1326634
11
21.7690361
21
84.1326634
0
LINE
8
DEFAULT_255_1_234
10
21.7690361
20
84.1326634
11
21.7690361
21
84.5021233
0
LINE
8
DEFAULT_255_1_234
10
21.7690361
20
84.5021233
11
21.4429476
21
84.5021233
0
LINE
8
DEFAULT_255_1_234
10
21.4429476
20
84.5021233
11
21.4429476
21
84.6426788
0
LINE
8
DEFAULT_255_1_234
10
21.4429476
20
84.6426788
11
21.7690361
21
84.6426788
0
LINE
8
DEFAULT_255_1_234
10
21.7690361
20
84.6426788
11
21.7690361
21
84.9840276
0
LINE
8
DEFAULT_255_1_234
10
21.7690361
20
84.9840276
11
21.9184265
21
84.9840276
0
LINE
8
DEFAULT_255_1_234
10
22.503137
20
85.1848211
11
22.835651
21
84.2202093
0
LINE
8
DEFAULT_255_1_234
10
22.835651
20
84.2202093
11
23.1697713
21
85.1848211
0
LINE
8
DEFAULT_255_1_234
10
23.1697713
20
85.1848211
11
23.3384378
21
85.1848211
0
LINE
8
DEFAULT_255_1_234
10
23.3384378
20
85.1848211
11
22.9047239
21
84.0154
0
LINE
8
DEFAULT_255_1_234
10
22.9047239
20
84.0154
11
22.7681844
21
84.0154
0
LINE
8
DEFAULT_255_1_234
10
22.7681844
20
84.0154
11
22.3352737
21
85.1848211
0
LINE
8
DEFAULT_255_1_234
10
22.3352737
20
85.1848211
11
22.503137
21
85.1848211
0
LINE
8
DEFAULT_255_1_234
10
24.1898021
20
84.7069327
11
24.1898021
21
84.5141709
0
LINE
8
DEFAULT_255_1_234
10
23.4516853
20
84.4940916
11
23.4516853
21
84.6924755
0
LINE
8
DEFAULT_255_1_234
10
24.0412149
20
84.4740123
11
24.0412149
21
84.7173739
0
LINE
8
DEFAULT_255_1_234
10
23.6002725
20
84.7286184
11
23.6002725
21
84.4908789
0
ARC
8
DEFAULT_255_1_234
10
22.965091
20
84.5092805
40
1.2247208
50
353.8441951
51
0.2287902
0
ARC
8
DEFAULT_255_1_234
10
23.4290414
20
84.4574806
40
0.7578929
50
344.4934747
51
353.9765454
0
ARC
8
DEFAULT_255_1_234
10
23.7283004
20
84.3723981
40
0.4467846
50
329.2803592
51
344.7472793
0
ARC
8
DEFAULT_255_1_234
10
23.8275829
20
84.3179018
40
0.3336173
50
324.9352394
51
328.6160465
0
ARC
8
DEFAULT_255_1_234
10
23.8652938
20
84.2915427
40
0.2876076
50
280.580143
51
324.9173126
0
ARC
8
DEFAULT_255_1_234
10
23.825173
20
84.4586099
40
0.4592847
50
269.5977311
51
281.6734359
0
ARC
8
DEFAULT_255_1_234
10
23.8179636
20
84.4466173
40
0.4472986
50
256.6228859
51
270.51044
0
ARC
8
DEFAULT_255_1_234
10
23.7777614
20
84.2917877
40
0.2873874
50
215.8618325
51
257.2788573
0
ARC
8
DEFAULT_255_1_234
10
23.8798645
20
84.3602977
40
0.4102928
50
197.9693508
51
215.2623606
0
ARC
8
DEFAULT_255_1_234
10
24.1283761
20
84.4441709
40
0.6725652
50
187.8816417
51
198.2346507
0
ARC
8
DEFAULT_255_1_234
10
24.5241969
20
84.5013079
40
1.0724845
50
180.8976217
51
188.0055519
0
ARC
8
DEFAULT_255_1_234
10
24.8042157
20
84.5116777
40
1.3526448
50
180.7449369
51
181.1510016
0
ARC
8
DEFAULT_255_1_234
10
24.6464886
20
84.6973042
40
1.1948131
50
173.7675579
51
180.231553
0
ARC
8
DEFAULT_255_1_234
10
24.1947033
20
84.7483666
40
0.7401564
50
164.3058563
51
173.9002247
0
ARC
8
DEFAULT_255_1_234
10
23.9035102
20
84.8322656
40
0.4371288
50
148.7922025
51
164.568378
0
ARC
8
DEFAULT_255_1_234
10
23.8083554
20
84.8853929
40
0.3282386
50
144.5883898
51
148.1176286
0
ARC
8
DEFAULT_255_1_234
10
23.7740452
20
84.9093315
40
0.2864044
50
101.6440918
51
144.514236
0
ARC
8
DEFAULT_255_1_234
10
23.8165519
20
84.7404069
40
0.4604934
50
89.5284041
51
102.5819763
0
ARC
8
DEFAULT_255_1_234
10
23.8244606
20
84.7365018
40
0.464401
50
77.0437873
51
90.5081339
0
ARC
8
DEFAULT_255_1_234
10
23.8646608
20
84.9007615
40
0.2953195
50
48.2778575
51
77.4994676
0
ARC
8
DEFAULT_255_1_234
10
23.8719239
20
84.9136746
40
0.2808655
50
36.3142134
51
47.6305865
0
ARC
8
DEFAULT_255_1_234
10
23.7850546
20
84.8551515
40
0.3855453
50
18.2931786
51
35.6769206
0
ARC
8
DEFAULT_255_1_234
10
23.5307305
20
84.7678593
40
0.654423
50
8.024666
51
18.5605216
0
ARC
8
DEFAULT_255_1_234
10
23.1144225
20
84.7063792
40
1.0752407
50
1.1274072
51
8.1718305
0
ARC
8
DEFAULT_255_1_234
10
22.7908416
20
84.6936885
40
1.3990231
50
0.5424119
51
1.3863029
0
ARC
8
DEFAULT_255_1_234
10
22.9729794
20
84.7209342
40
1.0682415
50
359.8090433
51
4.9407866
0
ARC
8
DEFAULT_255_1_234
10
23.3939808
20
84.7585113
40
0.6455691
50
4.8362157
51
12.2904523
0
ARC
8
DEFAULT_255_1_234
10
23.6694922
20
84.8198965
40
0.3633074
50
12.0805627
51
23.8173984
0
ARC
8
DEFAULT_255_1_234
10
23.7868628
20
84.8695919
40
0.2358723
50
24.2871213
51
31.3935614
0
ARC
8
DEFAULT_255_1_234
10
23.8393325
20
84.9039233
40
0.1732111
50
30.7407893
51
82.4657128
0
ARC
8
DEFAULT_255_1_234
10
23.8213459
20
84.8155691
40
0.263235
50
81.1060089
51
90.2184952
0
ARC
8
DEFAULT_255_1_234
10
23.8177758
20
84.8413924
40
0.2374236
50
89.3806855
51
105.6762551
0
ARC
8
DEFAULT_255_1_234
10
23.7994389
20
84.9080567
40
0.1682847
50
105.7981136
51
149.7388061
0
ARC
8
DEFAULT_255_1_234
10
23.9058467
20
84.844095
40
0.2924306
50
149.4208916
51
163.6286378
0
ARC
8
DEFAULT_255_1_234
10
24.1149355
20
84.780325
40
0.5110213
50
163.3763315
51
172.1410975
0
ARC
8
DEFAULT_255_1_234
10
24.4450074
20
84.7330518
40
0.8444586
50
172.0259487
51
178.0703232
0
ARC
8
DEFAULT_255_1_234
10
24.7480164
20
84.7186906
40
1.1477868
50
177.8631668
51
179.5044149
0
ARC
8
DEFAULT_255_1_234
10
24.6407568
20
84.4872389
40
1.0404907
50
179.7995573
51
185.2460446
0
ARC
8
DEFAULT_255_1_234
10
24.2364607
20
84.4489513
40
0.6343885
50
185.1411642
51
193.0079639
0
ARC
8
DEFAULT_255_1_234
10
23.972108
20
84.3864641
40
0.3627568
50
192.7897626
51
205.2507664
0
ARC
8
DEFAULT_255_1_234
10
23.8674627
20
84.3397415
40
0.2481908
50
205.8005384
51
211.2537509
0
ARC
8
DEFAULT_255_1_234
10
23.8151067
20
84.304658
40
0.1852521
50
210.3789793
51
238.4008143
0
ARC
8
DEFAULT_255_1_234
10
23.8131589
20
84.3093376
40
0.1882621
50
239.6520629
51
265.9793761
0
ARC
8
DEFAULT_255_1_234
10
23.8216789
20
84.3765427
40
0.2559272
50
265.1315437
51
270.060332
0
ARC
8
DEFAULT_255_1_234
10
23.8245568
20
84.3441534
40
0.2235528
50
269.3314664
51
287.2178029
0
ARC
8
DEFAULT_255_1_234
10
23.838342
20
84.2938279
40
0.1714108
50
287.7958004
51
329.080874
0
ARC
8
DEFAULT_255_1_234
10
23.7425877
20
84.353593
40
0.2842745
50
328.6634704
51
343.3325132
0
ARC
8
DEFAULT_255_1_234
10
23.5252897
20
84.4212863
40
0.5118644
50
343.0499468
51
351.9393422
0
ARC
8
DEFAULT_255_1_234
10
23.1786197
20
84.4723949
40
0.8622784
50
351.8069023
51
357.7959224
0
ARC
8
DEFAULT_255_1_234
10
22.8550753
20
84.4891721
40
1.1862365
50
357.5871873
51
359.2677531
0
ENDSEC
0
EOF