0
SECTION
2
HEADER
9
$MEASUREMENT
70
1
0
ENDSEC
0
SECTION
2
TABLES
0
TABLE
2
LTYPE
0
LTYPE
72
65
70
64
2
CONTINUOUS
3
______
73
0
40
0
0
ENDTAB
0
TABLE
2
LAYER
0
LAYER
2
DEFAULT_255_2_778
70
0
62
255
6
CONTINUOUS
0
LAYER
2
DEFAULT_255_1_234
70
0
62
255
6
CONTINUOUS
0
ENDTAB
0
ENDSEC
0
SECTION
2
ENTITIES
0
ARC
8
DEFAULT_255_2_778
10
3.5700693
20
123.4302024
40
0.7914215
50
129.1312896
51
180.1450914
0
ARC
8
DEFAULT_255_2_778
10
3.5703345
20
123.4306895
40
0.7912112
50
89.854026
51
129.1684493
0
ARC
8
DEFAULT_255_2_778
10
25.7993937
20
123.430376
40
0.7915249
50
39.4792447
51
90.147911
0
ARC
8
DEFAULT_255_2_778
10
25.7999935
20
123.4302227
40
0.7911595
50
359.8533901
51
39.5154338
0
ARC
8
DEFAULT_255_2_778
10
25.7996693
20
-1.9863499
40
0.7914836
50
309.4761667
51
0.1482649
0
ARC
8
DEFAULT_255_2_778
10
25.799398
20
-1.986781
40
0.7913235
50
269.8517415
51
309.511178
0
ARC
8
DEFAULT_255_2_778
10
3.570342
20
-1.9867228
40
0.7913815
50
219.1282118
51
270.1454017
0
ARC
8
DEFAULT_255_2_778
10
3.5700247
20
-1.9863403
40
0.7913769
50
179.8524075
51
219.1641908
0
LINE
8
DEFAULT_255_2_778
10
3.5723503
20
124.2218982
11
25.7973503
21
124.2218982
0
LINE
8
DEFAULT_255_2_778
10
26.5911503
20
123.4281982
11
26.5911503
21
-1.9843018
0
LINE
8
DEFAULT_255_2_778
10
25.7973503
20
-2.7781018
11
3.5723503
21
-2.7781018
0
LINE
8
DEFAULT_255_2_778
10
2.7786503
20
-1.9843018
11
2.7786503
21
123.4281982
0
LINE
8
DEFAULT_255_1_234
10
9.280985
20
-0.0087609
11
9.280985
21
-0.1348592
0
LINE
8
DEFAULT_255_1_234
10
9.280985
20
-0.1348592
11
8.7902458
21
-0.1348592
0
LINE
8
DEFAULT_255_1_234
10
8.7902458
20
-0.1348592
11
8.7902458
21
-0.6513
0
LINE
8
DEFAULT_255_1_234
10
8.7902458
20
-0.6513
11
8.6360364
21
-0.6513
0
LINE
8
DEFAULT_255_1_234
10
8.6360364
20
-0.6513
11
8.6360364
21
0.5181211
0
LINE
8
DEFAULT_255_1_234
10
8.6360364
20
0.5181211
11
9.3604992
21
0.5181211
0
LINE
8
DEFAULT_255_1_234
10
9.3604992
20
0.5181211
11
9.3604992
21
0.3912196
0
LINE
8
DEFAULT_255_1_234
10
9.3604992
20
0.3912196
11
8.7902458
21
0.3912196
0
LINE
8
DEFAULT_255_1_234
10
8.7902458
20
0.3912196
11
8.7902458
21
-0.0087609
0
LINE
8
DEFAULT_255_1_234
10
8.7902458
20
-0.0087609
11
9.280985
21
-0.0087609
0
LINE
8
DEFAULT_255_1_234
10
9.6448227
20
0.5181211
11
9.9267367
21
0.0699501
0
LINE
8
DEFAULT_255_1_234
10
9.9267367
20
0.0699501
11
10.2070444
21
0.5181211
0
LINE
8
DEFAULT_255_1_234
10
10.2070444
20
0.5181211
11
10.3885617
21
0.5181211
0
LINE
8
DEFAULT_255_1_234
10
10.3885617
20
0.5181211
11
10.0191017
21
-0.0617704
0
LINE
8
DEFAULT_255_1_234
10
10.0191017
20
-0.0617704
11
10.3973966
21
-0.6513
0
LINE
8
DEFAULT_255_1_234
10
10.3973966
20
-0.6513
11
10.2142729
21
-0.6513
0
LINE
8
DEFAULT_255_1_234
10
10.2142729
20
-0.6513
11
9.9267367
21
-0.1950973
0
LINE
8
DEFAULT_255_1_234
10
9.9267367
20
-0.1950973
11
9.6375941
21
-0.6513
0
LINE
8
DEFAULT_255_1_234
10
9.6375941
20
-0.6513
11
9.4552737
21
-0.6513
0
LINE
8
DEFAULT_255_1_234
10
9.4552737
20
-0.6513
11
9.8343717
21
-0.0617704
0
LINE
8
DEFAULT_255_1_234
10
9.8343717
20
-0.0617704
11
9.4641086
21
0.5181211
0
LINE
8
DEFAULT_255_1_234
10
9.4641086
20
0.5181211
11
9.6448227
21
0.5181211
0
LINE
8
DEFAULT_255_1_234
10
10.7540058
20
-0.1155831
11
10.7540058
21
0.0056962
0
LINE
8
DEFAULT_255_1_234
10
10.7540058
20
0.0056962
11
10.8656469
21
0.0056962
0
LINE
8
DEFAULT_255_1_234
10
10.6752947
20
0.2113087
11
10.5267076
21
0.2113087
0
LINE
8
DEFAULT_255_1_234
10
10.5162663
20
-0.3428813
11
10.6656566
21
-0.3428813
0
LINE
8
DEFAULT_255_1_234
10
10.8656469
20
-0.1155831
11
10.7540058
21
-0.1155831
0
ARC
8
DEFAULT_255_1_234
10
10.8627336
20
0.3449713
40
0.3392876
50
270.4919872
51
281.8951556
0
ARC
8
DEFAULT_255_1_234
10
10.8868597
20
0.2347702
40
0.2264817
50
281.6691735
51
301.2943132
0
ARC
8
DEFAULT_255_1_234
10
10.9038808
20
0.2036304
40
0.1910381
50
301.7833094
51
311.7545298
0
ARC
8
DEFAULT_255_1_234
10
10.9130383
20
0.1934748
40
0.1773635
50
311.7323931
51
354.2802411
0
ARC
8
DEFAULT_255_1_234
10
10.8404009
20
0.2059722
40
0.2509385
50
353.0937916
51
0.1181479
0
ARC
8
DEFAULT_255_1_234
10
10.7942793
20
0.2107386
40
0.2970898
50
359.1805295
51
15.0453146
0
ARC
8
DEFAULT_255_1_234
10
10.928863
20
0.2499992
40
0.1569564
50
13.9577229
51
77.6713066
0
ARC
8
DEFAULT_255_1_234
10
10.890216
20
0.1114949
40
0.3006298
50
76.1116566
51
90.7026153
0
ARC
8
DEFAULT_255_1_234
10
10.8842998
20
0.1388545
40
0.2732568
50
89.5324876
51
103.531937
0
ARC
8
DEFAULT_255_1_234
10
10.8642442
20
0.2187884
40
0.1908508
50
103.2931773
51
133.5619022
0
ARC
8
DEFAULT_255_1_234
10
10.859793
20
0.2247375
40
0.1834746
50
133.8349307
51
173.5344437
0
ARC
8
DEFAULT_255_1_234
10
10.9320973
20
0.2119213
40
0.2568033
50
172.5096846
51
180.1366907
0
ARC
8
DEFAULT_255_1_234
10
10.8369867
20
0.2153622
40
0.3103056
50
155.3484492
51
180.7484736
0
ARC
8
DEFAULT_255_1_234
10
10.8320956
20
0.2124846
40
0.3070957
50
131.5744599
51
154.4798489
0
ARC
8
DEFAULT_255_1_234
10
10.8634104
20
0.180831
40
0.3515643
50
96.9875458
51
131.9690667
0
ARC
8
DEFAULT_255_1_234
10
10.8853584
20
0.0562636
40
0.4779224
50
89.8596053
51
97.7825159
0
ARC
8
DEFAULT_255_1_234
10
10.8901647
20
0.0300616
40
0.5041361
50
78.3655447
51
90.4131539
0
ARC
8
DEFAULT_255_1_234
10
10.9259565
20
0.1959887
40
0.3344039
50
56.6229102
51
78.638727
0
ARC
8
DEFAULT_255_1_234
10
10.9474508
20
0.2335805
40
0.2912001
50
47.0253525
51
56.0854072
0
ARC
8
DEFAULT_255_1_234
10
10.9494288
20
0.2375223
40
0.2869704
50
10.9208013
51
46.7778124
0
ARC
8
DEFAULT_255_1_234
10
10.8130355
20
0.2059857
40
0.426899
50
359.6364486
51
11.6087304
0
ARC
8
DEFAULT_255_1_234
10
10.9965199
20
0.2044752
40
0.243409
50
332.3549906
51
359.7179418
0
ARC
8
DEFAULT_255_1_234
10
10.93148
20
0.2353142
40
0.3153459
50
325.2333722
51
332.8745602
0
ARC
8
DEFAULT_255_1_234
10
10.9467424
20
0.2246828
40
0.2967456
50
292.9802137
51
325.2392345
0
ARC
8
DEFAULT_255_1_234
10
10.9192798
20
0.2780863
40
0.3566604
50
292.5402179
51
293.6924929
0
ARC
8
DEFAULT_255_1_234
10
10.9585394
20
-0.3673909
40
0.3307468
50
57.6435486
51
72.8625112
0
ARC
8
DEFAULT_255_1_234
10
10.9939894
20
-0.3099451
40
0.2632492
50
36.7248896
51
57.4697979
0
ARC
8
DEFAULT_255_1_234
10
10.9928526
20
-0.308678
40
0.2634081
50
8.0545065
51
36.356114
0
ARC
8
DEFAULT_255_1_234
10
10.9065712
20
-0.3241826
40
0.3510261
50
359.8320645
51
8.5869982
0
ARC
8
DEFAULT_255_1_234
10
10.8690488
20
-0.3289899
40
0.3885653
50
343.9829931
51
0.5571613
0
ARC
8
DEFAULT_255_1_234
10
10.9576685
20
-0.3532562
40
0.2966924
50
311.6359546
51
343.7651759
0
ARC
8
DEFAULT_255_1_234
10
10.9198254
20
-0.3105898
40
0.3537231
50
279.7829875
51
311.6255694
0
ARC
8
DEFAULT_255_1_234
10
10.889703
20
-0.166872
40
0.5004971
50
269.7286406
51
280.3856417
0
ARC
8
DEFAULT_255_1_234
10
10.8835103
20
-0.1710004
40
0.4963778
50
256.6828919
51
270.4412052
0
ARC
8
DEFAULT_255_1_234
10
10.8496399
20
-0.3094606
40
0.3538406
50
229.4223008
51
256.8556159
0
ARC
8
DEFAULT_255_1_234
10
10.8081792
20
-0.3561264
40
0.2914296
50
181.818294
51
229.6455059
0
ARC
8
DEFAULT_255_1_234
10
10.9121748
20
-0.3430504
40
0.3959084
50
179.9755256
51
183.2323064
0
ARC
8
DEFAULT_255_1_234
10
10.8949494
20
-0.3450963
40
0.2293034
50
179.4465117
51
196.2869258
0
ARC
8
DEFAULT_255_1_234
10
10.8461902
20
-0.3584349
40
0.1787621
50
196.5661473
51
227.705904
0
ARC
8
DEFAULT_255_1_234
10
10.8625996
20
-0.3400845
40
0.2033784
50
227.7652068
51
257.8762805
0
ARC
8
DEFAULT_255_1_234
10
10.8850967
20
-0.2457844
40
0.3003081
50
257.4584385
51
270.426602
0
ARC
8
DEFAULT_255_1_234
10
10.8896533
20
-0.2168004
40
0.329292
50
269.5962073
51
280.8789248
0
ARC
8
DEFAULT_255_1_234
10
10.9126062
20
-0.3314315
40
0.2123908
50
280.6346389
51
299.8595945
0
ARC
8
DEFAULT_255_1_234
10
10.9316968
20
-0.3676788
40
0.171457
50
300.3576302
51
314.5517981
0
ARC
8
DEFAULT_255_1_234
10
10.9234028
20
-0.3616081
40
0.1816095
50
315.0728369
51
345.0431014
0
ARC
8
DEFAULT_255_1_234
10
10.8310843
20
-0.3347159
40
0.2777492
50
344.5986631
51
357.9269593
0
ARC
8
DEFAULT_255_1_234
10
10.7415169
20
-0.3285724
40
0.3674917
50
357.4748886
51
0.0231117
0
ARC
8
DEFAULT_255_1_234
10
10.8438278
20
-0.3261321
40
0.2651907
50
359.5047933
51
13.4239635
0
ARC
8
DEFAULT_255_1_234
10
10.9304922
20
-0.3039522
40
0.1757509
50
12.9498199
51
48.7551375
0
ARC
8
DEFAULT_255_1_234
10
10.9122656
20
-0.32886
40
0.2065134
50
49.5088623
51
72.1836453
0
ARC
8
DEFAULT_255_1_234
10
10.8764808
20
-0.4350709
40
0.3185836
50
71.9010081
51
84.3554254
0
ARC
8
DEFAULT_255_1_234
10
10.860344
20
-0.5711674
40
0.4556151
50
84.0193428
51
89.333121
0
LINE
8
DEFAULT_255_1_234
10
12.2760202
20
0.1799849
11
12.1210076
21
0.1799849
0
LINE
8
DEFAULT_255_1_234
10
11.4286718
20
-0.3123606
11
11.5836843
21
-0.3123606
0
ARC
8
DEFAULT_255_1_234
10
12.1868889
20
1.0746768
40
1.252368
50
248.9199003
51
254.1439814
0
ARC
8
DEFAULT_255_1_234
10
12.0188384
20
0.6420234
40
0.788226
50
241.633709
51
249.0064503
0
ARC
8
DEFAULT_255_1_234
10
11.8659778
20
0.3619317
40
0.4691427
50
230.498225
51
241.8087113
0
ARC
8
DEFAULT_255_1_234
10
11.7875353
20
0.2619906
40
0.3421437
50
227.4064532
51
229.9881192
0
ARC
8
DEFAULT_255_1_234
10
11.7387873
20
0.2144088
40
0.2741476
50
200.6781896
51
228.1763934
0
ARC
8
DEFAULT_255_1_234
10
11.7460184
20
0.2129077
40
0.2804109
50
179.5061581
51
199.8694617
0
ARC
8
DEFAULT_255_1_234
10
11.7450935
20
0.220321
40
0.2795204
50
132.4834203
51
181.0242172
0
ARC
8
DEFAULT_255_1_234
10
11.8046518
20
0.1640704
40
0.3612768
50
129.2532479
51
133.4242687
0
ARC
8
DEFAULT_255_1_234
10
11.8192967
20
0.1420965
40
0.3875675
50
101.98776
51
128.8742646
0
ARC
8
DEFAULT_255_1_234
10
11.8591578
20
-0.0300259
40
0.5642249
50
89.5906553
51
102.3169264
0
ARC
8
DEFAULT_255_1_234
10
11.866207
20
0.0018148
40
0.5323783
50
77.2360837
51
90.3248275
0
ARC
8
DEFAULT_255_1_234
10
11.8869149
20
0.09854
40
0.4334697
50
63.837784
51
77.0809408
0
ARC
8
DEFAULT_255_1_234
10
11.9146911
20
0.1502911
40
0.3747796
50
45.9864267
51
64.1607727
0
ARC
8
DEFAULT_255_1_234
10
11.9407792
20
0.1800866
40
0.3352302
50
32.2747395
51
45.6547121
0
ARC
8
DEFAULT_255_1_234
10
11.9474233
20
0.181988
40
0.328603
50
359.6507365
51
32.6130309
0
ARC
8
DEFAULT_255_1_234
10
11.8531328
20
0.182466
40
0.2678863
50
359.469343
51
14.9832209
0
ARC
8
DEFAULT_255_1_234
10
11.9236391
20
0.2013539
40
0.1948938
50
14.9781179
51
48.2004265
0
ARC
8
DEFAULT_255_1_234
10
11.9072035
20
0.1806983
40
0.2212521
50
48.5927837
51
74.1241538
0
ARC
8
DEFAULT_255_1_234
10
11.8738524
20
0.0706248
40
0.3362561
50
73.7888341
51
86.6652678
0
ARC
8
DEFAULT_255_1_234
10
11.863609
20
-0.0501119
40
0.4573953
50
86.2640471
51
90.0526343
0
ARC
8
DEFAULT_255_1_234
10
11.8607803
20
-0.0105808
40
0.4178709
50
89.6697524
51
99.2309573
0
ARC
8
DEFAULT_255_1_234
10
11.8365253
20
0.1338964
40
0.2713749
50
99.069534
51
113.7658566
0
ARC
8
DEFAULT_255_1_234
10
11.8091445
20
0.1984677
40
0.2012469
50
114.0401004
51
127.9850673
0
ARC
8
DEFAULT_255_1_234
10
11.7851009
20
0.228073
40
0.1631167
50
127.7287463
51
176.7105154
0
ARC
8
DEFAULT_255_1_234
10
11.8529726
20
0.2179693
40
0.2315392
50
175.1779447
51
180.0581938
0
ARC
8
DEFAULT_255_1_234
10
11.7686573
20
0.2167428
40
0.1472271
50
179.6142195
51
228.1246017
0
ARC
8
DEFAULT_255_1_234
10
11.8128241
20
0.2576308
40
0.2072299
50
226.5779593
51
230.8800004
0
ARC
8
DEFAULT_255_1_234
10
11.859932
20
0.3201636
40
0.2854818
50
231.4635071
51
241.9260842
0
ARC
8
DEFAULT_255_1_234
10
11.9796498
20
0.54048
40
0.53622
50
241.7178533
51
248.3259551
0
ARC
8
DEFAULT_255_1_234
10
12.118187
20
0.8837064
40
0.9063478
50
248.2007737
51
252.4528373
0
ARC
8
DEFAULT_255_1_234
10
12.2385595
20
1.2558441
40
1.2974635
50
252.3391078
51
254.3469452
0
ARC
8
DEFAULT_255_1_234
10
11.4843297
20
-1.4418852
40
1.5037162
50
71.0197183
51
74.4087047
0
ARC
8
DEFAULT_255_1_234
10
11.6537983
20
-0.9526889
40
0.9859993
50
66.1847285
51
71.086374
0
ARC
8
DEFAULT_255_1_234
10
11.8094295
20
-0.60228
40
0.6025855
50
59.3536294
51
66.2691831
0
ARC
8
DEFAULT_255_1_234
10
11.8982947
20
-0.4519391
40
0.4279449
50
49.1020879
51
59.3293958
0
ARC
8
DEFAULT_255_1_234
10
11.9801687
20
-0.3586166
40
0.3038015
50
32.7919921
51
49.2505539
0
ARC
8
DEFAULT_255_1_234
10
12.0122777
20
-0.3357809
40
0.264448
50
31.1181161
51
32.4005348
0
ARC
8
DEFAULT_255_1_234
10
12.0034315
20
-0.3393221
40
0.2738556
50
8.1116974
51
30.7958831
0
ARC
8
DEFAULT_255_1_234
10
11.9223983
20
-0.3531247
40
0.3560327
50
359.8389159
51
8.4706516
0
ARC
8
DEFAULT_255_1_234
10
11.9849775
20
-0.3579863
40
0.2934776
50
337.4731098
51
0.7537279
0
ARC
8
DEFAULT_255_1_234
10
12.0028469
20
-0.3599613
40
0.2762607
50
307.5917067
51
336.4315538
0
ARC
8
DEFAULT_255_1_234
10
11.9568297
20
-0.3086898
40
0.3449979
50
307.6551545
51
308.4529766
0
ARC
8
DEFAULT_255_1_234
10
11.9338016
20
-0.273175
40
0.3871988
50
284.3734338
51
307.1424381
0
ARC
8
DEFAULT_255_1_234
10
11.8842846
20
-0.0910068
40
0.5759636
50
272.4382747
51
284.646547
0
ARC
8
DEFAULT_255_1_234
10
11.8716055
20
0.0889893
40
0.7563528
50
269.9708387
51
272.8178037
0
ARC
8
DEFAULT_255_1_234
10
11.8673095
20
-0.1148284
40
0.5525489
50
248.2707594
51
270.4055579
0
ARC
8
DEFAULT_255_1_234
10
11.8618836
20
-0.1338808
40
0.5328452
50
246.1383403
51
248.0542782
0
ARC
8
DEFAULT_255_1_234
10
11.8200215
20
-0.2218157
40
0.4355005
50
233.1670131
51
246.4950969
0
ARC
8
DEFAULT_255_1_234
10
11.764612
20
-0.2966188
40
0.3424126
50
215.3403242
51
233.0843104
0
ARC
8
DEFAULT_255_1_234
10
11.7373551
20
-0.3164451
40
0.3087104
50
179.2419209
51
215.2648451
0
ARC
8
DEFAULT_255_1_234
10
11.8141145
20
-0.3150334
40
0.2304457
50
179.335461
51
199.1045811
0
ARC
8
DEFAULT_255_1_234
10
11.7808821
20
-0.3237234
40
0.1962176
50
199.8828939
51
232.7063202
0
ARC
8
DEFAULT_255_1_234
10
11.828109
20
-0.2643212
40
0.2720938
50
232.3738199
51
255.5136649
0
ARC
8
DEFAULT_255_1_234
10
11.8621957
20
-0.1399165
40
0.4010747
50
255.2446292
51
267.5320849
0
ARC
8
DEFAULT_255_1_234
10
11.870958
20
-0.0166298
40
0.5246356
50
267.1557994
51
270.0286766
0
ARC
8
DEFAULT_255_1_234
10
11.8737352
20
-0.061005
40
0.4802668
50
269.7000017
51
278.1660162
0
ARC
8
DEFAULT_255_1_234
10
11.8993357
20
-0.2340485
40
0.3053425
50
278.0231263
51
290.625471
0
ARC
8
DEFAULT_255_1_234
10
11.9341044
20
-0.3267975
40
0.206291
50
290.6619762
51
307.0370976
0
ARC
8
DEFAULT_255_1_234
10
11.9641433
20
-0.3636496
40
0.1587906
50
306.3943566
51
355.3030547
0
ARC
8
DEFAULT_255_1_234
10
11.9129365
20
-0.3559887
40
0.2104809
50
354.3660432
51
0.0698737
0
ARC
8
DEFAULT_255_1_234
10
11.927171
20
-0.3537383
40
0.1962563
50
359.417946
51
16.1971788
0
ARC
8
DEFAULT_255_1_234
10
11.972702
20
-0.3412582
40
0.149053
50
16.4723299
51
52.6262157
0
ARC
8
DEFAULT_255_1_234
10
11.8906074
20
-0.4496567
40
0.2850296
50
52.7386432
51
62.4979148
0
ARC
8
DEFAULT_255_1_234
10
11.7521151
20
-0.7102717
40
0.5801521
50
62.2515216
51
68.1220564
0
ARC
8
DEFAULT_255_1_234
10
11.5801062
20
-1.1330128
40
1.0365451
50
68.0062803
51
71.8053402
0
ARC
8
DEFAULT_255_1_234
10
11.4005433
20
-1.6715242
40
1.6042013
50
71.7183119
51
73.9258742
0
LINE
8
DEFAULT_255_1_234
10
12.7619403
20
-0.0938974
11
12.7619403
21
-0.2151766
0
LINE
8
DEFAULT_255_1_234
10
12.7619403
20
-0.2151766
11
12.3699915
21
-0.2151766
0
LINE
8
DEFAULT_255_1_234
10
12.3699915
20
-0.2151766
11
12.3699915
21
-0.0938974
0
LINE
8
DEFAULT_255_1_234
10
12.3699915
20
-0.0938974
11
12.7619403
21
-0.0938974
0
LINE
8
DEFAULT_255_1_234
10
13.6574792
20
-0.5300208
11
13.6574792
21
-0.6513
0
LINE
8
DEFAULT_255_1_234
10
13.6574792
20
-0.6513
11
12.8912513
21
-0.6513
0
LINE
8
DEFAULT_255_1_234
10
12.8912513
20
-0.6513
11
12.8912513
21
-0.5444779
0
LINE
8
DEFAULT_255_1_234
10
12.8912513
20
-0.5444779
11
13.2960509
21
-0.0947005
0
LINE
8
DEFAULT_255_1_234
10
13.0173496
20
0.1735595
11
12.8687625
21
0.1735595
0
LINE
8
DEFAULT_255_1_234
10
13.3835969
20
-0.1902782
11
13.0703591
21
-0.5300208
0
LINE
8
DEFAULT_255_1_234
10
13.0703591
20
-0.5300208
11
13.6574792
21
-0.5300208
0
ARC
8
DEFAULT_255_1_234
10
11.9470343
20
1.0982527
40
1.8008286
50
318.5132453
51
320.7828378
0
ARC
8
DEFAULT_255_1_234
10
12.4757317
20
0.6679426
40
1.1191493
50
320.7372736
51
323.9737074
0
ARC
8
DEFAULT_255_1_234
10
12.8677173
20
0.3839361
40
0.6350923
50
323.8961724
51
328.6421089
0
ARC
8
DEFAULT_255_1_234
10
13.0723769
20
0.2577031
40
0.3946393
50
328.8299013
51
331.789948
0
ARC
8
DEFAULT_255_1_234
10
13.1720947
20
0.2062509
40
0.2824501
50
331.4255242
51
352.9364833
0
ARC
8
DEFAULT_255_1_234
10
13.1857448
20
0.2031976
40
0.2685315
50
353.2248685
51
0.0169286
0
ARC
8
DEFAULT_255_1_234
10
13.2067325
20
0.205495
40
0.2475536
50
359.4866256
51
15.9339782
0
ARC
8
DEFAULT_255_1_234
10
13.257431
20
0.2191286
40
0.1950618
50
16.1714718
51
43.5284424
0
ARC
8
DEFAULT_255_1_234
10
13.2651619
20
0.2268573
40
0.184134
50
43.4415429
51
83.1661404
0
ARC
8
DEFAULT_255_1_234
10
13.2517537
20
0.1531771
40
0.258926
50
82.160215
51
90.1505798
0
ARC
8
DEFAULT_255_1_234
10
13.2485964
20
0.0994865
40
0.3126255
50
89.5460705
51
102.5418777
0
ARC
8
DEFAULT_255_1_234
10
13.224305
20
0.2025665
40
0.2067346
50
102.1739365
51
129.2061916
0
ARC
8
DEFAULT_255_1_234
10
13.2164122
20
0.2150094
40
0.1921118
50
129.7279328
51
135.7542026
0
ARC
8
DEFAULT_255_1_234
10
13.228565
20
0.2053045
40
0.2075944
50
136.175737
51
166.3674722
0
ARC
8
DEFAULT_255_1_234
10
13.3292569
20
0.1783182
40
0.3118201
50
165.9092917
51
178.8683903
0
ARC
8
DEFAULT_255_1_234
10
13.415743
20
0.1736179
40
0.3983935
50
178.438168
51
180.0083905
0
ARC
8
DEFAULT_255_1_234
10
13.2756032
20
0.1775231
40
0.4068601
50
163.2878735
51
180.5581814
0
ARC
8
DEFAULT_255_1_234
10
13.1954294
20
0.199584
40
0.3237344
50
133.454115
51
162.9470031
0
ARC
8
DEFAULT_255_1_234
10
13.2132835
20
0.1806
40
0.349795
50
100.7869394
51
133.4384016
0
ARC
8
DEFAULT_255_1_234
10
13.2480606
20
0.0257319
40
0.5084616
50
89.6605301
51
101.3704185
0
ARC
8
DEFAULT_255_1_234
10
13.2546945
20
0.0318496
40
0.502348
50
78.2171172
51
90.4130393
0
ARC
8
DEFAULT_255_1_234
10
13.2902024
20
0.1942637
40
0.3361092
50
55.9268222
51
78.4888551
0
ARC
8
DEFAULT_255_1_234
10
13.3098464
20
0.2281324
40
0.2970617
50
47.9292255
51
55.4054003
0
ARC
8
DEFAULT_255_1_234
10
13.3200024
20
0.2384502
40
0.2825983
50
4.3347696
51
48.0560701
0
ARC
8
DEFAULT_255_1_234
10
13.2104418
20
0.2214601
40
0.393225
50
359.925209
51
5.5967654
0
ARC
8
DEFAULT_255_1_234
10
13.253331
20
0.2270816
40
0.3503892
50
337.8914096
51
358.9967724
0
ARC
8
DEFAULT_255_1_234
10
12.9819722
20
0.3317706
40
0.6412172
50
326.9135351
51
338.3505194
0
ARC
8
DEFAULT_255_1_234
10
12.5834026
20
0.5872284
40
1.1146189
50
319.6472867
51
327.095818
0
ARC
8
DEFAULT_255_1_234
10
12.2001029
20
0.9034
40
1.6114559
50
317.2586784
51
319.9046139
0
LINE
8
DEFAULT_255_1_234
10
14.5481989
20
0.0402327
11
14.5481989
21
-0.1525291
0
LINE
8
DEFAULT_255_1_234
10
13.8100822
20
-0.1726084
11
13.8100822
21
0.0257755
0
LINE
8
DEFAULT_255_1_234
10
14.3996118
20
-0.1926877
11
14.3996118
21
0.0506739
0
LINE
8
DEFAULT_255_1_234
10
13.9586693
20
0.0619184
11
13.9586693
21
-0.1758211
0
ARC
8
DEFAULT_255_1_234
10
13.3234879
20
-0.1574195
40
1.2247208
50
353.8441951
51
0.2287902
0
ARC
8
DEFAULT_255_1_234
10
13.7874382
20
-0.2092194
40
0.7578929
50
344.4934747
51
353.9765454
0
ARC
8
DEFAULT_255_1_234
10
14.0866973
20
-0.2943019
40
0.4467846
50
329.2803592
51
344.7472793
0
ARC
8
DEFAULT_255_1_234
10
14.1859798
20
-0.3487982
40
0.3336173
50
324.9352394
51
328.6160465
0
ARC
8
DEFAULT_255_1_234
10
14.2236906
20
-0.3751573
40
0.2876076
50
280.580143
51
324.9173126
0
ARC
8
DEFAULT_255_1_234
10
14.1835699
20
-0.2080901
40
0.4592847
50
269.5977311
51
281.6734359
0
ARC
8
DEFAULT_255_1_234
10
14.1763604
20
-0.2200827
40
0.4472986
50
256.6228859
51
270.51044
0
ARC
8
DEFAULT_255_1_234
10
14.1361582
20
-0.3749123
40
0.2873874
50
215.8618325
51
257.2788573
0
ARC
8
DEFAULT_255_1_234
10
14.2382614
20
-0.3064023
40
0.4102928
50
197.9693508
51
215.2623606
0
ARC
8
DEFAULT_255_1_234
10
14.486773
20
-0.2225291
40
0.6725652
50
187.8816417
51
198.2346507
0
ARC
8
DEFAULT_255_1_234
10
14.8825938
20
-0.1653921
40
1.0724845
50
180.8976217
51
188.0055519
0
ARC
8
DEFAULT_255_1_234
10
15.1626126
20
-0.1550223
40
1.3526448
50
180.7449369
51
181.1510016
0
ARC
8
DEFAULT_255_1_234
10
15.0048855
20
0.0306042
40
1.1948131
50
173.7675579
51
180.231553
0
ARC
8
DEFAULT_255_1_234
10
14.5531002
20
0.0816666
40
0.7401564
50
164.3058563
51
173.9002247
0
ARC
8
DEFAULT_255_1_234
10
14.261907
20
0.1655656
40
0.4371288
50
148.7922025
51
164.568378
0
ARC
8
DEFAULT_255_1_234
10
14.1667523
20
0.2186929
40
0.3282386
50
144.5883898
51
148.1176286
0
ARC
8
DEFAULT_255_1_234
10
14.132442
20
0.2426315
40
0.2864044
50
101.6440918
51
144.514236
0
ARC
8
DEFAULT_255_1_234
10
14.1749487
20
0.0737069
40
0.4604934
50
89.5284041
51
102.5819763
0
ARC
8
DEFAULT_255_1_234
10
14.1828575
20
0.0698018
40
0.464401
50
77.0437873
51
90.5081339
0
ARC
8
DEFAULT_255_1_234
10
14.2230577
20
0.2340615
40
0.2953195
50
48.2778575
51
77.4994676
0
ARC
8
DEFAULT_255_1_234
10
14.2303208
20
0.2469746
40
0.2808655
50
36.3142134
51
47.6305865
0
ARC
8
DEFAULT_255_1_234
10
14.1434515
20
0.1884515
40
0.3855453
50
18.2931786
51
35.6769206
0
ARC
8
DEFAULT_255_1_234
10
13.8891274
20
0.1011593
40
0.654423
50
8.024666
51
18.5605216
0
ARC
8
DEFAULT_255_1_234
10
13.4728194
20
0.0396792
40
1.0752407
50
1.1274072
51
8.1718305
0
ARC
8
DEFAULT_255_1_234
10
13.1492384
20
0.0269885
40
1.3990231
50
0.5424119
51
1.3863029
0
ARC
8
DEFAULT_255_1_234
10
13.3313762
20
0.0542342
40
1.0682415
50
359.8090433
51
4.9407866
0
ARC
8
DEFAULT_255_1_234
10
13.7523776
20
0.0918113
40
0.6455691
50
4.8362157
51
12.2904523
0
ARC
8
DEFAULT_255_1_234
10
14.0278891
20
0.1531965
40
0.3633074
50
12.0805627
51
23.8173984
0
ARC
8
DEFAULT_255_1_234
10
14.1452596
20
0.2028919
40
0.2358723
50
24.2871213
51
31.3935614
0
ARC
8
DEFAULT_255_1_234
10
14.1977294
20
0.2372233
40
0.1732111
50
30.7407893
51
82.4657128
0
ARC
8
DEFAULT_255_1_234
10
14.1797428
20
0.1488691
40
0.263235
50
81.1060089
51
90.2184952
0
ARC
8
DEFAULT_255_1_234
10
14.1761727
20
0.1746924
40
0.2374236
50
89.3806855
51
105.6762551
0
ARC
8
DEFAULT_255_1_234
10
14.1578357
20
0.2413567
40
0.1682847
50
105.7981136
51
149.7388061
0
ARC
8
DEFAULT_255_1_234
10
14.2642436
20
0.177395
40
0.2924306
50
149.4208916
51
163.6286378
0
ARC
8
DEFAULT_255_1_234
10
14.4733324
20
0.113625
40
0.5110213
50
163.3763315
51
172.1410975
0
ARC
8
DEFAULT_255_1_234
10
14.8034043
20
0.0663518
40
0.8444586
50
172.0259487
51
178.0703232
0
ARC
8
DEFAULT_255_1_234
10
15.1064132
20
0.0519906
40
1.1477868
50
177.8631668
51
179.5044149
0
ARC
8
DEFAULT_255_1_234
10
14.9991537
20
-0.1794611
40
1.0404907
50
179.7995573
51
185.2460446
0
ARC
8
DEFAULT_255_1_234
10
14.5948576
20
-0.2177487
40
0.6343885
50
185.1411642
51
193.0079639
0
ARC
8
DEFAULT_255_1_234
10
14.3305049
20
-0.2802359
40
0.3627568
50
192.7897626
51
205.2507664
0
ARC
8
DEFAULT_255_1_234
10
14.2258596
20
-0.3269585
40
0.2481908
50
205.8005384
51
211.2537509
0
ARC
8
DEFAULT_255_1_234
10
14.1735036
20
-0.362042
40
0.1852521
50
210.3789793
51
238.4008143
0
ARC
8
DEFAULT_255_1_234
10
14.1715558
20
-0.3573624
40
0.1882621
50
239.6520629
51
265.9793761
0
ARC
8
DEFAULT_255_1_234
10
14.1800758
20
-0.2901573
40
0.2559272
50
265.1315437
51
270.060332
0
ARC
8
DEFAULT_255_1_234
10
14.1829537
20
-0.3225466
40
0.2235528
50
269.3314664
51
287.2178029
0
ARC
8
DEFAULT_255_1_234
10
14.1967389
20
-0.3728721
40
0.1714108
50
287.7958004
51
329.080874
0
ARC
8
DEFAULT_255_1_234
10
14.1009846
20
-0.313107
40
0.2842745
50
328.6634704
51
343.3325132
0
ARC
8
DEFAULT_255_1_234
10
13.8836866
20
-0.2454137
40
0.5118644
50
343.0499468
51
351.9393422
0
ARC
8
DEFAULT_255_1_234
10
13.5370166
20
-0.1943051
40
0.8622784
50
351.8069023
51
357.7959224
0
ARC
8
DEFAULT_255_1_234
10
13.2134722
20
-0.1775279
40
1.1862365
50
357.5871873
51
359.2677531
0
LINE
8
DEFAULT_255_1_234
10
14.7771035
20
0.5181211
11
14.9762906
21
0.5181211
0
LINE
8
DEFAULT_255_1_234
10
14.9762906
20
0.5181211
11
15.3586013
21
-0.4360494
0
LINE
8
DEFAULT_255_1_234
10
15.3586013
20
-0.4360494
11
15.7409121
21
0.5181211
0
LINE
8
DEFAULT_255_1_234
10
15.7409121
20
0.5181211
11
15.9409023
21
0.5181211
0
LINE
8
DEFAULT_255_1_234
10
15.9409023
20
0.5181211
11
15.9409023
21
-0.6513
0
LINE
8
DEFAULT_255_1_234
10
15.9409023
20
-0.6513
11
15.786693
21
-0.6513
0
LINE
8
DEFAULT_255_1_234
10
15.786693
20
-0.6513
11
15.786693
21
-0.1959004
0
LINE
8
DEFAULT_255_1_234
10
15.786693
20
-0.1959004
11
15.8011501
21
0.2956419
0
LINE
8
DEFAULT_255_1_234
10
15.8011501
20
0.2956419
11
15.417233
21
-0.6513
0
LINE
8
DEFAULT_255_1_234
10
15.417233
20
-0.6513
11
15.2991665
21
-0.6513
0
LINE
8
DEFAULT_255_1_234
10
15.2991665
20
-0.6513
11
14.9160525
21
0.2932324
0
LINE
8
DEFAULT_255_1_234
10
14.9160525
20
0.2932324
11
14.9313128
21
-0.1959004
0
LINE
8
DEFAULT_255_1_234
10
14.9313128
20
-0.1959004
11
14.9313128
21
-0.6513
0
LINE
8
DEFAULT_255_1_234
10
14.9313128
20
-0.6513
11
14.7771035
21
-0.6513
0
LINE
8
DEFAULT_255_1_234
10
14.7771035
20
-0.6513
11
14.7771035
21
0.5181211
0
LINE
8
DEFAULT_255_1_234
10
16.895876
20
-0.6513
11
16.6420731
21
-0.1782306
0
LINE
8
DEFAULT_255_1_234
10
16.6420731
20
-0.1782306
11
16.3673876
21
-0.1782306
0
LINE
8
DEFAULT_255_1_234
10
16.3673876
20
-0.1782306
11
16.3673876
21
-0.6513
0
LINE
8
DEFAULT_255_1_234
10
16.3673876
20
-0.6513
11
16.2123751
21
-0.6513
0
LINE
8
DEFAULT_255_1_234
10
16.2123751
20
-0.6513
11
16.2123751
21
0.5181211
0
LINE
8
DEFAULT_255_1_234
10
16.2123751
20
0.5181211
11
16.5995049
21
0.5181211
0
LINE
8
DEFAULT_255_1_234
10
16.7866444
20
-0.1453005
11
17.0613298
21
-0.6416619
0
LINE
8
DEFAULT_255_1_234
10
17.0613298
20
-0.6416619
11
17.0613298
21
-0.6513
0
LINE
8
DEFAULT_255_1_234
10
17.0613298
20
-0.6513
11
16.895876
21
-0.6513
0
LINE
8
DEFAULT_255_1_234
10
16.3673876
20
0.3912196
11
16.3673876
21
-0.0521323
0
LINE
8
DEFAULT_255_1_234
10
16.3673876
20
-0.0521323
11
16.6043239
21
-0.0521323
0
LINE
8
DEFAULT_255_1_234
10
16.6035208
20
0.3912196
11
16.3673876
21
0.3912196
0
ARC
8
DEFAULT_255_1_234
10
16.6036688
20
-0.1780239
40
0.6961575
50
80.653586
51
90.3427061
0
ARC
8
DEFAULT_255_1_234
10
16.6456163
20
0.0682348
40
0.4463577
50
65.6987447
51
80.8329603
0
ARC
8
DEFAULT_255_1_234
10
16.6933804
20
0.1777322
40
0.3269094
50
50.0017161
51
65.4305835
0
ARC
8
DEFAULT_255_1_234
10
16.7152268
20
0.2072482
40
0.2902647
50
11.628416
51
49.5603263
0
ARC
8
DEFAULT_255_1_234
10
16.5616604
20
0.1697299
40
0.4482792
50
359.5655735
51
12.3691
0
ARC
8
DEFAULT_255_1_234
10
16.6693464
20
0.1634644
40
0.3405924
50
341.9983148
51
0.4822259
0
ARC
8
DEFAULT_255_1_234
10
16.7088304
20
0.1527471
40
0.2997359
50
323.8609373
51
341.61416
0
ARC
8
DEFAULT_255_1_234
10
16.6786548
20
0.1760484
40
0.3378487
50
296.7018614
51
323.6876402
0
ARC
8
DEFAULT_255_1_234
10
16.6345443
20
0.2549235
40
0.4281516
50
290.8086567
51
297.2323311
0
ARC
8
DEFAULT_255_1_234
10
16.6068973
20
0.3072351
40
0.3593766
50
269.589728
51
281.8058135
0
ARC
8
DEFAULT_255_1_234
10
16.6319872
20
0.1924743
40
0.2419125
50
281.5501019
51
303.9357432
0
ARC
8
DEFAULT_255_1_234
10
16.645706
20
0.1686936
40
0.2145323
50
304.4415616
51
311.2106213
0
ARC
8
DEFAULT_255_1_234
10
16.6589165
20
0.1547632
40
0.1953505
50
310.9875673
51
356.2715578
0
ARC
8
DEFAULT_255_1_234
10
16.5832814
20
0.1660422
40
0.2716331
50
354.9348262
51
0.0609027
0
ARC
8
DEFAULT_255_1_234
10
16.5645688
20
0.1687435
40
0.2903554
50
359.5239371
51
12.8808918
0
ARC
8
DEFAULT_255_1_234
10
16.6623243
20
0.1926728
40
0.1897315
50
12.4173452
51
43.1022135
0
ARC
8
DEFAULT_255_1_234
10
16.6684848
20
0.1963724
40
0.1827118
50
43.5751728
51
48.203944
0
ARC
8
DEFAULT_255_1_234
10
16.651534
20
0.1742302
40
0.2105272
50
48.7809703
51
72.6969569
0
ARC
8
DEFAULT_255_1_234
10
16.6160965
20
0.066682
40
0.3237537
50
72.3702241
51
84.8791103
0
ARC
8
DEFAULT_255_1_234
10
16.6013441
20
-0.0675231
40
0.4587478
50
84.5400526
51
89.7281406
0
LINE
8
DEFAULT_255_1_234
10
17.7199324
20
0.5181211
11
17.2324059
21
-0.7516967
0
LINE
8
DEFAULT_255_1_234
10
17.2324059
20
-0.7516967
11
17.1047012
21
-0.7516967
0
LINE
8
DEFAULT_255_1_234
10
17.1047012
20
-0.7516967
11
17.5930309
21
0.5181211
0
LINE
8
DEFAULT_255_1_234
10
17.5930309
20
0.5181211
11
17.7199324
21
0.5181211
0
LINE
8
DEFAULT_255_1_234
10
18.2275382
20
-0.6513
11
17.9038592
21
-0.6513
0
LINE
8
DEFAULT_255_1_234
10
17.9038592
20
-0.6513
11
17.9038592
21
0.5181211
0
LINE
8
DEFAULT_255_1_234
10
17.9038592
20
0.5181211
11
18.2339636
21
0.5181211
0
LINE
8
DEFAULT_255_1_234
10
18.7496012
20
-0.0272339
11
18.7496012
21
-0.1019291
0
LINE
8
DEFAULT_255_1_234
10
18.2379795
20
0.3912196
11
18.0580686
21
0.3912196
0
LINE
8
DEFAULT_255_1_234
10
18.0580686
20
0.3912196
11
18.0580686
21
-0.5252017
0
LINE
8
DEFAULT_255_1_234
10
18.0580686
20
-0.5252017
11
18.2203097
21
-0.5252017
0
LINE
8
DEFAULT_255_1_234
10
18.5969982
20
-0.0987164
11
18.5969982
21
-0.0304466
0
ARC
8
DEFAULT_255_1_234
10
18.2378579
20
-0.0684106
40
0.5865446
50
75.4101064
51
90.3804066
0
ARC
8
DEFAULT_255_1_234
10
18.2608092
20
0.0272492
40
0.4881916
50
60.145586
51
75.1888407
0
ARC
8
DEFAULT_255_1_234
10
18.2766868
20
0.0549199
40
0.4562893
50
26.5253612
51
60.1450928
0
ARC
8
DEFAULT_255_1_234
10
18.1646617
20
-0.0044842
40
0.5830602
50
7.4030428
51
26.8320788
0
ARC
8
DEFAULT_255_1_234
10
18.0052374
20
-0.0293196
40
0.7443669
50
0.1605367
51
7.7176192
0
ARC
8
DEFAULT_255_1_234
10
18.0216278
20
-0.1057566
40
0.7279835
50
348.7289388
51
0.3012466
0
ARC
8
DEFAULT_255_1_234
10
18.1872709
20
-0.1386614
40
0.559104
50
333.0706509
51
348.7181832
0
ARC
8
DEFAULT_255_1_234
10
18.2839466
20
-0.1911681
40
0.4491417
50
299.2531685
51
333.4571258
0
ARC
8
DEFAULT_255_1_234
10
18.2478606
20
-0.1226172
40
0.5265881
50
278.107187
51
299.0339503
0
ARC
8
DEFAULT_255_1_234
10
18.2222685
20
0.0281216
40
0.679442
50
270.4443897
51
278.4511052
0
ARC
8
DEFAULT_255_1_234
10
18.2243515
20
-0.0647787
40
0.4604407
50
269.4970433
51
284.0205042
0
ARC
8
DEFAULT_255_1_234
10
18.2598816
20
-0.2013022
40
0.3193797
50
283.7700273
51
318.1555492
0
ARC
8
DEFAULT_255_1_234
10
18.2261574
20
-0.1760633
40
0.3613588
50
318.7415601
51
343.6873628
0
ARC
8
DEFAULT_255_1_234
10
18.0457597
20
-0.1197168
40
0.5503313
50
343.3325091
51
355.8548958
0
ARC
8
DEFAULT_255_1_234
10
17.8359282
20
-0.0997681
40
0.7610708
50
355.4988528
51
0.0791727
0
ARC
8
DEFAULT_255_1_234
10
17.9141904
20
-0.026222
40
0.6828208
50
359.6455037
51
9.8607896
0
ARC
8
DEFAULT_255_1_234
10
18.1502602
20
0.0164099
40
0.4429406
50
9.6571907
51
26.1932807
0
ARC
8
DEFAULT_255_1_234
10
18.2430591
20
0.0595118
40
0.3406537
50
26.5777228
51
40.1532208
0
ARC
8
DEFAULT_255_1_234
10
18.2686317
20
0.0794619
40
0.308246
50
40.3840491
51
80.1431104
0
ARC
8
DEFAULT_255_1_234
10
18.2359435
20
-0.0654667
40
0.4566909
50
79.2152159
51
89.7445637
0
LINE
8
DEFAULT_255_1_234
10
19.7583875
20
0.1799849
11
19.603375
21
0.1799849
0
LINE
8
DEFAULT_255_1_234
10
18.9110392
20
-0.3123606
11
19.0660517
21
-0.3123606
0
ARC
8
DEFAULT_255_1_234
10
19.6692563
20
1.0746768
40
1.252368
50
248.9199003
51
254.1439814
0
ARC
8
DEFAULT_255_1_234
10
19.5012058
20
0.6420234
40
0.788226
50
241.633709
51
249.0064503
0
ARC
8
DEFAULT_255_1_234
10
19.3483452
20
0.3619317
40
0.4691427
50
230.498225
51
241.8087113
0
ARC
8
DEFAULT_255_1_234
10
19.2699026
20
0.2619906
40
0.3421437
50
227.4064532
51
229.9881192
0
ARC
8
DEFAULT_255_1_234
10
19.2211547
20
0.2144088
40
0.2741476
50
200.6781896
51
228.1763934
0
ARC
8
DEFAULT_255_1_234
10
19.2283858
20
0.2129077
40
0.2804109
50
179.5061581
51
199.8694617
0
ARC
8
DEFAULT_255_1_234
10
19.2274609
20
0.220321
40
0.2795204
50
132.4834203
51
181.0242172
0
ARC
8
DEFAULT_255_1_234
10
19.2870192
20
0.1640704
40
0.3612768
50
129.2532479
51
133.4242687
0
ARC
8
DEFAULT_255_1_234
10
19.3016641
20
0.1420965
40
0.3875675
50
101.98776
51
128.8742646
0
ARC
8
DEFAULT_255_1_234
10
19.3415252
20
-0.0300259
40
0.5642249
50
89.5906553
51
102.3169264
0
ARC
8
DEFAULT_255_1_234
10
19.3485744
20
0.0018148
40
0.5323783
50
77.2360837
51
90.3248275
0
ARC
8
DEFAULT_255_1_234
10
19.3692823
20
0.09854
40
0.4334697
50
63.837784
51
77.0809408
0
ARC
8
DEFAULT_255_1_234
10
19.3970585
20
0.1502911
40
0.3747796
50
45.9864267
51
64.1607727
0
ARC
8
DEFAULT_255_1_234
10
19.4231466
20
0.1800866
40
0.3352302
50
32.2747395
51
45.6547121
0
ARC
8
DEFAULT_255_1_234
10
19.4297907
20
0.181988
40
0.328603
50
359.6507365
51
32.6130309
0
ARC
8
DEFAULT_255_1_234
10
19.3355002
20
0.182466
40
0.2678863
50
359.469343
51
14.9832209
0
ARC
8
DEFAULT_255_1_234
10
19.4060065
20
0.2013539
40
0.1948938
50
14.9781179
51
48.2004265
0
ARC
8
DEFAULT_255_1_234
10
19.3895709
20
0.1806983
40
0.2212521
50
48.5927837
51
74.1241538
0
ARC
8
DEFAULT_255_1_234
10
19.3562198
20
0.0706248
40
0.3362561
50
73.7888341
51
86.6652678
0
ARC
8
DEFAULT_255_1_234
10
19.3459764
20
-0.0501119
40
0.4573953
50
86.2640471
51
90.0526343
0
ARC
8
DEFAULT_255_1_234
10
19.3431476
20
-0.0105808
40
0.4178709
50
89.6697524
51
99.2309573
0
ARC
8
DEFAULT_255_1_234
10
19.3188927
20
0.1338964
40
0.2713749
50
99.069534
51
113.7658566
0
ARC
8
DEFAULT_255_1_234
10
19.2915118
20
0.1984677
40
0.2012469
50
114.0401004
51
127.9850673
0
ARC
8
DEFAULT_255_1_234
10
19.2674682
20
0.228073
40
0.1631167
50
127.7287463
51
176.7105154
0
ARC
8
DEFAULT_255_1_234
10
19.33534
20
0.2179693
40
0.2315392
50
175.1779447
51
180.0581938
0
ARC
8
DEFAULT_255_1_234
10
19.2510247
20
0.2167428
40
0.1472271
50
179.6142195
51
228.1246017
0
ARC
8
DEFAULT_255_1_234
10
19.2951915
20
0.2576308
40
0.2072299
50
226.5779593
51
230.8800004
0
ARC
8
DEFAULT_255_1_234
10
19.3422994
20
0.3201636
40
0.2854818
50
231.4635071
51
241.9260842
0
ARC
8
DEFAULT_255_1_234
10
19.4620172
20
0.54048
40
0.53622
50
241.7178533
51
248.3259551
0
ARC
8
DEFAULT_255_1_234
10
19.6005544
20
0.8837064
40
0.9063478
50
248.2007737
51
252.4528373
0
ARC
8
DEFAULT_255_1_234
10
19.7209269
20
1.2558441
40
1.2974635
50
252.3391078
51
254.3469452
0
ARC
8
DEFAULT_255_1_234
10
18.9666971
20
-1.4418852
40
1.5037162
50
71.0197183
51
74.4087047
0
ARC
8
DEFAULT_255_1_234
10
19.1361657
20
-0.9526889
40
0.9859993
50
66.1847285
51
71.086374
0
ARC
8
DEFAULT_255_1_234
10
19.2917969
20
-0.60228
40
0.6025855
50
59.3536294
51
66.2691831
0
ARC
8
DEFAULT_255_1_234
10
19.3806621
20
-0.4519391
40
0.4279449
50
49.1020879
51
59.3293958
0
ARC
8
DEFAULT_255_1_234
10
19.4625361
20
-0.3586166
40
0.3038015
50
32.7919921
51
49.2505539
0
ARC
8
DEFAULT_255_1_234
10
19.4946451
20
-0.3357809
40
0.264448
50
31.1181161
51
32.4005348
0
ARC
8
DEFAULT_255_1_234
10
19.4857989
20
-0.3393221
40
0.2738556
50
8.1116974
51
30.7958831
0
ARC
8
DEFAULT_255_1_234
10
19.4047657
20
-0.3531247
40
0.3560327
50
359.8389159
51
8.4706516
0
ARC
8
DEFAULT_255_1_234
10
19.4673448
20
-0.3579863
40
0.2934776
50
337.4731098
51
0.7537279
0
ARC
8
DEFAULT_255_1_234
10
19.4852143
20
-0.3599613
40
0.2762607
50
307.5917067
51
336.4315538
0
ARC
8
DEFAULT_255_1_234
10
19.4391971
20
-0.3086898
40
0.3449979
50
307.6551545
51
308.4529766
0
ARC
8
DEFAULT_255_1_234
10
19.416169
20
-0.273175
40
0.3871988
50
284.3734338
51
307.1424381
0
ARC
8
DEFAULT_255_1_234
10
19.366652
20
-0.0910068
40
0.5759636
50
272.4382747
51
284.646547
0
ARC
8
DEFAULT_255_1_234
10
19.3539729
20
0.0889893
40
0.7563528
50
269.9708387
51
272.8178037
0
ARC
8
DEFAULT_255_1_234
10
19.3496769
20
-0.1148284
40
0.5525489
50
248.2707594
51
270.4055579
0
ARC
8
DEFAULT_255_1_234
10
19.344251
20
-0.1338808
40
0.5328452
50
246.1383403
51
248.0542782
0
ARC
8
DEFAULT_255_1_234
10
19.3023889
20
-0.2218157
40
0.4355005
50
233.1670131
51
246.4950969
0
ARC
8
DEFAULT_255_1_234
10
19.2469794
20
-0.2966188
40
0.3424126
50
215.3403242
51
233.0843104
0
ARC
8
DEFAULT_255_1_234
10
19.2197225
20
-0.3164451
40
0.3087104
50
179.2419209
51
215.2648451
0
ARC
8
DEFAULT_255_1_234
10
19.2964819
20
-0.3150334
40
0.2304457
50
179.335461
51
199.1045811
0
ARC
8
DEFAULT_255_1_234
10
19.2632495
20
-0.3237234
40
0.1962176
50
199.8828939
51
232.7063202
0
ARC
8
DEFAULT_255_1_234
10
19.3104764
20
-0.2643212
40
0.2720938
50
232.3738199
51
255.5136649
0
ARC
8
DEFAULT_255_1_234
10
19.344563
20
-0.1399165
40
0.4010747
50
255.2446292
51
267.5320849
0
ARC
8
DEFAULT_255_1_234
10
19.3533254
20
-0.0166298
40
0.5246356
50
267.1557994
51
270.0286766
0
ARC
8
DEFAULT_255_1_234
10
19.3561026
20
-0.061005
40
0.4802668
50
269.7000017
51
278.1660162
0
ARC
8
DEFAULT_255_1_234
10
19.3817031
20
-0.2340485
40
0.3053425
50
278.0231263
51
290.625471
0
ARC
8
DEFAULT_255_1_234
10
19.4164718
20
-0.3267975
40
0.206291
50
290.6619762
51
307.0370976
0
ARC
8
DEFAULT_255_1_234
10
19.4465107
20
-0.3636496
40
0.1587906
50
306.3943566
51
355.3030547
0
ARC
8
DEFAULT_255_1_234
10
19.3953039
20
-0.3559887
40
0.2104809
50
354.3660432
51
0.0698737
0
ARC
8
DEFAULT_255_1_234
10
19.4095384
20
-0.3537383
40
0.1962563
50
359.417946
51
16.1971788
0
ARC
8
DEFAULT_255_1_234
10
19.4550694
20
-0.3412582
40
0.149053
50
16.4723299
51
52.6262157
0
ARC
8
DEFAULT_255_1_234
10
19.3729748
20
-0.4496567
40
0.2850296
50
52.7386432
51
62.4979148
0
ARC
8
DEFAULT_255_1_234
10
19.2344825
20
-0.7102717
40
0.5801521
50
62.2515216
51
68.1220564
0
ARC
8
DEFAULT_255_1_234
10
19.0624736
20
-1.1330128
40
1.0365451
50
68.0062803
51
71.8053402
0
ARC
8
DEFAULT_255_1_234
10
18.8829107
20
-1.6715242
40
1.6042013
50
71.7183119
51
73.9258742
0
LINE
8
DEFAULT_255_1_234
10
12.019785
20
118.3922391
11
12.019785
21
118.2661408
0
LINE
8
DEFAULT_255_1_234
10
12.019785
20
118.2661408
11
11.5290458
21
118.2661408
0
LINE
8
DEFAULT_255_1_234
10
11.5290458
20
118.2661408
11
11.5290458
21
117.7497
0
LINE
8
DEFAULT_255_1_234
10
11.5290458
20
117.7497
11
11.3748364
21
117.7497
0
LINE
8
DEFAULT_255_1_234
10
11.3748364
20
117.7497
11
11.3748364
21
118.9191211
0
LINE
8
DEFAULT_255_1_234
10
11.3748364
20
118.9191211
11
12.0992992
21
118.9191211
0
LINE
8
DEFAULT_255_1_234
10
12.0992992
20
118.9191211
11
12.0992992
21
118.7922196
0
LINE
8
DEFAULT_255_1_234
10
12.0992992
20
118.7922196
11
11.5290458
21
118.7922196
0
LINE
8
DEFAULT_255_1_234
10
11.5290458
20
118.7922196
11
11.5290458
21
118.3922391
0
LINE
8
DEFAULT_255_1_234
10
11.5290458
20
118.3922391
11
12.019785
21
118.3922391
0
LINE
8
DEFAULT_255_1_234
10
13.4671042
20
118.5809849
11
13.3120917
21
118.5809849
0
LINE
8
DEFAULT_255_1_234
10
12.6197558
20
118.0886394
11
12.7747684
21
118.0886394
0
ARC
8
DEFAULT_255_1_234
10
13.3779729
20
119.4756768
40
1.252368
50
248.9199003
51
254.1439814
0
ARC
8
DEFAULT_255_1_234
10
13.2099224
20
119.0430234
40
0.788226
50
241.633709
51
249.0064503
0
ARC
8
DEFAULT_255_1_234
10
13.0570619
20
118.7629317
40
0.4691427
50
230.498225
51
241.8087113
0
ARC
8
DEFAULT_255_1_234
10
12.9786193
20
118.6629906
40
0.3421437
50
227.4064532
51
229.9881192
0
ARC
8
DEFAULT_255_1_234
10
12.9298713
20
118.6154088
40
0.2741476
50
200.6781896
51
228.1763934
0
ARC
8
DEFAULT_255_1_234
10
12.9371024
20
118.6139077
40
0.2804109
50
179.5061581
51
199.8694617
0
ARC
8
DEFAULT_255_1_234
10
12.9361776
20
118.621321
40
0.2795204
50
132.4834203
51
181.0242172
0
ARC
8
DEFAULT_255_1_234
10
12.9957358
20
118.5650704
40
0.3612768
50
129.2532479
51
133.4242687
0
ARC
8
DEFAULT_255_1_234
10
13.0103808
20
118.5430965
40
0.3875675
50
101.98776
51
128.8742646
0
ARC
8
DEFAULT_255_1_234
10
13.0502418
20
118.3709741
40
0.5642249
50
89.5906553
51
102.3169264
0
ARC
8
DEFAULT_255_1_234
10
13.0572911
20
118.4028148
40
0.5323783
50
77.2360837
51
90.3248275
0
ARC
8
DEFAULT_255_1_234
10
13.077999
20
118.49954
40
0.4334697
50
63.837784
51
77.0809408
0
ARC
8
DEFAULT_255_1_234
10
13.1057751
20
118.5512911
40
0.3747796
50
45.9864267
51
64.1607727
0
ARC
8
DEFAULT_255_1_234
10
13.1318633
20
118.5810866
40
0.3352302
50
32.2747395
51
45.6547121
0
ARC
8
DEFAULT_255_1_234
10
13.1385073
20
118.582988
40
0.328603
50
359.6507365
51
32.6130309
0
ARC
8
DEFAULT_255_1_234
10
13.0442169
20
118.583466
40
0.2678863
50
359.469343
51
14.9832209
0
ARC
8
DEFAULT_255_1_234
10
13.1147231
20
118.6023539
40
0.1948938
50
14.9781179
51
48.2004265
0
ARC
8
DEFAULT_255_1_234
10
13.0982875
20
118.5816983
40
0.2212521
50
48.5927837
51
74.1241538
0
ARC
8
DEFAULT_255_1_234
10
13.0649365
20
118.4716248
40
0.3362561
50
73.7888341
51
86.6652678
0
ARC
8
DEFAULT_255_1_234
10
13.054693
20
118.3508881
40
0.4573953
50
86.2640471
51
90.0526343
0
ARC
8
DEFAULT_255_1_234
10
13.0518643
20
118.3904192
40
0.4178709
50
89.6697524
51
99.2309573
0
ARC
8
DEFAULT_255_1_234
10
13.0276094
20
118.5348964
40
0.2713749
50
99.069534
51
113.7658566
0
ARC
8
DEFAULT_255_1_234
10
13.0002285
20
118.5994677
40
0.2012469
50
114.0401004
51
127.9850673
0
ARC
8
DEFAULT_255_1_234
10
12.9761849
20
118.629073
40
0.1631167
50
127.7287463
51
176.7105154
0
ARC
8
DEFAULT_255_1_234
10
13.0440566
20
118.6189693
40
0.2315392
50
175.1779447
51
180.0581938
0
ARC
8
DEFAULT_255_1_234
10
12.9597413
20
118.6177428
40
0.1472271
50
179.6142195
51
228.1246017
0
ARC
8
DEFAULT_255_1_234
10
13.0039082
20
118.6586308
40
0.2072299
50
226.5779593
51
230.8800004
0
ARC
8
DEFAULT_255_1_234
10
13.051016
20
118.7211636
40
0.2854818
50
231.4635071
51
241.9260842
0
ARC
8
DEFAULT_255_1_234
10
13.1707338
20
118.94148
40
0.53622
50
241.7178533
51
248.3259551
0
ARC
8
DEFAULT_255_1_234
10
13.309271
20
119.2847064
40
0.9063478
50
248.2007737
51
252.4528373
0
ARC
8
DEFAULT_255_1_234
10
13.4296435
20
119.6568441
40
1.2974635
50
252.3391078
51
254.3469452
0
ARC
8
DEFAULT_255_1_234
10
12.6754138
20
116.9591148
40
1.5037162
50
71.0197183
51
74.4087047
0
ARC
8
DEFAULT_255_1_234
10
12.8448823
20
117.4483111
40
0.9859993
50
66.1847285
51
71.086374
0
ARC
8
DEFAULT_255_1_234
10
13.0005135
20
117.79872
40
0.6025855
50
59.3536294
51
66.2691831
0
ARC
8
DEFAULT_255_1_234
10
13.0893788
20
117.9490609
40
0.4279449
50
49.1020879
51
59.3293958
0
ARC
8
DEFAULT_255_1_234
10
13.1712528
20
118.0423834
40
0.3038015
50
32.7919921
51
49.2505539
0
ARC
8
DEFAULT_255_1_234
10
13.2033618
20
118.0652191
40
0.264448
50
31.1181161
51
32.4005348
0
ARC
8
DEFAULT_255_1_234
10
13.1945155
20
118.0616779
40
0.2738556
50
8.1116974
51
30.7958831
0
ARC
8
DEFAULT_255_1_234
10
13.1134823
20
118.0478753
40
0.3560327
50
359.8389159
51
8.4706516
0
ARC
8
DEFAULT_255_1_234
10
13.1760615
20
118.0430137
40
0.2934776
50
337.4731098
51
0.7537279
0
ARC
8
DEFAULT_255_1_234
10
13.193931
20
118.0410387
40
0.2762607
50
307.5917067
51
336.4315538
0
ARC
8
DEFAULT_255_1_234
10
13.1479138
20
118.0923102
40
0.3449979
50
307.6551545
51
308.4529766
0
ARC
8
DEFAULT_255_1_234
10
13.1248857
20
118.127825
40
0.3871988
50
284.3734338
51
307.1424381
0
ARC
8
DEFAULT_255_1_234
10
13.0753687
20
118.3099932
40
0.5759636
50
272.4382747
51
284.646547
0
ARC
8
DEFAULT_255_1_234
10
13.0626895
20
118.4899893
40
0.7563528
50
269.9708387
51
272.8178037
0
ARC
8
DEFAULT_255_1_234
10
13.0583935
20
118.2861716
40
0.5525489
50
248.2707594
51
270.4055579
0
ARC
8
DEFAULT_255_1_234
10
13.0529676
20
118.2671192
40
0.5328452
50
246.1383403
51
248.0542782
0
ARC
8
DEFAULT_255_1_234
10
13.0111055
20
118.1791843
40
0.4355005
50
233.1670131
51
246.4950969
0
ARC
8
DEFAULT_255_1_234
10
12.955696
20
118.1043812
40
0.3424126
50
215.3403242
51
233.0843104
0
ARC
8
DEFAULT_255_1_234
10
12.9284391
20
118.0845549
40
0.3087104
50
179.2419209
51
215.2648451
0
ARC
8
DEFAULT_255_1_234
10
13.0051985
20
118.0859666
40
0.2304457
50
179.335461
51
199.1045811
0
ARC
8
DEFAULT_255_1_234
10
12.9719662
20
118.0772766
40
0.1962176
50
199.8828939
51
232.7063202
0
ARC
8
DEFAULT_255_1_234
10
13.019193
20
118.1366788
40
0.2720938
50
232.3738199
51
255.5136649
0
ARC
8
DEFAULT_255_1_234
10
13.0532797
20
118.2610835
40
0.4010747
50
255.2446292
51
267.5320849
0
ARC
8
DEFAULT_255_1_234
10
13.062042
20
118.3843702
40
0.5246356
50
267.1557994
51
270.0286766
0
ARC
8
DEFAULT_255_1_234
10
13.0648192
20
118.339995
40
0.4802668
50
269.7000017
51
278.1660162
0
ARC
8
DEFAULT_255_1_234
10
13.0904197
20
118.1669515
40
0.3053425
50
278.0231263
51
290.625471
0
ARC
8
DEFAULT_255_1_234
10
13.1251884
20
118.0742025
40
0.206291
50
290.6619762
51
307.0370976
0
ARC
8
DEFAULT_255_1_234
10
13.1552274
20
118.0373504
40
0.1587906
50
306.3943566
51
355.3030547
0
ARC
8
DEFAULT_255_1_234
10
13.1040205
20
118.0450113
40
0.2104809
50
354.3660432
51
0.0698737
0
ARC
8
DEFAULT_255_1_234
10
13.118255
20
118.0472617
40
0.1962563
50
359.417946
51
16.1971788
0
ARC
8
DEFAULT_255_1_234
10
13.163786
20
118.0597418
40
0.149053
50
16.4723299
51
52.6262157
0
ARC
8
DEFAULT_255_1_234
10
13.0816914
20
117.9513433
40
0.2850296
50
52.7386432
51
62.4979148
0
ARC
8
DEFAULT_255_1_234
10
12.9431991
20
117.6907283
40
0.5801521
50
62.2515216
51
68.1220564
0
ARC
8
DEFAULT_255_1_234
10
12.7711902
20
117.2679872
40
1.0365451
50
68.0062803
51
71.8053402
0
ARC
8
DEFAULT_255_1_234
10
12.5916274
20
116.7294758
40
1.6042013
50
71.7183119
51
73.9258742
0
LINE
8
DEFAULT_255_1_234
10
13.6060533
20
118.1601218
11
13.6060533
21
118.1874297
0
LINE
8
DEFAULT_255_1_234
10
14.3433668
20
118.2034932
11
14.3433668
21
118.1416488
0
LINE
8
DEFAULT_255_1_234
10
14.3433668
20
118.1416488
11
13.7546404
21
118.1416488
0
LINE
8
DEFAULT_255_1_234
10
14.2413638
20
117.9721792
11
14.3321224
21
117.9014999
0
LINE
8
DEFAULT_255_1_234
10
13.7594595
20
118.2637313
11
14.1947797
21
118.2637313
0
LINE
8
DEFAULT_255_1_234
10
14.1947797
20
118.2637313
11
14.1947797
21
118.2749757
0
ARC
8
DEFAULT_255_1_234
10
13.9999898
20
118.1712332
40
0.4376191
50
252.3266134
51
270.5810217
0
ARC
8
DEFAULT_255_1_234
10
13.9794987
20
118.0971644
40
0.3608374
50
223.3000567
51
251.8561855
0
ARC
8
DEFAULT_255_1_234
10
14.0006348
20
118.1176937
40
0.3902993
50
190.9374509
51
223.3654032
0
ARC
8
DEFAULT_255_1_234
10
14.173132
20
118.1566885
40
0.5670891
50
179.6531105
51
191.4989439
0
ARC
8
DEFAULT_255_1_234
10
14.1853332
20
118.1906417
40
0.5792888
50
167.4007466
51
180.3176909
0
ARC
8
DEFAULT_255_1_234
10
14.0801394
20
118.2128885
40
0.471777
50
154.1835823
51
167.250763
0
ARC
8
DEFAULT_255_1_234
10
14.0169861
20
118.2461417
40
0.4004528
50
134.3149965
51
154.5315275
0
ARC
8
DEFAULT_255_1_234
10
13.9952356
20
118.2652228
40
0.371612
50
122.8616532
51
133.9707695
0
ARC
8
DEFAULT_255_1_234
10
13.984893
20
118.2874703
40
0.3473289
50
89.8249009
51
123.4199222
0
ARC
8
DEFAULT_255_1_234
10
13.9898971
20
118.2227967
40
0.4120197
50
74.7876118
51
90.5482747
0
ARC
8
DEFAULT_255_1_234
10
14.0192715
20
118.331303
40
0.2996077
50
39.8178249
51
74.7633718
0
ARC
8
DEFAULT_255_1_234
10
13.9680035
20
118.2913351
40
0.3645855
50
16.8990863
51
39.4829761
0
ARC
8
DEFAULT_255_1_234
10
13.7785331
20
118.2306526
40
0.5635218
50
4.9636328
51
17.2026414
0
ARC
8
DEFAULT_255_1_234
10
13.5367401
20
118.205134
40
0.8066286
50
359.8834553
51
5.2834307
0
ARC
8
DEFAULT_255_1_234
10
14.1404926
20
118.1482803
40
0.3859091
50
180.9846213
51
194.9401313
0
ARC
8
DEFAULT_255_1_234
10
14.0355204
20
118.1195849
40
0.2770883
50
194.80314
51
222.0412631
0
ARC
8
DEFAULT_255_1_234
10
14.0051085
20
118.0894116
40
0.2343055
50
221.5417084
51
268.8614402
0
ARC
8
DEFAULT_255_1_234
10
14.012408
20
118.1570686
40
0.3021528
50
267.732405
51
270.0097136
0
ARC
8
DEFAULT_255_1_234
10
14.014189
20
118.1772105
40
0.3222994
50
269.6924892
51
280.4117579
0
ARC
8
DEFAULT_255_1_234
10
14.0318297
20
118.0853193
40
0.2287344
50
280.2255091
51
298.6338936
0
ARC
8
DEFAULT_255_1_234
10
14.0435089
20
118.0609223
40
0.2017294
50
299.0430333
51
300.4643464
0
ARC
8
DEFAULT_255_1_234
10
13.9755094
20
118.1743038
40
0.3339357
50
300.6577328
51
322.0378878
0
ARC
8
DEFAULT_255_1_234
10
13.9404633
20
118.2047021
40
0.3802736
50
321.6750233
51
322.3046845
0
ARC
8
DEFAULT_255_1_234
10
14.0335595
20
118.088037
40
0.3520454
50
276.9728461
51
328.0035423
0
ARC
8
DEFAULT_255_1_234
10
14.0058648
20
118.2360841
40
0.5024498
50
269.8361028
51
278.0581756
0
ARC
8
DEFAULT_255_1_234
10
13.9831385
20
118.3105757
40
0.202159
50
89.2018686
51
117.2851756
0
ARC
8
DEFAULT_255_1_234
10
13.9884554
20
118.3063752
40
0.2083484
50
118.0551165
51
137.4540413
0
ARC
8
DEFAULT_255_1_234
10
14.0259294
20
118.2723304
40
0.2589774
50
137.5109581
51
158.8516286
0
ARC
8
DEFAULT_255_1_234
10
14.139713
20
118.2264074
40
0.38167
50
158.5845963
51
170.1721436
0
ARC
8
DEFAULT_255_1_234
10
14.2566519
20
118.2031823
40
0.5008657
50
169.8376422
51
173.0566086
0
ARC
8
DEFAULT_255_1_234
10
13.7869593
20
118.2542509
40
0.4083467
50
2.9091802
51
12.8847116
0
ARC
8
DEFAULT_255_1_234
10
13.9240269
20
118.2865101
40
0.2675383
50
12.6957781
51
28.6404489
0
ARC
8
DEFAULT_255_1_234
10
13.978194
20
118.3145458
40
0.2065654
50
29.0169854
51
41.1487595
0
ARC
8
DEFAULT_255_1_234
10
13.9984725
20
118.3322003
40
0.1796786
50
41.1646065
51
85.0013516
0
ARC
8
DEFAULT_255_1_234
10
13.9863822
20
118.2587431
40
0.2539726
50
83.7280015
51
90.0964893
0
LINE
8
DEFAULT_255_1_234
10
14.935306
20
118.6235531
11
14.935306
21
118.4854072
0
LINE
8
DEFAULT_255_1_234
10
14.6638332
20
118.3665375
11
14.6638332
21
117.7497
0
LINE
8
DEFAULT_255_1_234
10
14.6638332
20
117.7497
11
14.515246
21
117.7497
0
LINE
8
DEFAULT_255_1_234
10
14.515246
20
117.7497
11
14.515246
21
118.6187341
0
LINE
8
DEFAULT_255_1_234
10
14.515246
20
118.6187341
11
14.6598173
21
118.6187341
0
LINE
8
DEFAULT_255_1_234
10
14.6598173
20
118.6187341
11
14.6622269
21
118.5183374
0
ARC
8
DEFAULT_255_1_234
10
14.8686465
20
118.0794342
40
0.4114092
50
80.6754243
51
86.8932892
0
ARC
8
DEFAULT_255_1_234
10
14.8625999
20
117.98267
40
0.5083596
50
86.8038578
51
90.0431435
0
ARC
8
DEFAULT_255_1_234
10
14.858898
20
118.2283866
40
0.2626638
50
89.2759698
51
106.6213787
0
ARC
8
DEFAULT_255_1_234
10
14.8384544
20
118.302683
40
0.1856317
50
107.1346045
51
157.6458115
0
ARC
8
DEFAULT_255_1_234
10
14.9076146
20
118.2643311
40
0.2643398
50
155.6586782
51
157.2539184
0
ARC
8
DEFAULT_255_1_234
10
14.8871348
20
118.3812157
40
0.2634121
50
127.8165941
51
148.6302098
0
ARC
8
DEFAULT_255_1_234
10
14.8617817
20
118.4072218
40
0.2273596
50
91.3329982
51
126.7875809
0
ARC
8
DEFAULT_255_1_234
10
14.8693757
20
118.3357195
40
0.299078
50
89.986594
51
92.4688449
0
ARC
8
DEFAULT_255_1_234
10
14.8702152
20
118.3632078
40
0.2715908
50
85.3589899
51
90.1623399
0
ARC
8
DEFAULT_255_1_234
10
14.8786668
20
118.4636164
40
0.1708278
50
78.401942
51
85.4594656
0
ARC
8
DEFAULT_255_1_234
10
14.8931552
20
118.5327236
40
0.1002194
50
67.7858312
51
78.5728455
0
ARC
8
DEFAULT_255_1_234
10
14.9039404
20
118.5606887
40
0.0702548
50
63.4835954
51
67.3062642
0
LINE
8
DEFAULT_255_1_234
10
15.2332834
20
118.6187341
11
15.2332834
21
117.7497
0
LINE
8
DEFAULT_255_1_234
10
15.2332834
20
117.7497
11
15.0846963
21
117.7497
0
LINE
8
DEFAULT_255_1_234
10
15.0846963
20
117.7497
11
15.0846963
21
118.6187341
0
LINE
8
DEFAULT_255_1_234
10
15.0846963
20
118.6187341
11
15.2332834
21
118.6187341
0
ARC
8
DEFAULT_255_1_234
10
15.1705112
20
118.8501889
40
0.097867
50
161.415052
51
180.5526306
0
ARC
8
DEFAULT_255_1_234
10
15.158089
20
118.8536077
40
0.0850062
50
138.1827368
51
160.9307106
0
ARC
8
DEFAULT_255_1_234
10
15.1470835
20
118.8631588
40
0.0704362
50
104.6368899
51
138.0039868
0
ARC
8
DEFAULT_255_1_234
10
15.157799
20
118.8264963
40
0.1086221
50
92.0600725
51
105.2189128
0
ARC
8
DEFAULT_255_1_234
10
15.1601338
20
118.7922117
40
0.1429728
50
89.9756393
51
92.5012496
0
ARC
8
DEFAULT_255_1_234
10
15.1611358
20
118.8147731
40
0.1204151
50
78.0235316
51
90.4478182
0
ARC
8
DEFAULT_255_1_234
10
15.170345
20
118.8561295
40
0.0780493
50
55.051506
51
78.3369085
0
ARC
8
DEFAULT_255_1_234
10
15.1753724
20
118.8645711
40
0.0682538
50
42.0501187
51
54.4513741
0
ARC
8
DEFAULT_255_1_234
10
15.1618591
20
118.8521798
40
0.0865878
50
1.7497075
51
42.1496013
0
ARC
8
DEFAULT_255_1_234
10
15.1363924
20
118.8492738
40
0.1121515
50
359.9852656
51
2.8364544
0
ARC
8
DEFAULT_255_1_234
10
15.1529916
20
118.8483229
40
0.0955566
50
342.1070653
51
0.552888
0
ARC
8
DEFAULT_255_1_234
10
15.1672614
20
118.8443904
40
0.0807713
50
316.7107116
51
341.6516965
0
ARC
8
DEFAULT_255_1_234
10
15.1739651
20
118.8383823
40
0.0717724
50
285.4397031
51
316.5324284
0
ARC
8
DEFAULT_255_1_234
10
15.1629568
20
118.8749554
40
0.1099597
50
272.3547054
51
285.8953117
0
ARC
8
DEFAULT_255_1_234
10
15.1602726
20
118.9115048
40
0.1465932
50
269.9695369
51
272.8160237
0
ARC
8
DEFAULT_255_1_234
10
15.1592907
20
118.8895863
40
0.1246779
50
258.8431134
51
270.4153935
0
ARC
8
DEFAULT_255_1_234
10
15.1502949
20
118.8460414
40
0.0802162
50
238.5431189
51
259.1288175
0
ARC
8
DEFAULT_255_1_234
10
15.1434834
20
118.8336856
40
0.0661247
50
222.5062634
51
237.9906969
0
ARC
8
DEFAULT_255_1_234
10
15.1562422
20
118.8452889
40
0.0833707
50
184.1069131
51
222.460413
0
ARC
8
DEFAULT_255_1_234
10
15.1831662
20
118.8491349
40
0.1105176
50
179.9429482
51
185.0960898
0
LINE
8
DEFAULT_255_1_234
10
15.4332737
20
118.1601218
11
15.4332737
21
118.1874297
0
LINE
8
DEFAULT_255_1_234
10
16.1705873
20
118.2034932
11
16.1705873
21
118.1416488
0
LINE
8
DEFAULT_255_1_234
10
16.1705873
20
118.1416488
11
15.5818609
21
118.1416488
0
LINE
8
DEFAULT_255_1_234
10
16.0685842
20
117.9721792
11
16.1593429
21
117.9014999
0
LINE
8
DEFAULT_255_1_234
10
15.5866799
20
118.2637313
11
16.0220001
21
118.2637313
0
LINE
8
DEFAULT_255_1_234
10
16.0220001
20
118.2637313
11
16.0220001
21
118.2749757
0
ARC
8
DEFAULT_255_1_234
10
15.8272102
20
118.1712332
40
0.4376191
50
252.3266134
51
270.5810217
0
ARC
8
DEFAULT_255_1_234
10
15.8067192
20
118.0971644
40
0.3608374
50
223.3000567
51
251.8561855
0
ARC
8
DEFAULT_255_1_234
10
15.8278552
20
118.1176937
40
0.3902993
50
190.9374509
51
223.3654032
0
ARC
8
DEFAULT_255_1_234
10
16.0003524
20
118.1566885
40
0.5670891
50
179.6531105
51
191.4989439
0
ARC
8
DEFAULT_255_1_234
10
16.0125537
20
118.1906417
40
0.5792888
50
167.4007466
51
180.3176909
0
ARC
8
DEFAULT_255_1_234
10
15.9073598
20
118.2128885
40
0.471777
50
154.1835823
51
167.250763
0
ARC
8
DEFAULT_255_1_234
10
15.8442066
20
118.2461417
40
0.4004528
50
134.3149965
51
154.5315275
0
ARC
8
DEFAULT_255_1_234
10
15.8224561
20
118.2652228
40
0.371612
50
122.8616532
51
133.9707695
0
ARC
8
DEFAULT_255_1_234
10
15.8121135
20
118.2874703
40
0.3473289
50
89.8249009
51
123.4199222
0
ARC
8
DEFAULT_255_1_234
10
15.8171176
20
118.2227967
40
0.4120197
50
74.7876118
51
90.5482747
0
ARC
8
DEFAULT_255_1_234
10
15.8464919
20
118.331303
40
0.2996077
50
39.8178249
51
74.7633718
0
ARC
8
DEFAULT_255_1_234
10
15.7952239
20
118.2913351
40
0.3645855
50
16.8990863
51
39.4829761
0
ARC
8
DEFAULT_255_1_234
10
15.6057536
20
118.2306526
40
0.5635218
50
4.9636328
51
17.2026414
0
ARC
8
DEFAULT_255_1_234
10
15.3639606
20
118.205134
40
0.8066286
50
359.8834553
51
5.2834307
0
ARC
8
DEFAULT_255_1_234
10
15.9677131
20
118.1482803
40
0.3859091
50
180.9846213
51
194.9401313
0
ARC
8
DEFAULT_255_1_234
10
15.8627408
20
118.1195849
40
0.2770883
50
194.80314
51
222.0412631
0
ARC
8
DEFAULT_255_1_234
10
15.832329
20
118.0894116
40
0.2343055
50
221.5417084
51
268.8614402
0
ARC
8
DEFAULT_255_1_234
10
15.8396285
20
118.1570686
40
0.3021528
50
267.732405
51
270.0097136
0
ARC
8
DEFAULT_255_1_234
10
15.8414095
20
118.1772105
40
0.3222994
50
269.6924892
51
280.4117579
0
ARC
8
DEFAULT_255_1_234
10
15.8590502
20
118.0853193
40
0.2287344
50
280.2255091
51
298.6338936
0
ARC
8
DEFAULT_255_1_234
10
15.8707294
20
118.0609223
40
0.2017294
50
299.0430333
51
300.4643464
0
ARC
8
DEFAULT_255_1_234
10
15.8027299
20
118.1743038
40
0.3339357
50
300.6577328
51
322.0378878
0
ARC
8
DEFAULT_255_1_234
10
15.7676838
20
118.2047021
40
0.3802736
50
321.6750233
51
322.3046845
0
ARC
8
DEFAULT_255_1_234
10
15.8607799
20
118.088037
40
0.3520454
50
276.9728461
51
328.0035423
0
ARC
8
DEFAULT_255_1_234
10
15.8330852
20
118.2360841
40
0.5024498
50
269.8361028
51
278.0581756
0
ARC
8
DEFAULT_255_1_234
10
15.810359
20
118.3105757
40
0.202159
50
89.2018686
51
117.2851756
0
ARC
8
DEFAULT_255_1_234
10
15.8156759
20
118.3063752
40
0.2083484
50
118.0551165
51
137.4540413
0
ARC
8
DEFAULT_255_1_234
10
15.8531499
20
118.2723304
40
0.2589774
50
137.5109581
51
158.8516286
0
ARC
8
DEFAULT_255_1_234
10
15.9669334
20
118.2264074
40
0.38167
50
158.5845963
51
170.1721436
0
ARC
8
DEFAULT_255_1_234
10
16.0838723
20
118.2031823
40
0.5008657
50
169.8376422
51
173.0566086
0
ARC
8
DEFAULT_255_1_234
10
15.6141797
20
118.2542509
40
0.4083467
50
2.9091802
51
12.8847116
0
ARC
8
DEFAULT_255_1_234
10
15.7512474
20
118.2865101
40
0.2675383
50
12.6957781
51
28.6404489
0
ARC
8
DEFAULT_255_1_234
10
15.8054145
20
118.3145458
40
0.2065654
50
29.0169854
51
41.1487595
0
ARC
8
DEFAULT_255_1_234
10
15.825693
20
118.3322003
40
0.1796786
50
41.1646065
51
85.0013516
0
ARC
8
DEFAULT_255_1_234
10
15.8136027
20
118.2587431
40
0.2539726
50
83.7280015
51
90.0964893
0
LINE
8
DEFAULT_255_1_234
10
16.9890214
20
118.3633248
11
16.8396311
21
118.3633248
0
LINE
8
DEFAULT_255_1_234
10
16.3063237
20
118.0171569
11
16.4549108
21
118.0171569
0
ARC
8
DEFAULT_255_1_234
10
16.720813
20
117.9816959
40
0.1276617
50
359.3334982
51
18.5871358
0
ARC
8
DEFAULT_255_1_234
10
16.7416767
20
117.9872133
40
0.1061371
50
19.3540742
51
54.6485071
0
ARC
8
DEFAULT_255_1_234
10
16.6912669
20
117.9176919
40
0.1920087
50
54.3827097
51
65.0622807
0
ARC
8
DEFAULT_255_1_234
10
16.6144065
20
117.75599
40
0.3710447
50
64.8282493
51
71.4200025
0
ARC
8
DEFAULT_255_1_234
10
16.5241941
20
117.4913107
40
0.6506741
50
71.3164301
51
75.8006402
0
ARC
8
DEFAULT_255_1_234
10
16.4400761
20
117.1672561
40
0.9854641
50
75.6809531
51
78.0061883
0
ARC
8
DEFAULT_255_1_234
10
16.8849294
20
119.265177
40
1.1591028
50
254.6901892
51
258.0466452
0
ARC
8
DEFAULT_255_1_234
10
16.7811202
20
118.8892781
40
0.7691345
50
249.9010773
51
254.755261
0
ARC
8
DEFAULT_255_1_234
10
16.6807544
20
118.6166982
40
0.478665
50
243.3097214
51
249.9709442
0
ARC
8
DEFAULT_255_1_234
10
16.6178565
20
118.4912778
40
0.3383568
50
234.4047477
51
243.2862168
0
ARC
8
DEFAULT_255_1_234
10
16.5556089
20
118.4053232
40
0.2322322
50
220.8667099
51
234.5493881
0
ARC
8
DEFAULT_255_1_234
10
16.521403
20
118.3741817
40
0.1859923
50
214.3062465
51
220.5065136
0
ARC
8
DEFAULT_255_1_234
10
16.5188109
20
118.371088
40
0.1821108
50
186.912965
51
213.9618616
0
ARC
8
DEFAULT_255_1_234
10
16.5720204
20
118.3797009
40
0.2359799
50
179.8808832
51
187.4339886
0
ARC
8
DEFAULT_255_1_234
10
16.5565337
20
118.3817088
40
0.2204978
50
132.005434
51
180.3942919
0
ARC
8
DEFAULT_255_1_234
10
16.6221951
20
118.3211083
40
0.3095791
50
129.2319861
51
133.5302299
0
ARC
8
DEFAULT_255_1_234
10
16.6275459
20
118.3116928
40
0.3202615
50
100.4410011
51
128.9081242
0
ARC
8
DEFAULT_255_1_234
10
16.6549343
20
118.1831455
40
0.4516583
50
89.6985377
51
100.9026564
0
ARC
8
DEFAULT_255_1_234
10
16.6606384
20
118.1671166
40
0.4676928
50
77.6965325
51
90.4076836
0
ARC
8
DEFAULT_255_1_234
10
16.6937369
20
118.3098413
40
0.3211988
50
50.7276602
51
78.0399361
0
ARC
8
DEFAULT_255_1_234
10
16.7381827
20
118.3616296
40
0.2529778
50
25.7545084
51
51.0957453
0
ARC
8
DEFAULT_255_1_234
10
16.7383052
20
118.3666206
40
0.250738
50
359.2468627
51
24.7394243
0
ARC
8
DEFAULT_255_1_234
10
16.7098504
20
118.3637664
40
0.1297815
50
359.8050318
51
45.1544908
0
ARC
8
DEFAULT_255_1_234
10
16.6691646
20
118.3289794
40
0.1831883
50
43.8047702
51
49.6271585
0
ARC
8
DEFAULT_255_1_234
10
16.6699547
20
118.3290678
40
0.18261
50
49.7980766
51
82.1218353
0
ARC
8
DEFAULT_255_1_234
10
16.6580519
20
118.2643998
40
0.2483163
50
81.4465357
51
90.1710293
0
ARC
8
DEFAULT_255_1_234
10
16.6556122
20
118.211788
40
0.300932
50
89.6766211
51
99.1264602
0
ARC
8
DEFAULT_255_1_234
10
16.6384584
20
118.3151537
40
0.1961547
50
98.968313
51
113.4570237
0
ARC
8
DEFAULT_255_1_234
10
16.6188669
20
118.3619965
40
0.1453859
50
113.722589
51
127.4763106
0
ARC
8
DEFAULT_255_1_234
10
16.6020315
20
118.3820124
40
0.1192639
50
126.9083309
51
150.3165862
0
ARC
8
DEFAULT_255_1_234
10
16.5972648
20
118.3870981
40
0.112623
50
151.3635175
51
180.0701457
0
ARC
8
DEFAULT_255_1_234
10
16.6281432
20
118.384999
40
0.1435149
50
179.2169974
51
179.9954013
0
ARC
8
DEFAULT_255_1_234
10
16.5920489
20
118.3837056
40
0.1074286
50
179.3040112
51
198.4225446
0
ARC
8
DEFAULT_255_1_234
10
16.5728623
20
118.3787127
40
0.0876573
50
199.2895851
51
238.6034594
0
ARC
8
DEFAULT_255_1_234
10
16.633147
20
118.473345
40
0.1998512
50
237.9846301
51
246.8744712
0
ARC
8
DEFAULT_255_1_234
10
16.7189415
20
118.6696205
40
0.4140547
50
246.6234531
51
251.8168941
0
ARC
8
DEFAULT_255_1_234
10
16.8219958
20
118.9790905
40
0.7402308
50
251.713434
51
255.0778414
0
ARC
8
DEFAULT_255_1_234
10
16.9419221
20
119.4257563
40
1.2027155
50
255.0367487
51
257.4705983
0
ARC
8
DEFAULT_255_1_234
10
16.4311231
20
117.1243863
40
1.1546601
50
73.6837552
51
77.5016755
0
ARC
8
DEFAULT_255_1_234
10
16.5400005
20
117.4943581
40
0.7690009
50
68.7044154
51
73.7249639
0
ARC
8
DEFAULT_255_1_234
10
16.6303026
20
117.7270654
40
0.5193873
50
63.590599
51
68.6626804
0
ARC
8
DEFAULT_255_1_234
10
16.7074045
20
117.8808123
40
0.3473927
50
54.7106439
51
63.7013633
0
ARC
8
DEFAULT_255_1_234
10
16.76985
20
117.96804
40
0.2401192
50
41.0622434
51
54.8487496
0
ARC
8
DEFAULT_255_1_234
10
16.8039886
20
117.9993592
40
0.1938094
50
34.4950568
51
40.7105546
0
ARC
8
DEFAULT_255_1_234
10
16.8086693
20
118.0042078
40
0.1872106
50
9.3763373
51
34.0833615
0
ARC
8
DEFAULT_255_1_234
10
16.7433564
20
117.9916728
40
0.2536988
50
359.7694872
51
9.7663171
0
ARC
8
DEFAULT_255_1_234
10
16.7631065
20
117.9873764
40
0.2339696
50
335.8654732
51
0.8022045
0
ARC
8
DEFAULT_255_1_234
10
16.7706109
20
117.9887197
40
0.2277108
50
307.7357725
51
334.7849066
0
ARC
8
DEFAULT_255_1_234
10
16.7305285
20
118.0337645
40
0.2878951
50
307.0241536
51
308.5578354
0
ARC
8
DEFAULT_255_1_234
10
16.7047616
20
118.0723801
40
0.3342515
50
282.9362969
51
306.5646424
0
ARC
8
DEFAULT_255_1_234
10
16.6685914
20
118.2191108
40
0.4853615
50
271.1026298
51
283.2200835
0
ARC
8
DEFAULT_255_1_234
10
16.6622157
20
118.3432418
40
0.6096052
50
269.9919117
51
271.4772449
0
ARC
8
DEFAULT_255_1_234
10
16.6595913
20
118.2354436
40
0.5018135
50
259.0723564
51
270.289833
0
ARC
8
DEFAULT_255_1_234
10
16.6383645
20
118.1237271
40
0.388099
50
245.4963068
51
259.0227342
0
ARC
8
DEFAULT_255_1_234
10
16.6105601
20
118.0655615
40
0.3236422
50
228.9684658
51
245.7044727
0
ARC
8
DEFAULT_255_1_234
10
16.5840045
20
118.0328575
40
0.2815426
50
214.4011705
51
228.6759915
0
ARC
8
DEFAULT_255_1_234
10
16.5550785
20
118.017029
40
0.2487548
50
179.9705531
51
215.1572795
0
ARC
8
DEFAULT_255_1_234
10
16.6251385
20
118.0243806
40
0.1703809
50
182.4299387
51
203.0329699
0
ARC
8
DEFAULT_255_1_234
10
16.6067043
20
118.0187396
40
0.1512226
50
203.798802
51
232.548466
0
ARC
8
DEFAULT_255_1_234
10
16.6343564
20
118.0538826
40
0.1959374
50
232.3782728
51
256.3934612
0
ARC
8
DEFAULT_255_1_234
10
16.6573926
20
118.1428842
40
0.2878639
50
256.104506
51
268.4626716
0
ARC
8
DEFAULT_255_1_234
10
16.662041
20
118.2225487
40
0.3676329
50
268.0715632
51
270.0138206
0
ARC
8
DEFAULT_255_1_234
10
16.6638935
20
118.1953083
40
0.3403971
50
269.7031147
51
278.8341955
0
ARC
8
DEFAULT_255_1_234
10
16.6821028
20
118.0822876
40
0.2259217
50
278.6728789
51
292.8232582
0
ARC
8
DEFAULT_255_1_234
10
16.7021566
20
118.0321449
40
0.171929
50
293.1452328
51
303.6655899
0
ARC
8
DEFAULT_255_1_234
10
16.7286445
20
117.9945204
40
0.1259367
50
303.1248165
51
321.742847
0
ARC
8
DEFAULT_255_1_234
10
16.7472325
20
117.9782156
40
0.1012531
50
322.4748573
51
1.1291126
0
LINE
8
DEFAULT_255_2_778
10
10.5738396
20
120.2743073
11
9.3932396
21
120.2743073
0
LINE
8
DEFAULT_255_2_778
10
9.3932396
20
120.2743073
11
9.9837396
21
121.2969073
0
LINE
8
DEFAULT_255_2_778
10
9.9837396
20
121.2969073
11
11.1643396
21
121.2969073
0
LINE
8
DEFAULT_255_2_778
10
11.1643396
20
121.2969073
11
10.5738396
21
120.2743073
0
LINE
8
DEFAULT_255_2_778
10
10.5738396
20
120.2743073
11
10.5738396
21
120.2743073
0
LINE
8
DEFAULT_255_2_778
10
11.7546396
20
120.2743073
11
12.9354396
21
120.2743073
0
LINE
8
DEFAULT_255_2_778
10
12.9354396
20
120.2743073
11
12.3451396
21
121.2969073
0
LINE
8
DEFAULT_255_2_778
10
12.3451396
20
121.2969073
11
11.1643396
21
121.2969073
0
LINE
8
DEFAULT_255_2_778
10
11.1643396
20
121.2969073
11
11.7546396
21
120.2743073
0
LINE
8
DEFAULT_255_2_778
10
11.7546396
20
120.2743073
11
11.7546396
21
120.2743073
0
LINE
8
DEFAULT_255_2_778
10
11.7545823
20
122.3195146
11
11.1642823
21
123.3421146
0
LINE
8
DEFAULT_255_2_778
10
11.1642823
20
123.3421146
11
10.5737823
21
122.3195146
0
LINE
8
DEFAULT_255_2_778
10
10.5737823
20
122.3195146
11
11.1642823
21
121.2969146
0
LINE
8
DEFAULT_255_2_778
10
11.1642823
20
121.2969146
11
11.7545823
21
122.3195146
0
LINE
8
DEFAULT_255_2_778
10
11.7545823
20
122.3195146
11
11.7545823
21
122.3195146
0
ARC
8
DEFAULT_255_2_778
10
16.5183731
20
121.9657426
40
0.5650491
50
268.7543645
51
289.1417717
0
ARC
8
DEFAULT_255_2_778
10
16.606208
20
121.7105531
40
0.2951681
50
289.2776255
51
3.7648372
0
ARC
8
DEFAULT_255_2_778
10
16.3901618
20
121.7371085
40
0.5106278
50
359.1949826
51
0.0020862
0
ARC
8
DEFAULT_255_2_778
10
16.547449
20
121.7230832
40
0.1541914
50
280.2616216
51
358.5297855
0
ARC
8
DEFAULT_255_2_778
10
16.5080075
20
121.835655
40
0.2726346
50
269.5969454
51
284.2065679
0
ARC
8
DEFAULT_255_2_778
10
16.4981967
20
121.8200316
40
0.2571258
50
246.5290903
51
271.7590909
0
ARC
8
DEFAULT_255_2_778
10
16.4527148
20
121.7120009
40
0.1399248
50
188.1071678
51
245.9934684
0
ARC
8
DEFAULT_255_2_778
10
16.4829007
20
121.7189617
40
0.1708111
50
179.9445314
51
188.990814
0
ARC
8
DEFAULT_255_2_778
10
16.4924507
20
121.7257849
40
0.3763411
50
178.2272621
51
205.8283807
0
ARC
8
DEFAULT_255_2_778
10
16.4132476
20
121.7080833
40
0.2979176
50
209.4028057
51
263.0375728
0
ARC
8
DEFAULT_255_2_778
10
16.5005111
20
122.0827629
40
0.6816586
50
259.5722942
51
270.4689037
0
ARC
8
DEFAULT_255_2_778
10
17.411252
20
122.1389767
40
0.1217154
50
2.0482843
51
87.015299
0
ARC
8
DEFAULT_255_2_778
10
17.4060617
20
122.1433852
40
0.126828
50
353.0600847
51
359.9737428
0
ARC
8
DEFAULT_255_2_778
10
17.4110442
20
122.1402555
40
0.1215295
50
270.5739762
51
354.2410513
0
ARC
8
DEFAULT_255_2_778
10
17.4065059
20
122.1764297
40
0.1578027
50
269.9941256
51
272.0902921
0
ARC
8
DEFAULT_255_2_778
10
17.414084
20
121.7255295
40
0.1400686
50
358.2807293
51
95.6106825
0
ARC
8
DEFAULT_255_2_778
10
17.4103233
20
121.7216963
40
0.1437669
50
266.9962473
51
359.8528392
0
ARC
8
DEFAULT_255_2_778
10
17.4725249
20
121.7619988
40
0.3335288
50
268.2414507
51
302.0223478
0
ARC
8
DEFAULT_255_2_778
10
17.5091261
20
121.686683
40
0.2504234
50
304.0600275
51
2.0468005
0
ARC
8
DEFAULT_255_2_778
10
17.4832788
20
121.6933521
40
0.2761203
50
0.4720601
51
65.8403529
0
ARC
8
DEFAULT_255_2_778
10
17.5191655
20
121.7581061
40
0.2024466
50
67.606893
51
75.8693222
0
ARC
8
DEFAULT_255_2_778
10
17.5042026
20
122.165722
40
0.2208874
50
286.9473417
51
358.0074963
0
ARC
8
DEFAULT_255_2_778
10
17.4710866
20
122.1745045
40
0.2544031
50
356.2897886
51
0.0050857
0
ARC
8
DEFAULT_255_2_778
10
17.497262
20
122.1795946
40
0.2282839
50
358.7280137
51
81.8073164
0
ARC
8
DEFAULT_255_2_778
10
17.4216369
20
121.9281283
40
0.4895182
50
77.2355086
51
90.5088275
0
ARC
8
DEFAULT_255_2_778
10
17.5842742
20
120.9636263
40
0.130243
50
89.9974494
51
92.6776592
0
ARC
8
DEFAULT_255_2_778
10
17.5843316
20
120.9641872
40
0.129682
50
45.0880141
51
90.022782
0
ARC
8
DEFAULT_255_2_778
10
17.5844118
20
120.964219
40
0.1296029
50
0.001866
51
45.1031959
0
ARC
8
DEFAULT_255_2_778
10
17.5845123
20
120.9642202
40
0.1295026
50
357.4803735
51
0.0013544
0
ARC
8
DEFAULT_255_2_778
10
17.5901979
20
120.9603512
40
0.1237052
50
339.8672523
51
359.1550732
0
ARC
8
DEFAULT_255_2_778
10
17.5794513
20
120.9575079
40
0.1329691
50
272.0853006
51
342.6124646
0
ARC
8
DEFAULT_255_2_778
10
17.6596145
20
120.9957661
40
0.2575135
50
286.787355
51
290.6121696
0
ARC
8
DEFAULT_255_2_778
10
17.6689461
20
120.9814533
40
0.24086
50
289.7330405
51
342.3216972
0
ARC
8
DEFAULT_255_2_778
10
17.641261
20
120.9862954
40
0.268735
50
343.130572
51
0.3905272
0
ARC
8
DEFAULT_255_2_778
10
17.6578783
20
121.0036767
40
0.2525904
50
356.4706028
51
80.1788963
0
ARC
8
DEFAULT_255_2_778
10
17.5921649
20
120.7767163
40
0.4881286
50
77.1212301
51
90.4900821
0
ARC
8
DEFAULT_255_2_778
10
17.5166337
20
120.479036
40
0.1865405
50
50.1507009
51
92.9634648
0
ARC
8
DEFAULT_255_2_778
10
17.5301354
20
120.5073678
40
0.1563319
50
12.621233
51
47.2950617
0
ARC
8
DEFAULT_255_2_778
10
16.8485884
20
120.3744726
40
0.8506657
50
2.8173892
51
11.3253986
0
ARC
8
DEFAULT_255_2_778
10
-29.2295733
20
116.8781175
40
47.060992
50
4.3048394
51
4.3117143
0
ARC
8
DEFAULT_255_2_778
10
18.5500859
20
120.450584
40
0.8523717
50
182.6850102
51
191.2954256
0
ARC
8
DEFAULT_255_2_778
10
17.9656837
20
120.3442399
40
0.2586603
50
193.5512904
51
195.3825538
0
ARC
8
DEFAULT_255_2_778
10
19.3415679
20
120.6018916
40
1.4608773
50
182.5958701
51
192.9049706
0
ARC
8
DEFAULT_255_2_778
10
17.6207606
20
120.5302215
40
0.261487
50
1.2064311
51
30.4123358
0
ARC
8
DEFAULT_255_2_778
10
17.6663626
20
120.545276
40
0.2147766
50
33.1081154
51
71.7312197
0
LINE
8
DEFAULT_255_2_778
10
13.4657897
20
120.7098271
11
13.9385897
21
120.7098271
0
LINE
8
DEFAULT_255_2_778
10
13.9385897
20
120.7098271
11
13.9385897
21
120.8812271
0
LINE
8
DEFAULT_255_2_778
10
13.9385897
20
120.8812271
11
13.4657897
21
120.8812271
0
LINE
8
DEFAULT_255_2_778
10
13.4657897
20
120.8812271
11
13.4657897
21
121.0921271
0
LINE
8
DEFAULT_255_2_778
10
13.4657897
20
121.0921271
11
13.9977897
21
121.0921271
0
LINE
8
DEFAULT_255_2_778
10
13.9977897
20
121.0921271
11
13.9977897
21
121.2635271
0
LINE
8
DEFAULT_255_2_778
10
13.9977897
20
121.2635271
11
13.4657897
21
121.2635271
0
LINE
8
DEFAULT_255_2_778
10
13.4657897
20
121.2635271
11
13.2651897
21
121.2635271
0
LINE
8
DEFAULT_255_2_778
10
13.2651897
20
121.2635271
11
13.2651897
21
121.0921271
0
LINE
8
DEFAULT_255_2_778
10
13.2651897
20
121.0921271
11
13.2651897
21
120.4457271
0
LINE
8
DEFAULT_255_2_778
10
13.2651897
20
120.4457271
11
13.2651897
21
120.2742271
0
LINE
8
DEFAULT_255_2_778
10
13.2651897
20
120.2742271
11
13.4657897
21
120.2742271
0
LINE
8
DEFAULT_255_2_778
10
13.4657897
20
120.2742271
11
14.0118897
21
120.2742271
0
LINE
8
DEFAULT_255_2_778
10
14.0118897
20
120.2742271
11
14.0118897
21
120.4457271
0
LINE
8
DEFAULT_255_2_778
10
14.0118897
20
120.4457271
11
13.4657897
21
120.4457271
0
LINE
8
DEFAULT_255_2_778
10
13.4657897
20
120.4457271
11
13.4657897
21
120.7095271
0
LINE
8
DEFAULT_255_2_778
10
13.4657897
20
120.7095271
11
13.4657897
21
120.7098271
0
LINE
8
DEFAULT_255_2_778
10
13.4519897
20
122.1639271
11
13.6620897
21
121.4286271
0
LINE
8
DEFAULT_255_2_778
10
13.6620897
20
121.4286271
11
13.6704897
21
121.4286271
0
LINE
8
DEFAULT_255_2_778
10
13.6704897
20
121.4286271
11
13.8464897
21
121.4286271
0
LINE
8
DEFAULT_255_2_778
10
13.8464897
20
121.4286271
11
13.8546897
21
121.4286271
0
LINE
8
DEFAULT_255_2_778
10
13.8546897
20
121.4286271
11
14.0647897
21
122.1639271
0
LINE
8
DEFAULT_255_2_778
10
14.0647897
20
122.1639271
11
14.0647897
21
121.4286271
0
LINE
8
DEFAULT_255_2_778
10
14.0647897
20
121.4286271
11
14.2515897
21
121.4286271
0
LINE
8
DEFAULT_255_2_778
10
14.2515897
20
121.4286271
11
14.2515897
21
122.4179271
0
LINE
8
DEFAULT_255_2_778
10
14.2515897
20
122.4179271
11
14.1496897
21
122.4179271
0
LINE
8
DEFAULT_255_2_778
10
14.1496897
20
122.4179271
11
14.0615897
21
122.4179271
0
LINE
8
DEFAULT_255_2_778
10
14.0615897
20
122.4179271
11
13.9655897
21
122.4179271
0
LINE
8
DEFAULT_255_2_778
10
13.9655897
20
122.4179271
11
13.7583897
21
121.7236271
0
LINE
8
DEFAULT_255_2_778
10
13.7583897
20
121.7236271
11
13.5511897
21
122.4179271
0
LINE
8
DEFAULT_255_2_778
10
13.5511897
20
122.4179271
11
13.4551897
21
122.4179271
0
LINE
8
DEFAULT_255_2_778
10
13.4551897
20
122.4179271
11
13.3669897
21
122.4179271
0
LINE
8
DEFAULT_255_2_778
10
13.3669897
20
122.4179271
11
13.2651897
21
122.4179271
0
LINE
8
DEFAULT_255_2_778
10
13.2651897
20
122.4179271
11
13.2651897
21
121.4286271
0
LINE
8
DEFAULT_255_2_778
10
13.2651897
20
121.4286271
11
13.4519897
21
121.4286271
0
LINE
8
DEFAULT_255_2_778
10
13.4519897
20
121.4286271
11
13.4519897
21
122.1639271
0
LINE
8
DEFAULT_255_2_778
10
13.4519897
20
122.1639271
11
13.4519897
21
122.1639271
0
LINE
8
DEFAULT_255_2_778
10
18.0056897
20
122.4179271
11
17.8064897
21
122.4179271
0
LINE
8
DEFAULT_255_2_778
10
17.8064897
20
122.4179271
11
17.8064897
21
121.4286271
0
LINE
8
DEFAULT_255_2_778
10
17.8064897
20
121.4286271
11
18.0056897
21
121.4286271
0
LINE
8
DEFAULT_255_2_778
10
18.0056897
20
121.4286271
11
18.0056897
21
122.4179271
0
LINE
8
DEFAULT_255_2_778
10
18.0056897
20
122.4179271
11
18.0056897
21
122.4179271
0
LINE
8
DEFAULT_255_2_778
10
18.1681897
20
121.2638271
11
17.9689897
21
121.2638271
0
LINE
8
DEFAULT_255_2_778
10
17.9689897
20
121.2638271
11
17.9689897
21
120.2745271
0
LINE
8
DEFAULT_255_2_778
10
17.9689897
20
120.2745271
11
18.1681897
21
120.2745271
0
LINE
8
DEFAULT_255_2_778
10
18.1681897
20
120.2745271
11
18.1681897
21
121.2638271
0
LINE
8
DEFAULT_255_2_778
10
18.1681897
20
121.2638271
11
18.1681897
21
121.2638271
0
LINE
8
DEFAULT_255_2_778
10
19.9765897
20
122.4179271
11
19.7773897
21
122.4179271
0
LINE
8
DEFAULT_255_2_778
10
19.7773897
20
122.4179271
11
19.7773897
21
121.4286271
0
LINE
8
DEFAULT_255_2_778
10
19.7773897
20
121.4286271
11
19.9765897
21
121.4286271
0
LINE
8
DEFAULT_255_2_778
10
19.9765897
20
121.4286271
11
19.9765897
21
122.4179271
0
LINE
8
DEFAULT_255_2_778
10
19.9765897
20
122.4179271
11
19.9765897
21
122.4179271
0
LINE
8
DEFAULT_255_2_778
10
14.5298897
20
122.4179271
11
14.3306897
21
122.4179271
0
LINE
8
DEFAULT_255_2_778
10
14.3306897
20
122.4179271
11
14.3306897
21
121.4286271
0
LINE
8
DEFAULT_255_2_778
10
14.3306897
20
121.4286271
11
14.5298897
21
121.4286271
0
LINE
8
DEFAULT_255_2_778
10
14.5298897
20
121.4286271
11
14.5298897
21
122.4179271
0
LINE
8
DEFAULT_255_2_778
10
14.5298897
20
122.4179271
11
14.5298897
21
122.4179271
0
LINE
8
DEFAULT_255_2_778
10
19.4989897
20
122.0319271
11
19.1029897
21
122.0319271
0
LINE
8
DEFAULT_255_2_778
10
19.1029897
20
122.0319271
11
19.1029897
21
122.4176271
0
LINE
8
DEFAULT_255_2_778
10
19.1029897
20
122.4176271
11
18.9068897
21
122.4176271
0
LINE
8
DEFAULT_255_2_778
10
18.9068897
20
122.4176271
11
18.9068897
21
121.4286271
0
LINE
8
DEFAULT_255_2_778
10
18.9068897
20
121.4286271
11
19.1029897
21
121.4286271
0
LINE
8
DEFAULT_255_2_778
10
19.1029897
20
121.4286271
11
19.1029897
21
121.8604271
0
LINE
8
DEFAULT_255_2_778
10
19.1029897
20
121.8604271
11
19.4989897
21
121.8604271
0
LINE
8
DEFAULT_255_2_778
10
19.4989897
20
121.8604271
11
19.4989897
21
121.4286271
0
LINE
8
DEFAULT_255_2_778
10
19.4989897
20
121.4286271
11
19.6950897
21
121.4286271
0
LINE
8
DEFAULT_255_2_778
10
19.6950897
20
121.4286271
11
19.6950897
21
122.4176271
0
LINE
8
DEFAULT_255_2_778
10
19.6950897
20
122.4176271
11
19.4989897
21
122.4176271
0
LINE
8
DEFAULT_255_2_778
10
19.4989897
20
122.4176271
11
19.4989897
21
122.0319271
0
LINE
8
DEFAULT_255_2_778
10
19.4989897
20
122.0319271
11
19.4989897
21
122.0319271
0
LINE
8
DEFAULT_255_2_778
10
14.8246897
20
121.4286271
11
15.0280897
21
121.4286271
0
LINE
8
DEFAULT_255_2_778
10
15.0280897
20
121.4286271
11
15.0280897
21
122.2465271
0
LINE
8
DEFAULT_255_2_778
10
15.0280897
20
122.2465271
11
15.2696897
21
122.2465271
0
LINE
8
DEFAULT_255_2_778
10
15.2696897
20
122.2465271
11
15.2696897
21
122.4179271
0
LINE
8
DEFAULT_255_2_778
10
15.2696897
20
122.4179271
11
15.0280897
21
122.4179271
0
LINE
8
DEFAULT_255_2_778
10
15.0280897
20
122.4179271
11
14.8246897
21
122.4179271
0
LINE
8
DEFAULT_255_2_778
10
14.8246897
20
122.4179271
11
14.5830897
21
122.4179271
0
LINE
8
DEFAULT_255_2_778
10
14.5830897
20
122.4179271
11
14.5830897
21
122.2465271
0
LINE
8
DEFAULT_255_2_778
10
14.5830897
20
122.2465271
11
14.8246897
21
122.2465271
0
LINE
8
DEFAULT_255_2_778
10
14.8246897
20
122.2465271
11
14.8246897
21
121.4286271
0
LINE
8
DEFAULT_255_2_778
10
14.8246897
20
121.4286271
11
14.8246897
21
121.4286271
0
LINE
8
DEFAULT_255_2_778
10
16.6422897
20
120.2745271
11
16.8454897
21
120.2745271
0
LINE
8
DEFAULT_255_2_778
10
16.8454897
20
120.2745271
11
16.8454897
21
121.0923271
0
LINE
8
DEFAULT_255_2_778
10
16.8454897
20
121.0923271
11
17.0873897
21
121.0923271
0
LINE
8
DEFAULT_255_2_778
10
17.0873897
20
121.0923271
11
17.0873897
21
121.2641271
0
LINE
8
DEFAULT_255_2_778
10
17.0873897
20
121.2641271
11
16.8454897
21
121.2641271
0
LINE
8
DEFAULT_255_2_778
10
16.8454897
20
121.2641271
11
16.6422897
21
121.2641271
0
LINE
8
DEFAULT_255_2_778
10
16.6422897
20
121.2641271
11
16.4004897
21
121.2641271
0
LINE
8
DEFAULT_255_2_778
10
16.4004897
20
121.2641271
11
16.4004897
21
121.0923271
0
LINE
8
DEFAULT_255_2_778
10
16.4004897
20
121.0923271
11
16.6422897
21
121.0923271
0
LINE
8
DEFAULT_255_2_778
10
16.6422897
20
121.0923271
11
16.6422897
21
120.2745271
0
LINE
8
DEFAULT_255_2_778
10
16.6422897
20
120.2745271
11
16.6422897
21
120.2745271
0
LINE
8
DEFAULT_255_2_778
10
16.9007897
20
121.7371271
11
16.9007897
21
122.4176271
0
LINE
8
DEFAULT_255_2_778
10
16.9007897
20
122.4176271
11
16.7015897
21
122.4176271
0
LINE
8
DEFAULT_255_2_778
10
16.7015897
20
122.4176271
11
16.7015897
21
121.7191271
0
LINE
8
DEFAULT_255_2_778
10
16.3120897
20
121.7191271
11
16.3120897
21
122.4176271
0
LINE
8
DEFAULT_255_2_778
10
16.3120897
20
122.4176271
11
16.1162897
21
122.4176271
0
LINE
8
DEFAULT_255_2_778
10
16.1162897
20
122.4176271
11
16.1162897
21
121.7374271
0
LINE
8
DEFAULT_255_2_778
10
15.0000897
20
120.7098271
11
15.4730897
21
120.7098271
0
LINE
8
DEFAULT_255_2_778
10
15.4730897
20
120.7098271
11
15.4730897
21
120.8812271
0
LINE
8
DEFAULT_255_2_778
10
15.4730897
20
120.8812271
11
15.0000897
21
120.8812271
0
LINE
8
DEFAULT_255_2_778
10
15.0000897
20
120.8812271
11
15.0000897
21
121.0921271
0
LINE
8
DEFAULT_255_2_778
10
15.0000897
20
121.0921271
11
15.5320897
21
121.0921271
0
LINE
8
DEFAULT_255_2_778
10
15.5320897
20
121.0921271
11
15.5320897
21
121.2635271
0
LINE
8
DEFAULT_255_2_778
10
15.5320897
20
121.2635271
11
15.0000897
21
121.2635271
0
LINE
8
DEFAULT_255_2_778
10
15.0000897
20
121.2635271
11
14.7997897
21
121.2635271
0
LINE
8
DEFAULT_255_2_778
10
14.7997897
20
121.2635271
11
14.7997897
21
121.0921271
0
LINE
8
DEFAULT_255_2_778
10
14.7997897
20
121.0921271
11
14.7997897
21
120.4457271
0
LINE
8
DEFAULT_255_2_778
10
14.7997897
20
120.4457271
11
14.7997897
21
120.2742271
0
LINE
8
DEFAULT_255_2_778
10
14.7997897
20
120.2742271
11
15.0000897
21
120.2742271
0
LINE
8
DEFAULT_255_2_778
10
15.0000897
20
120.2742271
11
15.5461897
21
120.2742271
0
LINE
8
DEFAULT_255_2_778
10
15.5461897
20
120.2742271
11
15.5461897
21
120.4457271
0
LINE
8
DEFAULT_255_2_778
10
15.5461897
20
120.4457271
11
15.0000897
21
120.4457271
0
LINE
8
DEFAULT_255_2_778
10
15.0000897
20
120.4457271
11
15.0000897
21
120.7095271
0
LINE
8
DEFAULT_255_2_778
10
15.0000897
20
120.7095271
11
15.0000897
21
120.7098271
0
LINE
8
DEFAULT_255_2_778
10
17.4064897
20
122.0186271
11
17.1690897
21
122.0186271
0
LINE
8
DEFAULT_255_2_778
10
17.1690897
20
122.0186271
11
17.1690897
21
122.2602271
0
LINE
8
DEFAULT_255_2_778
10
17.1690897
20
122.2602271
11
17.4175897
21
122.2602271
0
LINE
8
DEFAULT_255_2_778
10
17.4175897
20
122.2602271
11
17.4175897
21
122.2605271
0
LINE
8
DEFAULT_255_2_778
10
17.4027897
20
121.5778271
11
17.1690897
21
121.5778271
0
LINE
8
DEFAULT_255_2_778
10
17.1690897
20
121.5778271
11
17.1690897
21
121.8649271
0
LINE
8
DEFAULT_255_2_778
10
17.1690897
20
121.8649271
11
17.4003897
21
121.8649271
0
LINE
8
DEFAULT_255_2_778
10
17.1767897
20
121.4286271
11
17.4622897
21
121.4286271
0
LINE
8
DEFAULT_255_2_778
10
17.4172897
20
122.4176271
11
17.1770897
21
122.4176271
0
LINE
8
DEFAULT_255_2_778
10
17.1770897
20
122.4176271
11
16.9722897
21
122.4176271
0
LINE
8
DEFAULT_255_2_778
10
16.9722897
20
122.4176271
11
16.9711897
21
122.4176271
0
LINE
8
DEFAULT_255_2_778
10
16.9711897
20
122.4176271
11
16.9711897
21
121.4286271
0
LINE
8
DEFAULT_255_2_778
10
16.9711897
20
121.4286271
11
16.9722897
21
121.4286271
0
LINE
8
DEFAULT_255_2_778
10
16.9722897
20
121.4286271
11
17.1770897
21
121.4286271
0
LINE
8
DEFAULT_255_2_778
10
17.1770897
20
121.4286271
11
17.1767897
21
121.4286271
0
LINE
8
DEFAULT_255_2_778
10
17.3368897
20
120.8243271
11
17.3368897
21
121.0937271
0
LINE
8
DEFAULT_255_2_778
10
17.3368897
20
121.0937271
11
17.5781897
21
121.0937271
0
LINE
8
DEFAULT_255_2_778
10
17.5842897
20
120.8246271
11
17.3370897
21
120.8246271
0
LINE
8
DEFAULT_255_2_778
10
17.3370897
20
120.8246271
11
17.3368897
21
120.8243271
0
LINE
8
DEFAULT_255_2_778
10
17.5879897
20
121.2648271
11
17.3368897
21
121.2648271
0
LINE
8
DEFAULT_255_2_778
10
17.3368897
20
121.2648271
11
17.1383897
21
121.2648271
0
LINE
8
DEFAULT_255_2_778
10
17.1383897
20
121.2648271
11
17.1362897
21
121.2648271
0
LINE
8
DEFAULT_255_2_778
10
17.1362897
20
121.2648271
11
17.1362897
21
120.2756271
0
LINE
8
DEFAULT_255_2_778
10
17.1362897
20
120.2756271
11
17.3368897
21
120.2756271
0
LINE
8
DEFAULT_255_2_778
10
17.3368897
20
120.2756271
11
17.3368897
21
120.6653271
0
LINE
8
DEFAULT_255_2_778
10
17.3368897
20
120.6653271
11
17.5069897
21
120.6653271
0
LINE
8
DEFAULT_255_2_778
10
17.7162897
20
120.2756271
11
17.9175897
21
120.2756271
0
LINE
8
DEFAULT_255_2_778
10
14.2763897
20
121.2638271
11
14.0760897
21
121.2638271
0
LINE
8
DEFAULT_255_2_778
10
14.0760897
20
121.2638271
11
14.0760897
21
120.4460271
0
LINE
8
DEFAULT_255_2_778
10
14.0760897
20
120.4460271
11
14.0760897
21
120.2745271
0
LINE
8
DEFAULT_255_2_778
10
14.0760897
20
120.2745271
11
14.2763897
21
120.2745271
0
LINE
8
DEFAULT_255_2_778
10
14.2763897
20
120.2745271
11
14.7428897
21
120.2745271
0
LINE
8
DEFAULT_255_2_778
10
14.7428897
20
120.2745271
11
14.7428897
21
120.4460271
0
LINE
8
DEFAULT_255_2_778
10
14.7428897
20
120.4460271
11
14.2763897
21
120.4460271
0
LINE
8
DEFAULT_255_2_778
10
14.2763897
20
120.4460271
11
14.2763897
21
121.2638271
0
LINE
8
DEFAULT_255_2_778
10
14.2763897
20
121.2638271
11
14.2763897
21
121.2638271
0
ARC
8
DEFAULT_255_2_778
10
15.4584271
20
120.8896969
40
0.9681224
50
72.4822103
51
81.3184214
0
ARC
8
DEFAULT_255_2_778
10
15.7160297
20
121.6663918
40
0.1503783
50
28.8883513
51
77.0092434
0
ARC
8
DEFAULT_255_2_778
10
15.7432379
20
121.6953196
40
0.113238
50
358.9917455
51
22.7117017
0
ARC
8
DEFAULT_255_2_778
10
15.7394861
20
121.6994918
40
0.1171346
50
289.2958104
51
356.9831562
0
ARC
8
DEFAULT_255_2_778
10
15.6668261
20
121.8569882
40
0.2902651
50
268.4665462
51
292.5613311
0
ARC
8
DEFAULT_255_2_778
10
15.6496856
20
121.7979179
40
0.2312808
50
236.4956947
51
272.3225735
0
ARC
8
DEFAULT_255_2_778
10
15.6106646
20
121.7296839
40
0.1529307
50
178.9722202
51
234.5742435
0
ARC
8
DEFAULT_255_2_778
10
15.5656113
20
121.7201079
40
0.3002058
50
177.6481608
51
245.5596397
0
ARC
8
DEFAULT_255_2_778
10
15.6409971
20
121.8923561
40
0.488217
50
245.8690375
51
267.169035
0
ARC
8
DEFAULT_255_2_778
10
15.6671503
20
122.1433916
40
0.7403648
50
266.1069867
51
270.0547972
0
ARC
8
DEFAULT_255_2_778
10
15.6772894
20
121.9746135
40
0.5716642
50
269.0547216
51
287.7147747
0
ARC
8
DEFAULT_255_2_778
10
15.7598889
20
121.7289091
40
0.3125017
50
286.995984
51
325.1221533
0
ARC
8
DEFAULT_255_2_778
10
15.7678294
20
121.712361
40
0.2966627
50
326.8673922
51
0.8625726
0
ARC
8
DEFAULT_255_2_778
10
15.7898286
20
121.7209409
40
0.2746606
50
359.1417932
51
76.9739731
0
ARC
8
DEFAULT_255_2_778
10
15.6705461
20
121.4400719
40
0.577616
50
71.7185727
51
79.1315439
0
ARC
8
DEFAULT_255_2_778
10
14.2492968
20
114.086467
40
8.0673056
50
79.0662148
51
79.6216572
0
ARC
8
DEFAULT_255_2_778
10
16.4356585
20
125.9641581
40
4.0099443
50
259.1227669
51
259.4665204
0
ARC
8
DEFAULT_255_2_778
10
15.7836732
20
122.6691142
40
0.6513291
50
249.9945768
51
260.7485895
0
ARC
8
DEFAULT_255_2_778
10
15.5880401
20
122.1580999
40
0.1046098
50
178.6705173
51
254.9333545
0
ARC
8
DEFAULT_255_2_778
10
15.6049957
20
122.1546688
40
0.1216785
50
93.288632
51
177.2403935
0
ARC
8
DEFAULT_255_2_778
10
15.6585677
20
121.9676752
40
0.3143588
50
89.6189463
51
101.1057977
0
ARC
8
DEFAULT_255_2_778
10
15.6722733
20
122.079516
40
0.2028439
50
53.5634072
51
93.2825843
0
ARC
8
DEFAULT_255_2_778
10
15.7018505
20
122.1377144
40
0.1388739
50
357.1985816
51
49.1152298
0
ARC
8
DEFAULT_255_2_778
10
15.7254907
20
122.1309274
40
0.3087677
50
359.9999335
51
2.3703878
0
ARC
8
DEFAULT_255_2_778
10
15.7353555
20
122.1324337
40
0.298851
50
2.1600756
51
60.1092229
0
ARC
8
DEFAULT_255_2_778
10
15.6766212
20
122.0258133
40
0.4205645
50
60.4106856
51
86.1444419
0
ARC
8
DEFAULT_255_2_778
10
15.6536151
20
121.8491228
40
0.5985046
50
85.0843314
51
90.0628677
0
ARC
8
DEFAULT_255_2_778
10
15.6529718
20
121.9725466
40
0.4750804
50
90.001616
51
92.2300394
0
ARC
8
DEFAULT_255_2_778
10
15.6281193
20
122.077687
40
0.3696351
50
89.0131319
51
149.6364996
0
ARC
8
DEFAULT_255_2_778
10
15.5505461
20
122.1499055
40
0.2671974
50
154.5962367
51
180.4885883
0
ARC
8
DEFAULT_255_2_778
10
15.5651524
20
122.148384
40
0.281795
50
180.1539064
51
255.1120325
0
ARC
8
DEFAULT_255_2_778
10
15.7094242
20
122.471232
40
0.6333958
50
249.9962237
51
260.4976723
0
ARC
8
DEFAULT_255_2_778
10
18.2470963
20
120.8908351
40
0.967002
50
72.4685023
51
81.3064395
0
ARC
8
DEFAULT_255_2_778
10
18.5045397
20
121.666427
40
0.1503535
50
28.8782248
51
76.9904304
0
ARC
8
DEFAULT_255_2_778
10
18.5317197
20
121.6953189
40
0.1132561
50
358.9922779
51
22.7082666
0
ARC
8
DEFAULT_255_2_778
10
18.5280402
20
121.6994088
40
0.1170763
50
289.2761556
51
357.0223042
0
ARC
8
DEFAULT_255_2_778
10
18.4553612
20
121.8572836
40
0.2905613
50
268.4611814
51
292.5289055
0
ARC
8
DEFAULT_255_2_778
10
18.4381801
20
121.7988175
40
0.2321799
50
236.6698634
51
272.3149402
0
ARC
8
DEFAULT_255_2_778
10
18.39878
20
121.7296762
40
0.1528464
50
178.9687581
51
234.7686008
0
ARC
8
DEFAULT_255_2_778
10
18.3540113
20
121.7201079
40
0.3002058
50
177.6481608
51
245.5596397
0
ARC
8
DEFAULT_255_2_778
10
18.4293971
20
121.8923561
40
0.488217
50
245.8690375
51
267.169035
0
ARC
8
DEFAULT_255_2_778
10
18.4555503
20
122.1433916
40
0.7403648
50
266.1069867
51
270.0547972
0
ARC
8
DEFAULT_255_2_778
10
18.4656836
20
121.9752451
40
0.5722957
50
269.0563423
51
287.7048702
0
ARC
8
DEFAULT_255_2_778
10
18.548344
20
121.7292682
40
0.312856
50
286.9832601
51
325.0871916
0
ARC
8
DEFAULT_255_2_778
10
18.5567708
20
121.7123856
40
0.2964208
50
326.8311942
51
0.8585267
0
ARC
8
DEFAULT_255_2_778
10
18.5785756
20
121.7210282
40
0.2746149
50
359.1234265
51
76.9343785
0
ARC
8
DEFAULT_255_2_778
10
18.4596421
20
121.4411965
40
0.5764934
50
71.6999697
51
79.1198353
0
ARC
8
DEFAULT_255_2_778
10
17.0173657
20
113.9644392
40
8.1910887
50
79.0843627
51
79.6321368
0
ARC
8
DEFAULT_255_2_778
10
19.2200266
20
125.9439177
40
3.9892176
50
259.1314419
51
259.4772924
0
ARC
8
DEFAULT_255_2_778
10
18.5723251
20
122.6685131
40
0.6507003
50
249.9919323
51
260.7592458
0
ARC
8
DEFAULT_255_2_778
10
18.376901
20
122.1580546
40
0.1045718
50
178.6452075
51
254.9151907
0
ARC
8
DEFAULT_255_2_778
10
18.3939581
20
122.1546016
40
0.121744
50
93.2745253
51
177.21023
0
ARC
8
DEFAULT_255_2_778
10
18.4475726
20
121.9675052
40
0.3145287
50
89.6200387
51
101.1027534
0
ARC
8
DEFAULT_255_2_778
10
18.4613489
20
122.0808453
40
0.2015212
50
53.1490002
51
93.3256649
0
ARC
8
DEFAULT_255_2_778
10
18.4902753
20
122.1376519
40
0.1391457
50
357.2298288
51
48.6469881
0
ARC
8
DEFAULT_255_2_778
10
18.5137232
20
122.1309226
40
0.3092351
50
0.0008291
51
2.3676985
0
ARC
8
DEFAULT_255_2_778
10
18.5240744
20
122.1324868
40
0.2988304
50
2.1500394
51
60.0956838
0
ARC
8
DEFAULT_255_2_778
10
18.4654399
20
122.0259909
40
0.4203859
50
60.40452
51
86.1455285
0
ARC
8
DEFAULT_255_2_778
10
18.4424157
20
121.8491686
40
0.5984588
50
85.0841409
51
90.0629301
0
ARC
8
DEFAULT_255_2_778
10
18.4417778
20
121.9721392
40
0.4754878
50
90.0023409
51
92.3231329
0
ARC
8
DEFAULT_255_2_778
10
18.4167555
20
122.0774604
40
0.3698206
50
89.1093915
51
149.6400816
0
ARC
8
DEFAULT_255_2_778
10
18.338761
20
122.1498917
40
0.2669122
50
154.6001925
51
180.486137
0
ARC
8
DEFAULT_255_2_778
10
18.3537607
20
122.1485152
40
0.2819037
50
180.1805176
51
255.132702
0
ARC
8
DEFAULT_255_2_778
10
18.4982264
20
122.4717784
40
0.6339516
50
250.0026216
51
260.4967164
0
ARC
8
DEFAULT_255_2_778
10
16.008917
20
120.6789283
40
0.2519711
50
190.2626864
51
267.3480013
0
ARC
8
DEFAULT_255_2_778
10
16.2443543
20
120.7702548
40
0.5022041
50
179.6723028
51
195.7380858
0
ARC
8
DEFAULT_255_2_778
10
16.1790511
20
120.7857671
40
0.4370755
50
148.7005643
51
181.6572045
0
ARC
8
DEFAULT_255_2_778
10
15.9957576
20
120.8958723
40
0.2232598
50
89.6148479
51
148.4074796
0
ARC
8
DEFAULT_255_2_778
10
16.0060936
20
120.917949
40
0.201372
50
41.9769772
51
92.5146611
0
ARC
8
DEFAULT_255_2_778
10
15.9522078
20
120.8802523
40
0.2667646
50
15.1848537
51
40.2549591
0
ARC
8
DEFAULT_255_2_778
10
16.028123
20
120.8905326
40
0.3935735
50
8.7091682
51
82.0550801
0
ARC
8
DEFAULT_255_2_778
10
15.9931241
20
120.7440871
40
0.543642
50
80.5350289
51
90.1544743
0
ARC
8
DEFAULT_255_2_778
10
15.9818804
20
120.8327192
40
0.4551129
50
88.7689246
51
119.6437418
0
ARC
8
DEFAULT_255_2_778
10
16.0077717
20
120.8364647
40
0.4653013
50
122.644121
51
173.3997839
0
ARC
8
DEFAULT_255_2_778
10
16.2711934
20
120.7721568
40
0.7351371
50
170.7798304
51
180.1348114
0
ARC
8
DEFAULT_255_2_778
10
16.1377257
20
120.7567615
40
0.6018225
50
178.6988735
51
210.5289552
0
ARC
8
DEFAULT_255_2_778
10
15.970325
20
120.6659953
40
0.4115783
50
211.4828222
51
265.8686737
0
ARC
8
DEFAULT_255_2_778
10
15.9909864
20
120.7907011
40
0.5375742
50
264.6297133
51
270.0503073
0
ARC
8
DEFAULT_255_2_778
10
16.0020995
20
120.7225749
40
0.4695684
50
268.7014824
51
300.1403067
0
ARC
8
DEFAULT_255_2_778
10
16.0350333
20
120.6441852
40
0.385394
50
301.7580058
51
353.77968
0
ARC
8
DEFAULT_255_2_778
10
16.0012256
20
120.6385219
40
0.2113379
50
268.8430278
51
350.1661143
0
ARC
8
DEFAULT_255_2_778
10
18.6896799
20
120.6788824
40
0.2519281
50
190.2538303
51
267.3332171
0
ARC
8
DEFAULT_255_2_778
10
18.9252249
20
120.7702581
40
0.5022746
50
179.672724
51
195.7362088
0
ARC
8
DEFAULT_255_2_778
10
18.8600432
20
120.7857917
40
0.4372682
50
148.7196987
51
181.6596982
0
ARC
8
DEFAULT_255_2_778
10
18.676443
20
120.8959906
40
0.2231415
50
89.6108896
51
148.4244661
0
ARC
8
DEFAULT_255_2_778
10
18.686876
20
120.917967
40
0.2013576
50
42.5913083
51
92.5383066
0
ARC
8
DEFAULT_255_2_778
10
18.6345542
20
120.8815973
40
0.2646316
50
15.0085433
51
40.7215892
0
ARC
8
DEFAULT_255_2_778
10
18.708623
20
120.8905326
40
0.3935735
50
8.7091682
51
82.0550801
0
ARC
8
DEFAULT_255_2_778
10
18.6736241
20
120.7440871
40
0.543642
50
80.5350289
51
90.1544743
0
ARC
8
DEFAULT_255_2_778
10
18.6623804
20
120.8327192
40
0.4551129
50
88.7689246
51
119.6437418
0
ARC
8
DEFAULT_255_2_778
10
18.6882717
20
120.8364647
40
0.4653013
50
122.644121
51
173.3997839
0
ARC
8
DEFAULT_255_2_778
10
18.9516934
20
120.7721568
40
0.7351371
50
170.7798304
51
180.1348114
0
ARC
8
DEFAULT_255_2_778
10
18.8177822
20
120.75682
40
0.6013778
50
178.7034849
51
210.5604279
0
ARC
8
DEFAULT_255_2_778
10
18.6511312
20
120.6663377
40
0.4119265
50
211.5090145
51
265.8592607
0
ARC
8
DEFAULT_255_2_778
10
18.6716883
20
120.7904521
40
0.5373252
50
264.628472
51
270.0501277
0
ARC
8
DEFAULT_255_2_778
10
18.682837
20
120.7223685
40
0.4693629
50
268.6963312
51
300.2191972
0
ARC
8
DEFAULT_255_2_778
10
18.7155684
20
120.6444124
40
0.3856821
50
301.8465101
51
353.7503927
0
ARC
8
DEFAULT_255_2_778
10
18.6820648
20
120.6383604
40
0.2111733
50
268.8857714
51
350.2028431
0
LINE
8
DEFAULT_255_2_778
10
15.4577584
20
121.7324271
11
15.2656584
21
121.7324271
0
LINE
8
DEFAULT_255_2_778
10
15.8405584
20
122.1309271
11
16.0342584
21
122.1309271
0
LINE
8
DEFAULT_255_2_778
10
18.2459584
20
121.7324271
11
18.0540584
21
121.7324271
0
LINE
8
DEFAULT_255_2_778
10
18.6292584
20
122.1309271
11
18.8229584
21
122.1309271
0
LINE
8
DEFAULT_255_2_778
10
16.2096584
20
120.9501271
11
16.4171584
21
120.9501271
0
LINE
8
DEFAULT_255_2_778
10
16.4181584
20
120.6024271
11
16.2094584
21
120.6024271
0
LINE
8
DEFAULT_255_2_778
10
18.8901584
20
120.9501271
11
19.0976584
21
120.9501271
0
LINE
8
DEFAULT_255_2_778
10
19.0989584
20
120.6024271
11
18.8901584
21
120.6024271
0
LINE
8
DEFAULT_255_2_778
10
18.6536335
20
77.9197492
11
18.6536335
21
52.7843492
0
LINE
8
DEFAULT_255_2_778
10
18.6536335
20
52.7843492
11
19.9765335
21
52.7843492
0
LINE
8
DEFAULT_255_2_778
10
9.3932335
20
108.3468492
11
10.7161335
21
108.3468492
0
LINE
8
DEFAULT_255_2_778
10
10.7161335
20
108.3468492
11
10.7161335
21
67.3364492
0
LINE
8
DEFAULT_255_2_778
10
9.3932834
20
67.3364333
11
12.0390834
21
67.3364333
0
LINE
8
DEFAULT_255_2_778
10
12.0390834
20
67.3364333
11
12.0390834
21
62.0447333
0
LINE
8
DEFAULT_255_2_778
10
12.0390834
20
62.0447333
11
9.3932834
21
62.0447333
0
LINE
8
DEFAULT_255_2_778
10
9.3932834
20
62.0447333
11
9.3932834
21
67.3364333
0
LINE
8
DEFAULT_255_2_778
10
10.187
20
62.5739666
11
10.187
21
66.8072666
0
LINE
8
DEFAULT_255_2_778
10
9.9224167
20
66.013575
11
10.1870167
21
66.807275
0
LINE
8
DEFAULT_255_2_778
10
10.1870167
20
66.807275
11
10.4516167
21
66.013575
0
LINE
8
DEFAULT_255_2_778
10
10.4516167
20
66.013575
11
9.9224167
21
66.013575
0
LINE
8
DEFAULT_255_2_778
10
11.2453
20
66.8072666
11
11.2453
21
62.5739666
0
LINE
8
DEFAULT_255_2_778
10
10.9807167
20
63.367675
11
11.2453167
21
62.573975
0
LINE
8
DEFAULT_255_2_778
10
11.2453167
20
62.573975
11
11.5099167
21
63.367675
0
LINE
8
DEFAULT_255_2_778
10
11.5099167
20
63.367675
11
10.9807167
21
63.367675
0
LINE
8
DEFAULT_255_2_778
10
10.7161335
20
62.0447488
11
10.7161335
21
21.0343488
0
LINE
8
DEFAULT_255_2_778
10
10.7161335
20
21.0343488
11
9.3932335
21
21.0343488
0
LINE
8
DEFAULT_255_2_778
10
19.9765335
20
108.3468488
11
18.6536335
21
108.3468488
0
LINE
8
DEFAULT_255_2_778
10
18.6536335
20
108.3468488
11
18.6536335
21
83.2114488
0
LINE
8
DEFAULT_255_2_778
10
17.3307834
20
83.2114333
11
19.9765834
21
83.2114333
0
LINE
8
DEFAULT_255_2_778
10
19.9765834
20
83.2114333
11
19.9765834
21
77.9197333
0
LINE
8
DEFAULT_255_2_778
10
19.9765834
20
77.9197333
11
17.3307834
21
77.9197333
0
LINE
8
DEFAULT_255_2_778
10
17.3307834
20
77.9197333
11
17.3307834
21
83.2114333
0
LINE
8
DEFAULT_255_2_778
10
18.1245
20
78.4489666
11
18.1245
21
82.6822666
0
LINE
8
DEFAULT_255_2_778
10
17.8599167
20
81.888575
11
18.1245167
21
82.682275
0
LINE
8
DEFAULT_255_2_778
10
18.1245167
20
82.682275
11
18.3891167
21
81.888575
0
LINE
8
DEFAULT_255_2_778
10
18.3891167
20
81.888575
11
17.8599167
21
81.888575
0
LINE
8
DEFAULT_255_2_778
10
19.1828
20
82.6822666
11
19.1828
21
78.4489666
0
LINE
8
DEFAULT_255_2_778
10
18.9182167
20
79.242675
11
19.1828167
21
78.448975
0
LINE
8
DEFAULT_255_2_778
10
19.1828167
20
78.448975
11
19.4474167
21
79.242675
0
LINE
8
DEFAULT_255_2_778
10
19.4474167
20
79.242675
11
18.9182167
21
79.242675
0
LINE
8
DEFAULT_255_1_234
10
4.9274119
20
115.8866792
11
4.9274119
21
115.7654
0
LINE
8
DEFAULT_255_1_234
10
4.9274119
20
115.7654
11
4.161184
21
115.7654
0
LINE
8
DEFAULT_255_1_234
10
4.161184
20
115.7654
11
4.161184
21
115.8722221
0
LINE
8
DEFAULT_255_1_234
10
4.161184
20
115.8722221
11
4.5659836
21
116.3219995
0
LINE
8
DEFAULT_255_1_234
10
4.2872823
20
116.5902595
11
4.1386952
21
116.5902595
0
LINE
8
DEFAULT_255_1_234
10
4.6535296
20
116.2264218
11
4.3402918
21
115.8866792
0
LINE
8
DEFAULT_255_1_234
10
4.3402918
20
115.8866792
11
4.9274119
21
115.8866792
0
ARC
8
DEFAULT_255_1_234
10
3.216967
20
117.5149527
40
1.8008286
50
318.5132453
51
320.7828378
0
ARC
8
DEFAULT_255_1_234
10
3.7456644
20
117.0846426
40
1.1191493
50
320.7372736
51
323.9737074
0
ARC
8
DEFAULT_255_1_234
10
4.1376501
20
116.8006361
40
0.6350923
50
323.8961724
51
328.6421089
0
ARC
8
DEFAULT_255_1_234
10
4.3423096
20
116.6744031
40
0.3946393
50
328.8299013
51
331.789948
0
ARC
8
DEFAULT_255_1_234
10
4.4420274
20
116.6229509
40
0.2824501
50
331.4255242
51
352.9364833
0
ARC
8
DEFAULT_255_1_234
10
4.4556775
20
116.6198976
40
0.2685315
50
353.2248685
51
0.0169286
0
ARC
8
DEFAULT_255_1_234
10
4.4766652
20
116.622195
40
0.2475536
50
359.4866256
51
15.9339782
0
ARC
8
DEFAULT_255_1_234
10
4.5273637
20
116.6358286
40
0.1950618
50
16.1714718
51
43.5284424
0
ARC
8
DEFAULT_255_1_234
10
4.5350946
20
116.6435573
40
0.184134
50
43.4415429
51
83.1661404
0
ARC
8
DEFAULT_255_1_234
10
4.5216864
20
116.5698771
40
0.258926
50
82.160215
51
90.1505798
0
ARC
8
DEFAULT_255_1_234
10
4.5185291
20
116.5161865
40
0.3126255
50
89.5460705
51
102.5418777
0
ARC
8
DEFAULT_255_1_234
10
4.4942377
20
116.6192665
40
0.2067346
50
102.1739365
51
129.2061916
0
ARC
8
DEFAULT_255_1_234
10
4.4863449
20
116.6317094
40
0.1921118
50
129.7279328
51
135.7542026
0
ARC
8
DEFAULT_255_1_234
10
4.4984977
20
116.6220045
40
0.2075944
50
136.175737
51
166.3674722
0
ARC
8
DEFAULT_255_1_234
10
4.5991896
20
116.5950182
40
0.3118201
50
165.9092917
51
178.8683903
0
ARC
8
DEFAULT_255_1_234
10
4.6856757
20
116.5903179
40
0.3983935
50
178.438168
51
180.0083905
0
ARC
8
DEFAULT_255_1_234
10
4.5455359
20
116.5942231
40
0.4068601
50
163.2878735
51
180.5581814
0
ARC
8
DEFAULT_255_1_234
10
4.4653621
20
116.616284
40
0.3237344
50
133.454115
51
162.9470031
0
ARC
8
DEFAULT_255_1_234
10
4.4832162
20
116.5973
40
0.349795
50
100.7869394
51
133.4384016
0
ARC
8
DEFAULT_255_1_234
10
4.5179934
20
116.4424319
40
0.5084616
50
89.6605301
51
101.3704185
0
ARC
8
DEFAULT_255_1_234
10
4.5246273
20
116.4485496
40
0.502348
50
78.2171172
51
90.4130393
0
ARC
8
DEFAULT_255_1_234
10
4.5601351
20
116.6109637
40
0.3361092
50
55.9268222
51
78.4888551
0
ARC
8
DEFAULT_255_1_234
10
4.5797791
20
116.6448324
40
0.2970617
50
47.9292255
51
55.4054003
0
ARC
8
DEFAULT_255_1_234
10
4.5899352
20
116.6551502
40
0.2825983
50
4.3347696
51
48.0560701
0
ARC
8
DEFAULT_255_1_234
10
4.4803745
20
116.6381601
40
0.393225
50
359.925209
51
5.5967654
0
ARC
8
DEFAULT_255_1_234
10
4.5232637
20
116.6437816
40
0.3503892
50
337.8914096
51
358.9967724
0
ARC
8
DEFAULT_255_1_234
10
4.2519049
20
116.7484706
40
0.6412172
50
326.9135351
51
338.3505194
0
ARC
8
DEFAULT_255_1_234
10
3.8533353
20
117.0039284
40
1.1146189
50
319.6472867
51
327.095818
0
ARC
8
DEFAULT_255_1_234
10
3.4700356
20
117.3201
40
1.6114559
50
317.2586784
51
319.9046139
0
LINE
8
DEFAULT_255_1_234
10
5.7121127
20
116.9348211
11
5.7121127
21
116.158152
0
LINE
8
DEFAULT_255_1_234
10
5.7121127
20
116.158152
11
5.8743538
21
116.158152
0
LINE
8
DEFAULT_255_1_234
10
5.8743538
20
116.158152
11
5.8743538
21
116.0368728
0
LINE
8
DEFAULT_255_1_234
10
5.8743538
20
116.0368728
11
5.7121127
21
116.0368728
0
LINE
8
DEFAULT_255_1_234
10
5.7121127
20
116.0368728
11
5.7121127
21
115.7654
0
LINE
8
DEFAULT_255_1_234
10
5.7121127
20
115.7654
11
5.5627224
21
115.7654
0
LINE
8
DEFAULT_255_1_234
10
5.5627224
20
115.7654
11
5.5627224
21
116.0368728
0
LINE
8
DEFAULT_255_1_234
10
5.5627224
20
116.0368728
11
5.0302181
21
116.0368728
0
LINE
8
DEFAULT_255_1_234
10
5.0302181
20
116.0368728
11
5.0302181
21
116.1244187
0
LINE
8
DEFAULT_255_1_234
10
5.0302181
20
116.1244187
11
5.5538875
21
116.9348211
0
LINE
8
DEFAULT_255_1_234
10
5.5538875
20
116.9348211
11
5.7121127
21
116.9348211
0
LINE
8
DEFAULT_255_1_234
10
5.5450525
20
116.6994912
11
5.1988846
21
116.158152
0
LINE
8
DEFAULT_255_1_234
10
5.1988846
20
116.158152
11
5.5627224
21
116.158152
0
LINE
8
DEFAULT_255_1_234
10
5.5627224
20
116.158152
11
5.5627224
21
116.7316181
0
LINE
8
DEFAULT_255_1_234
10
5.5627224
20
116.7316181
11
5.5450525
21
116.6994912
0
LINE
8
DEFAULT_255_1_234
10
6.101652
20
116.9348211
11
6.434166
21
115.9702093
0
LINE
8
DEFAULT_255_1_234
10
6.434166
20
115.9702093
11
6.7682863
21
116.9348211
0
LINE
8
DEFAULT_255_1_234
10
6.7682863
20
116.9348211
11
6.9369528
21
116.9348211
0
LINE
8
DEFAULT_255_1_234
10
6.9369528
20
116.9348211
11
6.5032389
21
115.7654
0
LINE
8
DEFAULT_255_1_234
10
6.5032389
20
115.7654
11
6.3666994
21
115.7654
0
LINE
8
DEFAULT_255_1_234
10
6.3666994
20
115.7654
11
5.9337887
21
116.9348211
0
LINE
8
DEFAULT_255_1_234
10
5.9337887
20
116.9348211
11
6.101652
21
116.9348211
0
LINE
8
DEFAULT_255_1_234
10
5.0763482
20
5.222701
11
5.0763482
21
4.7938062
0
LINE
8
DEFAULT_255_1_234
10
4.1751872
20
5.1688884
11
4.1751872
21
5.2708915
0
LINE
8
DEFAULT_255_1_234
10
5.0763482
20
5.4668659
11
4.9221389
21
5.4668659
0
LINE
8
DEFAULT_255_1_234
10
4.3301998
20
5.2749073
11
4.3301998
21
5.1793296
0
LINE
8
DEFAULT_255_1_234
10
4.922942
20
4.8347681
11
4.922942
21
5.0974059
0
LINE
8
DEFAULT_255_1_234
10
4.922942
20
5.0974059
11
4.6522725
21
5.0974059
0
LINE
8
DEFAULT_255_1_234
10
4.6522725
20
5.0974059
11
4.6522725
21
5.222701
0
LINE
8
DEFAULT_255_1_234
10
4.6522725
20
5.222701
11
5.0763482
21
5.222701
0
ARC
8
DEFAULT_255_1_234
10
4.7931989
20
4.9931396
40
0.3462765
50
295.8437914
51
324.8549609
0
ARC
8
DEFAULT_255_1_234
10
4.7515956
20
5.0684567
40
0.4322211
50
291.5695085
51
296.4549398
0
ARC
8
DEFAULT_255_1_234
10
4.7005207
20
5.2049275
40
0.5779178
50
278.6622409
51
291.3045483
0
ARC
8
DEFAULT_255_1_234
10
4.6665699
20
5.4197408
40
0.7953952
50
270.020006
51
278.7494541
0
ARC
8
DEFAULT_255_1_234
10
4.6627623
20
5.5514036
40
0.927067
50
269.9969998
51
270.2524872
0
ARC
8
DEFAULT_255_1_234
10
4.6589336
20
5.1430589
40
0.5187361
50
253.5786322
51
270.4175299
0
ARC
8
DEFAULT_255_1_234
10
4.6415992
20
5.0759236
40
0.4494451
50
238.8203306
51
253.2788235
0
ARC
8
DEFAULT_255_1_234
10
4.6396365
20
5.0708231
40
0.4440665
50
206.7883783
51
238.6962764
0
ARC
8
DEFAULT_255_1_234
10
4.7170275
20
5.1172405
40
0.5341121
50
206.1129412
51
207.4916643
0
ARC
8
DEFAULT_255_1_234
10
4.776719
20
5.1426488
40
0.5989041
50
188.6921119
51
205.7821245
0
ARC
8
DEFAULT_255_1_234
10
4.9623552
20
5.174223
40
0.7871862
50
180.3882829
51
188.9219216
0
ARC
8
DEFAULT_255_1_234
10
5.0851366
20
5.2765464
40
0.909967
50
170.2024264
51
180.3560651
0
ARC
8
DEFAULT_255_1_234
10
4.7687884
20
5.3331237
40
0.5886083
50
154.2857445
51
170.3893044
0
ARC
8
DEFAULT_255_1_234
10
4.6406087
20
5.391795
40
0.4476743
50
139.8401567
51
153.9332699
0
ARC
8
DEFAULT_255_1_234
10
4.6046823
20
5.4205577
40
0.4016697
50
98.4190291
51
139.6707122
0
ARC
8
DEFAULT_255_1_234
10
4.6426341
20
5.2360328
40
0.5898566
50
89.7659205
51
99.4415478
0
ARC
8
DEFAULT_255_1_234
10
4.649159
20
5.2425844
40
0.5833147
50
78.0551672
51
90.4042112
0
ARC
8
DEFAULT_255_1_234
10
4.68961
20
5.4244644
40
0.3970055
50
54.6380464
51
78.3339173
0
ARC
8
DEFAULT_255_1_234
10
4.7086156
20
5.4564795
40
0.3599102
50
50.031736
51
54.1558201
0
ARC
8
DEFAULT_255_1_234
10
4.6978944
20
5.4468766
40
0.3741624
50
18.1092409
51
49.7180913
0
ARC
8
DEFAULT_255_1_234
10
4.5522144
20
5.3935089
40
0.5292424
50
7.9672797
51
18.6984571
0
ARC
8
DEFAULT_255_1_234
10
4.5672622
20
5.4058504
40
0.3600838
50
9.7557294
51
27.3215714
0
ARC
8
DEFAULT_255_1_234
10
4.6800094
20
5.4621912
40
0.2340608
50
27.7361077
51
84.5257964
0
ARC
8
DEFAULT_255_1_234
10
4.6472481
20
5.297864
40
0.4011215
50
82.106034
51
90.2001166
0
ARC
8
DEFAULT_255_1_234
10
4.6422698
20
5.3486215
40
0.3503799
50
89.4150119
51
105.5823402
0
ARC
8
DEFAULT_255_1_234
10
4.6165696
20
5.4421867
40
0.2533503
50
105.6678618
51
144.2648758
0
ARC
8
DEFAULT_255_1_234
10
4.7058951
20
5.3786289
40
0.3629787
50
144.3561283
51
162.8564086
0
ARC
8
DEFAULT_255_1_234
10
4.914286
20
5.3117017
40
0.5818441
50
162.6076014
51
173.6780284
0
ARC
8
DEFAULT_255_1_234
10
5.2204004
20
5.274489
40
0.8902007
50
173.4670142
51
179.9730753
0
ARC
8
DEFAULT_255_1_234
10
5.0295675
20
5.175126
40
0.6993804
50
179.6556203
51
190.0080463
0
ARC
8
DEFAULT_255_1_234
10
4.7979504
20
5.1326375
40
0.4639066
50
189.8116607
51
206.6796816
0
ARC
8
DEFAULT_255_1_234
10
4.7134656
20
5.0932503
40
0.3707421
50
207.1031645
51
217.7074368
0
ARC
8
DEFAULT_255_1_234
10
4.6500345
20
5.0380559
40
0.2868417
50
216.7345547
51
265.6812148
0
ARC
8
DEFAULT_255_1_234
10
4.6631136
20
5.1284855
40
0.3780509
50
264.7366618
51
270.0611241
0
ARC
8
DEFAULT_255_1_234
10
4.6654399
20
5.4125111
40
0.662079
50
269.8335834
51
276.0539546
0
ARC
8
DEFAULT_255_1_234
10
4.6861404
20
5.222356
40
0.4708016
50
275.9894168
51
284.4615085
0
ARC
8
DEFAULT_255_1_234
10
4.7059411
20
5.1390663
40
0.3852094
50
284.7034461
51
286.4953897
0
ARC
8
DEFAULT_255_1_234
10
4.7466424
20
5.0079965
40
0.2479842
50
286.0770838
51
304.2625829
0
ARC
8
DEFAULT_255_1_234
10
4.7599838
20
4.9861594
40
0.2224291
50
304.5891602
51
317.1073298
0
LINE
8
DEFAULT_255_1_234
10
6.2321154
20
5.8098211
11
6.2321154
21
4.6404
0
LINE
8
DEFAULT_255_1_234
10
6.2321154
20
4.6404
11
6.0771028
21
4.6404
0
LINE
8
DEFAULT_255_1_234
10
6.0771028
20
4.6404
11
5.4883764
21
5.541561
0
LINE
8
DEFAULT_255_1_234
10
5.4883764
20
5.541561
11
5.4883764
21
4.6404
0
LINE
8
DEFAULT_255_1_234
10
5.4883764
20
4.6404
11
5.3333639
21
4.6404
0
LINE
8
DEFAULT_255_1_234
10
5.3333639
20
4.6404
11
5.3333639
21
5.8098211
0
LINE
8
DEFAULT_255_1_234
10
5.3333639
20
5.8098211
11
5.4883764
21
5.8098211
0
LINE
8
DEFAULT_255_1_234
10
5.4883764
20
5.8098211
11
6.0787092
21
4.9046442
0
LINE
8
DEFAULT_255_1_234
10
6.0787092
20
4.9046442
11
6.0787092
21
5.8098211
0
LINE
8
DEFAULT_255_1_234
10
6.0787092
20
5.8098211
11
6.2321154
21
5.8098211
0
LINE
8
DEFAULT_255_1_234
10
6.8296767
20
4.6404
11
6.5059977
21
4.6404
0
LINE
8
DEFAULT_255_1_234
10
6.5059977
20
4.6404
11
6.5059977
21
5.8098211
0
LINE
8
DEFAULT_255_1_234
10
6.5059977
20
5.8098211
11
6.8361021
21
5.8098211
0
LINE
8
DEFAULT_255_1_234
10
7.3517397
20
5.2644661
11
7.3517397
21
5.1897709
0
LINE
8
DEFAULT_255_1_234
10
6.840118
20
5.6829196
11
6.660207
21
5.6829196
0
LINE
8
DEFAULT_255_1_234
10
6.660207
20
5.6829196
11
6.660207
21
4.7664983
0
LINE
8
DEFAULT_255_1_234
10
6.660207
20
4.7664983
11
6.8224481
21
4.7664983
0
LINE
8
DEFAULT_255_1_234
10
7.1991367
20
5.1929836
11
7.1991367
21
5.2612534
0
ARC
8
DEFAULT_255_1_234
10
6.8399963
20
5.2232894
40
0.5865446
50
75.4101064
51
90.3804066
0
ARC
8
DEFAULT_255_1_234
10
6.8629477
20
5.3189492
40
0.4881916
50
60.145586
51
75.1888407
0
ARC
8
DEFAULT_255_1_234
10
6.8788252
20
5.3466199
40
0.4562893
50
26.5253612
51
60.1450928
0
ARC
8
DEFAULT_255_1_234
10
6.7668002
20
5.2872158
40
0.5830602
50
7.4030428
51
26.8320788
0
ARC
8
DEFAULT_255_1_234
10
6.6073758
20
5.2623804
40
0.7443669
50
0.1605367
51
7.7176192
0
ARC
8
DEFAULT_255_1_234
10
6.6237663
20
5.1859434
40
0.7279835
50
348.7289388
51
0.3012466
0
ARC
8
DEFAULT_255_1_234
10
6.7894093
20
5.1530386
40
0.559104
50
333.0706509
51
348.7181832
0
ARC
8
DEFAULT_255_1_234
10
6.8860851
20
5.1005319
40
0.4491417
50
299.2531685
51
333.4571258
0
ARC
8
DEFAULT_255_1_234
10
6.8499991
20
5.1690828
40
0.5265881
50
278.107187
51
299.0339503
0
ARC
8
DEFAULT_255_1_234
10
6.824407
20
5.3198216
40
0.679442
50
270.4443897
51
278.4511052
0
ARC
8
DEFAULT_255_1_234
10
6.82649
20
5.2269213
40
0.4604407
50
269.4970433
51
284.0205042
0
ARC
8
DEFAULT_255_1_234
10
6.8620201
20
5.0903978
40
0.3193797
50
283.7700273
51
318.1555492
0
ARC
8
DEFAULT_255_1_234
10
6.8282959
20
5.1156367
40
0.3613588
50
318.7415601
51
343.6873628
0
ARC
8
DEFAULT_255_1_234
10
6.6478982
20
5.1719832
40
0.5503313
50
343.3325091
51
355.8548958
0
ARC
8
DEFAULT_255_1_234
10
6.4380666
20
5.1919319
40
0.7610708
50
355.4988528
51
0.0791727
0
ARC
8
DEFAULT_255_1_234
10
6.5163289
20
5.265478
40
0.6828208
50
359.6455037
51
9.8607896
0
ARC
8
DEFAULT_255_1_234
10
6.7523987
20
5.3081099
40
0.4429406
50
9.6571907
51
26.1932807
0
ARC
8
DEFAULT_255_1_234
10
6.8451975
20
5.3512118
40
0.3406537
50
26.5777228
51
40.1532208
0
ARC
8
DEFAULT_255_1_234
10
6.8707702
20
5.3711619
40
0.308246
50
40.3840491
51
80.1431104
0
ARC
8
DEFAULT_255_1_234
10
6.838082
20
5.2262333
40
0.4566909
50
79.2152159
51
89.7445637
0
LINE
8
DEFAULT_255_1_234
10
4.9989023
20
13.4091849
11
4.8438897
21
13.4091849
0
LINE
8
DEFAULT_255_1_234
10
4.1515539
20
12.9168394
11
4.3065665
21
12.9168394
0
ARC
8
DEFAULT_255_1_234
10
4.909771
20
14.3038768
40
1.252368
50
248.9199003
51
254.1439814
0
ARC
8
DEFAULT_255_1_234
10
4.7417205
20
13.8712234
40
0.788226
50
241.633709
51
249.0064503
0
ARC
8
DEFAULT_255_1_234
10
4.58886
20
13.5911317
40
0.4691427
50
230.498225
51
241.8087113
0
ARC
8
DEFAULT_255_1_234
10
4.5104174
20
13.4911906
40
0.3421437
50
227.4064532
51
229.9881192
0
ARC
8
DEFAULT_255_1_234
10
4.4616694
20
13.4436088
40
0.2741476
50
200.6781896
51
228.1763934
0
ARC
8
DEFAULT_255_1_234
10
4.4689005
20
13.4421077
40
0.2804109
50
179.5061581
51
199.8694617
0
ARC
8
DEFAULT_255_1_234
10
4.4679757
20
13.449521
40
0.2795204
50
132.4834203
51
181.0242172
0
ARC
8
DEFAULT_255_1_234
10
4.5275339
20
13.3932704
40
0.3612768
50
129.2532479
51
133.4242687
0
ARC
8
DEFAULT_255_1_234
10
4.5421789
20
13.3712965
40
0.3875675
50
101.98776
51
128.8742646
0
ARC
8
DEFAULT_255_1_234
10
4.5820399
20
13.1991741
40
0.5642249
50
89.5906553
51
102.3169264
0
ARC
8
DEFAULT_255_1_234
10
4.5890891
20
13.2310148
40
0.5323783
50
77.2360837
51
90.3248275
0
ARC
8
DEFAULT_255_1_234
10
4.6097971
20
13.32774
40
0.4334697
50
63.837784
51
77.0809408
0
ARC
8
DEFAULT_255_1_234
10
4.6375732
20
13.3794911
40
0.3747796
50
45.9864267
51
64.1607727
0
ARC
8
DEFAULT_255_1_234
10
4.6636614
20
13.4092866
40
0.3352302
50
32.2747395
51
45.6547121
0
ARC
8
DEFAULT_255_1_234
10
4.6703054
20
13.411188
40
0.328603
50
359.6507365
51
32.6130309
0
ARC
8
DEFAULT_255_1_234
10
4.576015
20
13.411666
40
0.2678863
50
359.469343
51
14.9832209
0
ARC
8
DEFAULT_255_1_234
10
4.6465212
20
13.4305539
40
0.1948938
50
14.9781179
51
48.2004265
0
ARC
8
DEFAULT_255_1_234
10
4.6300856
20
13.4098983
40
0.2212521
50
48.5927837
51
74.1241538
0
ARC
8
DEFAULT_255_1_234
10
4.5967346
20
13.2998248
40
0.3362561
50
73.7888341
51
86.6652678
0
ARC
8
DEFAULT_255_1_234
10
4.5864911
20
13.1790881
40
0.4573953
50
86.2640471
51
90.0526343
0
ARC
8
DEFAULT_255_1_234
10
4.5836624
20
13.2186192
40
0.4178709
50
89.6697524
51
99.2309573
0
ARC
8
DEFAULT_255_1_234
10
4.5594075
20
13.3630964
40
0.2713749
50
99.069534
51
113.7658566
0
ARC
8
DEFAULT_255_1_234
10
4.5320266
20
13.4276677
40
0.2012469
50
114.0401004
51
127.9850673
0
ARC
8
DEFAULT_255_1_234
10
4.507983
20
13.457273
40
0.1631167
50
127.7287463
51
176.7105154
0
ARC
8
DEFAULT_255_1_234
10
4.5758547
20
13.4471693
40
0.2315392
50
175.1779447
51
180.0581938
0
ARC
8
DEFAULT_255_1_234
10
4.4915394
20
13.4459428
40
0.1472271
50
179.6142195
51
228.1246017
0
ARC
8
DEFAULT_255_1_234
10
4.5357063
20
13.4868308
40
0.2072299
50
226.5779593
51
230.8800004
0
ARC
8
DEFAULT_255_1_234
10
4.5828141
20
13.5493636
40
0.2854818
50
231.4635071
51
241.9260842
0
ARC
8
DEFAULT_255_1_234
10
4.7025319
20
13.76968
40
0.53622
50
241.7178533
51
248.3259551
0
ARC
8
DEFAULT_255_1_234
10
4.8410691
20
14.1129064
40
0.9063478
50
248.2007737
51
252.4528373
0
ARC
8
DEFAULT_255_1_234
10
4.9614416
20
14.4850441
40
1.2974635
50
252.3391078
51
254.3469452
0
ARC
8
DEFAULT_255_1_234
10
4.2072119
20
11.7873148
40
1.5037162
50
71.0197183
51
74.4087047
0
ARC
8
DEFAULT_255_1_234
10
4.3766804
20
12.2765111
40
0.9859993
50
66.1847285
51
71.086374
0
ARC
8
DEFAULT_255_1_234
10
4.5323116
20
12.62692
40
0.6025855
50
59.3536294
51
66.2691831
0
ARC
8
DEFAULT_255_1_234
10
4.6211769
20
12.7772609
40
0.4279449
50
49.1020879
51
59.3293958
0
ARC
8
DEFAULT_255_1_234
10
4.7030509
20
12.8705834
40
0.3038015
50
32.7919921
51
49.2505539
0
ARC
8
DEFAULT_255_1_234
10
4.7351599
20
12.8934191
40
0.264448
50
31.1181161
51
32.4005348
0
ARC
8
DEFAULT_255_1_234
10
4.7263136
20
12.8898779
40
0.2738556
50
8.1116974
51
30.7958831
0
ARC
8
DEFAULT_255_1_234
10
4.6452804
20
12.8760753
40
0.3560327
50
359.8389159
51
8.4706516
0
ARC
8
DEFAULT_255_1_234
10
4.7078596
20
12.8712137
40
0.2934776
50
337.4731098
51
0.7537279
0
ARC
8
DEFAULT_255_1_234
10
4.7257291
20
12.8692387
40
0.2762607
50
307.5917067
51
336.4315538
0
ARC
8
DEFAULT_255_1_234
10
4.6797119
20
12.9205102
40
0.3449979
50
307.6551545
51
308.4529766
0
ARC
8
DEFAULT_255_1_234
10
4.6566838
20
12.956025
40
0.3871988
50
284.3734338
51
307.1424381
0
ARC
8
DEFAULT_255_1_234
10
4.6071668
20
13.1381932
40
0.5759636
50
272.4382747
51
284.646547
0
ARC
8
DEFAULT_255_1_234
10
4.5944876
20
13.3181893
40
0.7563528
50
269.9708387
51
272.8178037
0
ARC
8
DEFAULT_255_1_234
10
4.5901916
20
13.1143716
40
0.5525489
50
248.2707594
51
270.4055579
0
ARC
8
DEFAULT_255_1_234
10
4.5847657
20
13.0953192
40
0.5328452
50
246.1383403
51
248.0542782
0
ARC
8
DEFAULT_255_1_234
10
4.5429036
20
13.0073843
40
0.4355005
50
233.1670131
51
246.4950969
0
ARC
8
DEFAULT_255_1_234
10
4.4874941
20
12.9325812
40
0.3424126
50
215.3403242
51
233.0843104
0
ARC
8
DEFAULT_255_1_234
10
4.4602372
20
12.9127549
40
0.3087104
50
179.2419209
51
215.2648451
0
ARC
8
DEFAULT_255_1_234
10
4.5369966
20
12.9141666
40
0.2304457
50
179.335461
51
199.1045811
0
ARC
8
DEFAULT_255_1_234
10
4.5037643
20
12.9054766
40
0.1962176
50
199.8828939
51
232.7063202
0
ARC
8
DEFAULT_255_1_234
10
4.5509911
20
12.9648788
40
0.2720938
50
232.3738199
51
255.5136649
0
ARC
8
DEFAULT_255_1_234
10
4.5850778
20
13.0892835
40
0.4010747
50
255.2446292
51
267.5320849
0
ARC
8
DEFAULT_255_1_234
10
4.5938401
20
13.2125702
40
0.5246356
50
267.1557994
51
270.0286766
0
ARC
8
DEFAULT_255_1_234
10
4.5966173
20
13.168195
40
0.4802668
50
269.7000017
51
278.1660162
0
ARC
8
DEFAULT_255_1_234
10
4.6222178
20
12.9951515
40
0.3053425
50
278.0231263
51
290.625471
0
ARC
8
DEFAULT_255_1_234
10
4.6569865
20
12.9024025
40
0.206291
50
290.6619762
51
307.0370976
0
ARC
8
DEFAULT_255_1_234
10
4.6870254
20
12.8655504
40
0.1587906
50
306.3943566
51
355.3030547
0
ARC
8
DEFAULT_255_1_234
10
4.6358186
20
12.8732113
40
0.2104809
50
354.3660432
51
0.0698737
0
ARC
8
DEFAULT_255_1_234
10
4.6500531
20
12.8754617
40
0.1962563
50
359.417946
51
16.1971788
0
ARC
8
DEFAULT_255_1_234
10
4.6955841
20
12.8879418
40
0.149053
50
16.4723299
51
52.6262157
0
ARC
8
DEFAULT_255_1_234
10
4.6134895
20
12.7795433
40
0.2850296
50
52.7386432
51
62.4979148
0
ARC
8
DEFAULT_255_1_234
10
4.4749972
20
12.5189283
40
0.5801521
50
62.2515216
51
68.1220564
0
ARC
8
DEFAULT_255_1_234
10
4.3029883
20
12.0961872
40
1.0365451
50
68.0062803
51
71.8053402
0
ARC
8
DEFAULT_255_1_234
10
4.1234255
20
11.5576758
40
1.6042013
50
71.7183119
51
73.9258742
0
LINE
8
DEFAULT_255_1_234
10
5.6928445
20
13.7473211
11
5.205318
21
12.4775033
0
LINE
8
DEFAULT_255_1_234
10
5.205318
20
12.4775033
11
5.0776133
21
12.4775033
0
LINE
8
DEFAULT_255_1_234
10
5.0776133
20
12.4775033
11
5.565943
21
13.7473211
0
LINE
8
DEFAULT_255_1_234
10
5.565943
20
13.7473211
11
5.6928445
21
13.7473211
0
LINE
8
DEFAULT_255_1_234
10
6.6526372
20
13.4091849
11
6.4976247
21
13.4091849
0
LINE
8
DEFAULT_255_1_234
10
5.8052888
20
12.9168394
11
5.9603014
21
12.9168394
0
ARC
8
DEFAULT_255_1_234
10
6.5635059
20
14.3038768
40
1.252368
50
248.9199003
51
254.1439814
0
ARC
8
DEFAULT_255_1_234
10
6.3954554
20
13.8712234
40
0.788226
50
241.633709
51
249.0064503
0
ARC
8
DEFAULT_255_1_234
10
6.2425949
20
13.5911317
40
0.4691427
50
230.498225
51
241.8087113
0
ARC
8
DEFAULT_255_1_234
10
6.1641523
20
13.4911906
40
0.3421437
50
227.4064532
51
229.9881192
0
ARC
8
DEFAULT_255_1_234
10
6.1154044
20
13.4436088
40
0.2741476
50
200.6781896
51
228.1763934
0
ARC
8
DEFAULT_255_1_234
10
6.1226354
20
13.4421077
40
0.2804109
50
179.5061581
51
199.8694617
0
ARC
8
DEFAULT_255_1_234
10
6.1217106
20
13.449521
40
0.2795204
50
132.4834203
51
181.0242172
0
ARC
8
DEFAULT_255_1_234
10
6.1812688
20
13.3932704
40
0.3612768
50
129.2532479
51
133.4242687
0
ARC
8
DEFAULT_255_1_234
10
6.1959138
20
13.3712965
40
0.3875675
50
101.98776
51
128.8742646
0
ARC
8
DEFAULT_255_1_234
10
6.2357748
20
13.1991741
40
0.5642249
50
89.5906553
51
102.3169264
0
ARC
8
DEFAULT_255_1_234
10
6.2428241
20
13.2310148
40
0.5323783
50
77.2360837
51
90.3248275
0
ARC
8
DEFAULT_255_1_234
10
6.263532
20
13.32774
40
0.4334697
50
63.837784
51
77.0809408
0
ARC
8
DEFAULT_255_1_234
10
6.2913081
20
13.3794911
40
0.3747796
50
45.9864267
51
64.1607727
0
ARC
8
DEFAULT_255_1_234
10
6.3173963
20
13.4092866
40
0.3352302
50
32.2747395
51
45.6547121
0
ARC
8
DEFAULT_255_1_234
10
6.3240403
20
13.411188
40
0.328603
50
359.6507365
51
32.6130309
0
ARC
8
DEFAULT_255_1_234
10
6.2297499
20
13.411666
40
0.2678863
50
359.469343
51
14.9832209
0
ARC
8
DEFAULT_255_1_234
10
6.3002561
20
13.4305539
40
0.1948938
50
14.9781179
51
48.2004265
0
ARC
8
DEFAULT_255_1_234
10
6.2838205
20
13.4098983
40
0.2212521
50
48.5927837
51
74.1241538
0
ARC
8
DEFAULT_255_1_234
10
6.2504695
20
13.2998248
40
0.3362561
50
73.7888341
51
86.6652678
0
ARC
8
DEFAULT_255_1_234
10
6.240226
20
13.1790881
40
0.4573953
50
86.2640471
51
90.0526343
0
ARC
8
DEFAULT_255_1_234
10
6.2373973
20
13.2186192
40
0.4178709
50
89.6697524
51
99.2309573
0
ARC
8
DEFAULT_255_1_234
10
6.2131424
20
13.3630964
40
0.2713749
50
99.069534
51
113.7658566
0
ARC
8
DEFAULT_255_1_234
10
6.1857615
20
13.4276677
40
0.2012469
50
114.0401004
51
127.9850673
0
ARC
8
DEFAULT_255_1_234
10
6.1617179
20
13.457273
40
0.1631167
50
127.7287463
51
176.7105154
0
ARC
8
DEFAULT_255_1_234
10
6.2295896
20
13.4471693
40
0.2315392
50
175.1779447
51
180.0581938
0
ARC
8
DEFAULT_255_1_234
10
6.1452743
20
13.4459428
40
0.1472271
50
179.6142195
51
228.1246017
0
ARC
8
DEFAULT_255_1_234
10
6.1894412
20
13.4868308
40
0.2072299
50
226.5779593
51
230.8800004
0
ARC
8
DEFAULT_255_1_234
10
6.236549
20
13.5493636
40
0.2854818
50
231.4635071
51
241.9260842
0
ARC
8
DEFAULT_255_1_234
10
6.3562668
20
13.76968
40
0.53622
50
241.7178533
51
248.3259551
0
ARC
8
DEFAULT_255_1_234
10
6.494804
20
14.1129064
40
0.9063478
50
248.2007737
51
252.4528373
0
ARC
8
DEFAULT_255_1_234
10
6.6151765
20
14.4850441
40
1.2974635
50
252.3391078
51
254.3469452
0
ARC
8
DEFAULT_255_1_234
10
5.8609468
20
11.7873148
40
1.5037162
50
71.0197183
51
74.4087047
0
ARC
8
DEFAULT_255_1_234
10
6.0304153
20
12.2765111
40
0.9859993
50
66.1847285
51
71.086374
0
ARC
8
DEFAULT_255_1_234
10
6.1860465
20
12.62692
40
0.6025855
50
59.3536294
51
66.2691831
0
ARC
8
DEFAULT_255_1_234
10
6.2749118
20
12.7772609
40
0.4279449
50
49.1020879
51
59.3293958
0
ARC
8
DEFAULT_255_1_234
10
6.3567858
20
12.8705834
40
0.3038015
50
32.7919921
51
49.2505539
0
ARC
8
DEFAULT_255_1_234
10
6.3888948
20
12.8934191
40
0.264448
50
31.1181161
51
32.4005348
0
ARC
8
DEFAULT_255_1_234
10
6.3800485
20
12.8898779
40
0.2738556
50
8.1116974
51
30.7958831
0
ARC
8
DEFAULT_255_1_234
10
6.2990153
20
12.8760753
40
0.3560327
50
359.8389159
51
8.4706516
0
ARC
8
DEFAULT_255_1_234
10
6.3615945
20
12.8712137
40
0.2934776
50
337.4731098
51
0.7537279
0
ARC
8
DEFAULT_255_1_234
10
6.379464
20
12.8692387
40
0.2762607
50
307.5917067
51
336.4315538
0
ARC
8
DEFAULT_255_1_234
10
6.3334468
20
12.9205102
40
0.3449979
50
307.6551545
51
308.4529766
0
ARC
8
DEFAULT_255_1_234
10
6.3104187
20
12.956025
40
0.3871988
50
284.3734338
51
307.1424381
0
ARC
8
DEFAULT_255_1_234
10
6.2609017
20
13.1381932
40
0.5759636
50
272.4382747
51
284.646547
0
ARC
8
DEFAULT_255_1_234
10
6.2482226
20
13.3181893
40
0.7563528
50
269.9708387
51
272.8178037
0
ARC
8
DEFAULT_255_1_234
10
6.2439265
20
13.1143716
40
0.5525489
50
248.2707594
51
270.4055579
0
ARC
8
DEFAULT_255_1_234
10
6.2385006
20
13.0953192
40
0.5328452
50
246.1383403
51
248.0542782
0
ARC
8
DEFAULT_255_1_234
10
6.1966385
20
13.0073843
40
0.4355005
50
233.1670131
51
246.4950969
0
ARC
8
DEFAULT_255_1_234
10
6.141229
20
12.9325812
40
0.3424126
50
215.3403242
51
233.0843104
0
ARC
8
DEFAULT_255_1_234
10
6.1139721
20
12.9127549
40
0.3087104
50
179.2419209
51
215.2648451
0
ARC
8
DEFAULT_255_1_234
10
6.1907315
20
12.9141666
40
0.2304457
50
179.335461
51
199.1045811
0
ARC
8
DEFAULT_255_1_234
10
6.1574992
20
12.9054766
40
0.1962176
50
199.8828939
51
232.7063202
0
ARC
8
DEFAULT_255_1_234
10
6.204726
20
12.9648788
40
0.2720938
50
232.3738199
51
255.5136649
0
ARC
8
DEFAULT_255_1_234
10
6.2388127
20
13.0892835
40
0.4010747
50
255.2446292
51
267.5320849
0
ARC
8
DEFAULT_255_1_234
10
6.247575
20
13.2125702
40
0.5246356
50
267.1557994
51
270.0286766
0
ARC
8
DEFAULT_255_1_234
10
6.2503522
20
13.168195
40
0.4802668
50
269.7000017
51
278.1660162
0
ARC
8
DEFAULT_255_1_234
10
6.2759527
20
12.9951515
40
0.3053425
50
278.0231263
51
290.625471
0
ARC
8
DEFAULT_255_1_234
10
6.3107214
20
12.9024025
40
0.206291
50
290.6619762
51
307.0370976
0
ARC
8
DEFAULT_255_1_234
10
6.3407604
20
12.8655504
40
0.1587906
50
306.3943566
51
355.3030547
0
ARC
8
DEFAULT_255_1_234
10
6.2895535
20
12.8732113
40
0.2104809
50
354.3660432
51
0.0698737
0
ARC
8
DEFAULT_255_1_234
10
6.303788
20
12.8754617
40
0.1962563
50
359.417946
51
16.1971788
0
ARC
8
DEFAULT_255_1_234
10
6.3493191
20
12.8879418
40
0.149053
50
16.4723299
51
52.6262157
0
ARC
8
DEFAULT_255_1_234
10
6.2672244
20
12.7795433
40
0.2850296
50
52.7386432
51
62.4979148
0
ARC
8
DEFAULT_255_1_234
10
6.1287321
20
12.5189283
40
0.5801521
50
62.2515216
51
68.1220564
0
ARC
8
DEFAULT_255_1_234
10
5.9567232
20
12.0961872
40
1.0365451
50
68.0062803
51
71.8053402
0
ARC
8
DEFAULT_255_1_234
10
5.7771604
20
11.5576758
40
1.6042013
50
71.7183119
51
73.9258742
0
LINE
8
DEFAULT_255_1_234
10
4.3681299
20
21.6848211
11
4.6500439
21
21.2366501
0
LINE
8
DEFAULT_255_1_234
10
4.6500439
20
21.2366501
11
4.9303516
21
21.6848211
0
LINE
8
DEFAULT_255_1_234
10
4.9303516
20
21.6848211
11
5.1118689
21
21.6848211
0
LINE
8
DEFAULT_255_1_234
10
5.1118689
20
21.6848211
11
4.7424089
21
21.1049296
0
LINE
8
DEFAULT_255_1_234
10
4.7424089
20
21.1049296
11
5.1207038
21
20.5154
0
LINE
8
DEFAULT_255_1_234
10
5.1207038
20
20.5154
11
4.9375802
21
20.5154
0
LINE
8
DEFAULT_255_1_234
10
4.9375802
20
20.5154
11
4.6500439
21
20.9716027
0
LINE
8
DEFAULT_255_1_234
10
4.6500439
20
20.9716027
11
4.3609014
21
20.5154
0
LINE
8
DEFAULT_255_1_234
10
4.3609014
20
20.5154
11
4.1785809
21
20.5154
0
LINE
8
DEFAULT_255_1_234
10
4.1785809
20
20.5154
11
4.557679
21
21.1049296
0
LINE
8
DEFAULT_255_1_234
10
4.557679
20
21.1049296
11
4.1874158
21
21.6848211
0
LINE
8
DEFAULT_255_1_234
10
4.1874158
20
21.6848211
11
4.3681299
21
21.6848211
0
LINE
8
DEFAULT_255_1_234
10
5.7495889
20
21.6904433
11
5.7495889
21
20.5154
0
LINE
8
DEFAULT_255_1_234
10
5.7495889
20
20.5154
11
5.6001986
21
20.5154
0
LINE
8
DEFAULT_255_1_234
10
5.6001986
20
20.5154
11
5.6001986
21
21.5057133
0
LINE
8
DEFAULT_255_1_234
10
5.6001986
20
21.5057133
11
5.3006147
21
21.3956785
0
LINE
8
DEFAULT_255_1_234
10
5.3006147
20
21.3956785
11
5.3006147
21
21.5306117
0
LINE
8
DEFAULT_255_1_234
10
5.3006147
20
21.5306117
11
5.7262969
21
21.6904433
0
LINE
8
DEFAULT_255_1_234
10
5.7262969
20
21.6904433
11
5.7495889
21
21.6904433
0
LINE
8
DEFAULT_255_1_234
10
6.4009629
20
21.0511169
11
6.4009629
21
21.1723962
0
LINE
8
DEFAULT_255_1_234
10
6.4009629
20
21.1723962
11
6.5126041
21
21.1723962
0
LINE
8
DEFAULT_255_1_234
10
6.3222519
20
21.3780087
11
6.1736647
21
21.3780087
0
LINE
8
DEFAULT_255_1_234
10
6.1632234
20
20.8238188
11
6.3126138
21
20.8238188
0
LINE
8
DEFAULT_255_1_234
10
6.5126041
20
21.0511169
11
6.4009629
21
21.0511169
0
ARC
8
DEFAULT_255_1_234
10
6.5096907
20
21.5116713
40
0.3392876
50
270.4919872
51
281.8951556
0
ARC
8
DEFAULT_255_1_234
10
6.5338169
20
21.4014702
40
0.2264817
50
281.6691735
51
301.2943132
0
ARC
8
DEFAULT_255_1_234
10
6.5508379
20
21.3703304
40
0.1910381
50
301.7833094
51
311.7545298
0
ARC
8
DEFAULT_255_1_234
10
6.5599955
20
21.3601748
40
0.1773635
50
311.7323931
51
354.2802411
0
ARC
8
DEFAULT_255_1_234
10
6.487358
20
21.3726722
40
0.2509385
50
353.0937916
51
0.1181479
0
ARC
8
DEFAULT_255_1_234
10
6.4412365
20
21.3774386
40
0.2970898
50
359.1805295
51
15.0453146
0
ARC
8
DEFAULT_255_1_234
10
6.5758202
20
21.4166992
40
0.1569564
50
13.9577229
51
77.6713066
0
ARC
8
DEFAULT_255_1_234
10
6.5371731
20
21.2781949
40
0.3006298
50
76.1116566
51
90.7026153
0
ARC
8
DEFAULT_255_1_234
10
6.5312569
20
21.3055545
40
0.2732568
50
89.5324876
51
103.531937
0
ARC
8
DEFAULT_255_1_234
10
6.5112013
20
21.3854884
40
0.1908508
50
103.2931773
51
133.5619022
0
ARC
8
DEFAULT_255_1_234
10
6.5067502
20
21.3914375
40
0.1834746
50
133.8349307
51
173.5344437
0
ARC
8
DEFAULT_255_1_234
10
6.5790545
20
21.3786213
40
0.2568033
50
172.5096846
51
180.1366907
0
ARC
8
DEFAULT_255_1_234
10
6.4839439
20
21.3820622
40
0.3103056
50
155.3484492
51
180.7484736
0
ARC
8
DEFAULT_255_1_234
10
6.4790528
20
21.3791846
40
0.3070957
50
131.5744599
51
154.4798489
0
ARC
8
DEFAULT_255_1_234
10
6.5103675
20
21.347531
40
0.3515643
50
96.9875458
51
131.9690667
0
ARC
8
DEFAULT_255_1_234
10
6.5323155
20
21.2229636
40
0.4779224
50
89.8596053
51
97.7825159
0
ARC
8
DEFAULT_255_1_234
10
6.5371218
20
21.1967616
40
0.5041361
50
78.3655447
51
90.4131539
0
ARC
8
DEFAULT_255_1_234
10
6.5729136
20
21.3626887
40
0.3344039
50
56.6229102
51
78.638727
0
ARC
8
DEFAULT_255_1_234
10
6.594408
20
21.4002805
40
0.2912001
50
47.0253525
51
56.0854072
0
ARC
8
DEFAULT_255_1_234
10
6.596386
20
21.4042223
40
0.2869704
50
10.9208013
51
46.7778124
0
ARC
8
DEFAULT_255_1_234
10
6.4599926
20
21.3726857
40
0.426899
50
359.6364486
51
11.6087304
0
ARC
8
DEFAULT_255_1_234
10
6.643477
20
21.3711752
40
0.243409
50
332.3549906
51
359.7179418
0
ARC
8
DEFAULT_255_1_234
10
6.5784372
20
21.4020142
40
0.3153459
50
325.2333722
51
332.8745602
0
ARC
8
DEFAULT_255_1_234
10
6.5936995
20
21.3913828
40
0.2967456
50
292.9802137
51
325.2392345
0
ARC
8
DEFAULT_255_1_234
10
6.5662369
20
21.4447863
40
0.3566604
50
292.5402179
51
293.6924929
0
ARC
8
DEFAULT_255_1_234
10
6.6054965
20
20.7993091
40
0.3307468
50
57.6435486
51
72.8625112
0
ARC
8
DEFAULT_255_1_234
10
6.6409465
20
20.8567549
40
0.2632492
50
36.7248896
51
57.4697979
0
ARC
8
DEFAULT_255_1_234
10
6.6398098
20
20.858022
40
0.2634081
50
8.0545065
51
36.356114
0
ARC
8
DEFAULT_255_1_234
10
6.5535283
20
20.8425174
40
0.3510261
50
359.8320645
51
8.5869982
0
ARC
8
DEFAULT_255_1_234
10
6.5160059
20
20.8377101
40
0.3885653
50
343.9829931
51
0.5571613
0
ARC
8
DEFAULT_255_1_234
10
6.6046256
20
20.8134438
40
0.2966924
50
311.6359546
51
343.7651759
0
ARC
8
DEFAULT_255_1_234
10
6.5667825
20
20.8561102
40
0.3537231
50
279.7829875
51
311.6255694
0
ARC
8
DEFAULT_255_1_234
10
6.5366601
20
20.999828
40
0.5004971
50
269.7286406
51
280.3856417
0
ARC
8
DEFAULT_255_1_234
10
6.5304674
20
20.9956996
40
0.4963778
50
256.6828919
51
270.4412052
0
ARC
8
DEFAULT_255_1_234
10
6.496597
20
20.8572394
40
0.3538406
50
229.4223008
51
256.8556159
0
ARC
8
DEFAULT_255_1_234
10
6.4551363
20
20.8105736
40
0.2914296
50
181.818294
51
229.6455059
0
ARC
8
DEFAULT_255_1_234
10
6.5591319
20
20.8236496
40
0.3959084
50
179.9755256
51
183.2323064
0
ARC
8
DEFAULT_255_1_234
10
6.5419065
20
20.8216037
40
0.2293034
50
179.4465117
51
196.2869258
0
ARC
8
DEFAULT_255_1_234
10
6.4931473
20
20.8082651
40
0.1787621
50
196.5661473
51
227.705904
0
ARC
8
DEFAULT_255_1_234
10
6.5095568
20
20.8266155
40
0.2033784
50
227.7652068
51
257.8762805
0
ARC
8
DEFAULT_255_1_234
10
6.5320538
20
20.9209156
40
0.3003081
50
257.4584385
51
270.426602
0
ARC
8
DEFAULT_255_1_234
10
6.5366104
20
20.9498996
40
0.329292
50
269.5962073
51
280.8789248
0
ARC
8
DEFAULT_255_1_234
10
6.5595633
20
20.8352685
40
0.2123908
50
280.6346389
51
299.8595945
0
ARC
8
DEFAULT_255_1_234
10
6.578654
20
20.7990212
40
0.171457
50
300.3576302
51
314.5517981
0
ARC
8
DEFAULT_255_1_234
10
6.57036
20
20.8050919
40
0.1816095
50
315.0728369
51
345.0431014
0
ARC
8
DEFAULT_255_1_234
10
6.4780414
20
20.8319841
40
0.2777492
50
344.5986631
51
357.9269593
0
ARC
8
DEFAULT_255_1_234
10
6.388474
20
20.8381276
40
0.3674917
50
357.4748886
51
0.0231117
0
ARC
8
DEFAULT_255_1_234
10
6.490785
20
20.8405679
40
0.2651907
50
359.5047933
51
13.4239635
0
ARC
8
DEFAULT_255_1_234
10
6.5774493
20
20.8627478
40
0.1757509
50
12.9498199
51
48.7551375
0
ARC
8
DEFAULT_255_1_234
10
6.5592227
20
20.83784
40
0.2065134
50
49.5088623
51
72.1836453
0
ARC
8
DEFAULT_255_1_234
10
6.523438
20
20.7316291
40
0.3185836
50
71.9010081
51
84.3554254
0
ARC
8
DEFAULT_255_1_234
10
6.5073012
20
20.5955326
40
0.4556151
50
84.0193428
51
89.333121
0
LINE
8
DEFAULT_255_1_234
10
4.3681299
20
29.6223211
11
4.6500439
21
29.1741501
0
LINE
8
DEFAULT_255_1_234
10
4.6500439
20
29.1741501
11
4.9303516
21
29.6223211
0
LINE
8
DEFAULT_255_1_234
10
4.9303516
20
29.6223211
11
5.1118689
21
29.6223211
0
LINE
8
DEFAULT_255_1_234
10
5.1118689
20
29.6223211
11
4.7424089
21
29.0424296
0
LINE
8
DEFAULT_255_1_234
10
4.7424089
20
29.0424296
11
5.1207038
21
28.4529
0
LINE
8
DEFAULT_255_1_234
10
5.1207038
20
28.4529
11
4.9375802
21
28.4529
0
LINE
8
DEFAULT_255_1_234
10
4.9375802
20
28.4529
11
4.6500439
21
28.9091027
0
LINE
8
DEFAULT_255_1_234
10
4.6500439
20
28.9091027
11
4.3609014
21
28.4529
0
LINE
8
DEFAULT_255_1_234
10
4.3609014
20
28.4529
11
4.1785809
21
28.4529
0
LINE
8
DEFAULT_255_1_234
10
4.1785809
20
28.4529
11
4.557679
21
29.0424296
0
LINE
8
DEFAULT_255_1_234
10
4.557679
20
29.0424296
11
4.1874158
21
29.6223211
0
LINE
8
DEFAULT_255_1_234
10
4.1874158
20
29.6223211
11
4.3681299
21
29.6223211
0
LINE
8
DEFAULT_255_1_234
10
5.7495889
20
29.6279433
11
5.7495889
21
28.4529
0
LINE
8
DEFAULT_255_1_234
10
5.7495889
20
28.4529
11
5.6001986
21
28.4529
0
LINE
8
DEFAULT_255_1_234
10
5.6001986
20
28.4529
11
5.6001986
21
29.4432133
0
LINE
8
DEFAULT_255_1_234
10
5.6001986
20
29.4432133
11
5.3006147
21
29.3331785
0
LINE
8
DEFAULT_255_1_234
10
5.3006147
20
29.3331785
11
5.3006147
21
29.4681117
0
LINE
8
DEFAULT_255_1_234
10
5.3006147
20
29.4681117
11
5.7262969
21
29.6279433
0
LINE
8
DEFAULT_255_1_234
10
5.7262969
20
29.6279433
11
5.7495889
21
29.6279433
0
LINE
8
DEFAULT_255_1_234
10
6.951137
20
28.5741792
11
6.951137
21
28.4529
0
LINE
8
DEFAULT_255_1_234
10
6.951137
20
28.4529
11
6.1849091
21
28.4529
0
LINE
8
DEFAULT_255_1_234
10
6.1849091
20
28.4529
11
6.1849091
21
28.5597221
0
LINE
8
DEFAULT_255_1_234
10
6.1849091
20
28.5597221
11
6.5897087
21
29.0094995
0
LINE
8
DEFAULT_255_1_234
10
6.3110074
20
29.2777595
11
6.1624203
21
29.2777595
0
LINE
8
DEFAULT_255_1_234
10
6.6772547
20
28.9139218
11
6.3640169
21
28.5741792
0
LINE
8
DEFAULT_255_1_234
10
6.3640169
20
28.5741792
11
6.951137
21
28.5741792
0
ARC
8
DEFAULT_255_1_234
10
5.2406921
20
30.2024527
40
1.8008286
50
318.5132453
51
320.7828378
0
ARC
8
DEFAULT_255_1_234
10
5.7693895
20
29.7721426
40
1.1191493
50
320.7372736
51
323.9737074
0
ARC
8
DEFAULT_255_1_234
10
6.1613751
20
29.4881361
40
0.6350923
50
323.8961724
51
328.6421089
0
ARC
8
DEFAULT_255_1_234
10
6.3660347
20
29.3619031
40
0.3946393
50
328.8299013
51
331.789948
0
ARC
8
DEFAULT_255_1_234
10
6.4657525
20
29.3104509
40
0.2824501
50
331.4255242
51
352.9364833
0
ARC
8
DEFAULT_255_1_234
10
6.4794026
20
29.3073976
40
0.2685315
50
353.2248685
51
0.0169286
0
ARC
8
DEFAULT_255_1_234
10
6.5003903
20
29.309695
40
0.2475536
50
359.4866256
51
15.9339782
0
ARC
8
DEFAULT_255_1_234
10
6.5510888
20
29.3233286
40
0.1950618
50
16.1714718
51
43.5284424
0
ARC
8
DEFAULT_255_1_234
10
6.5588197
20
29.3310573
40
0.184134
50
43.4415429
51
83.1661404
0
ARC
8
DEFAULT_255_1_234
10
6.5454115
20
29.2573771
40
0.258926
50
82.160215
51
90.1505798
0
ARC
8
DEFAULT_255_1_234
10
6.5422542
20
29.2036865
40
0.3126255
50
89.5460705
51
102.5418777
0
ARC
8
DEFAULT_255_1_234
10
6.5179628
20
29.3067665
40
0.2067346
50
102.1739365
51
129.2061916
0
ARC
8
DEFAULT_255_1_234
10
6.51007
20
29.3192094
40
0.1921118
50
129.7279328
51
135.7542026
0
ARC
8
DEFAULT_255_1_234
10
6.5222228
20
29.3095045
40
0.2075944
50
136.175737
51
166.3674722
0
ARC
8
DEFAULT_255_1_234
10
6.6229147
20
29.2825182
40
0.3118201
50
165.9092917
51
178.8683903
0
ARC
8
DEFAULT_255_1_234
10
6.7094008
20
29.2778179
40
0.3983935
50
178.438168
51
180.0083905
0
ARC
8
DEFAULT_255_1_234
10
6.569261
20
29.2817231
40
0.4068601
50
163.2878735
51
180.5581814
0
ARC
8
DEFAULT_255_1_234
10
6.4890872
20
29.303784
40
0.3237344
50
133.454115
51
162.9470031
0
ARC
8
DEFAULT_255_1_234
10
6.5069413
20
29.2848
40
0.349795
50
100.7869394
51
133.4384016
0
ARC
8
DEFAULT_255_1_234
10
6.5417185
20
29.1299319
40
0.5084616
50
89.6605301
51
101.3704185
0
ARC
8
DEFAULT_255_1_234
10
6.5483523
20
29.1360496
40
0.502348
50
78.2171172
51
90.4130393
0
ARC
8
DEFAULT_255_1_234
10
6.5838602
20
29.2984637
40
0.3361092
50
55.9268222
51
78.4888551
0
ARC
8
DEFAULT_255_1_234
10
6.6035042
20
29.3323324
40
0.2970617
50
47.9292255
51
55.4054003
0
ARC
8
DEFAULT_255_1_234
10
6.6136603
20
29.3426502
40
0.2825983
50
4.3347696
51
48.0560701
0
ARC
8
DEFAULT_255_1_234
10
6.5040996
20
29.3256601
40
0.393225
50
359.925209
51
5.5967654
0
ARC
8
DEFAULT_255_1_234
10
6.5469888
20
29.3312816
40
0.3503892
50
337.8914096
51
358.9967724
0
ARC
8
DEFAULT_255_1_234
10
6.27563
20
29.4359706
40
0.6412172
50
326.9135351
51
338.3505194
0
ARC
8
DEFAULT_255_1_234
10
5.8770604
20
29.6914284
40
1.1146189
50
319.6472867
51
327.095818
0
ARC
8
DEFAULT_255_1_234
10
5.4937607
20
30.0076
40
1.6114559
50
317.2586784
51
319.9046139
0
LINE
8
DEFAULT_255_1_234
10
4.3590299
20
37.5598211
11
4.6409439
21
37.1116501
0
LINE
8
DEFAULT_255_1_234
10
4.6409439
20
37.1116501
11
4.9212516
21
37.5598211
0
LINE
8
DEFAULT_255_1_234
10
4.9212516
20
37.5598211
11
5.1027689
21
37.5598211
0
LINE
8
DEFAULT_255_1_234
10
5.1027689
20
37.5598211
11
4.7333089
21
36.9799296
0
LINE
8
DEFAULT_255_1_234
10
4.7333089
20
36.9799296
11
5.1116038
21
36.3904
0
LINE
8
DEFAULT_255_1_234
10
5.1116038
20
36.3904
11
4.9284802
21
36.3904
0
LINE
8
DEFAULT_255_1_234
10
4.9284802
20
36.3904
11
4.6409439
21
36.8466027
0
LINE
8
DEFAULT_255_1_234
10
4.6409439
20
36.8466027
11
4.3518014
21
36.3904
0
LINE
8
DEFAULT_255_1_234
10
4.3518014
20
36.3904
11
4.1694809
21
36.3904
0
LINE
8
DEFAULT_255_1_234
10
4.1694809
20
36.3904
11
4.548579
21
36.9799296
0
LINE
8
DEFAULT_255_1_234
10
4.548579
20
36.9799296
11
4.1783158
21
37.5598211
0
LINE
8
DEFAULT_255_1_234
10
4.1783158
20
37.5598211
11
4.3590299
21
37.5598211
0
LINE
8
DEFAULT_255_1_234
10
5.7404889
20
37.5654433
11
5.7404889
21
36.3904
0
LINE
8
DEFAULT_255_1_234
10
5.7404889
20
36.3904
11
5.5910986
21
36.3904
0
LINE
8
DEFAULT_255_1_234
10
5.5910986
20
36.3904
11
5.5910986
21
37.3807133
0
LINE
8
DEFAULT_255_1_234
10
5.5910986
20
37.3807133
11
5.2915147
21
37.2706785
0
LINE
8
DEFAULT_255_1_234
10
5.2915147
20
37.2706785
11
5.2915147
21
37.4056117
0
LINE
8
DEFAULT_255_1_234
10
5.2915147
20
37.4056117
11
5.7171969
21
37.5654433
0
LINE
8
DEFAULT_255_1_234
10
5.7171969
20
37.5654433
11
5.7404889
21
37.5654433
0
LINE
8
DEFAULT_255_1_234
10
6.6641388
20
37.5654433
11
6.6641388
21
36.3904
0
LINE
8
DEFAULT_255_1_234
10
6.6641388
20
36.3904
11
6.5147485
21
36.3904
0
LINE
8
DEFAULT_255_1_234
10
6.5147485
20
36.3904
11
6.5147485
21
37.3807133
0
LINE
8
DEFAULT_255_1_234
10
6.5147485
20
37.3807133
11
6.2151646
21
37.2706785
0
LINE
8
DEFAULT_255_1_234
10
6.2151646
20
37.2706785
11
6.2151646
21
37.4056117
0
LINE
8
DEFAULT_255_1_234
10
6.2151646
20
37.4056117
11
6.6408468
21
37.5654433
0
LINE
8
DEFAULT_255_1_234
10
6.6408468
20
37.5654433
11
6.6641388
21
37.5654433
0
LINE
8
DEFAULT_255_1_234
10
4.3681299
20
45.4973211
11
4.6500439
21
45.0491501
0
LINE
8
DEFAULT_255_1_234
10
4.6500439
20
45.0491501
11
4.9303516
21
45.4973211
0
LINE
8
DEFAULT_255_1_234
10
4.9303516
20
45.4973211
11
5.1118689
21
45.4973211
0
LINE
8
DEFAULT_255_1_234
10
5.1118689
20
45.4973211
11
4.7424089
21
44.9174296
0
LINE
8
DEFAULT_255_1_234
10
4.7424089
20
44.9174296
11
5.1207038
21
44.3279
0
LINE
8
DEFAULT_255_1_234
10
5.1207038
20
44.3279
11
4.9375802
21
44.3279
0
LINE
8
DEFAULT_255_1_234
10
4.9375802
20
44.3279
11
4.6500439
21
44.7841027
0
LINE
8
DEFAULT_255_1_234
10
4.6500439
20
44.7841027
11
4.3609014
21
44.3279
0
LINE
8
DEFAULT_255_1_234
10
4.3609014
20
44.3279
11
4.1785809
21
44.3279
0
LINE
8
DEFAULT_255_1_234
10
4.1785809
20
44.3279
11
4.557679
21
44.9174296
0
LINE
8
DEFAULT_255_1_234
10
4.557679
20
44.9174296
11
4.1874158
21
45.4973211
0
LINE
8
DEFAULT_255_1_234
10
4.1874158
20
45.4973211
11
4.3681299
21
45.4973211
0
LINE
8
DEFAULT_255_1_234
10
5.7495889
20
45.5029433
11
5.7495889
21
44.3279
0
LINE
8
DEFAULT_255_1_234
10
5.7495889
20
44.3279
11
5.6001986
21
44.3279
0
LINE
8
DEFAULT_255_1_234
10
5.6001986
20
44.3279
11
5.6001986
21
45.3182133
0
LINE
8
DEFAULT_255_1_234
10
5.6001986
20
45.3182133
11
5.3006147
21
45.2081785
0
LINE
8
DEFAULT_255_1_234
10
5.3006147
20
45.2081785
11
5.3006147
21
45.3431117
0
LINE
8
DEFAULT_255_1_234
10
5.3006147
20
45.3431117
11
5.7262969
21
45.5029433
0
LINE
8
DEFAULT_255_1_234
10
5.7262969
20
45.5029433
11
5.7495889
21
45.5029433
0
LINE
8
DEFAULT_255_1_234
10
6.9182068
20
45.0194327
11
6.9182068
21
44.8266709
0
LINE
8
DEFAULT_255_1_234
10
6.1800901
20
44.8065916
11
6.1800901
21
45.0049755
0
LINE
8
DEFAULT_255_1_234
10
6.7696197
20
44.7865123
11
6.7696197
21
45.0298739
0
LINE
8
DEFAULT_255_1_234
10
6.3286772
20
45.0411184
11
6.3286772
21
44.8033789
0
ARC
8
DEFAULT_255_1_234
10
5.6934958
20
44.8217805
40
1.2247208
50
353.8441951
51
0.2287902
0
ARC
8
DEFAULT_255_1_234
10
6.1574462
20
44.7699806
40
0.7578929
50
344.4934747
51
353.9765454
0
ARC
8
DEFAULT_255_1_234
10
6.4567052
20
44.6848981
40
0.4467846
50
329.2803592
51
344.7472793
0
ARC
8
DEFAULT_255_1_234
10
6.5559877
20
44.6304018
40
0.3336173
50
324.9352394
51
328.6160465
0
ARC
8
DEFAULT_255_1_234
10
6.5936985
20
44.6040427
40
0.2876076
50
280.580143
51
324.9173126
0
ARC
8
DEFAULT_255_1_234
10
6.5535778
20
44.7711099
40
0.4592847
50
269.5977311
51
281.6734359
0
ARC
8
DEFAULT_255_1_234
10
6.5463684
20
44.7591173
40
0.4472986
50
256.6228859
51
270.51044
0
ARC
8
DEFAULT_255_1_234
10
6.5061661
20
44.6042877
40
0.2873874
50
215.8618325
51
257.2788573
0
ARC
8
DEFAULT_255_1_234
10
6.6082693
20
44.6727977
40
0.4102928
50
197.9693508
51
215.2623606
0
ARC
8
DEFAULT_255_1_234
10
6.8567809
20
44.7566709
40
0.6725652
50
187.8816417
51
198.2346507
0
ARC
8
DEFAULT_255_1_234
10
7.2526017
20
44.8138079
40
1.0724845
50
180.8976217
51
188.0055519
0
ARC
8
DEFAULT_255_1_234
10
7.5326205
20
44.8241777
40
1.3526448
50
180.7449369
51
181.1510016
0
ARC
8
DEFAULT_255_1_234
10
7.3748934
20
45.0098042
40
1.1948131
50
173.7675579
51
180.231553
0
ARC
8
DEFAULT_255_1_234
10
6.9231081
20
45.0608666
40
0.7401564
50
164.3058563
51
173.9002247
0
ARC
8
DEFAULT_255_1_234
10
6.631915
20
45.1447656
40
0.4371288
50
148.7922025
51
164.568378
0
ARC
8
DEFAULT_255_1_234
10
6.5367602
20
45.1978929
40
0.3282386
50
144.5883898
51
148.1176286
0
ARC
8
DEFAULT_255_1_234
10
6.50245
20
45.2218315
40
0.2864044
50
101.6440918
51
144.514236
0
ARC
8
DEFAULT_255_1_234
10
6.5449566
20
45.0529069
40
0.4604934
50
89.5284041
51
102.5819763
0
ARC
8
DEFAULT_255_1_234
10
6.5528654
20
45.0490018
40
0.464401
50
77.0437873
51
90.5081339
0
ARC
8
DEFAULT_255_1_234
10
6.5930656
20
45.2132615
40
0.2953195
50
48.2778575
51
77.4994676
0
ARC
8
DEFAULT_255_1_234
10
6.6003287
20
45.2261746
40
0.2808655
50
36.3142134
51
47.6305865
0
ARC
8
DEFAULT_255_1_234
10
6.5134594
20
45.1676515
40
0.3855453
50
18.2931786
51
35.6769206
0
ARC
8
DEFAULT_255_1_234
10
6.2591353
20
45.0803593
40
0.654423
50
8.024666
51
18.5605216
0
ARC
8
DEFAULT_255_1_234
10
5.8428273
20
45.0188792
40
1.0752407
50
1.1274072
51
8.1718305
0
ARC
8
DEFAULT_255_1_234
10
5.5192464
20
45.0061885
40
1.3990231
50
0.5424119
51
1.3863029
0
ARC
8
DEFAULT_255_1_234
10
5.7013841
20
45.0334342
40
1.0682415
50
359.8090433
51
4.9407866
0
ARC
8
DEFAULT_255_1_234
10
6.1223855
20
45.0710113
40
0.6455691
50
4.8362157
51
12.2904523
0
ARC
8
DEFAULT_255_1_234
10
6.397897
20
45.1323965
40
0.3633074
50
12.0805627
51
23.8173984
0
ARC
8
DEFAULT_255_1_234
10
6.5152676
20
45.1820919
40
0.2358723
50
24.2871213
51
31.3935614
0
ARC
8
DEFAULT_255_1_234
10
6.5677373
20
45.2164233
40
0.1732111
50
30.7407893
51
82.4657128
0
ARC
8
DEFAULT_255_1_234
10
6.5497507
20
45.1280691
40
0.263235
50
81.1060089
51
90.2184952
0
ARC
8
DEFAULT_255_1_234
10
6.5461806
20
45.1538924
40
0.2374236
50
89.3806855
51
105.6762551
0
ARC
8
DEFAULT_255_1_234
10
6.5278437
20
45.2205567
40
0.1682847
50
105.7981136
51
149.7388061
0
ARC
8
DEFAULT_255_1_234
10
6.6342515
20
45.156595
40
0.2924306
50
149.4208916
51
163.6286378
0
ARC
8
DEFAULT_255_1_234
10
6.8433403
20
45.092825
40
0.5110213
50
163.3763315
51
172.1410975
0
ARC
8
DEFAULT_255_1_234
10
7.1734122
20
45.0455518
40
0.8444586
50
172.0259487
51
178.0703232
0
ARC
8
DEFAULT_255_1_234
10
7.4764211
20
45.0311906
40
1.1477868
50
177.8631668
51
179.5044149
0
ARC
8
DEFAULT_255_1_234
10
7.3691616
20
44.7997389
40
1.0404907
50
179.7995573
51
185.2460446
0
ARC
8
DEFAULT_255_1_234
10
6.9648655
20
44.7614513
40
0.6343885
50
185.1411642
51
193.0079639
0
ARC
8
DEFAULT_255_1_234
10
6.7005128
20
44.6989641
40
0.3627568
50
192.7897626
51
205.2507664
0
ARC
8
DEFAULT_255_1_234
10
6.5958675
20
44.6522415
40
0.2481908
50
205.8005384
51
211.2537509
0
ARC
8
DEFAULT_255_1_234
10
6.5435115
20
44.617158
40
0.1852521
50
210.3789793
51
238.4008143
0
ARC
8
DEFAULT_255_1_234
10
6.5415637
20
44.6218376
40
0.1882621
50
239.6520629
51
265.9793761
0
ARC
8
DEFAULT_255_1_234
10
6.5500837
20
44.6890427
40
0.2559272
50
265.1315437
51
270.060332
0
ARC
8
DEFAULT_255_1_234
10
6.5529616
20
44.6566534
40
0.2235528
50
269.3314664
51
287.2178029
0
ARC
8
DEFAULT_255_1_234
10
6.5667468
20
44.6063279
40
0.1714108
50
287.7958004
51
329.080874
0
ARC
8
DEFAULT_255_1_234
10
6.4709925
20
44.666093
40
0.2842745
50
328.6634704
51
343.3325132
0
ARC
8
DEFAULT_255_1_234
10
6.2536945
20
44.7337863
40
0.5118644
50
343.0499468
51
351.9393422
0
ARC
8
DEFAULT_255_1_234
10
5.9070245
20
44.7848949
40
0.8622784
50
351.8069023
51
357.7959224
0
ARC
8
DEFAULT_255_1_234
10
5.5834801
20
44.8016721
40
1.1862365
50
357.5871873
51
359.2677531
0
LINE
8
DEFAULT_255_1_234
10
4.3091299
20
53.4348211
11
4.5910439
21
52.9866501
0
LINE
8
DEFAULT_255_1_234
10
4.5910439
20
52.9866501
11
4.8713516
21
53.4348211
0
LINE
8
DEFAULT_255_1_234
10
4.8713516
20
53.4348211
11
5.0528689
21
53.4348211
0
LINE
8
DEFAULT_255_1_234
10
5.0528689
20
53.4348211
11
4.6834089
21
52.8549296
0
LINE
8
DEFAULT_255_1_234
10
4.6834089
20
52.8549296
11
5.0617038
21
52.2654
0
LINE
8
DEFAULT_255_1_234
10
5.0617038
20
52.2654
11
4.8785802
21
52.2654
0
LINE
8
DEFAULT_255_1_234
10
4.8785802
20
52.2654
11
4.5910439
21
52.7216027
0
LINE
8
DEFAULT_255_1_234
10
4.5910439
20
52.7216027
11
4.3019014
21
52.2654
0
LINE
8
DEFAULT_255_1_234
10
4.3019014
20
52.2654
11
4.1195809
21
52.2654
0
LINE
8
DEFAULT_255_1_234
10
4.1195809
20
52.2654
11
4.498679
21
52.8549296
0
LINE
8
DEFAULT_255_1_234
10
4.498679
20
52.8549296
11
4.1284158
21
53.4348211
0
LINE
8
DEFAULT_255_1_234
10
4.1284158
20
53.4348211
11
4.3091299
21
53.4348211
0
LINE
8
DEFAULT_255_1_234
10
5.9572426
20
53.4348211
11
5.9572426
21
53.351291
0
LINE
8
DEFAULT_255_1_234
10
5.9572426
20
53.351291
11
5.4729288
21
52.2654
0
LINE
8
DEFAULT_255_1_234
10
5.4729288
20
52.2654
11
5.3171131
21
52.2654
0
LINE
8
DEFAULT_255_1_234
10
5.3171131
20
52.2654
11
5.7998206
21
53.3127387
0
LINE
8
DEFAULT_255_1_234
10
5.7998206
20
53.3127387
11
5.1669196
21
53.3127387
0
LINE
8
DEFAULT_255_1_234
10
5.1669196
20
53.3127387
11
5.1669196
21
53.4348211
0
LINE
8
DEFAULT_255_1_234
10
5.1669196
20
53.4348211
11
5.9572426
21
53.4348211
0
LINE
8
DEFAULT_255_1_234
10
4.3091299
20
61.3723211
11
4.5910439
21
60.9241501
0
LINE
8
DEFAULT_255_1_234
10
4.5910439
20
60.9241501
11
4.8713516
21
61.3723211
0
LINE
8
DEFAULT_255_1_234
10
4.8713516
20
61.3723211
11
5.0528689
21
61.3723211
0
LINE
8
DEFAULT_255_1_234
10
5.0528689
20
61.3723211
11
4.6834089
21
60.7924296
0
LINE
8
DEFAULT_255_1_234
10
4.6834089
20
60.7924296
11
5.0617038
21
60.2029
0
LINE
8
DEFAULT_255_1_234
10
5.0617038
20
60.2029
11
4.8785802
21
60.2029
0
LINE
8
DEFAULT_255_1_234
10
4.8785802
20
60.2029
11
4.5910439
21
60.6591027
0
LINE
8
DEFAULT_255_1_234
10
4.5910439
20
60.6591027
11
4.3019014
21
60.2029
0
LINE
8
DEFAULT_255_1_234
10
4.3019014
20
60.2029
11
4.1195809
21
60.2029
0
LINE
8
DEFAULT_255_1_234
10
4.1195809
20
60.2029
11
4.498679
21
60.7924296
0
LINE
8
DEFAULT_255_1_234
10
4.498679
20
60.7924296
11
4.1284158
21
61.3723211
0
LINE
8
DEFAULT_255_1_234
10
4.1284158
20
61.3723211
11
4.3091299
21
61.3723211
0
LINE
8
DEFAULT_255_1_234
10
5.7588587
20
61.3731243
11
5.7853634
21
61.3731243
0
LINE
8
DEFAULT_255_1_234
10
5.7853634
20
61.3731243
11
5.7853634
21
61.247026
0
LINE
8
DEFAULT_255_1_234
10
5.7853634
20
61.247026
11
5.7580555
21
61.247026
0
LINE
8
DEFAULT_255_1_234
10
5.2110941
20
60.6478583
11
5.2110941
21
60.7048836
0
LINE
8
DEFAULT_255_1_234
10
5.3604845
20
60.6856075
11
5.3604845
21
60.6309917
0
ARC
8
DEFAULT_255_1_234
10
5.7632903
20
60.7472455
40
0.4998079
50
90.6001036
51
104.514704
0
ARC
8
DEFAULT_255_1_234
10
5.7244419
20
60.8917131
40
0.3502176
50
104.2855254
51
133.862935
0
ARC
8
DEFAULT_255_1_234
10
5.7408176
20
60.880883
40
0.3693984
50
134.5302688
51
161.6210873
0
ARC
8
DEFAULT_255_1_234
10
5.9061365
20
60.8225895
40
0.5446739
50
161.2849839
51
174.2076652
0
ARC
8
DEFAULT_255_1_234
10
6.0468302
20
60.8031787
40
0.6866274
50
173.7810589
51
174.9254635
0
ARC
8
DEFAULT_255_1_234
10
5.5918134
20
60.6648839
40
0.3033419
50
95.8330959
51
138.9954921
0
ARC
8
DEFAULT_255_1_234
10
5.614149
20
60.5370375
40
0.4328947
50
89.8753725
51
97.0544009
0
ARC
8
DEFAULT_255_1_234
10
5.6188956
20
60.6205748
40
0.3493769
50
71.6407809
51
90.6240094
0
ARC
8
DEFAULT_255_1_234
10
5.6339529
20
60.6760082
40
0.2920396
50
39.6367836
51
71.019018
0
ARC
8
DEFAULT_255_1_234
10
5.5703002
20
60.6209998
40
0.3761538
50
10.658731
51
39.9043955
0
ARC
8
DEFAULT_255_1_234
10
5.4155085
20
60.5873686
40
0.5345136
50
359.682601
51
11.132623
0
ARC
8
DEFAULT_255_1_234
10
5.4115216
20
60.580301
40
0.5385081
50
347.2486944
51
0.4369317
0
ARC
8
DEFAULT_255_1_234
10
5.5782693
20
60.5401807
40
0.3670249
50
318.1409698
51
347.6118597
0
ARC
8
DEFAULT_255_1_234
10
5.6107686
20
60.5134702
40
0.3250007
50
275.6342139
51
317.8248465
0
ARC
8
DEFAULT_255_1_234
10
5.5886797
20
60.6434219
40
0.4565864
50
269.8874292
51
276.7917694
0
ARC
8
DEFAULT_255_1_234
10
5.5831868
20
60.5408743
40
0.3540676
50
246.9140195
51
270.7437342
0
ARC
8
DEFAULT_255_1_234
10
5.5838258
20
60.5266384
40
0.3412781
50
218.1665114
51
245.878116
0
ARC
8
DEFAULT_255_1_234
10
5.6717719
20
60.6002279
40
0.455911
50
191.4115814
51
218.6077802
0
ARC
8
DEFAULT_255_1_234
10
5.8655808
20
60.6436833
40
0.6545001
50
179.6345085
51
191.7836486
0
ARC
8
DEFAULT_255_1_234
10
6.4238145
20
60.7115697
40
1.2127388
50
171.4525249
51
180.3158839
0
ARC
8
DEFAULT_255_1_234
10
5.9843021
20
60.7799608
40
0.7679464
50
157.9802646
51
171.6246686
0
ARC
8
DEFAULT_255_1_234
10
5.7629042
20
60.8682421
40
0.5296008
50
141.4298019
51
157.854097
0
ARC
8
DEFAULT_255_1_234
10
5.6987362
20
60.9136381
40
0.4511509
50
102.8715806
51
140.8564722
0
ARC
8
DEFAULT_255_1_234
10
5.7634978
20
60.6696552
40
0.7034845
50
90.3778349
51
103.5869322
0
ARC
8
DEFAULT_255_1_234
10
5.5896754
20
60.609173
40
0.2370698
50
89.8751008
51
126.2071704
0
ARC
8
DEFAULT_255_1_234
10
5.5942544
20
60.5937303
40
0.2522934
50
124.9745049
51
144.895901
0
ARC
8
DEFAULT_255_1_234
10
5.5766734
20
60.608056
40
0.2296779
50
145.2974905
51
160.2660252
0
ARC
8
DEFAULT_255_1_234
10
5.8839273
20
60.6278071
40
0.5234525
50
179.6514266
51
190.2855912
0
ARC
8
DEFAULT_255_1_234
10
5.714541
20
60.5958786
40
0.3510893
50
190.0945431
51
207.5098196
0
ARC
8
DEFAULT_255_1_234
10
5.657968
20
60.5689623
40
0.288489
50
207.9583163
51
216.3251085
0
ARC
8
DEFAULT_255_1_234
10
5.6239788
20
60.5410105
40
0.2445587
50
215.7661442
51
232.5456785
0
ARC
8
DEFAULT_255_1_234
10
5.5856771
20
60.4923482
40
0.1826382
50
232.8005391
51
270.6605633
0
ARC
8
DEFAULT_255_1_234
10
5.5902472
20
60.5287612
40
0.2190529
50
269.35537
51
288.4744281
0
ARC
8
DEFAULT_255_1_234
10
5.5995369
20
60.4938118
40
0.1829749
50
289.1833337
51
322.9683818
0
ARC
8
DEFAULT_255_1_234
10
5.5383891
20
60.5420391
40
0.2608399
50
322.6007884
51
346.5182367
0
ARC
8
DEFAULT_255_1_234
10
5.4226487
20
60.5715616
40
0.3802777
50
346.2582162
51
358.7741648
0
ARC
8
DEFAULT_255_1_234
10
5.3208156
20
60.5770965
40
0.4822176
50
358.3755224
51
0.0098023
0
ARC
8
DEFAULT_255_1_234
10
5.3964343
20
60.5798657
40
0.4066078
50
359.6214041
51
11.2839074
0
ARC
8
DEFAULT_255_1_234
10
5.524149
20
60.6065066
40
0.2761514
50
11.0482309
51
31.8146458
0
ARC
8
DEFAULT_255_1_234
10
5.5550533
20
60.6232584
40
0.2410679
50
32.3035391
51
38.082671
0
ARC
8
DEFAULT_255_1_234
10
5.5971193
20
60.6613662
40
0.1844966
50
36.825067
51
85.7415724
0
ARC
8
DEFAULT_255_1_234
10
5.5904026
20
60.6113301
40
0.2349122
50
85.0140713
51
90.0513278
0
LINE
8
DEFAULT_255_1_234
10
4.3091299
20
69.3098211
11
4.5910439
21
68.8616501
0
LINE
8
DEFAULT_255_1_234
10
4.5910439
20
68.8616501
11
4.8713516
21
69.3098211
0
LINE
8
DEFAULT_255_1_234
10
4.8713516
20
69.3098211
11
5.0528689
21
69.3098211
0
LINE
8
DEFAULT_255_1_234
10
5.0528689
20
69.3098211
11
4.6834089
21
68.7299296
0
LINE
8
DEFAULT_255_1_234
10
4.6834089
20
68.7299296
11
5.0617038
21
68.1404
0
LINE
8
DEFAULT_255_1_234
10
5.0617038
20
68.1404
11
4.8785802
21
68.1404
0
LINE
8
DEFAULT_255_1_234
10
4.8785802
20
68.1404
11
4.5910439
21
68.5966027
0
LINE
8
DEFAULT_255_1_234
10
4.5910439
20
68.5966027
11
4.3019014
21
68.1404
0
LINE
8
DEFAULT_255_1_234
10
4.3019014
20
68.1404
11
4.1195809
21
68.1404
0
LINE
8
DEFAULT_255_1_234
10
4.1195809
20
68.1404
11
4.498679
21
68.7299296
0
LINE
8
DEFAULT_255_1_234
10
4.498679
20
68.7299296
11
4.1284158
21
69.3098211
0
LINE
8
DEFAULT_255_1_234
10
4.1284158
20
69.3098211
11
4.3091299
21
69.3098211
0
LINE
8
DEFAULT_255_1_234
10
5.3893987
20
68.6961963
11
5.270529
21
68.7267169
0
LINE
8
DEFAULT_255_1_234
10
5.270529
20
68.7267169
11
5.3299639
21
69.3098211
0
LINE
8
DEFAULT_255_1_234
10
5.3299639
20
69.3098211
11
5.9291315
21
69.3098211
0
LINE
8
DEFAULT_255_1_234
10
5.9291315
20
69.3098211
11
5.9291315
21
69.1724784
0
LINE
8
DEFAULT_255_1_234
10
5.9291315
20
69.1724784
11
5.4560622
21
69.1724784
0
LINE
8
DEFAULT_255_1_234
10
5.4560622
20
69.1724784
11
5.4207225
21
68.8536184
0
LINE
8
DEFAULT_255_1_234
10
5.228764
20
68.4480156
11
5.3693194
21
68.4480156
0
LINE
8
DEFAULT_255_1_234
10
5.4287542
20
68.7283232
11
5.3893987
21
68.6961963
0
ARC
8
DEFAULT_255_1_234
10
5.6062009
20
68.535623
40
0.3681349
50
93.7182161
51
120.2538958
0
ARC
8
DEFAULT_255_1_234
10
5.6156272
20
68.4548394
40
0.449379
50
89.9660152
51
94.2496022
0
ARC
8
DEFAULT_255_1_234
10
5.6197006
20
68.5137549
40
0.390482
50
73.8043271
51
90.5585896
0
ARC
8
DEFAULT_255_1_234
10
5.6431903
20
68.5995602
40
0.3015334
50
41.3071453
51
73.5430202
0
ARC
8
DEFAULT_255_1_234
10
5.601573
20
68.5637324
40
0.3564457
50
13.5075983
51
41.2174222
0
ARC
8
DEFAULT_255_1_234
10
5.4373934
20
68.5207486
40
0.5261351
50
1.1331335
51
13.8829381
0
ARC
8
DEFAULT_255_1_234
10
5.2962303
20
68.5131665
40
0.6674378
50
359.9919444
51
1.544251
0
ARC
8
DEFAULT_255_1_234
10
5.4239129
20
68.509028
40
0.5397702
50
347.8572367
51
0.4293338
0
ARC
8
DEFAULT_255_1_234
10
5.5989447
20
68.4693736
40
0.3603188
50
323.673004
51
348.1672506
0
ARC
8
DEFAULT_255_1_234
10
5.6283955
20
68.4514168
40
0.3259678
50
316.8171152
51
323.1492751
0
ARC
8
DEFAULT_255_1_234
10
5.6345144
20
68.447746
40
0.3189975
50
281.8396411
51
316.5457803
0
ARC
8
DEFAULT_255_1_234
10
5.5969408
20
68.6032762
40
0.4789527
50
269.5770101
51
282.4214771
0
ARC
8
DEFAULT_255_1_234
10
5.5898219
20
68.5819125
40
0.45759
50
256.2427136
51
270.4486331
0
ARC
8
DEFAULT_255_1_234
10
5.5599121
20
68.4619229
40
0.3339303
50
228.9023911
51
256.3314342
0
ARC
8
DEFAULT_255_1_234
10
5.5525354
20
68.4502746
40
0.32031
50
193.753695
51
228.5271154
0
ARC
8
DEFAULT_255_1_234
10
5.6763308
20
68.48658
40
0.4492253
50
184.924711
51
194.497588
0
ARC
8
DEFAULT_255_1_234
10
5.6955875
20
68.4901591
40
0.3289787
50
187.3600538
51
198.6732863
0
ARC
8
DEFAULT_255_1_234
10
5.5906169
20
68.4537674
40
0.217884
50
198.4451669
51
217.794479
0
ARC
8
DEFAULT_255_1_234
10
5.5610344
20
68.4328085
40
0.1816698
50
218.2887171
51
228.5612368
0
ARC
8
DEFAULT_255_1_234
10
5.5708131
20
68.4459963
40
0.1980329
50
228.9654866
51
258.1234728
0
ARC
8
DEFAULT_255_1_234
10
5.5913841
20
68.5340833
40
0.2884748
50
257.7258293
51
270.401361
0
ARC
8
DEFAULT_255_1_234
10
5.5958727
20
68.4895821
40
0.2439788
50
269.4204404
51
286.4209037
0
ARC
8
DEFAULT_255_1_234
10
5.6107215
20
68.4356657
40
0.1880666
50
286.7251356
51
320.600362
0
ARC
8
DEFAULT_255_1_234
10
5.572404
20
68.4667595
40
0.2374121
50
320.6712579
51
344.5441685
0
ARC
8
DEFAULT_255_1_234
10
5.4567366
20
68.5007045
40
0.3579479
50
344.2412205
51
356.7357071
0
ARC
8
DEFAULT_255_1_234
10
5.3318515
20
68.5110444
40
0.4832297
50
356.3548756
51
0.0500261
0
ARC
8
DEFAULT_255_1_234
10
5.4655024
20
68.514165
40
0.3495889
50
359.5576869
51
12.953486
0
ARC
8
DEFAULT_255_1_234
10
5.5709921
20
68.5397434
40
0.2410532
50
12.6490276
51
41.6081334
0
ARC
8
DEFAULT_255_1_234
10
5.5940292
20
68.5593321
40
0.2108218
50
41.7850273
51
85.9892764
0
ARC
8
DEFAULT_255_1_234
10
5.5817029
20
68.4780462
40
0.2928454
50
84.6957577
51
90.0676183
0
ARC
8
DEFAULT_255_1_234
10
5.5793513
20
68.4111716
40
0.3597255
50
89.6804936
51
99.1614436
0
ARC
8
DEFAULT_255_1_234
10
5.5588144
20
68.5339131
40
0.235281
50
98.9830931
51
113.8908934
0
ARC
8
DEFAULT_255_1_234
10
5.5358554
20
68.5880587
40
0.176479
50
114.1950727
51
127.3641004
0
LINE
8
DEFAULT_255_1_234
10
4.4149299
20
77.2473211
11
4.6968439
21
76.7991501
0
LINE
8
DEFAULT_255_1_234
10
4.6968439
20
76.7991501
11
4.9771516
21
77.2473211
0
LINE
8
DEFAULT_255_1_234
10
4.9771516
20
77.2473211
11
5.1586689
21
77.2473211
0
LINE
8
DEFAULT_255_1_234
10
5.1586689
20
77.2473211
11
4.7892089
21
76.6674296
0
LINE
8
DEFAULT_255_1_234
10
4.7892089
20
76.6674296
11
5.1675038
21
76.0779
0
LINE
8
DEFAULT_255_1_234
10
5.1675038
20
76.0779
11
4.9843802
21
76.0779
0
LINE
8
DEFAULT_255_1_234
10
4.9843802
20
76.0779
11
4.6968439
21
76.5341027
0
LINE
8
DEFAULT_255_1_234
10
4.6968439
20
76.5341027
11
4.4077014
21
76.0779
0
LINE
8
DEFAULT_255_1_234
10
4.4077014
20
76.0779
11
4.2253809
21
76.0779
0
LINE
8
DEFAULT_255_1_234
10
4.2253809
20
76.0779
11
4.604479
21
76.6674296
0
LINE
8
DEFAULT_255_1_234
10
4.604479
20
76.6674296
11
4.2342158
21
77.2473211
0
LINE
8
DEFAULT_255_1_234
10
4.2342158
20
77.2473211
11
4.4149299
21
77.2473211
0
LINE
8
DEFAULT_255_1_234
10
5.935338
20
77.2473211
11
5.935338
21
76.470652
0
LINE
8
DEFAULT_255_1_234
10
5.935338
20
76.470652
11
6.0975791
21
76.470652
0
LINE
8
DEFAULT_255_1_234
10
6.0975791
20
76.470652
11
6.0975791
21
76.3493728
0
LINE
8
DEFAULT_255_1_234
10
6.0975791
20
76.3493728
11
5.935338
21
76.3493728
0
LINE
8
DEFAULT_255_1_234
10
5.935338
20
76.3493728
11
5.935338
21
76.0779
0
LINE
8
DEFAULT_255_1_234
10
5.935338
20
76.0779
11
5.7859477
21
76.0779
0
LINE
8
DEFAULT_255_1_234
10
5.7859477
20
76.0779
11
5.7859477
21
76.3493728
0
LINE
8
DEFAULT_255_1_234
10
5.7859477
20
76.3493728
11
5.2534434
21
76.3493728
0
LINE
8
DEFAULT_255_1_234
10
5.2534434
20
76.3493728
11
5.2534434
21
76.4369187
0
LINE
8
DEFAULT_255_1_234
10
5.2534434
20
76.4369187
11
5.7771127
21
77.2473211
0
LINE
8
DEFAULT_255_1_234
10
5.7771127
20
77.2473211
11
5.935338
21
77.2473211
0
LINE
8
DEFAULT_255_1_234
10
5.7682778
20
77.0119912
11
5.4221099
21
76.470652
0
LINE
8
DEFAULT_255_1_234
10
5.4221099
20
76.470652
11
5.7859477
21
76.470652
0
LINE
8
DEFAULT_255_1_234
10
5.7859477
20
76.470652
11
5.7859477
21
77.0441181
0
LINE
8
DEFAULT_255_1_234
10
5.7859477
20
77.0441181
11
5.7682778
21
77.0119912
0
LINE
8
DEFAULT_255_1_234
10
4.3091299
20
85.1848211
11
4.5910439
21
84.7366501
0
LINE
8
DEFAULT_255_1_234
10
4.5910439
20
84.7366501
11
4.8713516
21
85.1848211
0
LINE
8
DEFAULT_255_1_234
10
4.8713516
20
85.1848211
11
5.0528689
21
85.1848211
0
LINE
8
DEFAULT_255_1_234
10
5.0528689
20
85.1848211
11
4.6834089
21
84.6049296
0
LINE
8
DEFAULT_255_1_234
10
4.6834089
20
84.6049296
11
5.0617038
21
84.0154
0
LINE
8
DEFAULT_255_1_234
10
5.0617038
20
84.0154
11
4.8785802
21
84.0154
0
LINE
8
DEFAULT_255_1_234
10
4.8785802
20
84.0154
11
4.5910439
21
84.4716027
0
LINE
8
DEFAULT_255_1_234
10
4.5910439
20
84.4716027
11
4.3019014
21
84.0154
0
LINE
8
DEFAULT_255_1_234
10
4.3019014
20
84.0154
11
4.1195809
21
84.0154
0
LINE
8
DEFAULT_255_1_234
10
4.1195809
20
84.0154
11
4.498679
21
84.6049296
0
LINE
8
DEFAULT_255_1_234
10
4.498679
20
84.6049296
11
4.1284158
21
85.1848211
0
LINE
8
DEFAULT_255_1_234
10
4.1284158
20
85.1848211
11
4.3091299
21
85.1848211
0
LINE
8
DEFAULT_255_1_234
10
5.418313
20
84.5511169
11
5.418313
21
84.6723962
0
LINE
8
DEFAULT_255_1_234
10
5.418313
20
84.6723962
11
5.5299542
21
84.6723962
0
LINE
8
DEFAULT_255_1_234
10
5.339602
20
84.8780087
11
5.1910148
21
84.8780087
0
LINE
8
DEFAULT_255_1_234
10
5.1805735
20
84.3238188
11
5.3299639
21
84.3238188
0
LINE
8
DEFAULT_255_1_234
10
5.5299542
20
84.5511169
11
5.418313
21
84.5511169
0
ARC
8
DEFAULT_255_1_234
10
5.5270408
20
85.0116713
40
0.3392876
50
270.4919872
51
281.8951556
0
ARC
8
DEFAULT_255_1_234
10
5.551167
20
84.9014702
40
0.2264817
50
281.6691735
51
301.2943132
0
ARC
8
DEFAULT_255_1_234
10
5.568188
20
84.8703304
40
0.1910381
50
301.7833094
51
311.7545298
0
ARC
8
DEFAULT_255_1_234
10
5.5773456
20
84.8601748
40
0.1773635
50
311.7323931
51
354.2802411
0
ARC
8
DEFAULT_255_1_234
10
5.5047081
20
84.8726722
40
0.2509385
50
353.0937916
51
0.1181479
0
ARC
8
DEFAULT_255_1_234
10
5.4585866
20
84.8774386
40
0.2970898
50
359.1805295
51
15.0453146
0
ARC
8
DEFAULT_255_1_234
10
5.5931703
20
84.9166992
40
0.1569564
50
13.9577229
51
77.6713066
0
ARC
8
DEFAULT_255_1_234
10
5.5545232
20
84.7781949
40
0.3006298
50
76.1116566
51
90.7026153
0
ARC
8
DEFAULT_255_1_234
10
5.548607
20
84.8055545
40
0.2732568
50
89.5324876
51
103.531937
0
ARC
8
DEFAULT_255_1_234
10
5.5285514
20
84.8854884
40
0.1908508
50
103.2931773
51
133.5619022
0
ARC
8
DEFAULT_255_1_234
10
5.5241003
20
84.8914375
40
0.1834746
50
133.8349307
51
173.5344437
0
ARC
8
DEFAULT_255_1_234
10
5.5964046
20
84.8786213
40
0.2568033
50
172.5096846
51
180.1366907
0
ARC
8
DEFAULT_255_1_234
10
5.501294
20
84.8820622
40
0.3103056
50
155.3484492
51
180.7484736
0
ARC
8
DEFAULT_255_1_234
10
5.4964029
20
84.8791846
40
0.3070957
50
131.5744599
51
154.4798489
0
ARC
8
DEFAULT_255_1_234
10
5.5277176
20
84.847531
40
0.3515643
50
96.9875458
51
131.9690667
0
ARC
8
DEFAULT_255_1_234
10
5.5496656
20
84.7229636
40
0.4779224
50
89.8596053
51
97.7825159
0
ARC
8
DEFAULT_255_1_234
10
5.5544719
20
84.6967616
40
0.5041361
50
78.3655447
51
90.4131539
0
ARC
8
DEFAULT_255_1_234
10
5.5902637
20
84.8626887
40
0.3344039
50
56.6229102
51
78.638727
0
ARC
8
DEFAULT_255_1_234
10
5.6117581
20
84.9002805
40
0.2912001
50
47.0253525
51
56.0854072
0
ARC
8
DEFAULT_255_1_234
10
5.6137361
20
84.9042223
40
0.2869704
50
10.9208013
51
46.7778124
0
ARC
8
DEFAULT_255_1_234
10
5.4773427
20
84.8726857
40
0.426899
50
359.6364486
51
11.6087304
0
ARC
8
DEFAULT_255_1_234
10
5.6608271
20
84.8711752
40
0.243409
50
332.3549906
51
359.7179418
0
ARC
8
DEFAULT_255_1_234
10
5.5957873
20
84.9020142
40
0.3153459
50
325.2333722
51
332.8745602
0
ARC
8
DEFAULT_255_1_234
10
5.6110496
20
84.8913828
40
0.2967456
50
292.9802137
51
325.2392345
0
ARC
8
DEFAULT_255_1_234
10
5.583587
20
84.9447863
40
0.3566604
50
292.5402179
51
293.6924929
0
ARC
8
DEFAULT_255_1_234
10
5.6228466
20
84.2993091
40
0.3307468
50
57.6435486
51
72.8625112
0
ARC
8
DEFAULT_255_1_234
10
5.6582966
20
84.3567549
40
0.2632492
50
36.7248896
51
57.4697979
0
ARC
8
DEFAULT_255_1_234
10
5.6571598
20
84.358022
40
0.2634081
50
8.0545065
51
36.356114
0
ARC
8
DEFAULT_255_1_234
10
5.5708784
20
84.3425174
40
0.3510261
50
359.8320645
51
8.5869982
0
ARC
8
DEFAULT_255_1_234
10
5.533356
20
84.3377101
40
0.3885653
50
343.9829931
51
0.5571613
0
ARC
8
DEFAULT_255_1_234
10
5.6219757
20
84.3134438
40
0.2966924
50
311.6359546
51
343.7651759
0
ARC
8
DEFAULT_255_1_234
10
5.5841326
20
84.3561102
40
0.3537231
50
279.7829875
51
311.6255694
0
ARC
8
DEFAULT_255_1_234
10
5.5540102
20
84.499828
40
0.5004971
50
269.7286406
51
280.3856417
0
ARC
8
DEFAULT_255_1_234
10
5.5478175
20
84.4956996
40
0.4963778
50
256.6828919
51
270.4412052
0
ARC
8
DEFAULT_255_1_234
10
5.5139471
20
84.3572394
40
0.3538406
50
229.4223008
51
256.8556159
0
ARC
8
DEFAULT_255_1_234
10
5.4724864
20
84.3105736
40
0.2914296
50
181.818294
51
229.6455059
0
ARC
8
DEFAULT_255_1_234
10
5.576482
20
84.3236496
40
0.3959084
50
179.9755256
51
183.2323064
0
ARC
8
DEFAULT_255_1_234
10
5.5592566
20
84.3216037
40
0.2293034
50
179.4465117
51
196.2869258
0
ARC
8
DEFAULT_255_1_234
10
5.5104974
20
84.3082651
40
0.1787621
50
196.5661473
51
227.705904
0
ARC
8
DEFAULT_255_1_234
10
5.5269069
20
84.3266155
40
0.2033784
50
227.7652068
51
257.8762805
0
ARC
8
DEFAULT_255_1_234
10
5.5494039
20
84.4209156
40
0.3003081
50
257.4584385
51
270.426602
0
ARC
8
DEFAULT_255_1_234
10
5.5539605
20
84.4498996
40
0.329292
50
269.5962073
51
280.8789248
0
ARC
8
DEFAULT_255_1_234
10
5.5769134
20
84.3352685
40
0.2123908
50
280.6346389
51
299.8595945
0
ARC
8
DEFAULT_255_1_234
10
5.596004
20
84.2990212
40
0.171457
50
300.3576302
51
314.5517981
0
ARC
8
DEFAULT_255_1_234
10
5.5877101
20
84.3050919
40
0.1816095
50
315.0728369
51
345.0431014
0
ARC
8
DEFAULT_255_1_234
10
5.4953915
20
84.3319841
40
0.2777492
50
344.5986631
51
357.9269593
0
ARC
8
DEFAULT_255_1_234
10
5.4058241
20
84.3381276
40
0.3674917
50
357.4748886
51
0.0231117
0
ARC
8
DEFAULT_255_1_234
10
5.5081351
20
84.3405679
40
0.2651907
50
359.5047933
51
13.4239635
0
ARC
8
DEFAULT_255_1_234
10
5.5947994
20
84.3627478
40
0.1757509
50
12.9498199
51
48.7551375
0
ARC
8
DEFAULT_255_1_234
10
5.5765728
20
84.33784
40
0.2065134
50
49.5088623
51
72.1836453
0
ARC
8
DEFAULT_255_1_234
10
5.5407881
20
84.2316291
40
0.3185836
50
71.9010081
51
84.3554254
0
ARC
8
DEFAULT_255_1_234
10
5.5246513
20
84.0955326
40
0.4556151
50
84.0193428
51
89.333121
0
LINE
8
DEFAULT_255_1_234
10
4.3091299
20
93.1223211
11
4.5910439
21
92.6741501
0
LINE
8
DEFAULT_255_1_234
10
4.5910439
20
92.6741501
11
4.8713516
21
93.1223211
0
LINE
8
DEFAULT_255_1_234
10
4.8713516
20
93.1223211
11
5.0528689
21
93.1223211
0
LINE
8
DEFAULT_255_1_234
10
5.0528689
20
93.1223211
11
4.6834089
21
92.5424296
0
LINE
8
DEFAULT_255_1_234
10
4.6834089
20
92.5424296
11
5.0617038
21
91.9529
0
LINE
8
DEFAULT_255_1_234
10
5.0617038
20
91.9529
11
4.8785802
21
91.9529
0
LINE
8
DEFAULT_255_1_234
10
4.8785802
20
91.9529
11
4.5910439
21
92.4091027
0
LINE
8
DEFAULT_255_1_234
10
4.5910439
20
92.4091027
11
4.3019014
21
91.9529
0
LINE
8
DEFAULT_255_1_234
10
4.3019014
20
91.9529
11
4.1195809
21
91.9529
0
LINE
8
DEFAULT_255_1_234
10
4.1195809
20
91.9529
11
4.498679
21
92.5424296
0
LINE
8
DEFAULT_255_1_234
10
4.498679
20
92.5424296
11
4.1284158
21
93.1223211
0
LINE
8
DEFAULT_255_1_234
10
4.1284158
20
93.1223211
11
4.3091299
21
93.1223211
0
LINE
8
DEFAULT_255_1_234
10
5.9684871
20
92.0741792
11
5.9684871
21
91.9529
0
LINE
8
DEFAULT_255_1_234
10
5.9684871
20
91.9529
11
5.2022592
21
91.9529
0
LINE
8
DEFAULT_255_1_234
10
5.2022592
20
91.9529
11
5.2022592
21
92.0597221
0
LINE
8
DEFAULT_255_1_234
10
5.2022592
20
92.0597221
11
5.6070588
21
92.5094995
0
LINE
8
DEFAULT_255_1_234
10
5.3283575
20
92.7777595
11
5.1797704
21
92.7777595
0
LINE
8
DEFAULT_255_1_234
10
5.6946048
20
92.4139218
11
5.381367
21
92.0741792
0
LINE
8
DEFAULT_255_1_234
10
5.381367
20
92.0741792
11
5.9684871
21
92.0741792
0
ARC
8
DEFAULT_255_1_234
10
4.2580422
20
93.7024527
40
1.8008286
50
318.5132453
51
320.7828378
0
ARC
8
DEFAULT_255_1_234
10
4.7867396
20
93.2721426
40
1.1191493
50
320.7372736
51
323.9737074
0
ARC
8
DEFAULT_255_1_234
10
5.1787252
20
92.9881361
40
0.6350923
50
323.8961724
51
328.6421089
0
ARC
8
DEFAULT_255_1_234
10
5.3833848
20
92.8619031
40
0.3946393
50
328.8299013
51
331.789948
0
ARC
8
DEFAULT_255_1_234
10
5.4831026
20
92.8104509
40
0.2824501
50
331.4255242
51
352.9364833
0
ARC
8
DEFAULT_255_1_234
10
5.4967527
20
92.8073976
40
0.2685315
50
353.2248685
51
0.0169286
0
ARC
8
DEFAULT_255_1_234
10
5.5177404
20
92.809695
40
0.2475536
50
359.4866256
51
15.9339782
0
ARC
8
DEFAULT_255_1_234
10
5.5684389
20
92.8233286
40
0.1950618
50
16.1714718
51
43.5284424
0
ARC
8
DEFAULT_255_1_234
10
5.5761698
20
92.8310573
40
0.184134
50
43.4415429
51
83.1661404
0
ARC
8
DEFAULT_255_1_234
10
5.5627616
20
92.7573771
40
0.258926
50
82.160215
51
90.1505798
0
ARC
8
DEFAULT_255_1_234
10
5.5596043
20
92.7036865
40
0.3126255
50
89.5460705
51
102.5418777
0
ARC
8
DEFAULT_255_1_234
10
5.5353129
20
92.8067665
40
0.2067346
50
102.1739365
51
129.2061916
0
ARC
8
DEFAULT_255_1_234
10
5.5274201
20
92.8192094
40
0.1921118
50
129.7279328
51
135.7542026
0
ARC
8
DEFAULT_255_1_234
10
5.5395729
20
92.8095045
40
0.2075944
50
136.175737
51
166.3674722
0
ARC
8
DEFAULT_255_1_234
10
5.6402648
20
92.7825182
40
0.3118201
50
165.9092917
51
178.8683903
0
ARC
8
DEFAULT_255_1_234
10
5.7267509
20
92.7778179
40
0.3983935
50
178.438168
51
180.0083905
0
ARC
8
DEFAULT_255_1_234
10
5.5866111
20
92.7817231
40
0.4068601
50
163.2878735
51
180.5581814
0
ARC
8
DEFAULT_255_1_234
10
5.5064373
20
92.803784
40
0.3237344
50
133.454115
51
162.9470031
0
ARC
8
DEFAULT_255_1_234
10
5.5242914
20
92.7848
40
0.349795
50
100.7869394
51
133.4384016
0
ARC
8
DEFAULT_255_1_234
10
5.5590686
20
92.6299319
40
0.5084616
50
89.6605301
51
101.3704185
0
ARC
8
DEFAULT_255_1_234
10
5.5657024
20
92.6360496
40
0.502348
50
78.2171172
51
90.4130393
0
ARC
8
DEFAULT_255_1_234
10
5.6012103
20
92.7984637
40
0.3361092
50
55.9268222
51
78.4888551
0
ARC
8
DEFAULT_255_1_234
10
5.6208543
20
92.8323324
40
0.2970617
50
47.9292255
51
55.4054003
0
ARC
8
DEFAULT_255_1_234
10
5.6310103
20
92.8426502
40
0.2825983
50
4.3347696
51
48.0560701
0
ARC
8
DEFAULT_255_1_234
10
5.5214497
20
92.8256601
40
0.393225
50
359.925209
51
5.5967654
0
ARC
8
DEFAULT_255_1_234
10
5.5643389
20
92.8312816
40
0.3503892
50
337.8914096
51
358.9967724
0
ARC
8
DEFAULT_255_1_234
10
5.2929801
20
92.9359706
40
0.6412172
50
326.9135351
51
338.3505194
0
ARC
8
DEFAULT_255_1_234
10
4.8944105
20
93.1914284
40
1.1146189
50
319.6472867
51
327.095818
0
ARC
8
DEFAULT_255_1_234
10
4.5111108
20
93.5076
40
1.6114559
50
317.2586784
51
319.9046139
0
LINE
8
DEFAULT_255_1_234
10
4.3007299
20
101.0598211
11
4.5826439
21
100.6116501
0
LINE
8
DEFAULT_255_1_234
10
4.5826439
20
100.6116501
11
4.8629516
21
101.0598211
0
LINE
8
DEFAULT_255_1_234
10
4.8629516
20
101.0598211
11
5.0444689
21
101.0598211
0
LINE
8
DEFAULT_255_1_234
10
5.0444689
20
101.0598211
11
4.6750089
21
100.4799296
0
LINE
8
DEFAULT_255_1_234
10
4.6750089
20
100.4799296
11
5.0533038
21
99.8904
0
LINE
8
DEFAULT_255_1_234
10
5.0533038
20
99.8904
11
4.8701802
21
99.8904
0
LINE
8
DEFAULT_255_1_234
10
4.8701802
20
99.8904
11
4.5826439
21
100.3466027
0
LINE
8
DEFAULT_255_1_234
10
4.5826439
20
100.3466027
11
4.2935014
21
99.8904
0
LINE
8
DEFAULT_255_1_234
10
4.2935014
20
99.8904
11
4.1111809
21
99.8904
0
LINE
8
DEFAULT_255_1_234
10
4.1111809
20
99.8904
11
4.490279
21
100.4799296
0
LINE
8
DEFAULT_255_1_234
10
4.490279
20
100.4799296
11
4.1200158
21
101.0598211
0
LINE
8
DEFAULT_255_1_234
10
4.1200158
20
101.0598211
11
4.3007299
21
101.0598211
0
LINE
8
DEFAULT_255_1_234
10
5.6821889
20
101.0654433
11
5.6821889
21
99.8904
0
LINE
8
DEFAULT_255_1_234
10
5.6821889
20
99.8904
11
5.5327986
21
99.8904
0
LINE
8
DEFAULT_255_1_234
10
5.5327986
20
99.8904
11
5.5327986
21
100.8807133
0
LINE
8
DEFAULT_255_1_234
10
5.5327986
20
100.8807133
11
5.2332147
21
100.7706785
0
LINE
8
DEFAULT_255_1_234
10
5.2332147
20
100.7706785
11
5.2332147
21
100.9056117
0
LINE
8
DEFAULT_255_1_234
10
5.2332147
20
100.9056117
11
5.6588969
21
101.0654433
0
LINE
8
DEFAULT_255_1_234
10
5.6588969
20
101.0654433
11
5.6821889
21
101.0654433
0
LINE
8
DEFAULT_255_1_234
10
4.3091299
20
108.9973211
11
4.5910439
21
108.5491501
0
LINE
8
DEFAULT_255_1_234
10
4.5910439
20
108.5491501
11
4.8713516
21
108.9973211
0
LINE
8
DEFAULT_255_1_234
10
4.8713516
20
108.9973211
11
5.0528689
21
108.9973211
0
LINE
8
DEFAULT_255_1_234
10
5.0528689
20
108.9973211
11
4.6834089
21
108.4174296
0
LINE
8
DEFAULT_255_1_234
10
4.6834089
20
108.4174296
11
5.0617038
21
107.8279
0
LINE
8
DEFAULT_255_1_234
10
5.0617038
20
107.8279
11
4.8785802
21
107.8279
0
LINE
8
DEFAULT_255_1_234
10
4.8785802
20
107.8279
11
4.5910439
21
108.2841027
0
LINE
8
DEFAULT_255_1_234
10
4.5910439
20
108.2841027
11
4.3019014
21
107.8279
0
LINE
8
DEFAULT_255_1_234
10
4.3019014
20
107.8279
11
4.1195809
21
107.8279
0
LINE
8
DEFAULT_255_1_234
10
4.1195809
20
107.8279
11
4.498679
21
108.4174296
0
LINE
8
DEFAULT_255_1_234
10
4.498679
20
108.4174296
11
4.1284158
21
108.9973211
0
LINE
8
DEFAULT_255_1_234
10
4.1284158
20
108.9973211
11
4.3091299
21
108.9973211
0
LINE
8
DEFAULT_255_1_234
10
5.9355569
20
108.5194327
11
5.9355569
21
108.3266709
0
LINE
8
DEFAULT_255_1_234
10
5.1974402
20
108.3065916
11
5.1974402
21
108.5049755
0
LINE
8
DEFAULT_255_1_234
10
5.7869698
20
108.2865123
11
5.7869698
21
108.5298739
0
LINE
8
DEFAULT_255_1_234
10
5.3460273
20
108.5411184
11
5.3460273
21
108.3033789
0
ARC
8
DEFAULT_255_1_234
10
4.7108459
20
108.3217805
40
1.2247208
50
353.8441951
51
0.2287902
0
ARC
8
DEFAULT_255_1_234
10
5.1747963
20
108.2699806
40
0.7578929
50
344.4934747
51
353.9765454
0
ARC
8
DEFAULT_255_1_234
10
5.4740553
20
108.1848981
40
0.4467846
50
329.2803592
51
344.7472793
0
ARC
8
DEFAULT_255_1_234
10
5.5733378
20
108.1304018
40
0.3336173
50
324.9352394
51
328.6160465
0
ARC
8
DEFAULT_255_1_234
10
5.6110486
20
108.1040427
40
0.2876076
50
280.580143
51
324.9173126
0
ARC
8
DEFAULT_255_1_234
10
5.5709279
20
108.2711099
40
0.4592847
50
269.5977311
51
281.6734359
0
ARC
8
DEFAULT_255_1_234
10
5.5637185
20
108.2591173
40
0.4472986
50
256.6228859
51
270.51044
0
ARC
8
DEFAULT_255_1_234
10
5.5235162
20
108.1042877
40
0.2873874
50
215.8618325
51
257.2788573
0
ARC
8
DEFAULT_255_1_234
10
5.6256194
20
108.1727977
40
0.4102928
50
197.9693508
51
215.2623606
0
ARC
8
DEFAULT_255_1_234
10
5.874131
20
108.2566709
40
0.6725652
50
187.8816417
51
198.2346507
0
ARC
8
DEFAULT_255_1_234
10
6.2699518
20
108.3138079
40
1.0724845
50
180.8976217
51
188.0055519
0
ARC
8
DEFAULT_255_1_234
10
6.5499706
20
108.3241777
40
1.3526448
50
180.7449369
51
181.1510016
0
ARC
8
DEFAULT_255_1_234
10
6.3922435
20
108.5098042
40
1.1948131
50
173.7675579
51
180.231553
0
ARC
8
DEFAULT_255_1_234
10
5.9404582
20
108.5608666
40
0.7401564
50
164.3058563
51
173.9002247
0
ARC
8
DEFAULT_255_1_234
10
5.649265
20
108.6447656
40
0.4371288
50
148.7922025
51
164.568378
0
ARC
8
DEFAULT_255_1_234
10
5.5541103
20
108.6978929
40
0.3282386
50
144.5883898
51
148.1176286
0
ARC
8
DEFAULT_255_1_234
10
5.5198001
20
108.7218315
40
0.2864044
50
101.6440918
51
144.514236
0
ARC
8
DEFAULT_255_1_234
10
5.5623067
20
108.5529069
40
0.4604934
50
89.5284041
51
102.5819763
0
ARC
8
DEFAULT_255_1_234
10
5.5702155
20
108.5490018
40
0.464401
50
77.0437873
51
90.5081339
0
ARC
8
DEFAULT_255_1_234
10
5.6104157
20
108.7132615
40
0.2953195
50
48.2778575
51
77.4994676
0
ARC
8
DEFAULT_255_1_234
10
5.6176788
20
108.7261746
40
0.2808655
50
36.3142134
51
47.6305865
0
ARC
8
DEFAULT_255_1_234
10
5.5308095
20
108.6676515
40
0.3855453
50
18.2931786
51
35.6769206
0
ARC
8
DEFAULT_255_1_234
10
5.2764854
20
108.5803593
40
0.654423
50
8.024666
51
18.5605216
0
ARC
8
DEFAULT_255_1_234
10
4.8601774
20
108.5188792
40
1.0752407
50
1.1274072
51
8.1718305
0
ARC
8
DEFAULT_255_1_234
10
4.5365964
20
108.5061885
40
1.3990231
50
0.5424119
51
1.3863029
0
ARC
8
DEFAULT_255_1_234
10
4.7187342
20
108.5334342
40
1.0682415
50
359.8090433
51
4.9407866
0
ARC
8
DEFAULT_255_1_234
10
5.1397356
20
108.5710113
40
0.6455691
50
4.8362157
51
12.2904523
0
ARC
8
DEFAULT_255_1_234
10
5.4152471
20
108.6323965
40
0.3633074
50
12.0805627
51
23.8173984
0
ARC
8
DEFAULT_255_1_234
10
5.5326176
20
108.6820919
40
0.2358723
50
24.2871213
51
31.3935614
0
ARC
8
DEFAULT_255_1_234
10
5.5850874
20
108.7164233
40
0.1732111
50
30.7407893
51
82.4657128
0
ARC
8
DEFAULT_255_1_234
10
5.5671008
20
108.6280691
40
0.263235
50
81.1060089
51
90.2184952
0
ARC
8
DEFAULT_255_1_234
10
5.5635307
20
108.6538924
40
0.2374236
50
89.3806855
51
105.6762551
0
ARC
8
DEFAULT_255_1_234
10
5.5451938
20
108.7205567
40
0.1682847
50
105.7981136
51
149.7388061
0
ARC
8
DEFAULT_255_1_234
10
5.6516016
20
108.656595
40
0.2924306
50
149.4208916
51
163.6286378
0
ARC
8
DEFAULT_255_1_234
10
5.8606904
20
108.592825
40
0.5110213
50
163.3763315
51
172.1410975
0
ARC
8
DEFAULT_255_1_234
10
6.1907623
20
108.5455518
40
0.8444586
50
172.0259487
51
178.0703232
0
ARC
8
DEFAULT_255_1_234
10
6.4937712
20
108.5311906
40
1.1477868
50
177.8631668
51
179.5044149
0
ARC
8
DEFAULT_255_1_234
10
6.3865117
20
108.2997389
40
1.0404907
50
179.7995573
51
185.2460446
0
ARC
8
DEFAULT_255_1_234
10
5.9822156
20
108.2614513
40
0.6343885
50
185.1411642
51
193.0079639
0
ARC
8
DEFAULT_255_1_234
10
5.7178629
20
108.1989641
40
0.3627568
50
192.7897626
51
205.2507664
0
ARC
8
DEFAULT_255_1_234
10
5.6132176
20
108.1522415
40
0.2481908
50
205.8005384
51
211.2537509
0
ARC
8
DEFAULT_255_1_234
10
5.5608616
20
108.117158
40
0.1852521
50
210.3789793
51
238.4008143
0
ARC
8
DEFAULT_255_1_234
10
5.5589138
20
108.1218376
40
0.1882621
50
239.6520629
51
265.9793761
0
ARC
8
DEFAULT_255_1_234
10
5.5674338
20
108.1890427
40
0.2559272
50
265.1315437
51
270.060332
0
ARC
8
DEFAULT_255_1_234
10
5.5703117
20
108.1566534
40
0.2235528
50
269.3314664
51
287.2178029
0
ARC
8
DEFAULT_255_1_234
10
5.5840969
20
108.1063279
40
0.1714108
50
287.7958004
51
329.080874
0
ARC
8
DEFAULT_255_1_234
10
5.4883426
20
108.166093
40
0.2842745
50
328.6634704
51
343.3325132
0
ARC
8
DEFAULT_255_1_234
10
5.2710446
20
108.2337863
40
0.5118644
50
343.0499468
51
351.9393422
0
ARC
8
DEFAULT_255_1_234
10
4.9243746
20
108.2848949
40
0.8622784
50
351.8069023
51
357.7959224
0
ARC
8
DEFAULT_255_1_234
10
4.6008302
20
108.3016721
40
1.1862365
50
357.5871873
51
359.2677531
0
LINE
8
DEFAULT_255_1_234
10
22.1798119
20
115.8866792
11
22.1798119
21
115.7654
0
LINE
8
DEFAULT_255_1_234
10
22.1798119
20
115.7654
11
21.413584
21
115.7654
0
LINE
8
DEFAULT_255_1_234
10
21.413584
20
115.7654
11
21.413584
21
115.8722221
0
LINE
8
DEFAULT_255_1_234
10
21.413584
20
115.8722221
11
21.8183836
21
116.3219995
0
LINE
8
DEFAULT_255_1_234
10
21.5396823
20
116.5902595
11
21.3910952
21
116.5902595
0
LINE
8
DEFAULT_255_1_234
10
21.9059296
20
116.2264218
11
21.5926918
21
115.8866792
0
LINE
8
DEFAULT_255_1_234
10
21.5926918
20
115.8866792
11
22.1798119
21
115.8866792
0
ARC
8
DEFAULT_255_1_234
10
20.469367
20
117.5149527
40
1.8008286
50
318.5132453
51
320.7828378
0
ARC
8
DEFAULT_255_1_234
10
20.9980644
20
117.0846426
40
1.1191493
50
320.7372736
51
323.9737074
0
ARC
8
DEFAULT_255_1_234
10
21.3900501
20
116.8006361
40
0.6350923
50
323.8961724
51
328.6421089
0
ARC
8
DEFAULT_255_1_234
10
21.5947096
20
116.6744031
40
0.3946393
50
328.8299013
51
331.789948
0
ARC
8
DEFAULT_255_1_234
10
21.6944274
20
116.6229509
40
0.2824501
50
331.4255242
51
352.9364833
0
ARC
8
DEFAULT_255_1_234
10
21.7080775
20
116.6198976
40
0.2685315
50
353.2248685
51
0.0169286
0
ARC
8
DEFAULT_255_1_234
10
21.7290652
20
116.622195
40
0.2475536
50
359.4866256
51
15.9339782
0
ARC
8
DEFAULT_255_1_234
10
21.7797637
20
116.6358286
40
0.1950618
50
16.1714718
51
43.5284424
0
ARC
8
DEFAULT_255_1_234
10
21.7874946
20
116.6435573
40
0.184134
50
43.4415429
51
83.1661404
0
ARC
8
DEFAULT_255_1_234
10
21.7740864
20
116.5698771
40
0.258926
50
82.160215
51
90.1505798
0
ARC
8
DEFAULT_255_1_234
10
21.7709291
20
116.5161865
40
0.3126255
50
89.5460705
51
102.5418777
0
ARC
8
DEFAULT_255_1_234
10
21.7466377
20
116.6192665
40
0.2067346
50
102.1739365
51
129.2061916
0
ARC
8
DEFAULT_255_1_234
10
21.7387449
20
116.6317094
40
0.1921118
50
129.7279328
51
135.7542026
0
ARC
8
DEFAULT_255_1_234
10
21.7508977
20
116.6220045
40
0.2075944
50
136.175737
51
166.3674722
0
ARC
8
DEFAULT_255_1_234
10
21.8515896
20
116.5950182
40
0.3118201
50
165.9092917
51
178.8683903
0
ARC
8
DEFAULT_255_1_234
10
21.9380757
20
116.5903179
40
0.3983935
50
178.438168
51
180.0083905
0
ARC
8
DEFAULT_255_1_234
10
21.7979359
20
116.5942231
40
0.4068601
50
163.2878735
51
180.5581814
0
ARC
8
DEFAULT_255_1_234
10
21.7177621
20
116.616284
40
0.3237344
50
133.454115
51
162.9470031
0
ARC
8
DEFAULT_255_1_234
10
21.7356162
20
116.5973
40
0.349795
50
100.7869394
51
133.4384016
0
ARC
8
DEFAULT_255_1_234
10
21.7703934
20
116.4424319
40
0.5084616
50
89.6605301
51
101.3704185
0
ARC
8
DEFAULT_255_1_234
10
21.7770273
20
116.4485496
40
0.502348
50
78.2171172
51
90.4130393
0
ARC
8
DEFAULT_255_1_234
10
21.8125351
20
116.6109637
40
0.3361092
50
55.9268222
51
78.4888551
0
ARC
8
DEFAULT_255_1_234
10
21.8321791
20
116.6448324
40
0.2970617
50
47.9292255
51
55.4054003
0
ARC
8
DEFAULT_255_1_234
10
21.8423352
20
116.6551502
40
0.2825983
50
4.3347696
51
48.0560701
0
ARC
8
DEFAULT_255_1_234
10
21.7327745
20
116.6381601
40
0.393225
50
359.925209
51
5.5967654
0
ARC
8
DEFAULT_255_1_234
10
21.7756637
20
116.6437816
40
0.3503892
50
337.8914096
51
358.9967724
0
ARC
8
DEFAULT_255_1_234
10
21.5043049
20
116.7484706
40
0.6412172
50
326.9135351
51
338.3505194
0
ARC
8
DEFAULT_255_1_234
10
21.1057353
20
117.0039284
40
1.1146189
50
319.6472867
51
327.095818
0
ARC
8
DEFAULT_255_1_234
10
20.7224356
20
117.3201
40
1.6114559
50
317.2586784
51
319.9046139
0
LINE
8
DEFAULT_255_1_234
10
22.9645127
20
116.9348211
11
22.9645127
21
116.158152
0
LINE
8
DEFAULT_255_1_234
10
22.9645127
20
116.158152
11
23.1267538
21
116.158152
0
LINE
8
DEFAULT_255_1_234
10
23.1267538
20
116.158152
11
23.1267538
21
116.0368728
0
LINE
8
DEFAULT_255_1_234
10
23.1267538
20
116.0368728
11
22.9645127
21
116.0368728
0
LINE
8
DEFAULT_255_1_234
10
22.9645127
20
116.0368728
11
22.9645127
21
115.7654
0
LINE
8
DEFAULT_255_1_234
10
22.9645127
20
115.7654
11
22.8151224
21
115.7654
0
LINE
8
DEFAULT_255_1_234
10
22.8151224
20
115.7654
11
22.8151224
21
116.0368728
0
LINE
8
DEFAULT_255_1_234
10
22.8151224
20
116.0368728
11
22.2826181
21
116.0368728
0
LINE
8
DEFAULT_255_1_234
10
22.2826181
20
116.0368728
11
22.2826181
21
116.1244187
0
LINE
8
DEFAULT_255_1_234
10
22.2826181
20
116.1244187
11
22.8062875
21
116.9348211
0
LINE
8
DEFAULT_255_1_234
10
22.8062875
20
116.9348211
11
22.9645127
21
116.9348211
0
LINE
8
DEFAULT_255_1_234
10
22.7974525
20
116.6994912
11
22.4512846
21
116.158152
0
LINE
8
DEFAULT_255_1_234
10
22.4512846
20
116.158152
11
22.8151224
21
116.158152
0
LINE
8
DEFAULT_255_1_234
10
22.8151224
20
116.158152
11
22.8151224
21
116.7316181
0
LINE
8
DEFAULT_255_1_234
10
22.8151224
20
116.7316181
11
22.7974525
21
116.6994912
0
LINE
8
DEFAULT_255_1_234
10
24.162848
20
116.347701
11
24.162848
21
115.9188062
0
LINE
8
DEFAULT_255_1_234
10
23.261687
20
116.2938884
11
23.261687
21
116.3958915
0
LINE
8
DEFAULT_255_1_234
10
24.162848
20
116.5918659
11
24.0086387
21
116.5918659
0
LINE
8
DEFAULT_255_1_234
10
23.4166996
20
116.3999073
11
23.4166996
21
116.3043296
0
LINE
8
DEFAULT_255_1_234
10
24.0094418
20
115.9597681
11
24.0094418
21
116.2224059
0
LINE
8
DEFAULT_255_1_234
10
24.0094418
20
116.2224059
11
23.7387723
21
116.2224059
0
LINE
8
DEFAULT_255_1_234
10
23.7387723
20
116.2224059
11
23.7387723
21
116.347701
0
LINE
8
DEFAULT_255_1_234
10
23.7387723
20
116.347701
11
24.162848
21
116.347701
0
ARC
8
DEFAULT_255_1_234
10
23.8796987
20
116.1181396
40
0.3462765
50
295.8437914
51
324.8549609
0
ARC
8
DEFAULT_255_1_234
10
23.8380954
20
116.1934567
40
0.4322211
50
291.5695085
51
296.4549398
0
ARC
8
DEFAULT_255_1_234
10
23.7870205
20
116.3299275
40
0.5779178
50
278.6622409
51
291.3045483
0
ARC
8
DEFAULT_255_1_234
10
23.7530697
20
116.5447408
40
0.7953952
50
270.020006
51
278.7494541
0
ARC
8
DEFAULT_255_1_234
10
23.7492621
20
116.6764036
40
0.927067
50
269.9969998
51
270.2524872
0
ARC
8
DEFAULT_255_1_234
10
23.7454334
20
116.2680589
40
0.5187361
50
253.5786322
51
270.4175299
0
ARC
8
DEFAULT_255_1_234
10
23.728099
20
116.2009236
40
0.4494451
50
238.8203306
51
253.2788235
0
ARC
8
DEFAULT_255_1_234
10
23.7261363
20
116.1958231
40
0.4440665
50
206.7883783
51
238.6962764
0
ARC
8
DEFAULT_255_1_234
10
23.8035273
20
116.2422405
40
0.5341121
50
206.1129412
51
207.4916643
0
ARC
8
DEFAULT_255_1_234
10
23.8632188
20
116.2676488
40
0.5989041
50
188.6921119
51
205.7821245
0
ARC
8
DEFAULT_255_1_234
10
24.048855
20
116.299223
40
0.7871862
50
180.3882829
51
188.9219216
0
ARC
8
DEFAULT_255_1_234
10
24.1716364
20
116.4015464
40
0.909967
50
170.2024264
51
180.3560651
0
ARC
8
DEFAULT_255_1_234
10
23.8552882
20
116.4581237
40
0.5886083
50
154.2857445
51
170.3893044
0
ARC
8
DEFAULT_255_1_234
10
23.7271085
20
116.516795
40
0.4476743
50
139.8401567
51
153.9332699
0
ARC
8
DEFAULT_255_1_234
10
23.6911821
20
116.5455577
40
0.4016697
50
98.4190291
51
139.6707122
0
ARC
8
DEFAULT_255_1_234
10
23.7291339
20
116.3610328
40
0.5898566
50
89.7659205
51
99.4415478
0
ARC
8
DEFAULT_255_1_234
10
23.7356588
20
116.3675844
40
0.5833147
50
78.0551672
51
90.4042112
0
ARC
8
DEFAULT_255_1_234
10
23.7761098
20
116.5494644
40
0.3970055
50
54.6380464
51
78.3339173
0
ARC
8
DEFAULT_255_1_234
10
23.7951154
20
116.5814795
40
0.3599102
50
50.031736
51
54.1558201
0
ARC
8
DEFAULT_255_1_234
10
23.7843942
20
116.5718766
40
0.3741624
50
18.1092409
51
49.7180913
0
ARC
8
DEFAULT_255_1_234
10
23.6387142
20
116.5185089
40
0.5292424
50
7.9672797
51
18.6984571
0
ARC
8
DEFAULT_255_1_234
10
23.653762
20
116.5308504
40
0.3600838
50
9.7557294
51
27.3215714
0
ARC
8
DEFAULT_255_1_234
10
23.7665092
20
116.5871912
40
0.2340608
50
27.7361077
51
84.5257964
0
ARC
8
DEFAULT_255_1_234
10
23.7337479
20
116.422864
40
0.4011215
50
82.106034
51
90.2001166
0
ARC
8
DEFAULT_255_1_234
10
23.7287696
20
116.4736215
40
0.3503799
50
89.4150119
51
105.5823402
0
ARC
8
DEFAULT_255_1_234
10
23.7030694
20
116.5671867
40
0.2533503
50
105.6678618
51
144.2648758
0
ARC
8
DEFAULT_255_1_234
10
23.7923949
20
116.5036289
40
0.3629787
50
144.3561283
51
162.8564086
0
ARC
8
DEFAULT_255_1_234
10
24.0007858
20
116.4367017
40
0.5818441
50
162.6076014
51
173.6780284
0
ARC
8
DEFAULT_255_1_234
10
24.3069002
20
116.399489
40
0.8902007
50
173.4670142
51
179.9730753
0
ARC
8
DEFAULT_255_1_234
10
24.1160673
20
116.300126
40
0.6993804
50
179.6556203
51
190.0080463
0
ARC
8
DEFAULT_255_1_234
10
23.8844502
20
116.2576375
40
0.4639066
50
189.8116607
51
206.6796816
0
ARC
8
DEFAULT_255_1_234
10
23.7999654
20
116.2182503
40
0.3707421
50
207.1031645
51
217.7074368
0
ARC
8
DEFAULT_255_1_234
10
23.7365343
20
116.1630559
40
0.2868417
50
216.7345547
51
265.6812148
0
ARC
8
DEFAULT_255_1_234
10
23.7496134
20
116.2534855
40
0.3780509
50
264.7366618
51
270.0611241
0
ARC
8
DEFAULT_255_1_234
10
23.7519397
20
116.5375111
40
0.662079
50
269.8335834
51
276.0539546
0
ARC
8
DEFAULT_255_1_234
10
23.7726402
20
116.347356
40
0.4708016
50
275.9894168
51
284.4615085
0
ARC
8
DEFAULT_255_1_234
10
23.7924409
20
116.2640663
40
0.3852094
50
284.7034461
51
286.4953897
0
ARC
8
DEFAULT_255_1_234
10
23.8331422
20
116.1329965
40
0.2479842
50
286.0770838
51
304.2625829
0
ARC
8
DEFAULT_255_1_234
10
23.8464836
20
116.1111594
40
0.2224291
50
304.5891602
51
317.1073298
0
LINE
8
DEFAULT_255_1_234
10
20.353623
20
12.9489663
11
20.5086355
21
12.9489663
0
LINE
8
DEFAULT_255_1_234
10
19.6082777
20
13.1079947
11
19.6082777
21
13.2204391
0
LINE
8
DEFAULT_255_1_234
10
20.5086355
20
13.3714357
11
20.353623
21
13.3714357
0
LINE
8
DEFAULT_255_1_234
10
19.7632902
20
13.2164232
11
19.7632902
21
13.1031757
0
ARC
8
DEFAULT_255_1_234
10
19.9605742
20
13.0086846
40
0.5513052
50
340.1774281
51
353.7814284
0
ARC
8
DEFAULT_255_1_234
10
20.1177095
20
12.9501582
40
0.3836379
50
311.4558989
51
340.4421614
0
ARC
8
DEFAULT_255_1_234
10
20.1143763
20
12.9612528
40
0.3941894
50
282.4333181
51
310.7513653
0
ARC
8
DEFAULT_255_1_234
10
20.0704502
20
13.1427679
40
0.5809175
50
269.9358511
51
282.809604
0
ARC
8
DEFAULT_255_1_234
10
20.0652568
20
13.2885212
40
0.7266847
50
270.0021091
51
270.3581957
0
ARC
8
DEFAULT_255_1_234
10
20.0599985
20
13.0284585
40
0.4666519
50
250.7884749
51
270.6489167
0
ARC
8
DEFAULT_255_1_234
10
20.043182
20
12.9647319
40
0.4009729
50
219.3627325
51
250.0611886
0
ARC
8
DEFAULT_255_1_234
10
20.1261031
20
13.0352042
40
0.5097822
50
193.5479632
51
219.5756669
0
ARC
8
DEFAULT_255_1_234
10
20.3632652
20
13.0967919
40
0.7547848
50
181.1218675
51
193.87563
0
ARC
8
DEFAULT_255_1_234
10
20.5702833
20
13.107858
40
0.9620055
50
179.9918545
51
181.5394234
0
ARC
8
DEFAULT_255_1_234
10
20.3851935
20
13.2241788
40
0.7769248
50
169.5837241
51
180.2757934
0
ARC
8
DEFAULT_255_1_234
10
20.2014873
20
13.2581229
40
0.590109
50
155.0365899
51
169.6003176
0
ARC
8
DEFAULT_255_1_234
10
20.0879337
20
13.3128677
40
0.4640625
50
136.783148
51
155.2472683
0
ARC
8
DEFAULT_255_1_234
10
20.0489814
20
13.3459562
40
0.4130255
50
121.7633186
51
136.428115
0
ARC
8
DEFAULT_255_1_234
10
20.0624776
20
13.3210227
40
0.4413323
50
95.6459699
51
121.5490577
0
ARC
8
DEFAULT_255_1_234
10
20.0782058
20
13.2101949
40
0.55319
50
89.924208
51
96.1377933
0
ARC
8
DEFAULT_255_1_234
10
20.0832491
20
13.2220542
40
0.5413475
50
76.6779277
51
90.4563316
0
ARC
8
DEFAULT_255_1_234
10
20.1226114
20
13.3811114
40
0.3775041
50
47.485847
51
76.9287264
0
ARC
8
DEFAULT_255_1_234
10
20.1079087
20
13.3711159
40
0.3948286
50
16.5424086
51
46.8933463
0
ARC
8
DEFAULT_255_1_234
10
19.9471244
20
13.3182861
40
0.564021
50
5.4072051
51
17.0365086
0
ARC
8
DEFAULT_255_1_234
10
19.8032261
20
13.2951679
40
0.5556559
50
7.8891745
51
15.9239216
0
ARC
8
DEFAULT_255_1_234
10
20.0019274
20
13.3528631
40
0.3487515
50
15.7653144
51
27.9410532
0
ARC
8
DEFAULT_255_1_234
10
20.1123492
20
13.411979
40
0.2235026
50
27.8166557
51
46.4008329
0
ARC
8
DEFAULT_255_1_234
10
20.1173135
20
13.4114082
40
0.2205286
50
47.4371857
51
75.0698205
0
ARC
8
DEFAULT_255_1_234
10
20.0864529
20
13.3039765
40
0.3322915
50
74.7008593
51
87.8124495
0
ARC
8
DEFAULT_255_1_234
10
20.0791217
20
13.1983844
40
0.4380987
50
87.3814673
51
90.0240855
0
ARC
8
DEFAULT_255_1_234
10
20.075276
20
13.3161291
40
0.3203749
50
89.3451631
51
108.5745436
0
ARC
8
DEFAULT_255_1_234
10
20.0615865
20
13.3674908
40
0.2673494
50
109.2998449
51
143.3037509
0
ARC
8
DEFAULT_255_1_234
10
20.1377938
20
13.3088881
40
0.3634757
50
143.0753173
51
163.1916937
0
ARC
8
DEFAULT_255_1_234
10
20.3329666
20
13.2472967
40
0.5681262
50
162.9373603
51
174.6208611
0
ARC
8
DEFAULT_255_1_234
10
20.5955708
20
13.218501
40
0.8322832
50
174.3419979
51
180.1430411
0
ARC
8
DEFAULT_255_1_234
10
20.5024864
20
13.0990698
40
0.7392076
50
179.6817502
51
189.150529
0
ARC
8
DEFAULT_255_1_234
10
20.2524112
20
13.057419
40
0.4856932
50
188.9910863
51
203.5773039
0
ARC
8
DEFAULT_255_1_234
10
20.1444445
20
13.0126211
40
0.3688271
50
203.9077269
51
215.1312379
0
ARC
8
DEFAULT_255_1_234
10
20.0521539
20
12.9410941
40
0.2522457
50
213.9071664
51
263.8849284
0
ARC
8
DEFAULT_255_1_234
10
20.0646868
20
13.0195518
40
0.3316174
50
263.1758525
51
270.1031083
0
ARC
8
DEFAULT_255_1_234
10
20.067896
20
13.1442365
40
0.4563091
50
269.6719807
51
279.0609165
0
ARC
8
DEFAULT_255_1_234
10
20.0945728
20
12.9829907
40
0.2928759
50
278.8750225
51
293.6346586
0
ARC
8
DEFAULT_255_1_234
10
20.1265936
20
12.90779
40
0.2111472
50
293.8553404
51
310.0518804
0
ARC
8
DEFAULT_255_1_234
10
20.127079
20
12.9015516
40
0.2060917
50
311.0646779
51
332.0108348
0
ARC
8
DEFAULT_255_1_234
10
20.0078517
20
12.9672978
40
0.3422352
50
331.6588543
51
343.2878891
0
ARC
8
DEFAULT_255_1_234
10
19.8016032
20
13.0306798
40
0.5580003
50
343.1446044
51
351.010618
0
ARC
8
DEFAULT_255_1_234
10
19.6474678
20
13.0587871
40
0.7146438
50
350.7157277
51
351.1602153
0
LINE
8
DEFAULT_255_1_234
10
21.6186218
20
13.1987534
11
21.6186218
21
13.1248614
0
LINE
8
DEFAULT_255_1_234
10
20.6781052
20
13.1144201
11
20.6781052
21
13.1987534
0
LINE
8
DEFAULT_255_1_234
10
21.4652156
20
13.1136169
11
21.4652156
21
13.2003597
0
LINE
8
DEFAULT_255_1_234
10
20.8315114
20
13.210801
11
20.8315114
21
13.1248614
0
ARC
8
DEFAULT_255_1_234
10
20.7544244
20
13.1209015
40
0.8642064
50
350.487711
51
0.2625388
0
ARC
8
DEFAULT_255_1_234
10
20.9837486
20
13.0814578
40
0.631518
50
336.0277639
51
350.5787438
0
ARC
8
DEFAULT_255_1_234
10
21.1182309
20
13.0206892
40
0.4839466
50
319.8877444
51
336.1328423
0
ARC
8
DEFAULT_255_1_234
10
21.178495
20
12.972458
40
0.4067874
50
302.4806467
51
319.6143626
0
ARC
8
DEFAULT_255_1_234
10
21.166996
20
12.9946202
40
0.4316636
50
275.8195682
51
302.1884709
0
ARC
8
DEFAULT_255_1_234
10
21.1503593
20
13.1088665
40
0.5470306
50
269.9171439
51
276.3397983
0
ARC
8
DEFAULT_255_1_234
10
21.1458803
20
13.0402681
40
0.4784458
50
252.5219675
51
270.4416499
0
ARC
8
DEFAULT_255_1_234
10
21.1315062
20
12.9863592
40
0.422716
50
237.5352116
51
252.1857531
0
ARC
8
DEFAULT_255_1_234
10
21.1404258
20
12.9977363
40
0.4371052
50
209.063312
51
237.3492538
0
ARC
8
DEFAULT_255_1_234
10
21.2274106
20
13.0523685
40
0.5397041
50
205.1183774
51
209.6470015
0
ARC
8
DEFAULT_255_1_234
10
21.3071143
20
13.086183
40
0.6262326
50
188.7215458
51
204.8240747
0
ARC
8
DEFAULT_255_1_234
10
21.5068671
20
13.1198067
40
0.8287794
50
180.3723947
51
188.9252049
0
ARC
8
DEFAULT_255_1_234
10
21.5041423
20
13.2027402
40
0.8260467
50
169.5253763
51
180.2765336
0
ARC
8
DEFAULT_255_1_234
10
21.3138871
20
13.2377309
40
0.6326007
50
155.8315255
51
169.5089989
0
ARC
8
DEFAULT_255_1_234
10
21.1858373
20
13.2971348
40
0.4914567
50
139.6258461
51
156.0379525
0
ARC
8
DEFAULT_255_1_234
10
21.1268706
20
13.3445799
40
0.4158054
50
122.6416387
51
139.3430715
0
ARC
8
DEFAULT_255_1_234
10
21.1369326
20
13.3262451
40
0.4366739
50
93.0223692
51
122.455762
0
ARC
8
DEFAULT_255_1_234
10
21.1477323
20
13.2297709
40
0.5336137
50
89.975342
51
93.6341897
0
ARC
8
DEFAULT_255_1_234
10
21.1516102
20
13.2696242
40
0.4937738
50
73.746375
51
90.4233405
0
ARC
8
DEFAULT_255_1_234
10
21.1691681
20
13.3376287
40
0.4235786
50
57.662753
51
73.4518111
0
ARC
8
DEFAULT_255_1_234
10
21.1683687
20
13.3397832
40
0.4221899
50
29.1440151
51
57.414694
0
ARC
8
DEFAULT_255_1_234
10
21.0748882
20
13.2814005
40
0.5322966
50
24.0982783
51
29.7323517
0
ARC
8
DEFAULT_255_1_234
10
20.9715157
20
13.2385399
40
0.6441673
50
8.6655297
51
23.8241346
0
ARC
8
DEFAULT_255_1_234
10
20.7480895
20
13.2020854
40
0.8705386
50
359.7806941
51
8.8218784
0
ARC
8
DEFAULT_255_1_234
10
20.6333893
20
13.2046345
40
0.8318373
50
359.7055579
51
8.036044
0
ARC
8
DEFAULT_255_1_234
10
20.9333899
20
13.2483239
40
0.5286768
50
7.8928306
51
20.2962107
0
ARC
8
DEFAULT_255_1_234
10
21.096147
20
13.3083395
40
0.3552073
50
20.3231126
51
36.4992797
0
ARC
8
DEFAULT_255_1_234
10
21.1647016
20
13.3611402
40
0.2686974
50
36.1437156
51
85.6627023
0
ARC
8
DEFAULT_255_1_234
10
21.1484562
20
13.2571221
40
0.373739
50
84.3852322
51
90.0757696
0
ARC
8
DEFAULT_255_1_234
10
21.1442234
20
13.3231839
40
0.3076997
50
89.3038458
51
109.9045693
0
ARC
8
DEFAULT_255_1_234
10
21.1349625
20
13.3614062
40
0.2686424
50
110.8228367
51
143.9179474
0
ARC
8
DEFAULT_255_1_234
10
21.2283285
20
13.2901236
40
0.3860887
50
143.5289163
51
163.2980757
0
ARC
8
DEFAULT_255_1_234
10
21.4191106
20
13.2301433
40
0.5860659
50
163.0418846
51
174.3140048
0
ARC
8
DEFAULT_255_1_234
10
21.6595218
20
13.2023854
40
0.8280531
50
174.0509143
51
179.4176892
0
ARC
8
DEFAULT_255_1_234
10
21.6090957
20
13.1206954
40
0.7775954
50
179.6930361
51
188.7906598
0
ARC
8
DEFAULT_255_1_234
10
21.3427436
20
13.0780935
40
0.5078633
50
188.6331305
51
202.5629587
0
ARC
8
DEFAULT_255_1_234
10
21.2173028
20
13.0276996
40
0.3726913
50
202.8081362
51
216.1193925
0
ARC
8
DEFAULT_255_1_234
10
21.1363598
20
12.9625676
40
0.2689577
50
215.0755913
51
264.6379694
0
ARC
8
DEFAULT_255_1_234
10
21.1490548
20
13.0456513
40
0.3528978
50
263.846392
51
270.0833719
0
ARC
8
DEFAULT_255_1_234
10
21.1531938
20
13.0198374
40
0.3271036
50
269.3649385
51
287.5152008
0
ARC
8
DEFAULT_255_1_234
10
21.1710096
20
12.9551238
40
0.2600406
50
288.0630309
51
323.8113348
0
ARC
8
DEFAULT_255_1_234
10
21.0838937
20
13.0201049
40
0.3687189
50
323.6547608
51
342.6590488
0
ARC
8
DEFAULT_255_1_234
10
20.8807552
20
13.0861952
40
0.5823286
50
342.4091907
51
353.6451149
0
ARC
8
DEFAULT_255_1_234
10
20.5976063
20
13.121419
40
0.8676442
50
353.4029884
51
359.4847795
0
LINE
8
DEFAULT_255_1_234
10
21.8499358
20
13.7473211
11
22.0491229
21
13.7473211
0
LINE
8
DEFAULT_255_1_234
10
22.0491229
20
13.7473211
11
22.4314337
21
12.7931506
0
LINE
8
DEFAULT_255_1_234
10
22.4314337
20
12.7931506
11
22.8137444
21
13.7473211
0
LINE
8
DEFAULT_255_1_234
10
22.8137444
20
13.7473211
11
23.0137347
21
13.7473211
0
LINE
8
DEFAULT_255_1_234
10
23.0137347
20
13.7473211
11
23.0137347
21
12.5779
0
LINE
8
DEFAULT_255_1_234
10
23.0137347
20
12.5779
11
22.8595253
21
12.5779
0
LINE
8
DEFAULT_255_1_234
10
22.8595253
20
12.5779
11
22.8595253
21
13.0332996
0
LINE
8
DEFAULT_255_1_234
10
22.8595253
20
13.0332996
11
22.8739825
21
13.5248419
0
LINE
8
DEFAULT_255_1_234
10
22.8739825
20
13.5248419
11
22.4900654
21
12.5779
0
LINE
8
DEFAULT_255_1_234
10
22.4900654
20
12.5779
11
22.3719988
21
12.5779
0
LINE
8
DEFAULT_255_1_234
10
22.3719988
20
12.5779
11
21.9888849
21
13.5224324
0
LINE
8
DEFAULT_255_1_234
10
21.9888849
20
13.5224324
11
22.0041452
21
13.0332996
0
LINE
8
DEFAULT_255_1_234
10
22.0041452
20
13.0332996
11
22.0041452
21
12.5779
0
LINE
8
DEFAULT_255_1_234
10
22.0041452
20
12.5779
11
21.8499358
21
12.5779
0
LINE
8
DEFAULT_255_1_234
10
21.8499358
20
12.5779
11
21.8499358
21
13.7473211
0
LINE
8
DEFAULT_255_1_234
10
23.8747371
20
13.7473211
11
23.8747371
21
12.970652
0
LINE
8
DEFAULT_255_1_234
10
23.8747371
20
12.970652
11
24.0369782
21
12.970652
0
LINE
8
DEFAULT_255_1_234
10
24.0369782
20
12.970652
11
24.0369782
21
12.8493728
0
LINE
8
DEFAULT_255_1_234
10
24.0369782
20
12.8493728
11
23.8747371
21
12.8493728
0
LINE
8
DEFAULT_255_1_234
10
23.8747371
20
12.8493728
11
23.8747371
21
12.5779
0
LINE
8
DEFAULT_255_1_234
10
23.8747371
20
12.5779
11
23.7253467
21
12.5779
0
LINE
8
DEFAULT_255_1_234
10
23.7253467
20
12.5779
11
23.7253467
21
12.8493728
0
LINE
8
DEFAULT_255_1_234
10
23.7253467
20
12.8493728
11
23.1928425
21
12.8493728
0
LINE
8
DEFAULT_255_1_234
10
23.1928425
20
12.8493728
11
23.1928425
21
12.9369187
0
LINE
8
DEFAULT_255_1_234
10
23.1928425
20
12.9369187
11
23.7165118
21
13.7473211
0
LINE
8
DEFAULT_255_1_234
10
23.7165118
20
13.7473211
11
23.8747371
21
13.7473211
0
LINE
8
DEFAULT_255_1_234
10
23.7076769
20
13.5119912
11
23.361509
21
12.970652
0
LINE
8
DEFAULT_255_1_234
10
23.361509
20
12.970652
11
23.7253467
21
12.970652
0
LINE
8
DEFAULT_255_1_234
10
23.7253467
20
12.970652
11
23.7253467
21
13.5441181
0
LINE
8
DEFAULT_255_1_234
10
23.7253467
20
13.5441181
11
23.7076769
21
13.5119912
0
LINE
8
DEFAULT_255_1_234
10
20.459423
20
20.8864663
11
20.6144355
21
20.8864663
0
LINE
8
DEFAULT_255_1_234
10
19.7140777
20
21.0454947
11
19.7140777
21
21.1579391
0
LINE
8
DEFAULT_255_1_234
10
20.6144355
20
21.3089357
11
20.459423
21
21.3089357
0
LINE
8
DEFAULT_255_1_234
10
19.8690902
20
21.1539232
11
19.8690902
21
21.0406757
0
ARC
8
DEFAULT_255_1_234
10
20.0663742
20
20.9461846
40
0.5513052
50
340.1774281
51
353.7814284
0
ARC
8
DEFAULT_255_1_234
10
20.2235095
20
20.8876582
40
0.3836379
50
311.4558989
51
340.4421614
0
ARC
8
DEFAULT_255_1_234
10
20.2201763
20
20.8987528
40
0.3941894
50
282.4333181
51
310.7513653
0
ARC
8
DEFAULT_255_1_234
10
20.1762502
20
21.0802679
40
0.5809175
50
269.9358511
51
282.809604
0
ARC
8
DEFAULT_255_1_234
10
20.1710568
20
21.2260212
40
0.7266847
50
270.0021091
51
270.3581957
0
ARC
8
DEFAULT_255_1_234
10
20.1657985
20
20.9659585
40
0.4666519
50
250.7884749
51
270.6489167
0
ARC
8
DEFAULT_255_1_234
10
20.148982
20
20.9022319
40
0.4009729
50
219.3627325
51
250.0611886
0
ARC
8
DEFAULT_255_1_234
10
20.2319031
20
20.9727042
40
0.5097822
50
193.5479632
51
219.5756669
0
ARC
8
DEFAULT_255_1_234
10
20.4690652
20
21.0342919
40
0.7547848
50
181.1218675
51
193.87563
0
ARC
8
DEFAULT_255_1_234
10
20.6760833
20
21.045358
40
0.9620055
50
179.9918545
51
181.5394234
0
ARC
8
DEFAULT_255_1_234
10
20.4909935
20
21.1616788
40
0.7769248
50
169.5837241
51
180.2757934
0
ARC
8
DEFAULT_255_1_234
10
20.3072873
20
21.1956229
40
0.590109
50
155.0365899
51
169.6003176
0
ARC
8
DEFAULT_255_1_234
10
20.1937337
20
21.2503677
40
0.4640625
50
136.783148
51
155.2472683
0
ARC
8
DEFAULT_255_1_234
10
20.1547814
20
21.2834562
40
0.4130255
50
121.7633186
51
136.428115
0
ARC
8
DEFAULT_255_1_234
10
20.1682776
20
21.2585227
40
0.4413323
50
95.6459699
51
121.5490577
0
ARC
8
DEFAULT_255_1_234
10
20.1840058
20
21.1476949
40
0.55319
50
89.924208
51
96.1377933
0
ARC
8
DEFAULT_255_1_234
10
20.1890491
20
21.1595542
40
0.5413475
50
76.6779277
51
90.4563316
0
ARC
8
DEFAULT_255_1_234
10
20.2284114
20
21.3186114
40
0.3775041
50
47.485847
51
76.9287264
0
ARC
8
DEFAULT_255_1_234
10
20.2137087
20
21.3086159
40
0.3948286
50
16.5424086
51
46.8933463
0
ARC
8
DEFAULT_255_1_234
10
20.0529244
20
21.2557861
40
0.564021
50
5.4072051
51
17.0365086
0
ARC
8
DEFAULT_255_1_234
10
19.9090261
20
21.2326679
40
0.5556559
50
7.8891745
51
15.9239216
0
ARC
8
DEFAULT_255_1_234
10
20.1077274
20
21.2903631
40
0.3487515
50
15.7653144
51
27.9410532
0
ARC
8
DEFAULT_255_1_234
10
20.2181492
20
21.349479
40
0.2235026
50
27.8166557
51
46.4008329
0
ARC
8
DEFAULT_255_1_234
10
20.2231135
20
21.3489082
40
0.2205286
50
47.4371857
51
75.0698205
0
ARC
8
DEFAULT_255_1_234
10
20.1922529
20
21.2414765
40
0.3322915
50
74.7008593
51
87.8124495
0
ARC
8
DEFAULT_255_1_234
10
20.1849217
20
21.1358844
40
0.4380987
50
87.3814673
51
90.0240855
0
ARC
8
DEFAULT_255_1_234
10
20.181076
20
21.2536291
40
0.3203749
50
89.3451631
51
108.5745436
0
ARC
8
DEFAULT_255_1_234
10
20.1673865
20
21.3049908
40
0.2673494
50
109.2998449
51
143.3037509
0
ARC
8
DEFAULT_255_1_234
10
20.2435938
20
21.2463881
40
0.3634757
50
143.0753173
51
163.1916937
0
ARC
8
DEFAULT_255_1_234
10
20.4387666
20
21.1847967
40
0.5681262
50
162.9373603
51
174.6208611
0
ARC
8
DEFAULT_255_1_234
10
20.7013708
20
21.156001
40
0.8322832
50
174.3419979
51
180.1430411
0
ARC
8
DEFAULT_255_1_234
10
20.6082864
20
21.0365698
40
0.7392076
50
179.6817502
51
189.150529
0
ARC
8
DEFAULT_255_1_234
10
20.3582112
20
20.994919
40
0.4856932
50
188.9910863
51
203.5773039
0
ARC
8
DEFAULT_255_1_234
10
20.2502445
20
20.9501211
40
0.3688271
50
203.9077269
51
215.1312379
0
ARC
8
DEFAULT_255_1_234
10
20.1579539
20
20.8785941
40
0.2522457
50
213.9071664
51
263.8849284
0
ARC
8
DEFAULT_255_1_234
10
20.1704868
20
20.9570518
40
0.3316174
50
263.1758525
51
270.1031083
0
ARC
8
DEFAULT_255_1_234
10
20.173696
20
21.0817365
40
0.4563091
50
269.6719807
51
279.0609165
0
ARC
8
DEFAULT_255_1_234
10
20.2003728
20
20.9204907
40
0.2928759
50
278.8750225
51
293.6346586
0
ARC
8
DEFAULT_255_1_234
10
20.2323936
20
20.84529
40
0.2111472
50
293.8553404
51
310.0518804
0
ARC
8
DEFAULT_255_1_234
10
20.232879
20
20.8390516
40
0.2060917
50
311.0646779
51
332.0108348
0
ARC
8
DEFAULT_255_1_234
10
20.1136517
20
20.9047978
40
0.3422352
50
331.6588543
51
343.2878891
0
ARC
8
DEFAULT_255_1_234
10
19.9074032
20
20.9681798
40
0.5580003
50
343.1446044
51
351.010618
0
ARC
8
DEFAULT_255_1_234
10
19.7532678
20
20.9962871
40
0.7146438
50
350.7157277
51
351.1602153
0
LINE
8
DEFAULT_255_1_234
10
21.7244218
20
21.1362534
11
21.7244218
21
21.0623614
0
LINE
8
DEFAULT_255_1_234
10
20.7839052
20
21.0519201
11
20.7839052
21
21.1362534
0
LINE
8
DEFAULT_255_1_234
10
21.5710156
20
21.0511169
11
21.5710156
21
21.1378597
0
LINE
8
DEFAULT_255_1_234
10
20.9373114
20
21.148301
11
20.9373114
21
21.0623614
0
ARC
8
DEFAULT_255_1_234
10
20.8602244
20
21.0584015
40
0.8642064
50
350.487711
51
0.2625388
0
ARC
8
DEFAULT_255_1_234
10
21.0895486
20
21.0189578
40
0.631518
50
336.0277639
51
350.5787438
0
ARC
8
DEFAULT_255_1_234
10
21.2240309
20
20.9581892
40
0.4839466
50
319.8877444
51
336.1328423
0
ARC
8
DEFAULT_255_1_234
10
21.284295
20
20.909958
40
0.4067874
50
302.4806467
51
319.6143626
0
ARC
8
DEFAULT_255_1_234
10
21.272796
20
20.9321202
40
0.4316636
50
275.8195682
51
302.1884709
0
ARC
8
DEFAULT_255_1_234
10
21.2561593
20
21.0463665
40
0.5470306
50
269.9171439
51
276.3397983
0
ARC
8
DEFAULT_255_1_234
10
21.2516803
20
20.9777681
40
0.4784458
50
252.5219675
51
270.4416499
0
ARC
8
DEFAULT_255_1_234
10
21.2373062
20
20.9238592
40
0.422716
50
237.5352116
51
252.1857531
0
ARC
8
DEFAULT_255_1_234
10
21.2462258
20
20.9352363
40
0.4371052
50
209.063312
51
237.3492538
0
ARC
8
DEFAULT_255_1_234
10
21.3332106
20
20.9898685
40
0.5397041
50
205.1183774
51
209.6470015
0
ARC
8
DEFAULT_255_1_234
10
21.4129143
20
21.023683
40
0.6262326
50
188.7215458
51
204.8240747
0
ARC
8
DEFAULT_255_1_234
10
21.6126671
20
21.0573067
40
0.8287794
50
180.3723947
51
188.9252049
0
ARC
8
DEFAULT_255_1_234
10
21.6099423
20
21.1402402
40
0.8260467
50
169.5253763
51
180.2765336
0
ARC
8
DEFAULT_255_1_234
10
21.4196871
20
21.1752309
40
0.6326007
50
155.8315255
51
169.5089989
0
ARC
8
DEFAULT_255_1_234
10
21.2916373
20
21.2346348
40
0.4914567
50
139.6258461
51
156.0379525
0
ARC
8
DEFAULT_255_1_234
10
21.2326706
20
21.2820799
40
0.4158054
50
122.6416387
51
139.3430715
0
ARC
8
DEFAULT_255_1_234
10
21.2427326
20
21.2637451
40
0.4366739
50
93.0223692
51
122.455762
0
ARC
8
DEFAULT_255_1_234
10
21.2535323
20
21.1672709
40
0.5336137
50
89.975342
51
93.6341897
0
ARC
8
DEFAULT_255_1_234
10
21.2574102
20
21.2071242
40
0.4937738
50
73.746375
51
90.4233405
0
ARC
8
DEFAULT_255_1_234
10
21.2749681
20
21.2751287
40
0.4235786
50
57.662753
51
73.4518111
0
ARC
8
DEFAULT_255_1_234
10
21.2741687
20
21.2772832
40
0.4221899
50
29.1440151
51
57.414694
0
ARC
8
DEFAULT_255_1_234
10
21.1806882
20
21.2189005
40
0.5322966
50
24.0982783
51
29.7323517
0
ARC
8
DEFAULT_255_1_234
10
21.0773157
20
21.1760399
40
0.6441673
50
8.6655297
51
23.8241346
0
ARC
8
DEFAULT_255_1_234
10
20.8538895
20
21.1395854
40
0.8705386
50
359.7806941
51
8.8218784
0
ARC
8
DEFAULT_255_1_234
10
20.7391893
20
21.1421345
40
0.8318373
50
359.7055579
51
8.036044
0
ARC
8
DEFAULT_255_1_234
10
21.0391899
20
21.1858239
40
0.5286768
50
7.8928306
51
20.2962107
0
ARC
8
DEFAULT_255_1_234
10
21.201947
20
21.2458395
40
0.3552073
50
20.3231126
51
36.4992797
0
ARC
8
DEFAULT_255_1_234
10
21.2705016
20
21.2986402
40
0.2686974
50
36.1437156
51
85.6627023
0
ARC
8
DEFAULT_255_1_234
10
21.2542562
20
21.1946221
40
0.373739
50
84.3852322
51
90.0757696
0
ARC
8
DEFAULT_255_1_234
10
21.2500234
20
21.2606839
40
0.3076997
50
89.3038458
51
109.9045693
0
ARC
8
DEFAULT_255_1_234
10
21.2407625
20
21.2989062
40
0.2686424
50
110.8228367
51
143.9179474
0
ARC
8
DEFAULT_255_1_234
10
21.3341285
20
21.2276236
40
0.3860887
50
143.5289163
51
163.2980757
0
ARC
8
DEFAULT_255_1_234
10
21.5249106
20
21.1676433
40
0.5860659
50
163.0418846
51
174.3140048
0
ARC
8
DEFAULT_255_1_234
10
21.7653218
20
21.1398854
40
0.8280531
50
174.0509143
51
179.4176892
0
ARC
8
DEFAULT_255_1_234
10
21.7148957
20
21.0581954
40
0.7775954
50
179.6930361
51
188.7906598
0
ARC
8
DEFAULT_255_1_234
10
21.4485436
20
21.0155935
40
0.5078633
50
188.6331305
51
202.5629587
0
ARC
8
DEFAULT_255_1_234
10
21.3231028
20
20.9651996
40
0.3726913
50
202.8081362
51
216.1193925
0
ARC
8
DEFAULT_255_1_234
10
21.2421598
20
20.9000676
40
0.2689577
50
215.0755913
51
264.6379694
0
ARC
8
DEFAULT_255_1_234
10
21.2548548
20
20.9831513
40
0.3528978
50
263.846392
51
270.0833719
0
ARC
8
DEFAULT_255_1_234
10
21.2589938
20
20.9573374
40
0.3271036
50
269.3649385
51
287.5152008
0
ARC
8
DEFAULT_255_1_234
10
21.2768096
20
20.8926238
40
0.2600406
50
288.0630309
51
323.8113348
0
ARC
8
DEFAULT_255_1_234
10
21.1896937
20
20.9576049
40
0.3687189
50
323.6547608
51
342.6590488
0
ARC
8
DEFAULT_255_1_234
10
20.9865552
20
21.0236952
40
0.5823286
50
342.4091907
51
353.6451149
0
ARC
8
DEFAULT_255_1_234
10
20.7034063
20
21.058919
40
0.8676442
50
353.4029884
51
359.4847795
0
LINE
8
DEFAULT_255_1_234
10
21.9557358
20
21.6848211
11
22.1549229
21
21.6848211
0
LINE
8
DEFAULT_255_1_234
10
22.1549229
20
21.6848211
11
22.5372337
21
20.7306506
0
LINE
8
DEFAULT_255_1_234
10
22.5372337
20
20.7306506
11
22.9195444
21
21.6848211
0
LINE
8
DEFAULT_255_1_234
10
22.9195444
20
21.6848211
11
23.1195347
21
21.6848211
0
LINE
8
DEFAULT_255_1_234
10
23.1195347
20
21.6848211
11
23.1195347
21
20.5154
0
LINE
8
DEFAULT_255_1_234
10
23.1195347
20
20.5154
11
22.9653253
21
20.5154
0
LINE
8
DEFAULT_255_1_234
10
22.9653253
20
20.5154
11
22.9653253
21
20.9707996
0
LINE
8
DEFAULT_255_1_234
10
22.9653253
20
20.9707996
11
22.9797825
21
21.4623419
0
LINE
8
DEFAULT_255_1_234
10
22.9797825
20
21.4623419
11
22.5958654
21
20.5154
0
LINE
8
DEFAULT_255_1_234
10
22.5958654
20
20.5154
11
22.4777988
21
20.5154
0
LINE
8
DEFAULT_255_1_234
10
22.4777988
20
20.5154
11
22.0946849
21
21.4599324
0
LINE
8
DEFAULT_255_1_234
10
22.0946849
20
21.4599324
11
22.1099452
21
20.9707996
0
LINE
8
DEFAULT_255_1_234
10
22.1099452
20
20.9707996
11
22.1099452
21
20.5154
0
LINE
8
DEFAULT_255_1_234
10
22.1099452
20
20.5154
11
21.9557358
21
20.5154
0
LINE
8
DEFAULT_255_1_234
10
21.9557358
20
20.5154
11
21.9557358
21
21.6848211
0
LINE
8
DEFAULT_255_1_234
10
23.5693121
20
21.0511169
11
23.5693121
21
21.1723962
0
LINE
8
DEFAULT_255_1_234
10
23.5693121
20
21.1723962
11
23.6809532
21
21.1723962
0
LINE
8
DEFAULT_255_1_234
10
23.490601
20
21.3780087
11
23.3420139
21
21.3780087
0
LINE
8
DEFAULT_255_1_234
10
23.3315726
20
20.8238188
11
23.4809629
21
20.8238188
0
LINE
8
DEFAULT_255_1_234
10
23.6809532
20
21.0511169
11
23.5693121
21
21.0511169
0
ARC
8
DEFAULT_255_1_234
10
23.6780399
20
21.5116713
40
0.3392876
50
270.4919872
51
281.8951556
0
ARC
8
DEFAULT_255_1_234
10
23.702166
20
21.4014702
40
0.2264817
50
281.6691735
51
301.2943132
0
ARC
8
DEFAULT_255_1_234
10
23.7191871
20
21.3703304
40
0.1910381
50
301.7833094
51
311.7545298
0
ARC
8
DEFAULT_255_1_234
10
23.7283446
20
21.3601748
40
0.1773635
50
311.7323931
51
354.2802411
0
ARC
8
DEFAULT_255_1_234
10
23.6557072
20
21.3726722
40
0.2509385
50
353.0937916
51
0.1181479
0
ARC
8
DEFAULT_255_1_234
10
23.6095856
20
21.3774386
40
0.2970898
50
359.1805295
51
15.0453146
0
ARC
8
DEFAULT_255_1_234
10
23.7441693
20
21.4166992
40
0.1569564
50
13.9577229
51
77.6713066
0
ARC
8
DEFAULT_255_1_234
10
23.7055223
20
21.2781949
40
0.3006298
50
76.1116566
51
90.7026153
0
ARC
8
DEFAULT_255_1_234
10
23.6996061
20
21.3055545
40
0.2732568
50
89.5324876
51
103.531937
0
ARC
8
DEFAULT_255_1_234
10
23.6795505
20
21.3854884
40
0.1908508
50
103.2931773
51
133.5619022
0
ARC
8
DEFAULT_255_1_234
10
23.6750993
20
21.3914375
40
0.1834746
50
133.8349307
51
173.5344437
0
ARC
8
DEFAULT_255_1_234
10
23.7474036
20
21.3786213
40
0.2568033
50
172.5096846
51
180.1366907
0
ARC
8
DEFAULT_255_1_234
10
23.652293
20
21.3820622
40
0.3103056
50
155.3484492
51
180.7484736
0
ARC
8
DEFAULT_255_1_234
10
23.6474019
20
21.3791846
40
0.3070957
50
131.5744599
51
154.4798489
0
ARC
8
DEFAULT_255_1_234
10
23.6787167
20
21.347531
40
0.3515643
50
96.9875458
51
131.9690667
0
ARC
8
DEFAULT_255_1_234
10
23.7006647
20
21.2229636
40
0.4779224
50
89.8596053
51
97.7825159
0
ARC
8
DEFAULT_255_1_234
10
23.705471
20
21.1967616
40
0.5041361
50
78.3655447
51
90.4131539
0
ARC
8
DEFAULT_255_1_234
10
23.7412628
20
21.3626887
40
0.3344039
50
56.6229102
51
78.638727
0
ARC
8
DEFAULT_255_1_234
10
23.7627571
20
21.4002805
40
0.2912001
50
47.0253525
51
56.0854072
0
ARC
8
DEFAULT_255_1_234
10
23.7647351
20
21.4042223
40
0.2869704
50
10.9208013
51
46.7778124
0
ARC
8
DEFAULT_255_1_234
10
23.6283418
20
21.3726857
40
0.426899
50
359.6364486
51
11.6087304
0
ARC
8
DEFAULT_255_1_234
10
23.8118262
20
21.3711752
40
0.243409
50
332.3549906
51
359.7179418
0
ARC
8
DEFAULT_255_1_234
10
23.7467863
20
21.4020142
40
0.3153459
50
325.2333722
51
332.8745602
0
ARC
8
DEFAULT_255_1_234
10
23.7620487
20
21.3913828
40
0.2967456
50
292.9802137
51
325.2392345
0
ARC
8
DEFAULT_255_1_234
10
23.7345861
20
21.4447863
40
0.3566604
50
292.5402179
51
293.6924929
0
ARC
8
DEFAULT_255_1_234
10
23.7738457
20
20.7993091
40
0.3307468
50
57.6435486
51
72.8625112
0
ARC
8
DEFAULT_255_1_234
10
23.8092957
20
20.8567549
40
0.2632492
50
36.7248896
51
57.4697979
0
ARC
8
DEFAULT_255_1_234
10
23.8081589
20
20.858022
40
0.2634081
50
8.0545065
51
36.356114
0
ARC
8
DEFAULT_255_1_234
10
23.7218775
20
20.8425174
40
0.3510261
50
359.8320645
51
8.5869982
0
ARC
8
DEFAULT_255_1_234
10
23.6843551
20
20.8377101
40
0.3885653
50
343.9829931
51
0.5571613
0
ARC
8
DEFAULT_255_1_234
10
23.7729748
20
20.8134438
40
0.2966924
50
311.6359546
51
343.7651759
0
ARC
8
DEFAULT_255_1_234
10
23.7351317
20
20.8561102
40
0.3537231
50
279.7829875
51
311.6255694
0
ARC
8
DEFAULT_255_1_234
10
23.7050093
20
20.999828
40
0.5004971
50
269.7286406
51
280.3856417
0
ARC
8
DEFAULT_255_1_234
10
23.6988166
20
20.9956996
40
0.4963778
50
256.6828919
51
270.4412052
0
ARC
8
DEFAULT_255_1_234
10
23.6649462
20
20.8572394
40
0.3538406
50
229.4223008
51
256.8556159
0
ARC
8
DEFAULT_255_1_234
10
23.6234855
20
20.8105736
40
0.2914296
50
181.818294
51
229.6455059
0
ARC
8
DEFAULT_255_1_234
10
23.7274811
20
20.8236496
40
0.3959084
50
179.9755256
51
183.2323064
0
ARC
8
DEFAULT_255_1_234
10
23.7102557
20
20.8216037
40
0.2293034
50
179.4465117
51
196.2869258
0
ARC
8
DEFAULT_255_1_234
10
23.6614965
20
20.8082651
40
0.1787621
50
196.5661473
51
227.705904
0
ARC
8
DEFAULT_255_1_234
10
23.6779059
20
20.8266155
40
0.2033784
50
227.7652068
51
257.8762805
0
ARC
8
DEFAULT_255_1_234
10
23.700403
20
20.9209156
40
0.3003081
50
257.4584385
51
270.426602
0
ARC
8
DEFAULT_255_1_234
10
23.7049596
20
20.9498996
40
0.329292
50
269.5962073
51
280.8789248
0
ARC
8
DEFAULT_255_1_234
10
23.7279125
20
20.8352685
40
0.2123908
50
280.6346389
51
299.8595945
0
ARC
8
DEFAULT_255_1_234
10
23.7470031
20
20.7990212
40
0.171457
50
300.3576302
51
314.5517981
0
ARC
8
DEFAULT_255_1_234
10
23.7387091
20
20.8050919
40
0.1816095
50
315.0728369
51
345.0431014
0
ARC
8
DEFAULT_255_1_234
10
23.6463906
20
20.8319841
40
0.2777492
50
344.5986631
51
357.9269593
0
ARC
8
DEFAULT_255_1_234
10
23.5568232
20
20.8381276
40
0.3674917
50
357.4748886
51
0.0231117
0
ARC
8
DEFAULT_255_1_234
10
23.6591341
20
20.8405679
40
0.2651907
50
359.5047933
51
13.4239635
0
ARC
8
DEFAULT_255_1_234
10
23.7457985
20
20.8627478
40
0.1757509
50
12.9498199
51
48.7551375
0
ARC
8
DEFAULT_255_1_234
10
23.7275719
20
20.83784
40
0.2065134
50
49.5088623
51
72.1836453
0
ARC
8
DEFAULT_255_1_234
10
23.6917871
20
20.7316291
40
0.3185836
50
71.9010081
51
84.3554254
0
ARC
8
DEFAULT_255_1_234
10
23.6756503
20
20.5955326
40
0.4556151
50
84.0193428
51
89.333121
0
LINE
8
DEFAULT_255_1_234
10
20.459423
20
28.8239663
11
20.6144355
21
28.8239663
0
LINE
8
DEFAULT_255_1_234
10
19.7140777
20
28.9829947
11
19.7140777
21
29.0954391
0
LINE
8
DEFAULT_255_1_234
10
20.6144355
20
29.2464357
11
20.459423
21
29.2464357
0
LINE
8
DEFAULT_255_1_234
10
19.8690902
20
29.0914232
11
19.8690902
21
28.9781757
0
ARC
8
DEFAULT_255_1_234
10
20.0663742
20
28.8836846
40
0.5513052
50
340.1774281
51
353.7814284
0
ARC
8
DEFAULT_255_1_234
10
20.2235095
20
28.8251582
40
0.3836379
50
311.4558989
51
340.4421614
0
ARC
8
DEFAULT_255_1_234
10
20.2201763
20
28.8362528
40
0.3941894
50
282.4333181
51
310.7513653
0
ARC
8
DEFAULT_255_1_234
10
20.1762502
20
29.0177679
40
0.5809175
50
269.9358511
51
282.809604
0
ARC
8
DEFAULT_255_1_234
10
20.1710568
20
29.1635212
40
0.7266847
50
270.0021091
51
270.3581957
0
ARC
8
DEFAULT_255_1_234
10
20.1657985
20
28.9034585
40
0.4666519
50
250.7884749
51
270.6489167
0
ARC
8
DEFAULT_255_1_234
10
20.148982
20
28.8397319
40
0.4009729
50
219.3627325
51
250.0611886
0
ARC
8
DEFAULT_255_1_234
10
20.2319031
20
28.9102042
40
0.5097822
50
193.5479632
51
219.5756669
0
ARC
8
DEFAULT_255_1_234
10
20.4690652
20
28.9717919
40
0.7547848
50
181.1218675
51
193.87563
0
ARC
8
DEFAULT_255_1_234
10
20.6760833
20
28.982858
40
0.9620055
50
179.9918545
51
181.5394234
0
ARC
8
DEFAULT_255_1_234
10
20.4909935
20
29.0991788
40
0.7769248
50
169.5837241
51
180.2757934
0
ARC
8
DEFAULT_255_1_234
10
20.3072873
20
29.1331229
40
0.590109
50
155.0365899
51
169.6003176
0
ARC
8
DEFAULT_255_1_234
10
20.1937337
20
29.1878677
40
0.4640625
50
136.783148
51
155.2472683
0
ARC
8
DEFAULT_255_1_234
10
20.1547814
20
29.2209562
40
0.4130255
50
121.7633186
51
136.428115
0
ARC
8
DEFAULT_255_1_234
10
20.1682776
20
29.1960227
40
0.4413323
50
95.6459699
51
121.5490577
0
ARC
8
DEFAULT_255_1_234
10
20.1840058
20
29.0851949
40
0.55319
50
89.924208
51
96.1377933
0
ARC
8
DEFAULT_255_1_234
10
20.1890491
20
29.0970542
40
0.5413475
50
76.6779277
51
90.4563316
0
ARC
8
DEFAULT_255_1_234
10
20.2284114
20
29.2561114
40
0.3775041
50
47.485847
51
76.9287264
0
ARC
8
DEFAULT_255_1_234
10
20.2137087
20
29.2461159
40
0.3948286
50
16.5424086
51
46.8933463
0
ARC
8
DEFAULT_255_1_234
10
20.0529244
20
29.1932861
40
0.564021
50
5.4072051
51
17.0365086
0
ARC
8
DEFAULT_255_1_234
10
19.9090261
20
29.1701679
40
0.5556559
50
7.8891745
51
15.9239216
0
ARC
8
DEFAULT_255_1_234
10
20.1077274
20
29.2278631
40
0.3487515
50
15.7653144
51
27.9410532
0
ARC
8
DEFAULT_255_1_234
10
20.2181492
20
29.286979
40
0.2235026
50
27.8166557
51
46.4008329
0
ARC
8
DEFAULT_255_1_234
10
20.2231135
20
29.2864082
40
0.2205286
50
47.4371857
51
75.0698205
0
ARC
8
DEFAULT_255_1_234
10
20.1922529
20
29.1789765
40
0.3322915
50
74.7008593
51
87.8124495
0
ARC
8
DEFAULT_255_1_234
10
20.1849217
20
29.0733844
40
0.4380987
50
87.3814673
51
90.0240855
0
ARC
8
DEFAULT_255_1_234
10
20.181076
20
29.1911291
40
0.3203749
50
89.3451631
51
108.5745436
0
ARC
8
DEFAULT_255_1_234
10
20.1673865
20
29.2424908
40
0.2673494
50
109.2998449
51
143.3037509
0
ARC
8
DEFAULT_255_1_234
10
20.2435938
20
29.1838881
40
0.3634757
50
143.0753173
51
163.1916937
0
ARC
8
DEFAULT_255_1_234
10
20.4387666
20
29.1222967
40
0.5681262
50
162.9373603
51
174.6208611
0
ARC
8
DEFAULT_255_1_234
10
20.7013708
20
29.093501
40
0.8322832
50
174.3419979
51
180.1430411
0
ARC
8
DEFAULT_255_1_234
10
20.6082864
20
28.9740698
40
0.7392076
50
179.6817502
51
189.150529
0
ARC
8
DEFAULT_255_1_234
10
20.3582112
20
28.932419
40
0.4856932
50
188.9910863
51
203.5773039
0
ARC
8
DEFAULT_255_1_234
10
20.2502445
20
28.8876211
40
0.3688271
50
203.9077269
51
215.1312379
0
ARC
8
DEFAULT_255_1_234
10
20.1579539
20
28.8160941
40
0.2522457
50
213.9071664
51
263.8849284
0
ARC
8
DEFAULT_255_1_234
10
20.1704868
20
28.8945518
40
0.3316174
50
263.1758525
51
270.1031083
0
ARC
8
DEFAULT_255_1_234
10
20.173696
20
29.0192365
40
0.4563091
50
269.6719807
51
279.0609165
0
ARC
8
DEFAULT_255_1_234
10
20.2003728
20
28.8579907
40
0.2928759
50
278.8750225
51
293.6346586
0
ARC
8
DEFAULT_255_1_234
10
20.2323936
20
28.78279
40
0.2111472
50
293.8553404
51
310.0518804
0
ARC
8
DEFAULT_255_1_234
10
20.232879
20
28.7765516
40
0.2060917
50
311.0646779
51
332.0108348
0
ARC
8
DEFAULT_255_1_234
10
20.1136517
20
28.8422978
40
0.3422352
50
331.6588543
51
343.2878891
0
ARC
8
DEFAULT_255_1_234
10
19.9074032
20
28.9056798
40
0.5580003
50
343.1446044
51
351.010618
0
ARC
8
DEFAULT_255_1_234
10
19.7532678
20
28.9337871
40
0.7146438
50
350.7157277
51
351.1602153
0
LINE
8
DEFAULT_255_1_234
10
21.7244218
20
29.0737534
11
21.7244218
21
28.9998614
0
LINE
8
DEFAULT_255_1_234
10
20.7839052
20
28.9894201
11
20.7839052
21
29.0737534
0
LINE
8
DEFAULT_255_1_234
10
21.5710156
20
28.9886169
11
21.5710156
21
29.0753597
0
LINE
8
DEFAULT_255_1_234
10
20.9373114
20
29.085801
11
20.9373114
21
28.9998614
0
ARC
8
DEFAULT_255_1_234
10
20.8602244
20
28.9959015
40
0.8642064
50
350.487711
51
0.2625388
0
ARC
8
DEFAULT_255_1_234
10
21.0895486
20
28.9564578
40
0.631518
50
336.0277639
51
350.5787438
0
ARC
8
DEFAULT_255_1_234
10
21.2240309
20
28.8956892
40
0.4839466
50
319.8877444
51
336.1328423
0
ARC
8
DEFAULT_255_1_234
10
21.284295
20
28.847458
40
0.4067874
50
302.4806467
51
319.6143626
0
ARC
8
DEFAULT_255_1_234
10
21.272796
20
28.8696202
40
0.4316636
50
275.8195682
51
302.1884709
0
ARC
8
DEFAULT_255_1_234
10
21.2561593
20
28.9838665
40
0.5470306
50
269.9171439
51
276.3397983
0
ARC
8
DEFAULT_255_1_234
10
21.2516803
20
28.9152681
40
0.4784458
50
252.5219675
51
270.4416499
0
ARC
8
DEFAULT_255_1_234
10
21.2373062
20
28.8613592
40
0.422716
50
237.5352116
51
252.1857531
0
ARC
8
DEFAULT_255_1_234
10
21.2462258
20
28.8727363
40
0.4371052
50
209.063312
51
237.3492538
0
ARC
8
DEFAULT_255_1_234
10
21.3332106
20
28.9273685
40
0.5397041
50
205.1183774
51
209.6470015
0
ARC
8
DEFAULT_255_1_234
10
21.4129143
20
28.961183
40
0.6262326
50
188.7215458
51
204.8240747
0
ARC
8
DEFAULT_255_1_234
10
21.6126671
20
28.9948067
40
0.8287794
50
180.3723947
51
188.9252049
0
ARC
8
DEFAULT_255_1_234
10
21.6099423
20
29.0777402
40
0.8260467
50
169.5253763
51
180.2765336
0
ARC
8
DEFAULT_255_1_234
10
21.4196871
20
29.1127309
40
0.6326007
50
155.8315255
51
169.5089989
0
ARC
8
DEFAULT_255_1_234
10
21.2916373
20
29.1721348
40
0.4914567
50
139.6258461
51
156.0379525
0
ARC
8
DEFAULT_255_1_234
10
21.2326706
20
29.2195799
40
0.4158054
50
122.6416387
51
139.3430715
0
ARC
8
DEFAULT_255_1_234
10
21.2427326
20
29.2012451
40
0.4366739
50
93.0223692
51
122.455762
0
ARC
8
DEFAULT_255_1_234
10
21.2535323
20
29.1047709
40
0.5336137
50
89.975342
51
93.6341897
0
ARC
8
DEFAULT_255_1_234
10
21.2574102
20
29.1446242
40
0.4937738
50
73.746375
51
90.4233405
0
ARC
8
DEFAULT_255_1_234
10
21.2749681
20
29.2126287
40
0.4235786
50
57.662753
51
73.4518111
0
ARC
8
DEFAULT_255_1_234
10
21.2741687
20
29.2147832
40
0.4221899
50
29.1440151
51
57.414694
0
ARC
8
DEFAULT_255_1_234
10
21.1806882
20
29.1564005
40
0.5322966
50
24.0982783
51
29.7323517
0
ARC
8
DEFAULT_255_1_234
10
21.0773157
20
29.1135399
40
0.6441673
50
8.6655297
51
23.8241346
0
ARC
8
DEFAULT_255_1_234
10
20.8538895
20
29.0770854
40
0.8705386
50
359.7806941
51
8.8218784
0
ARC
8
DEFAULT_255_1_234
10
20.7391893
20
29.0796345
40
0.8318373
50
359.7055579
51
8.036044
0
ARC
8
DEFAULT_255_1_234
10
21.0391899
20
29.1233239
40
0.5286768
50
7.8928306
51
20.2962107
0
ARC
8
DEFAULT_255_1_234
10
21.201947
20
29.1833395
40
0.3552073
50
20.3231126
51
36.4992797
0
ARC
8
DEFAULT_255_1_234
10
21.2705016
20
29.2361402
40
0.2686974
50
36.1437156
51
85.6627023
0
ARC
8
DEFAULT_255_1_234
10
21.2542562
20
29.1321221
40
0.373739
50
84.3852322
51
90.0757696
0
ARC
8
DEFAULT_255_1_234
10
21.2500234
20
29.1981839
40
0.3076997
50
89.3038458
51
109.9045693
0
ARC
8
DEFAULT_255_1_234
10
21.2407625
20
29.2364062
40
0.2686424
50
110.8228367
51
143.9179474
0
ARC
8
DEFAULT_255_1_234
10
21.3341285
20
29.1651236
40
0.3860887
50
143.5289163
51
163.2980757
0
ARC
8
DEFAULT_255_1_234
10
21.5249106
20
29.1051433
40
0.5860659
50
163.0418846
51
174.3140048
0
ARC
8
DEFAULT_255_1_234
10
21.7653218
20
29.0773854
40
0.8280531
50
174.0509143
51
179.4176892
0
ARC
8
DEFAULT_255_1_234
10
21.7148957
20
28.9956954
40
0.7775954
50
179.6930361
51
188.7906598
0
ARC
8
DEFAULT_255_1_234
10
21.4485436
20
28.9530935
40
0.5078633
50
188.6331305
51
202.5629587
0
ARC
8
DEFAULT_255_1_234
10
21.3231028
20
28.9026996
40
0.3726913
50
202.8081362
51
216.1193925
0
ARC
8
DEFAULT_255_1_234
10
21.2421598
20
28.8375676
40
0.2689577
50
215.0755913
51
264.6379694
0
ARC
8
DEFAULT_255_1_234
10
21.2548548
20
28.9206513
40
0.3528978
50
263.846392
51
270.0833719
0
ARC
8
DEFAULT_255_1_234
10
21.2589938
20
28.8948374
40
0.3271036
50
269.3649385
51
287.5152008
0
ARC
8
DEFAULT_255_1_234
10
21.2768096
20
28.8301238
40
0.2600406
50
288.0630309
51
323.8113348
0
ARC
8
DEFAULT_255_1_234
10
21.1896937
20
28.8951049
40
0.3687189
50
323.6547608
51
342.6590488
0
ARC
8
DEFAULT_255_1_234
10
20.9865552
20
28.9611952
40
0.5823286
50
342.4091907
51
353.6451149
0
ARC
8
DEFAULT_255_1_234
10
20.7034063
20
28.996419
40
0.8676442
50
353.4029884
51
359.4847795
0
LINE
8
DEFAULT_255_1_234
10
21.9557358
20
29.6223211
11
22.1549229
21
29.6223211
0
LINE
8
DEFAULT_255_1_234
10
22.1549229
20
29.6223211
11
22.5372337
21
28.6681506
0
LINE
8
DEFAULT_255_1_234
10
22.5372337
20
28.6681506
11
22.9195444
21
29.6223211
0
LINE
8
DEFAULT_255_1_234
10
22.9195444
20
29.6223211
11
23.1195347
21
29.6223211
0
LINE
8
DEFAULT_255_1_234
10
23.1195347
20
29.6223211
11
23.1195347
21
28.4529
0
LINE
8
DEFAULT_255_1_234
10
23.1195347
20
28.4529
11
22.9653253
21
28.4529
0
LINE
8
DEFAULT_255_1_234
10
22.9653253
20
28.4529
11
22.9653253
21
28.9082996
0
LINE
8
DEFAULT_255_1_234
10
22.9653253
20
28.9082996
11
22.9797825
21
29.3998419
0
LINE
8
DEFAULT_255_1_234
10
22.9797825
20
29.3998419
11
22.5958654
21
28.4529
0
LINE
8
DEFAULT_255_1_234
10
22.5958654
20
28.4529
11
22.4777988
21
28.4529
0
LINE
8
DEFAULT_255_1_234
10
22.4777988
20
28.4529
11
22.0946849
21
29.3974324
0
LINE
8
DEFAULT_255_1_234
10
22.0946849
20
29.3974324
11
22.1099452
21
28.9082996
0
LINE
8
DEFAULT_255_1_234
10
22.1099452
20
28.9082996
11
22.1099452
21
28.4529
0
LINE
8
DEFAULT_255_1_234
10
22.1099452
20
28.4529
11
21.9557358
21
28.4529
0
LINE
8
DEFAULT_255_1_234
10
21.9557358
20
28.4529
11
21.9557358
21
29.6223211
0
LINE
8
DEFAULT_255_1_234
10
24.1194861
20
28.5741792
11
24.1194861
21
28.4529
0
LINE
8
DEFAULT_255_1_234
10
24.1194861
20
28.4529
11
23.3532583
21
28.4529
0
LINE
8
DEFAULT_255_1_234
10
23.3532583
20
28.4529
11
23.3532583
21
28.5597221
0
LINE
8
DEFAULT_255_1_234
10
23.3532583
20
28.5597221
11
23.7580579
21
29.0094995
0
LINE
8
DEFAULT_255_1_234
10
23.4793566
20
29.2777595
11
23.3307694
21
29.2777595
0
LINE
8
DEFAULT_255_1_234
10
23.8456039
20
28.9139218
11
23.5323661
21
28.5741792
0
LINE
8
DEFAULT_255_1_234
10
23.5323661
20
28.5741792
11
24.1194861
21
28.5741792
0
ARC
8
DEFAULT_255_1_234
10
22.4090412
20
30.2024527
40
1.8008286
50
318.5132453
51
320.7828378
0
ARC
8
DEFAULT_255_1_234
10
22.9377387
20
29.7721426
40
1.1191493
50
320.7372736
51
323.9737074
0
ARC
8
DEFAULT_255_1_234
10
23.3297243
20
29.4881361
40
0.6350923
50
323.8961724
51
328.6421089
0
ARC
8
DEFAULT_255_1_234
10
23.5343839
20
29.3619031
40
0.3946393
50
328.8299013
51
331.789948
0
ARC
8
DEFAULT_255_1_234
10
23.6341017
20
29.3104509
40
0.2824501
50
331.4255242
51
352.9364833
0
ARC
8
DEFAULT_255_1_234
10
23.6477518
20
29.3073976
40
0.2685315
50
353.2248685
51
0.0169286
0
ARC
8
DEFAULT_255_1_234
10
23.6687394
20
29.309695
40
0.2475536
50
359.4866256
51
15.9339782
0
ARC
8
DEFAULT_255_1_234
10
23.719438
20
29.3233286
40
0.1950618
50
16.1714718
51
43.5284424
0
ARC
8
DEFAULT_255_1_234
10
23.7271688
20
29.3310573
40
0.184134
50
43.4415429
51
83.1661404
0
ARC
8
DEFAULT_255_1_234
10
23.7137607
20
29.2573771
40
0.258926
50
82.160215
51
90.1505798
0
ARC
8
DEFAULT_255_1_234
10
23.7106034
20
29.2036865
40
0.3126255
50
89.5460705
51
102.5418777
0
ARC
8
DEFAULT_255_1_234
10
23.686312
20
29.3067665
40
0.2067346
50
102.1739365
51
129.2061916
0
ARC
8
DEFAULT_255_1_234
10
23.6784192
20
29.3192094
40
0.1921118
50
129.7279328
51
135.7542026
0
ARC
8
DEFAULT_255_1_234
10
23.6905719
20
29.3095045
40
0.2075944
50
136.175737
51
166.3674722
0
ARC
8
DEFAULT_255_1_234
10
23.7912639
20
29.2825182
40
0.3118201
50
165.9092917
51
178.8683903
0
ARC
8
DEFAULT_255_1_234
10
23.87775
20
29.2778179
40
0.3983935
50
178.438168
51
180.0083905
0
ARC
8
DEFAULT_255_1_234
10
23.7376102
20
29.2817231
40
0.4068601
50
163.2878735
51
180.5581814
0
ARC
8
DEFAULT_255_1_234
10
23.6574363
20
29.303784
40
0.3237344
50
133.454115
51
162.9470031
0
ARC
8
DEFAULT_255_1_234
10
23.6752905
20
29.2848
40
0.349795
50
100.7869394
51
133.4384016
0
ARC
8
DEFAULT_255_1_234
10
23.7100676
20
29.1299319
40
0.5084616
50
89.6605301
51
101.3704185
0
ARC
8
DEFAULT_255_1_234
10
23.7167015
20
29.1360496
40
0.502348
50
78.2171172
51
90.4130393
0
ARC
8
DEFAULT_255_1_234
10
23.7522093
20
29.2984637
40
0.3361092
50
55.9268222
51
78.4888551
0
ARC
8
DEFAULT_255_1_234
10
23.7718534
20
29.3323324
40
0.2970617
50
47.9292255
51
55.4054003
0
ARC
8
DEFAULT_255_1_234
10
23.7820094
20
29.3426502
40
0.2825983
50
4.3347696
51
48.0560701
0
ARC
8
DEFAULT_255_1_234
10
23.6724488
20
29.3256601
40
0.393225
50
359.925209
51
5.5967654
0
ARC
8
DEFAULT_255_1_234
10
23.715338
20
29.3312816
40
0.3503892
50
337.8914096
51
358.9967724
0
ARC
8
DEFAULT_255_1_234
10
23.4439792
20
29.4359706
40
0.6412172
50
326.9135351
51
338.3505194
0
ARC
8
DEFAULT_255_1_234
10
23.0454095
20
29.6914284
40
1.1146189
50
319.6472867
51
327.095818
0
ARC
8
DEFAULT_255_1_234
10
22.6621099
20
30.0076
40
1.6114559
50
317.2586784
51
319.9046139
0
LINE
8
DEFAULT_255_1_234
10
20.468423
20
36.7614663
11
20.6234355
21
36.7614663
0
LINE
8
DEFAULT_255_1_234
10
19.7230777
20
36.9204947
11
19.7230777
21
37.0329391
0
LINE
8
DEFAULT_255_1_234
10
20.6234355
20
37.1839357
11
20.468423
21
37.1839357
0
LINE
8
DEFAULT_255_1_234
10
19.8780902
20
37.0289232
11
19.8780902
21
36.9156757
0
ARC
8
DEFAULT_255_1_234
10
20.0753742
20
36.8211846
40
0.5513052
50
340.1774281
51
353.7814284
0
ARC
8
DEFAULT_255_1_234
10
20.2325095
20
36.7626582
40
0.3836379
50
311.4558989
51
340.4421614
0
ARC
8
DEFAULT_255_1_234
10
20.2291763
20
36.7737528
40
0.3941894
50
282.4333181
51
310.7513653
0
ARC
8
DEFAULT_255_1_234
10
20.1852502
20
36.9552679
40
0.5809175
50
269.9358511
51
282.809604
0
ARC
8
DEFAULT_255_1_234
10
20.1800568
20
37.1010212
40
0.7266847
50
270.0021091
51
270.3581957
0
ARC
8
DEFAULT_255_1_234
10
20.1747985
20
36.8409585
40
0.4666519
50
250.7884749
51
270.6489167
0
ARC
8
DEFAULT_255_1_234
10
20.157982
20
36.7772319
40
0.4009729
50
219.3627325
51
250.0611886
0
ARC
8
DEFAULT_255_1_234
10
20.2409031
20
36.8477042
40
0.5097822
50
193.5479632
51
219.5756669
0
ARC
8
DEFAULT_255_1_234
10
20.4780652
20
36.9092919
40
0.7547848
50
181.1218675
51
193.87563
0
ARC
8
DEFAULT_255_1_234
10
20.6850833
20
36.920358
40
0.9620055
50
179.9918545
51
181.5394234
0
ARC
8
DEFAULT_255_1_234
10
20.4999935
20
37.0366788
40
0.7769248
50
169.5837241
51
180.2757934
0
ARC
8
DEFAULT_255_1_234
10
20.3162873
20
37.0706229
40
0.590109
50
155.0365899
51
169.6003176
0
ARC
8
DEFAULT_255_1_234
10
20.2027337
20
37.1253677
40
0.4640625
50
136.783148
51
155.2472683
0
ARC
8
DEFAULT_255_1_234
10
20.1637814
20
37.1584562
40
0.4130255
50
121.7633186
51
136.428115
0
ARC
8
DEFAULT_255_1_234
10
20.1772776
20
37.1335227
40
0.4413323
50
95.6459699
51
121.5490577
0
ARC
8
DEFAULT_255_1_234
10
20.1930058
20
37.0226949
40
0.55319
50
89.924208
51
96.1377933
0
ARC
8
DEFAULT_255_1_234
10
20.1980491
20
37.0345542
40
0.5413475
50
76.6779277
51
90.4563316
0
ARC
8
DEFAULT_255_1_234
10
20.2374114
20
37.1936114
40
0.3775041
50
47.485847
51
76.9287264
0
ARC
8
DEFAULT_255_1_234
10
20.2227087
20
37.1836159
40
0.3948286
50
16.5424086
51
46.8933463
0
ARC
8
DEFAULT_255_1_234
10
20.0619244
20
37.1307861
40
0.564021
50
5.4072051
51
17.0365086
0
ARC
8
DEFAULT_255_1_234
10
19.9180261
20
37.1076679
40
0.5556559
50
7.8891745
51
15.9239216
0
ARC
8
DEFAULT_255_1_234
10
20.1167274
20
37.1653631
40
0.3487515
50
15.7653144
51
27.9410532
0
ARC
8
DEFAULT_255_1_234
10
20.2271492
20
37.224479
40
0.2235026
50
27.8166557
51
46.4008329
0
ARC
8
DEFAULT_255_1_234
10
20.2321135
20
37.2239082
40
0.2205286
50
47.4371857
51
75.0698205
0
ARC
8
DEFAULT_255_1_234
10
20.2012529
20
37.1164765
40
0.3322915
50
74.7008593
51
87.8124495
0
ARC
8
DEFAULT_255_1_234
10
20.1939217
20
37.0108844
40
0.4380987
50
87.3814673
51
90.0240855
0
ARC
8
DEFAULT_255_1_234
10
20.190076
20
37.1286291
40
0.3203749
50
89.3451631
51
108.5745436
0
ARC
8
DEFAULT_255_1_234
10
20.1763865
20
37.1799908
40
0.2673494
50
109.2998449
51
143.3037509
0
ARC
8
DEFAULT_255_1_234
10
20.2525938
20
37.1213881
40
0.3634757
50
143.0753173
51
163.1916937
0
ARC
8
DEFAULT_255_1_234
10
20.4477666
20
37.0597967
40
0.5681262
50
162.9373603
51
174.6208611
0
ARC
8
DEFAULT_255_1_234
10
20.7103708
20
37.031001
40
0.8322832
50
174.3419979
51
180.1430411
0
ARC
8
DEFAULT_255_1_234
10
20.6172864
20
36.9115698
40
0.7392076
50
179.6817502
51
189.150529
0
ARC
8
DEFAULT_255_1_234
10
20.3672112
20
36.869919
40
0.4856932
50
188.9910863
51
203.5773039
0
ARC
8
DEFAULT_255_1_234
10
20.2592445
20
36.8251211
40
0.3688271
50
203.9077269
51
215.1312379
0
ARC
8
DEFAULT_255_1_234
10
20.1669539
20
36.7535941
40
0.2522457
50
213.9071664
51
263.8849284
0
ARC
8
DEFAULT_255_1_234
10
20.1794868
20
36.8320518
40
0.3316174
50
263.1758525
51
270.1031083
0
ARC
8
DEFAULT_255_1_234
10
20.182696
20
36.9567365
40
0.4563091
50
269.6719807
51
279.0609165
0
ARC
8
DEFAULT_255_1_234
10
20.2093728
20
36.7954907
40
0.2928759
50
278.8750225
51
293.6346586
0
ARC
8
DEFAULT_255_1_234
10
20.2413936
20
36.72029
40
0.2111472
50
293.8553404
51
310.0518804
0
ARC
8
DEFAULT_255_1_234
10
20.241879
20
36.7140516
40
0.2060917
50
311.0646779
51
332.0108348
0
ARC
8
DEFAULT_255_1_234
10
20.1226517
20
36.7797978
40
0.3422352
50
331.6588543
51
343.2878891
0
ARC
8
DEFAULT_255_1_234
10
19.9164032
20
36.8431798
40
0.5580003
50
343.1446044
51
351.010618
0
ARC
8
DEFAULT_255_1_234
10
19.7622678
20
36.8712871
40
0.7146438
50
350.7157277
51
351.1602153
0
LINE
8
DEFAULT_255_1_234
10
21.7334218
20
37.0112534
11
21.7334218
21
36.9373614
0
LINE
8
DEFAULT_255_1_234
10
20.7929052
20
36.9269201
11
20.7929052
21
37.0112534
0
LINE
8
DEFAULT_255_1_234
10
21.5800156
20
36.9261169
11
21.5800156
21
37.0128597
0
LINE
8
DEFAULT_255_1_234
10
20.9463114
20
37.023301
11
20.9463114
21
36.9373614
0
ARC
8
DEFAULT_255_1_234
10
20.8692244
20
36.9334015
40
0.8642064
50
350.487711
51
0.2625388
0
ARC
8
DEFAULT_255_1_234
10
21.0985486
20
36.8939578
40
0.631518
50
336.0277639
51
350.5787438
0
ARC
8
DEFAULT_255_1_234
10
21.2330309
20
36.8331892
40
0.4839466
50
319.8877444
51
336.1328423
0
ARC
8
DEFAULT_255_1_234
10
21.293295
20
36.784958
40
0.4067874
50
302.4806467
51
319.6143626
0
ARC
8
DEFAULT_255_1_234
10
21.281796
20
36.8071202
40
0.4316636
50
275.8195682
51
302.1884709
0
ARC
8
DEFAULT_255_1_234
10
21.2651593
20
36.9213665
40
0.5470306
50
269.9171439
51
276.3397983
0
ARC
8
DEFAULT_255_1_234
10
21.2606803
20
36.8527681
40
0.4784458
50
252.5219675
51
270.4416499
0
ARC
8
DEFAULT_255_1_234
10
21.2463062
20
36.7988592
40
0.422716
50
237.5352116
51
252.1857531
0
ARC
8
DEFAULT_255_1_234
10
21.2552258
20
36.8102363
40
0.4371052
50
209.063312
51
237.3492538
0
ARC
8
DEFAULT_255_1_234
10
21.3422106
20
36.8648685
40
0.5397041
50
205.1183774
51
209.6470015
0
ARC
8
DEFAULT_255_1_234
10
21.4219143
20
36.898683
40
0.6262326
50
188.7215458
51
204.8240747
0
ARC
8
DEFAULT_255_1_234
10
21.6216671
20
36.9323067
40
0.8287794
50
180.3723947
51
188.9252049
0
ARC
8
DEFAULT_255_1_234
10
21.6189423
20
37.0152402
40
0.8260467
50
169.5253763
51
180.2765336
0
ARC
8
DEFAULT_255_1_234
10
21.4286871
20
37.0502309
40
0.6326007
50
155.8315255
51
169.5089989
0
ARC
8
DEFAULT_255_1_234
10
21.3006373
20
37.1096348
40
0.4914567
50
139.6258461
51
156.0379525
0
ARC
8
DEFAULT_255_1_234
10
21.2416706
20
37.1570799
40
0.4158054
50
122.6416387
51
139.3430715
0
ARC
8
DEFAULT_255_1_234
10
21.2517326
20
37.1387451
40
0.4366739
50
93.0223692
51
122.455762
0
ARC
8
DEFAULT_255_1_234
10
21.2625323
20
37.0422709
40
0.5336137
50
89.975342
51
93.6341897
0
ARC
8
DEFAULT_255_1_234
10
21.2664102
20
37.0821242
40
0.4937738
50
73.746375
51
90.4233405
0
ARC
8
DEFAULT_255_1_234
10
21.2839681
20
37.1501287
40
0.4235786
50
57.662753
51
73.4518111
0
ARC
8
DEFAULT_255_1_234
10
21.2831687
20
37.1522832
40
0.4221899
50
29.1440151
51
57.414694
0
ARC
8
DEFAULT_255_1_234
10
21.1896882
20
37.0939005
40
0.5322966
50
24.0982783
51
29.7323517
0
ARC
8
DEFAULT_255_1_234
10
21.0863157
20
37.0510399
40
0.6441673
50
8.6655297
51
23.8241346
0
ARC
8
DEFAULT_255_1_234
10
20.8628895
20
37.0145854
40
0.8705386
50
359.7806941
51
8.8218784
0
ARC
8
DEFAULT_255_1_234
10
20.7481893
20
37.0171345
40
0.8318373
50
359.7055579
51
8.036044
0
ARC
8
DEFAULT_255_1_234
10
21.0481899
20
37.0608239
40
0.5286768
50
7.8928306
51
20.2962107
0
ARC
8
DEFAULT_255_1_234
10
21.210947
20
37.1208395
40
0.3552073
50
20.3231126
51
36.4992797
0
ARC
8
DEFAULT_255_1_234
10
21.2795016
20
37.1736402
40
0.2686974
50
36.1437156
51
85.6627023
0
ARC
8
DEFAULT_255_1_234
10
21.2632562
20
37.0696221
40
0.373739
50
84.3852322
51
90.0757696
0
ARC
8
DEFAULT_255_1_234
10
21.2590234
20
37.1356839
40
0.3076997
50
89.3038458
51
109.9045693
0
ARC
8
DEFAULT_255_1_234
10
21.2497625
20
37.1739062
40
0.2686424
50
110.8228367
51
143.9179474
0
ARC
8
DEFAULT_255_1_234
10
21.3431285
20
37.1026236
40
0.3860887
50
143.5289163
51
163.2980757
0
ARC
8
DEFAULT_255_1_234
10
21.5339106
20
37.0426433
40
0.5860659
50
163.0418846
51
174.3140048
0
ARC
8
DEFAULT_255_1_234
10
21.7743218
20
37.0148854
40
0.8280531
50
174.0509143
51
179.4176892
0
ARC
8
DEFAULT_255_1_234
10
21.7238957
20
36.9331954
40
0.7775954
50
179.6930361
51
188.7906598
0
ARC
8
DEFAULT_255_1_234
10
21.4575436
20
36.8905935
40
0.5078633
50
188.6331305
51
202.5629587
0
ARC
8
DEFAULT_255_1_234
10
21.3321028
20
36.8401996
40
0.3726913
50
202.8081362
51
216.1193925
0
ARC
8
DEFAULT_255_1_234
10
21.2511598
20
36.7750676
40
0.2689577
50
215.0755913
51
264.6379694
0
ARC
8
DEFAULT_255_1_234
10
21.2638548
20
36.8581513
40
0.3528978
50
263.846392
51
270.0833719
0
ARC
8
DEFAULT_255_1_234
10
21.2679938
20
36.8323374
40
0.3271036
50
269.3649385
51
287.5152008
0
ARC
8
DEFAULT_255_1_234
10
21.2858096
20
36.7676238
40
0.2600406
50
288.0630309
51
323.8113348
0
ARC
8
DEFAULT_255_1_234
10
21.1986937
20
36.8326049
40
0.3687189
50
323.6547608
51
342.6590488
0
ARC
8
DEFAULT_255_1_234
10
20.9955552
20
36.8986952
40
0.5823286
50
342.4091907
51
353.6451149
0
ARC
8
DEFAULT_255_1_234
10
20.7124063
20
36.933919
40
0.8676442
50
353.4029884
51
359.4847795
0
LINE
8
DEFAULT_255_1_234
10
21.9647358
20
37.5598211
11
22.1639229
21
37.5598211
0
LINE
8
DEFAULT_255_1_234
10
22.1639229
20
37.5598211
11
22.5462337
21
36.6056506
0
LINE
8
DEFAULT_255_1_234
10
22.5462337
20
36.6056506
11
22.9285444
21
37.5598211
0
LINE
8
DEFAULT_255_1_234
10
22.9285444
20
37.5598211
11
23.1285347
21
37.5598211
0
LINE
8
DEFAULT_255_1_234
10
23.1285347
20
37.5598211
11
23.1285347
21
36.3904
0
LINE
8
DEFAULT_255_1_234
10
23.1285347
20
36.3904
11
22.9743253
21
36.3904
0
LINE
8
DEFAULT_255_1_234
10
22.9743253
20
36.3904
11
22.9743253
21
36.8457996
0
LINE
8
DEFAULT_255_1_234
10
22.9743253
20
36.8457996
11
22.9887825
21
37.3373419
0
LINE
8
DEFAULT_255_1_234
10
22.9887825
20
37.3373419
11
22.6048654
21
36.3904
0
LINE
8
DEFAULT_255_1_234
10
22.6048654
20
36.3904
11
22.4867988
21
36.3904
0
LINE
8
DEFAULT_255_1_234
10
22.4867988
20
36.3904
11
22.1036849
21
37.3349324
0
LINE
8
DEFAULT_255_1_234
10
22.1036849
20
37.3349324
11
22.1189452
21
36.8457996
0
LINE
8
DEFAULT_255_1_234
10
22.1189452
20
36.8457996
11
22.1189452
21
36.3904
0
LINE
8
DEFAULT_255_1_234
10
22.1189452
20
36.3904
11
21.9647358
21
36.3904
0
LINE
8
DEFAULT_255_1_234
10
21.9647358
20
36.3904
11
21.9647358
21
37.5598211
0
LINE
8
DEFAULT_255_1_234
10
23.850588
20
37.5654433
11
23.850588
21
36.3904
0
LINE
8
DEFAULT_255_1_234
10
23.850588
20
36.3904
11
23.7011977
21
36.3904
0
LINE
8
DEFAULT_255_1_234
10
23.7011977
20
36.3904
11
23.7011977
21
37.3807133
0
LINE
8
DEFAULT_255_1_234
10
23.7011977
20
37.3807133
11
23.4016138
21
37.2706785
0
LINE
8
DEFAULT_255_1_234
10
23.4016138
20
37.2706785
11
23.4016138
21
37.4056117
0
LINE
8
DEFAULT_255_1_234
10
23.4016138
20
37.4056117
11
23.8272959
21
37.5654433
0
LINE
8
DEFAULT_255_1_234
10
23.8272959
20
37.5654433
11
23.850588
21
37.5654433
0
LINE
8
DEFAULT_255_1_234
10
20.459423
20
44.6989663
11
20.6144355
21
44.6989663
0
LINE
8
DEFAULT_255_1_234
10
19.7140777
20
44.8579947
11
19.7140777
21
44.9704391
0
LINE
8
DEFAULT_255_1_234
10
20.6144355
20
45.1214357
11
20.459423
21
45.1214357
0
LINE
8
DEFAULT_255_1_234
10
19.8690902
20
44.9664232
11
19.8690902
21
44.8531757
0
ARC
8
DEFAULT_255_1_234
10
20.0663742
20
44.7586846
40
0.5513052
50
340.1774281
51
353.7814284
0
ARC
8
DEFAULT_255_1_234
10
20.2235095
20
44.7001582
40
0.3836379
50
311.4558989
51
340.4421614
0
ARC
8
DEFAULT_255_1_234
10
20.2201763
20
44.7112528
40
0.3941894
50
282.4333181
51
310.7513653
0
ARC
8
DEFAULT_255_1_234
10
20.1762502
20
44.8927679
40
0.5809175
50
269.9358511
51
282.809604
0
ARC
8
DEFAULT_255_1_234
10
20.1710568
20
45.0385212
40
0.7266847
50
270.0021091
51
270.3581957
0
ARC
8
DEFAULT_255_1_234
10
20.1657985
20
44.7784585
40
0.4666519
50
250.7884749
51
270.6489167
0
ARC
8
DEFAULT_255_1_234
10
20.148982
20
44.7147319
40
0.4009729
50
219.3627325
51
250.0611886
0
ARC
8
DEFAULT_255_1_234
10
20.2319031
20
44.7852042
40
0.5097822
50
193.5479632
51
219.5756669
0
ARC
8
DEFAULT_255_1_234
10
20.4690652
20
44.8467919
40
0.7547848
50
181.1218675
51
193.87563
0
ARC
8
DEFAULT_255_1_234
10
20.6760833
20
44.857858
40
0.9620055
50
179.9918545
51
181.5394234
0
ARC
8
DEFAULT_255_1_234
10
20.4909935
20
44.9741788
40
0.7769248
50
169.5837241
51
180.2757934
0
ARC
8
DEFAULT_255_1_234
10
20.3072873
20
45.0081229
40
0.590109
50
155.0365899
51
169.6003176
0
ARC
8
DEFAULT_255_1_234
10
20.1937337
20
45.0628677
40
0.4640625
50
136.783148
51
155.2472683
0
ARC
8
DEFAULT_255_1_234
10
20.1547814
20
45.0959562
40
0.4130255
50
121.7633186
51
136.428115
0
ARC
8
DEFAULT_255_1_234
10
20.1682776
20
45.0710227
40
0.4413323
50
95.6459699
51
121.5490577
0
ARC
8
DEFAULT_255_1_234
10
20.1840058
20
44.9601949
40
0.55319
50
89.924208
51
96.1377933
0
ARC
8
DEFAULT_255_1_234
10
20.1890491
20
44.9720542
40
0.5413475
50
76.6779277
51
90.4563316
0
ARC
8
DEFAULT_255_1_234
10
20.2284114
20
45.1311114
40
0.3775041
50
47.485847
51
76.9287264
0
ARC
8
DEFAULT_255_1_234
10
20.2137087
20
45.1211159
40
0.3948286
50
16.5424086
51
46.8933463
0
ARC
8
DEFAULT_255_1_234
10
20.0529244
20
45.0682861
40
0.564021
50
5.4072051
51
17.0365086
0
ARC
8
DEFAULT_255_1_234
10
19.9090261
20
45.0451679
40
0.5556559
50
7.8891745
51
15.9239216
0
ARC
8
DEFAULT_255_1_234
10
20.1077274
20
45.1028631
40
0.3487515
50
15.7653144
51
27.9410532
0
ARC
8
DEFAULT_255_1_234
10
20.2181492
20
45.161979
40
0.2235026
50
27.8166557
51
46.4008329
0
ARC
8
DEFAULT_255_1_234
10
20.2231135
20
45.1614082
40
0.2205286
50
47.4371857
51
75.0698205
0
ARC
8
DEFAULT_255_1_234
10
20.1922529
20
45.0539765
40
0.3322915
50
74.7008593
51
87.8124495
0
ARC
8
DEFAULT_255_1_234
10
20.1849217
20
44.9483844
40
0.4380987
50
87.3814673
51
90.0240855
0
ARC
8
DEFAULT_255_1_234
10
20.181076
20
45.0661291
40
0.3203749
50
89.3451631
51
108.5745436
0
ARC
8
DEFAULT_255_1_234
10
20.1673865
20
45.1174908
40
0.2673494
50
109.2998449
51
143.3037509
0
ARC
8
DEFAULT_255_1_234
10
20.2435938
20
45.0588881
40
0.3634757
50
143.0753173
51
163.1916937
0
ARC
8
DEFAULT_255_1_234
10
20.4387666
20
44.9972967
40
0.5681262
50
162.9373603
51
174.6208611
0
ARC
8
DEFAULT_255_1_234
10
20.7013708
20
44.968501
40
0.8322832
50
174.3419979
51
180.1430411
0
ARC
8
DEFAULT_255_1_234
10
20.6082864
20
44.8490698
40
0.7392076
50
179.6817502
51
189.150529
0
ARC
8
DEFAULT_255_1_234
10
20.3582112
20
44.807419
40
0.4856932
50
188.9910863
51
203.5773039
0
ARC
8
DEFAULT_255_1_234
10
20.2502445
20
44.7626211
40
0.3688271
50
203.9077269
51
215.1312379
0
ARC
8
DEFAULT_255_1_234
10
20.1579539
20
44.6910941
40
0.2522457
50
213.9071664
51
263.8849284
0
ARC
8
DEFAULT_255_1_234
10
20.1704868
20
44.7695518
40
0.3316174
50
263.1758525
51
270.1031083
0
ARC
8
DEFAULT_255_1_234
10
20.173696
20
44.8942365
40
0.4563091
50
269.6719807
51
279.0609165
0
ARC
8
DEFAULT_255_1_234
10
20.2003728
20
44.7329907
40
0.2928759
50
278.8750225
51
293.6346586
0
ARC
8
DEFAULT_255_1_234
10
20.2323936
20
44.65779
40
0.2111472
50
293.8553404
51
310.0518804
0
ARC
8
DEFAULT_255_1_234
10
20.232879
20
44.6515516
40
0.2060917
50
311.0646779
51
332.0108348
0
ARC
8
DEFAULT_255_1_234
10
20.1136517
20
44.7172978
40
0.3422352
50
331.6588543
51
343.2878891
0
ARC
8
DEFAULT_255_1_234
10
19.9074032
20
44.7806798
40
0.5580003
50
343.1446044
51
351.010618
0
ARC
8
DEFAULT_255_1_234
10
19.7532678
20
44.8087871
40
0.7146438
50
350.7157277
51
351.1602153
0
LINE
8
DEFAULT_255_1_234
10
21.7244218
20
44.9487534
11
21.7244218
21
44.8748614
0
LINE
8
DEFAULT_255_1_234
10
20.7839052
20
44.8644201
11
20.7839052
21
44.9487534
0
LINE
8
DEFAULT_255_1_234
10
21.5710156
20
44.8636169
11
21.5710156
21
44.9503597
0
LINE
8
DEFAULT_255_1_234
10
20.9373114
20
44.960801
11
20.9373114
21
44.8748614
0
ARC
8
DEFAULT_255_1_234
10
20.8602244
20
44.8709015
40
0.8642064
50
350.487711
51
0.2625388
0
ARC
8
DEFAULT_255_1_234
10
21.0895486
20
44.8314578
40
0.631518
50
336.0277639
51
350.5787438
0
ARC
8
DEFAULT_255_1_234
10
21.2240309
20
44.7706892
40
0.4839466
50
319.8877444
51
336.1328423
0
ARC
8
DEFAULT_255_1_234
10
21.284295
20
44.722458
40
0.4067874
50
302.4806467
51
319.6143626
0
ARC
8
DEFAULT_255_1_234
10
21.272796
20
44.7446202
40
0.4316636
50
275.8195682
51
302.1884709
0
ARC
8
DEFAULT_255_1_234
10
21.2561593
20
44.8588665
40
0.5470306
50
269.9171439
51
276.3397983
0
ARC
8
DEFAULT_255_1_234
10
21.2516803
20
44.7902681
40
0.4784458
50
252.5219675
51
270.4416499
0
ARC
8
DEFAULT_255_1_234
10
21.2373062
20
44.7363592
40
0.422716
50
237.5352116
51
252.1857531
0
ARC
8
DEFAULT_255_1_234
10
21.2462258
20
44.7477363
40
0.4371052
50
209.063312
51
237.3492538
0
ARC
8
DEFAULT_255_1_234
10
21.3332106
20
44.8023685
40
0.5397041
50
205.1183774
51
209.6470015
0
ARC
8
DEFAULT_255_1_234
10
21.4129143
20
44.836183
40
0.6262326
50
188.7215458
51
204.8240747
0
ARC
8
DEFAULT_255_1_234
10
21.6126671
20
44.8698067
40
0.8287794
50
180.3723947
51
188.9252049
0
ARC
8
DEFAULT_255_1_234
10
21.6099423
20
44.9527402
40
0.8260467
50
169.5253763
51
180.2765336
0
ARC
8
DEFAULT_255_1_234
10
21.4196871
20
44.9877309
40
0.6326007
50
155.8315255
51
169.5089989
0
ARC
8
DEFAULT_255_1_234
10
21.2916373
20
45.0471348
40
0.4914567
50
139.6258461
51
156.0379525
0
ARC
8
DEFAULT_255_1_234
10
21.2326706
20
45.0945799
40
0.4158054
50
122.6416387
51
139.3430715
0
ARC
8
DEFAULT_255_1_234
10
21.2427326
20
45.0762451
40
0.4366739
50
93.0223692
51
122.455762
0
ARC
8
DEFAULT_255_1_234
10
21.2535323
20
44.9797709
40
0.5336137
50
89.975342
51
93.6341897
0
ARC
8
DEFAULT_255_1_234
10
21.2574102
20
45.0196242
40
0.4937738
50
73.746375
51
90.4233405
0
ARC
8
DEFAULT_255_1_234
10
21.2749681
20
45.0876287
40
0.4235786
50
57.662753
51
73.4518111
0
ARC
8
DEFAULT_255_1_234
10
21.2741687
20
45.0897832
40
0.4221899
50
29.1440151
51
57.414694
0
ARC
8
DEFAULT_255_1_234
10
21.1806882
20
45.0314005
40
0.5322966
50
24.0982783
51
29.7323517
0
ARC
8
DEFAULT_255_1_234
10
21.0773157
20
44.9885399
40
0.6441673
50
8.6655297
51
23.8241346
0
ARC
8
DEFAULT_255_1_234
10
20.8538895
20
44.9520854
40
0.8705386
50
359.7806941
51
8.8218784
0
ARC
8
DEFAULT_255_1_234
10
20.7391893
20
44.9546345
40
0.8318373
50
359.7055579
51
8.036044
0
ARC
8
DEFAULT_255_1_234
10
21.0391899
20
44.9983239
40
0.5286768
50
7.8928306
51
20.2962107
0
ARC
8
DEFAULT_255_1_234
10
21.201947
20
45.0583395
40
0.3552073
50
20.3231126
51
36.4992797
0
ARC
8
DEFAULT_255_1_234
10
21.2705016
20
45.1111402
40
0.2686974
50
36.1437156
51
85.6627023
0
ARC
8
DEFAULT_255_1_234
10
21.2542562
20
45.0071221
40
0.373739
50
84.3852322
51
90.0757696
0
ARC
8
DEFAULT_255_1_234
10
21.2500234
20
45.0731839
40
0.3076997
50
89.3038458
51
109.9045693
0
ARC
8
DEFAULT_255_1_234
10
21.2407625
20
45.1114062
40
0.2686424
50
110.8228367
51
143.9179474
0
ARC
8
DEFAULT_255_1_234
10
21.3341285
20
45.0401236
40
0.3860887
50
143.5289163
51
163.2980757
0
ARC
8
DEFAULT_255_1_234
10
21.5249106
20
44.9801433
40
0.5860659
50
163.0418846
51
174.3140048
0
ARC
8
DEFAULT_255_1_234
10
21.7653218
20
44.9523854
40
0.8280531
50
174.0509143
51
179.4176892
0
ARC
8
DEFAULT_255_1_234
10
21.7148957
20
44.8706954
40
0.7775954
50
179.6930361
51
188.7906598
0
ARC
8
DEFAULT_255_1_234
10
21.4485436
20
44.8280935
40
0.5078633
50
188.6331305
51
202.5629587
0
ARC
8
DEFAULT_255_1_234
10
21.3231028
20
44.7776996
40
0.3726913
50
202.8081362
51
216.1193925
0
ARC
8
DEFAULT_255_1_234
10
21.2421598
20
44.7125676
40
0.2689577
50
215.0755913
51
264.6379694
0
ARC
8
DEFAULT_255_1_234
10
21.2548548
20
44.7956513
40
0.3528978
50
263.846392
51
270.0833719
0
ARC
8
DEFAULT_255_1_234
10
21.2589938
20
44.7698374
40
0.3271036
50
269.3649385
51
287.5152008
0
ARC
8
DEFAULT_255_1_234
10
21.2768096
20
44.7051238
40
0.2600406
50
288.0630309
51
323.8113348
0
ARC
8
DEFAULT_255_1_234
10
21.1896937
20
44.7701049
40
0.3687189
50
323.6547608
51
342.6590488
0
ARC
8
DEFAULT_255_1_234
10
20.9865552
20
44.8361952
40
0.5823286
50
342.4091907
51
353.6451149
0
ARC
8
DEFAULT_255_1_234
10
20.7034063
20
44.871419
40
0.8676442
50
353.4029884
51
359.4847795
0
LINE
8
DEFAULT_255_1_234
10
21.9557358
20
45.4973211
11
22.1549229
21
45.4973211
0
LINE
8
DEFAULT_255_1_234
10
22.1549229
20
45.4973211
11
22.5372337
21
44.5431506
0
LINE
8
DEFAULT_255_1_234
10
22.5372337
20
44.5431506
11
22.9195444
21
45.4973211
0
LINE
8
DEFAULT_255_1_234
10
22.9195444
20
45.4973211
11
23.1195347
21
45.4973211
0
LINE
8
DEFAULT_255_1_234
10
23.1195347
20
45.4973211
11
23.1195347
21
44.3279
0
LINE
8
DEFAULT_255_1_234
10
23.1195347
20
44.3279
11
22.9653253
21
44.3279
0
LINE
8
DEFAULT_255_1_234
10
22.9653253
20
44.3279
11
22.9653253
21
44.7832996
0
LINE
8
DEFAULT_255_1_234
10
22.9653253
20
44.7832996
11
22.9797825
21
45.2748419
0
LINE
8
DEFAULT_255_1_234
10
22.9797825
20
45.2748419
11
22.5958654
21
44.3279
0
LINE
8
DEFAULT_255_1_234
10
22.5958654
20
44.3279
11
22.4777988
21
44.3279
0
LINE
8
DEFAULT_255_1_234
10
22.4777988
20
44.3279
11
22.0946849
21
45.2724324
0
LINE
8
DEFAULT_255_1_234
10
22.0946849
20
45.2724324
11
22.1099452
21
44.7832996
0
LINE
8
DEFAULT_255_1_234
10
22.1099452
20
44.7832996
11
22.1099452
21
44.3279
0
LINE
8
DEFAULT_255_1_234
10
22.1099452
20
44.3279
11
21.9557358
21
44.3279
0
LINE
8
DEFAULT_255_1_234
10
21.9557358
20
44.3279
11
21.9557358
21
45.4973211
0
LINE
8
DEFAULT_255_1_234
10
24.086556
20
45.0194327
11
24.086556
21
44.8266709
0
LINE
8
DEFAULT_255_1_234
10
23.3484393
20
44.8065916
11
23.3484393
21
45.0049755
0
LINE
8
DEFAULT_255_1_234
10
23.9379688
20
44.7865123
11
23.9379688
21
45.0298739
0
LINE
8
DEFAULT_255_1_234
10
23.4970264
20
45.0411184
11
23.4970264
21
44.8033789
0
ARC
8
DEFAULT_255_1_234
10
22.861845
20
44.8217805
40
1.2247208
50
353.8441951
51
0.2287902
0
ARC
8
DEFAULT_255_1_234
10
23.3257953
20
44.7699806
40
0.7578929
50
344.4934747
51
353.9765454
0
ARC
8
DEFAULT_255_1_234
10
23.6250543
20
44.6848981
40
0.4467846
50
329.2803592
51
344.7472793
0
ARC
8
DEFAULT_255_1_234
10
23.7243368
20
44.6304018
40
0.3336173
50
324.9352394
51
328.6160465
0
ARC
8
DEFAULT_255_1_234
10
23.7620477
20
44.6040427
40
0.2876076
50
280.580143
51
324.9173126
0
ARC
8
DEFAULT_255_1_234
10
23.721927
20
44.7711099
40
0.4592847
50
269.5977311
51
281.6734359
0
ARC
8
DEFAULT_255_1_234
10
23.7147175
20
44.7591173
40
0.4472986
50
256.6228859
51
270.51044
0
ARC
8
DEFAULT_255_1_234
10
23.6745153
20
44.6042877
40
0.2873874
50
215.8618325
51
257.2788573
0
ARC
8
DEFAULT_255_1_234
10
23.7766185
20
44.6727977
40
0.4102928
50
197.9693508
51
215.2623606
0
ARC
8
DEFAULT_255_1_234
10
24.02513
20
44.7566709
40
0.6725652
50
187.8816417
51
198.2346507
0
ARC
8
DEFAULT_255_1_234
10
24.4209509
20
44.8138079
40
1.0724845
50
180.8976217
51
188.0055519
0
ARC
8
DEFAULT_255_1_234
10
24.7009697
20
44.8241777
40
1.3526448
50
180.7449369
51
181.1510016
0
ARC
8
DEFAULT_255_1_234
10
24.5432426
20
45.0098042
40
1.1948131
50
173.7675579
51
180.231553
0
ARC
8
DEFAULT_255_1_234
10
24.0914572
20
45.0608666
40
0.7401564
50
164.3058563
51
173.9002247
0
ARC
8
DEFAULT_255_1_234
10
23.8002641
20
45.1447656
40
0.4371288
50
148.7922025
51
164.568378
0
ARC
8
DEFAULT_255_1_234
10
23.7051093
20
45.1978929
40
0.3282386
50
144.5883898
51
148.1176286
0
ARC
8
DEFAULT_255_1_234
10
23.6707991
20
45.2218315
40
0.2864044
50
101.6440918
51
144.514236
0
ARC
8
DEFAULT_255_1_234
10
23.7133058
20
45.0529069
40
0.4604934
50
89.5284041
51
102.5819763
0
ARC
8
DEFAULT_255_1_234
10
23.7212146
20
45.0490018
40
0.464401
50
77.0437873
51
90.5081339
0
ARC
8
DEFAULT_255_1_234
10
23.7614148
20
45.2132615
40
0.2953195
50
48.2778575
51
77.4994676
0
ARC
8
DEFAULT_255_1_234
10
23.7686779
20
45.2261746
40
0.2808655
50
36.3142134
51
47.6305865
0
ARC
8
DEFAULT_255_1_234
10
23.6818086
20
45.1676515
40
0.3855453
50
18.2931786
51
35.6769206
0
ARC
8
DEFAULT_255_1_234
10
23.4274845
20
45.0803593
40
0.654423
50
8.024666
51
18.5605216
0
ARC
8
DEFAULT_255_1_234
10
23.0111765
20
45.0188792
40
1.0752407
50
1.1274072
51
8.1718305
0
ARC
8
DEFAULT_255_1_234
10
22.6875955
20
45.0061885
40
1.3990231
50
0.5424119
51
1.3863029
0
ARC
8
DEFAULT_255_1_234
10
22.8697333
20
45.0334342
40
1.0682415
50
359.8090433
51
4.9407866
0
ARC
8
DEFAULT_255_1_234
10
23.2907347
20
45.0710113
40
0.6455691
50
4.8362157
51
12.2904523
0
ARC
8
DEFAULT_255_1_234
10
23.5662462
20
45.1323965
40
0.3633074
50
12.0805627
51
23.8173984
0
ARC
8
DEFAULT_255_1_234
10
23.6836167
20
45.1820919
40
0.2358723
50
24.2871213
51
31.3935614
0
ARC
8
DEFAULT_255_1_234
10
23.7360864
20
45.2164233
40
0.1732111
50
30.7407893
51
82.4657128
0
ARC
8
DEFAULT_255_1_234
10
23.7180999
20
45.1280691
40
0.263235
50
81.1060089
51
90.2184952
0
ARC
8
DEFAULT_255_1_234
10
23.7145298
20
45.1538924
40
0.2374236
50
89.3806855
51
105.6762551
0
ARC
8
DEFAULT_255_1_234
10
23.6961928
20
45.2205567
40
0.1682847
50
105.7981136
51
149.7388061
0
ARC
8
DEFAULT_255_1_234
10
23.8026007
20
45.156595
40
0.2924306
50
149.4208916
51
163.6286378
0
ARC
8
DEFAULT_255_1_234
10
24.0116895
20
45.092825
40
0.5110213
50
163.3763315
51
172.1410975
0
ARC
8
DEFAULT_255_1_234
10
24.3417614
20
45.0455518
40
0.8444586
50
172.0259487
51
178.0703232
0
ARC
8
DEFAULT_255_1_234
10
24.6447703
20
45.0311906
40
1.1477868
50
177.8631668
51
179.5044149
0
ARC
8
DEFAULT_255_1_234
10
24.5375108
20
44.7997389
40
1.0404907
50
179.7995573
51
185.2460446
0
ARC
8
DEFAULT_255_1_234
10
24.1332147
20
44.7614513
40
0.6343885
50
185.1411642
51
193.0079639
0
ARC
8
DEFAULT_255_1_234
10
23.8688619
20
44.6989641
40
0.3627568
50
192.7897626
51
205.2507664
0
ARC
8
DEFAULT_255_1_234
10
23.7642166
20
44.6522415
40
0.2481908
50
205.8005384
51
211.2537509
0
ARC
8
DEFAULT_255_1_234
10
23.7118607
20
44.617158
40
0.1852521
50
210.3789793
51
238.4008143
0
ARC
8
DEFAULT_255_1_234
10
23.7099129
20
44.6218376
40
0.1882621
50
239.6520629
51
265.9793761
0
ARC
8
DEFAULT_255_1_234
10
23.7184329
20
44.6890427
40
0.2559272
50
265.1315437
51
270.060332
0
ARC
8
DEFAULT_255_1_234
10
23.7213108
20
44.6566534
40
0.2235528
50
269.3314664
51
287.2178029
0
ARC
8
DEFAULT_255_1_234
10
23.735096
20
44.6063279
40
0.1714108
50
287.7958004
51
329.080874
0
ARC
8
DEFAULT_255_1_234
10
23.6393416
20
44.666093
40
0.2842745
50
328.6634704
51
343.3325132
0
ARC
8
DEFAULT_255_1_234
10
23.4220437
20
44.7337863
40
0.5118644
50
343.0499468
51
351.9393422
0
ARC
8
DEFAULT_255_1_234
10
23.0753736
20
44.7848949
40
0.8622784
50
351.8069023
51
357.7959224
0
ARC
8
DEFAULT_255_1_234
10
22.7518292
20
44.8016721
40
1.1862365
50
357.5871873
51
359.2677531
0
LINE
8
DEFAULT_255_1_234
10
22.5181458
20
53.4348211
11
22.8217456
21
52.847701
0
LINE
8
DEFAULT_255_1_234
10
22.8217456
20
52.847701
11
23.1269516
21
53.4348211
0
LINE
8
DEFAULT_255_1_234
10
23.1269516
20
53.4348211
11
23.3020435
21
53.4348211
0
LINE
8
DEFAULT_255_1_234
10
23.3020435
20
53.4348211
11
22.8988502
21
52.7015234
0
LINE
8
DEFAULT_255_1_234
10
22.8988502
20
52.7015234
11
22.8988502
21
52.2654
0
LINE
8
DEFAULT_255_1_234
10
22.8988502
20
52.2654
11
22.7446409
21
52.2654
0
LINE
8
DEFAULT_255_1_234
10
22.7446409
20
52.2654
11
22.7446409
21
52.7015234
0
LINE
8
DEFAULT_255_1_234
10
22.7446409
20
52.7015234
11
22.3414476
21
53.4348211
0
LINE
8
DEFAULT_255_1_234
10
22.3414476
20
53.4348211
11
22.5181458
21
53.4348211
0
LINE
8
DEFAULT_255_1_234
10
24.1694712
20
53.4348211
11
24.1694712
21
53.351291
0
LINE
8
DEFAULT_255_1_234
10
24.1694712
20
53.351291
11
23.6851574
21
52.2654
0
LINE
8
DEFAULT_255_1_234
10
23.6851574
20
52.2654
11
23.5293417
21
52.2654
0
LINE
8
DEFAULT_255_1_234
10
23.5293417
20
52.2654
11
24.0120492
21
53.3127387
0
LINE
8
DEFAULT_255_1_234
10
24.0120492
20
53.3127387
11
23.3791482
21
53.3127387
0
LINE
8
DEFAULT_255_1_234
10
23.3791482
20
53.3127387
11
23.3791482
21
53.4348211
0
LINE
8
DEFAULT_255_1_234
10
23.3791482
20
53.4348211
11
24.1694712
21
53.4348211
0
LINE
8
DEFAULT_255_1_234
10
22.5181458
20
61.3723211
11
22.8217456
21
60.785201
0
LINE
8
DEFAULT_255_1_234
10
22.8217456
20
60.785201
11
23.1269516
21
61.3723211
0
LINE
8
DEFAULT_255_1_234
10
23.1269516
20
61.3723211
11
23.3020435
21
61.3723211
0
LINE
8
DEFAULT_255_1_234
10
23.3020435
20
61.3723211
11
22.8988502
21
60.6390234
0
LINE
8
DEFAULT_255_1_234
10
22.8988502
20
60.6390234
11
22.8988502
21
60.2029
0
LINE
8
DEFAULT_255_1_234
10
22.8988502
20
60.2029
11
22.7446409
21
60.2029
0
LINE
8
DEFAULT_255_1_234
10
22.7446409
20
60.2029
11
22.7446409
21
60.6390234
0
LINE
8
DEFAULT_255_1_234
10
22.7446409
20
60.6390234
11
22.3414476
21
61.3723211
0
LINE
8
DEFAULT_255_1_234
10
22.3414476
20
61.3723211
11
22.5181458
21
61.3723211
0
LINE
8
DEFAULT_255_1_234
10
23.9710873
20
61.3731243
11
23.997592
21
61.3731243
0
LINE
8
DEFAULT_255_1_234
10
23.997592
20
61.3731243
11
23.997592
21
61.247026
0
LINE
8
DEFAULT_255_1_234
10
23.997592
20
61.247026
11
23.9702841
21
61.247026
0
LINE
8
DEFAULT_255_1_234
10
23.4233228
20
60.6478583
11
23.4233228
21
60.7048836
0
LINE
8
DEFAULT_255_1_234
10
23.5727131
20
60.6856075
11
23.5727131
21
60.6309917
0
ARC
8
DEFAULT_255_1_234
10
23.9755189
20
60.7472455
40
0.4998079
50
90.6001036
51
104.514704
0
ARC
8
DEFAULT_255_1_234
10
23.9366705
20
60.8917131
40
0.3502176
50
104.2855254
51
133.862935
0
ARC
8
DEFAULT_255_1_234
10
23.9530462
20
60.880883
40
0.3693984
50
134.5302688
51
161.6210873
0
ARC
8
DEFAULT_255_1_234
10
24.1183651
20
60.8225895
40
0.5446739
50
161.2849839
51
174.2076652
0
ARC
8
DEFAULT_255_1_234
10
24.2590588
20
60.8031787
40
0.6866274
50
173.7810589
51
174.9254635
0
ARC
8
DEFAULT_255_1_234
10
23.804042
20
60.6648839
40
0.3033419
50
95.8330959
51
138.9954921
0
ARC
8
DEFAULT_255_1_234
10
23.8263776
20
60.5370375
40
0.4328947
50
89.8753725
51
97.0544009
0
ARC
8
DEFAULT_255_1_234
10
23.8311242
20
60.6205748
40
0.3493769
50
71.6407809
51
90.6240094
0
ARC
8
DEFAULT_255_1_234
10
23.8461815
20
60.6760082
40
0.2920396
50
39.6367836
51
71.019018
0
ARC
8
DEFAULT_255_1_234
10
23.7825288
20
60.6209998
40
0.3761538
50
10.658731
51
39.9043955
0
ARC
8
DEFAULT_255_1_234
10
23.6277371
20
60.5873686
40
0.5345136
50
359.682601
51
11.132623
0
ARC
8
DEFAULT_255_1_234
10
23.6237502
20
60.580301
40
0.5385081
50
347.2486944
51
0.4369317
0
ARC
8
DEFAULT_255_1_234
10
23.7904979
20
60.5401807
40
0.3670249
50
318.1409698
51
347.6118597
0
ARC
8
DEFAULT_255_1_234
10
23.8229972
20
60.5134702
40
0.3250007
50
275.6342139
51
317.8248465
0
ARC
8
DEFAULT_255_1_234
10
23.8009083
20
60.6434219
40
0.4565864
50
269.8874292
51
276.7917694
0
ARC
8
DEFAULT_255_1_234
10
23.7954154
20
60.5408743
40
0.3540676
50
246.9140195
51
270.7437342
0
ARC
8
DEFAULT_255_1_234
10
23.7960544
20
60.5266384
40
0.3412781
50
218.1665114
51
245.878116
0
ARC
8
DEFAULT_255_1_234
10
23.8840005
20
60.6002279
40
0.455911
50
191.4115814
51
218.6077802
0
ARC
8
DEFAULT_255_1_234
10
24.0778094
20
60.6436833
40
0.6545001
50
179.6345085
51
191.7836486
0
ARC
8
DEFAULT_255_1_234
10
24.6360431
20
60.7115697
40
1.2127388
50
171.4525249
51
180.3158839
0
ARC
8
DEFAULT_255_1_234
10
24.1965307
20
60.7799608
40
0.7679464
50
157.9802646
51
171.6246686
0
ARC
8
DEFAULT_255_1_234
10
23.9751328
20
60.8682421
40
0.5296008
50
141.4298019
51
157.854097
0
ARC
8
DEFAULT_255_1_234
10
23.9109649
20
60.9136381
40
0.4511509
50
102.8715806
51
140.8564722
0
ARC
8
DEFAULT_255_1_234
10
23.9757264
20
60.6696552
40
0.7034845
50
90.3778349
51
103.5869322
0
ARC
8
DEFAULT_255_1_234
10
23.801904
20
60.609173
40
0.2370698
50
89.8751008
51
126.2071704
0
ARC
8
DEFAULT_255_1_234
10
23.806483
20
60.5937303
40
0.2522934
50
124.9745049
51
144.895901
0
ARC
8
DEFAULT_255_1_234
10
23.7889021
20
60.608056
40
0.2296779
50
145.2974905
51
160.2660252
0
ARC
8
DEFAULT_255_1_234
10
24.0961559
20
60.6278071
40
0.5234525
50
179.6514266
51
190.2855912
0
ARC
8
DEFAULT_255_1_234
10
23.9267697
20
60.5958786
40
0.3510893
50
190.0945431
51
207.5098196
0
ARC
8
DEFAULT_255_1_234
10
23.8701966
20
60.5689623
40
0.288489
50
207.9583163
51
216.3251085
0
ARC
8
DEFAULT_255_1_234
10
23.8362074
20
60.5410105
40
0.2445587
50
215.7661442
51
232.5456785
0
ARC
8
DEFAULT_255_1_234
10
23.7979057
20
60.4923482
40
0.1826382
50
232.8005391
51
270.6605633
0
ARC
8
DEFAULT_255_1_234
10
23.8024758
20
60.5287612
40
0.2190529
50
269.35537
51
288.4744281
0
ARC
8
DEFAULT_255_1_234
10
23.8117655
20
60.4938118
40
0.1829749
50
289.1833337
51
322.9683818
0
ARC
8
DEFAULT_255_1_234
10
23.7506177
20
60.5420391
40
0.2608399
50
322.6007884
51
346.5182367
0
ARC
8
DEFAULT_255_1_234
10
23.6348773
20
60.5715616
40
0.3802777
50
346.2582162
51
358.7741648
0
ARC
8
DEFAULT_255_1_234
10
23.5330442
20
60.5770965
40
0.4822176
50
358.3755224
51
0.0098023
0
ARC
8
DEFAULT_255_1_234
10
23.6086629
20
60.5798657
40
0.4066078
50
359.6214041
51
11.2839074
0
ARC
8
DEFAULT_255_1_234
10
23.7363776
20
60.6065066
40
0.2761514
50
11.0482309
51
31.8146458
0
ARC
8
DEFAULT_255_1_234
10
23.7672819
20
60.6232584
40
0.2410679
50
32.3035391
51
38.082671
0
ARC
8
DEFAULT_255_1_234
10
23.8093479
20
60.6613662
40
0.1844966
50
36.825067
51
85.7415724
0
ARC
8
DEFAULT_255_1_234
10
23.8026312
20
60.6113301
40
0.2349122
50
85.0140713
51
90.0513278
0
LINE
8
DEFAULT_255_1_234
10
22.5181458
20
69.3098211
11
22.8217456
21
68.722701
0
LINE
8
DEFAULT_255_1_234
10
22.8217456
20
68.722701
11
23.1269516
21
69.3098211
0
LINE
8
DEFAULT_255_1_234
10
23.1269516
20
69.3098211
11
23.3020435
21
69.3098211
0
LINE
8
DEFAULT_255_1_234
10
23.3020435
20
69.3098211
11
22.8988502
21
68.5765234
0
LINE
8
DEFAULT_255_1_234
10
22.8988502
20
68.5765234
11
22.8988502
21
68.1404
0
LINE
8
DEFAULT_255_1_234
10
22.8988502
20
68.1404
11
22.7446409
21
68.1404
0
LINE
8
DEFAULT_255_1_234
10
22.7446409
20
68.1404
11
22.7446409
21
68.5765234
0
LINE
8
DEFAULT_255_1_234
10
22.7446409
20
68.5765234
11
22.3414476
21
69.3098211
0
LINE
8
DEFAULT_255_1_234
10
22.3414476
20
69.3098211
11
22.5181458
21
69.3098211
0
LINE
8
DEFAULT_255_1_234
10
23.6016273
20
68.6961963
11
23.4827576
21
68.7267169
0
LINE
8
DEFAULT_255_1_234
10
23.4827576
20
68.7267169
11
23.5421925
21
69.3098211
0
LINE
8
DEFAULT_255_1_234
10
23.5421925
20
69.3098211
11
24.1413602
21
69.3098211
0
LINE
8
DEFAULT_255_1_234
10
24.1413602
20
69.3098211
11
24.1413602
21
69.1724784
0
LINE
8
DEFAULT_255_1_234
10
24.1413602
20
69.1724784
11
23.6682908
21
69.1724784
0
LINE
8
DEFAULT_255_1_234
10
23.6682908
20
69.1724784
11
23.6329511
21
68.8536184
0
LINE
8
DEFAULT_255_1_234
10
23.4409926
20
68.4480156
11
23.581548
21
68.4480156
0
LINE
8
DEFAULT_255_1_234
10
23.6409829
20
68.7283232
11
23.6016273
21
68.6961963
0
ARC
8
DEFAULT_255_1_234
10
23.8184295
20
68.535623
40
0.3681349
50
93.7182161
51
120.2538958
0
ARC
8
DEFAULT_255_1_234
10
23.8278558
20
68.4548394
40
0.449379
50
89.9660152
51
94.2496022
0
ARC
8
DEFAULT_255_1_234
10
23.8319292
20
68.5137549
40
0.390482
50
73.8043271
51
90.5585896
0
ARC
8
DEFAULT_255_1_234
10
23.8554189
20
68.5995602
40
0.3015334
50
41.3071453
51
73.5430202
0
ARC
8
DEFAULT_255_1_234
10
23.8138016
20
68.5637324
40
0.3564457
50
13.5075983
51
41.2174222
0
ARC
8
DEFAULT_255_1_234
10
23.649622
20
68.5207486
40
0.5261351
50
1.1331335
51
13.8829381
0
ARC
8
DEFAULT_255_1_234
10
23.5084589
20
68.5131665
40
0.6674378
50
359.9919444
51
1.544251
0
ARC
8
DEFAULT_255_1_234
10
23.6361415
20
68.509028
40
0.5397702
50
347.8572367
51
0.4293338
0
ARC
8
DEFAULT_255_1_234
10
23.8111733
20
68.4693736
40
0.3603188
50
323.673004
51
348.1672506
0
ARC
8
DEFAULT_255_1_234
10
23.8406241
20
68.4514168
40
0.3259678
50
316.8171152
51
323.1492751
0
ARC
8
DEFAULT_255_1_234
10
23.846743
20
68.447746
40
0.3189975
50
281.8396411
51
316.5457803
0
ARC
8
DEFAULT_255_1_234
10
23.8091694
20
68.6032762
40
0.4789527
50
269.5770101
51
282.4214771
0
ARC
8
DEFAULT_255_1_234
10
23.8020505
20
68.5819125
40
0.45759
50
256.2427136
51
270.4486331
0
ARC
8
DEFAULT_255_1_234
10
23.7721408
20
68.4619229
40
0.3339303
50
228.9023911
51
256.3314342
0
ARC
8
DEFAULT_255_1_234
10
23.764764
20
68.4502746
40
0.32031
50
193.753695
51
228.5271154
0
ARC
8
DEFAULT_255_1_234
10
23.8885594
20
68.48658
40
0.4492253
50
184.924711
51
194.497588
0
ARC
8
DEFAULT_255_1_234
10
23.9078161
20
68.4901591
40
0.3289787
50
187.3600538
51
198.6732863
0
ARC
8
DEFAULT_255_1_234
10
23.8028455
20
68.4537674
40
0.217884
50
198.4451669
51
217.794479
0
ARC
8
DEFAULT_255_1_234
10
23.773263
20
68.4328085
40
0.1816698
50
218.2887171
51
228.5612368
0
ARC
8
DEFAULT_255_1_234
10
23.7830417
20
68.4459963
40
0.1980329
50
228.9654866
51
258.1234728
0
ARC
8
DEFAULT_255_1_234
10
23.8036127
20
68.5340833
40
0.2884748
50
257.7258293
51
270.401361
0
ARC
8
DEFAULT_255_1_234
10
23.8081014
20
68.4895821
40
0.2439788
50
269.4204404
51
286.4209037
0
ARC
8
DEFAULT_255_1_234
10
23.8229501
20
68.4356657
40
0.1880666
50
286.7251356
51
320.600362
0
ARC
8
DEFAULT_255_1_234
10
23.7846326
20
68.4667595
40
0.2374121
50
320.6712579
51
344.5441685
0
ARC
8
DEFAULT_255_1_234
10
23.6689652
20
68.5007045
40
0.3579479
50
344.2412205
51
356.7357071
0
ARC
8
DEFAULT_255_1_234
10
23.5440801
20
68.5110444
40
0.4832297
50
356.3548756
51
0.0500261
0
ARC
8
DEFAULT_255_1_234
10
23.677731
20
68.514165
40
0.3495889
50
359.5576869
51
12.953486
0
ARC
8
DEFAULT_255_1_234
10
23.7832207
20
68.5397434
40
0.2410532
50
12.6490276
51
41.6081334
0
ARC
8
DEFAULT_255_1_234
10
23.8062578
20
68.5593321
40
0.2108218
50
41.7850273
51
85.9892764
0
ARC
8
DEFAULT_255_1_234
10
23.7939315
20
68.4780462
40
0.2928454
50
84.6957577
51
90.0676183
0
ARC
8
DEFAULT_255_1_234
10
23.7915799
20
68.4111716
40
0.3597255
50
89.6804936
51
99.1614436
0
ARC
8
DEFAULT_255_1_234
10
23.771043
20
68.5339131
40
0.235281
50
98.9830931
51
113.8908934
0
ARC
8
DEFAULT_255_1_234
10
23.748084
20
68.5880587
40
0.176479
50
114.1950727
51
127.3641004
0
LINE
8
DEFAULT_255_1_234
10
22.4123458
20
77.2473211
11
22.7159456
21
76.660201
0
LINE
8
DEFAULT_255_1_234
10
22.7159456
20
76.660201
11
23.0211516
21
77.2473211
0
LINE
8
DEFAULT_255_1_234
10
23.0211516
20
77.2473211
11
23.1962435
21
77.2473211
0
LINE
8
DEFAULT_255_1_234
10
23.1962435
20
77.2473211
11
22.7930502
21
76.5140234
0
LINE
8
DEFAULT_255_1_234
10
22.7930502
20
76.5140234
11
22.7930502
21
76.0779
0
LINE
8
DEFAULT_255_1_234
10
22.7930502
20
76.0779
11
22.6388409
21
76.0779
0
LINE
8
DEFAULT_255_1_234
10
22.6388409
20
76.0779
11
22.6388409
21
76.5140234
0
LINE
8
DEFAULT_255_1_234
10
22.6388409
20
76.5140234
11
22.2356476
21
77.2473211
0
LINE
8
DEFAULT_255_1_234
10
22.2356476
20
77.2473211
11
22.4123458
21
77.2473211
0
LINE
8
DEFAULT_255_1_234
10
23.9359666
20
77.2473211
11
23.9359666
21
76.470652
0
LINE
8
DEFAULT_255_1_234
10
23.9359666
20
76.470652
11
24.0982077
21
76.470652
0
LINE
8
DEFAULT_255_1_234
10
24.0982077
20
76.470652
11
24.0982077
21
76.3493728
0
LINE
8
DEFAULT_255_1_234
10
24.0982077
20
76.3493728
11
23.9359666
21
76.3493728
0
LINE
8
DEFAULT_255_1_234
10
23.9359666
20
76.3493728
11
23.9359666
21
76.0779
0
LINE
8
DEFAULT_255_1_234
10
23.9359666
20
76.0779
11
23.7865763
21
76.0779
0
LINE
8
DEFAULT_255_1_234
10
23.7865763
20
76.0779
11
23.7865763
21
76.3493728
0
LINE
8
DEFAULT_255_1_234
10
23.7865763
20
76.3493728
11
23.254072
21
76.3493728
0
LINE
8
DEFAULT_255_1_234
10
23.254072
20
76.3493728
11
23.254072
21
76.4369187
0
LINE
8
DEFAULT_255_1_234
10
23.254072
20
76.4369187
11
23.7777414
21
77.2473211
0
LINE
8
DEFAULT_255_1_234
10
23.7777414
20
77.2473211
11
23.9359666
21
77.2473211
0
LINE
8
DEFAULT_255_1_234
10
23.7689064
20
77.0119912
11
23.4227385
21
76.470652
0
LINE
8
DEFAULT_255_1_234
10
23.4227385
20
76.470652
11
23.7865763
21
76.470652
0
LINE
8
DEFAULT_255_1_234
10
23.7865763
20
76.470652
11
23.7865763
21
77.0441181
0
LINE
8
DEFAULT_255_1_234
10
23.7865763
20
77.0441181
11
23.7689064
21
77.0119912
0
LINE
8
DEFAULT_255_1_234
10
22.5181458
20
85.1848211
11
22.8217456
21
84.597701
0
LINE
8
DEFAULT_255_1_234
10
22.8217456
20
84.597701
11
23.1269516
21
85.1848211
0
LINE
8
DEFAULT_255_1_234
10
23.1269516
20
85.1848211
11
23.3020435
21
85.1848211
0
LINE
8
DEFAULT_255_1_234
10
23.3020435
20
85.1848211
11
22.8988502
21
84.4515234
0
LINE
8
DEFAULT_255_1_234
10
22.8988502
20
84.4515234
11
22.8988502
21
84.0154
0
LINE
8
DEFAULT_255_1_234
10
22.8988502
20
84.0154
11
22.7446409
21
84.0154
0
LINE
8
DEFAULT_255_1_234
10
22.7446409
20
84.0154
11
22.7446409
21
84.4515234
0
LINE
8
DEFAULT_255_1_234
10
22.7446409
20
84.4515234
11
22.3414476
21
85.1848211
0
LINE
8
DEFAULT_255_1_234
10
22.3414476
20
85.1848211
11
22.5181458
21
85.1848211
0
LINE
8
DEFAULT_255_1_234
10
23.6305416
20
84.5511169
11
23.6305416
21
84.6723962
0
LINE
8
DEFAULT_255_1_234
10
23.6305416
20
84.6723962
11
23.7421828
21
84.6723962
0
LINE
8
DEFAULT_255_1_234
10
23.5518306
20
84.8780087
11
23.4032434
21
84.8780087
0
LINE
8
DEFAULT_255_1_234
10
23.3928021
20
84.3238188
11
23.5421925
21
84.3238188
0
LINE
8
DEFAULT_255_1_234
10
23.7421828
20
84.5511169
11
23.6305416
21
84.5511169
0
ARC
8
DEFAULT_255_1_234
10
23.7392694
20
85.0116713
40
0.3392876
50
270.4919872
51
281.8951556
0
ARC
8
DEFAULT_255_1_234
10
23.7633956
20
84.9014702
40
0.2264817
50
281.6691735
51
301.2943132
0
ARC
8
DEFAULT_255_1_234
10
23.7804166
20
84.8703304
40
0.1910381
50
301.7833094
51
311.7545298
0
ARC
8
DEFAULT_255_1_234
10
23.7895742
20
84.8601748
40
0.1773635
50
311.7323931
51
354.2802411
0
ARC
8
DEFAULT_255_1_234
10
23.7169367
20
84.8726722
40
0.2509385
50
353.0937916
51
0.1181479
0
ARC
8
DEFAULT_255_1_234
10
23.6708152
20
84.8774386
40
0.2970898
50
359.1805295
51
15.0453146
0
ARC
8
DEFAULT_255_1_234
10
23.8053989
20
84.9166992
40
0.1569564
50
13.9577229
51
77.6713066
0
ARC
8
DEFAULT_255_1_234
10
23.7667518
20
84.7781949
40
0.3006298
50
76.1116566
51
90.7026153
0
ARC
8
DEFAULT_255_1_234
10
23.7608356
20
84.8055545
40
0.2732568
50
89.5324876
51
103.531937
0
ARC
8
DEFAULT_255_1_234
10
23.7407801
20
84.8854884
40
0.1908508
50
103.2931773
51
133.5619022
0
ARC
8
DEFAULT_255_1_234
10
23.7363289
20
84.8914375
40
0.1834746
50
133.8349307
51
173.5344437
0
ARC
8
DEFAULT_255_1_234
10
23.8086332
20
84.8786213
40
0.2568033
50
172.5096846
51
180.1366907
0
ARC
8
DEFAULT_255_1_234
10
23.7135226
20
84.8820622
40
0.3103056
50
155.3484492
51
180.7484736
0
ARC
8
DEFAULT_255_1_234
10
23.7086315
20
84.8791846
40
0.3070957
50
131.5744599
51
154.4798489
0
ARC
8
DEFAULT_255_1_234
10
23.7399462
20
84.847531
40
0.3515643
50
96.9875458
51
131.9690667
0
ARC
8
DEFAULT_255_1_234
10
23.7618942
20
84.7229636
40
0.4779224
50
89.8596053
51
97.7825159
0
ARC
8
DEFAULT_255_1_234
10
23.7667005
20
84.6967616
40
0.5041361
50
78.3655447
51
90.4131539
0
ARC
8
DEFAULT_255_1_234
10
23.8024923
20
84.8626887
40
0.3344039
50
56.6229102
51
78.638727
0
ARC
8
DEFAULT_255_1_234
10
23.8239867
20
84.9002805
40
0.2912001
50
47.0253525
51
56.0854072
0
ARC
8
DEFAULT_255_1_234
10
23.8259647
20
84.9042223
40
0.2869704
50
10.9208013
51
46.7778124
0
ARC
8
DEFAULT_255_1_234
10
23.6895713
20
84.8726857
40
0.426899
50
359.6364486
51
11.6087304
0
ARC
8
DEFAULT_255_1_234
10
23.8730557
20
84.8711752
40
0.243409
50
332.3549906
51
359.7179418
0
ARC
8
DEFAULT_255_1_234
10
23.8080159
20
84.9020142
40
0.3153459
50
325.2333722
51
332.8745602
0
ARC
8
DEFAULT_255_1_234
10
23.8232783
20
84.8913828
40
0.2967456
50
292.9802137
51
325.2392345
0
ARC
8
DEFAULT_255_1_234
10
23.7958157
20
84.9447863
40
0.3566604
50
292.5402179
51
293.6924929
0
ARC
8
DEFAULT_255_1_234
10
23.8350752
20
84.2993091
40
0.3307468
50
57.6435486
51
72.8625112
0
ARC
8
DEFAULT_255_1_234
10
23.8705252
20
84.3567549
40
0.2632492
50
36.7248896
51
57.4697979
0
ARC
8
DEFAULT_255_1_234
10
23.8693885
20
84.358022
40
0.2634081
50
8.0545065
51
36.356114
0
ARC
8
DEFAULT_255_1_234
10
23.783107
20
84.3425174
40
0.3510261
50
359.8320645
51
8.5869982
0
ARC
8
DEFAULT_255_1_234
10
23.7455846
20
84.3377101
40
0.3885653
50
343.9829931
51
0.5571613
0
ARC
8
DEFAULT_255_1_234
10
23.8342043
20
84.3134438
40
0.2966924
50
311.6359546
51
343.7651759
0
ARC
8
DEFAULT_255_1_234
10
23.7963613
20
84.3561102
40
0.3537231
50
279.7829875
51
311.6255694
0
ARC
8
DEFAULT_255_1_234
10
23.7662389
20
84.499828
40
0.5004971
50
269.7286406
51
280.3856417
0
ARC
8
DEFAULT_255_1_234
10
23.7600461
20
84.4956996
40
0.4963778
50
256.6828919
51
270.4412052
0
ARC
8
DEFAULT_255_1_234
10
23.7261757
20
84.3572394
40
0.3538406
50
229.4223008
51
256.8556159
0
ARC
8
DEFAULT_255_1_234
10
23.684715
20
84.3105736
40
0.2914296
50
181.818294
51
229.6455059
0
ARC
8
DEFAULT_255_1_234
10
23.7887106
20
84.3236496
40
0.3959084
50
179.9755256
51
183.2323064
0
ARC
8
DEFAULT_255_1_234
10
23.7714852
20
84.3216037
40
0.2293034
50
179.4465117
51
196.2869258
0
ARC
8
DEFAULT_255_1_234
10
23.722726
20
84.3082651
40
0.1787621
50
196.5661473
51
227.705904
0
ARC
8
DEFAULT_255_1_234
10
23.7391355
20
84.3266155
40
0.2033784
50
227.7652068
51
257.8762805
0
ARC
8
DEFAULT_255_1_234
10
23.7616325
20
84.4209156
40
0.3003081
50
257.4584385
51
270.426602
0
ARC
8
DEFAULT_255_1_234
10
23.7661891
20
84.4498996
40
0.329292
50
269.5962073
51
280.8789248
0
ARC
8
DEFAULT_255_1_234
10
23.789142
20
84.3352685
40
0.2123908
50
280.6346389
51
299.8595945
0
ARC
8
DEFAULT_255_1_234
10
23.8082327
20
84.2990212
40
0.171457
50
300.3576302
51
314.5517981
0
ARC
8
DEFAULT_255_1_234
10
23.7999387
20
84.3050919
40
0.1816095
50
315.0728369
51
345.0431014
0
ARC
8
DEFAULT_255_1_234
10
23.7076201
20
84.3319841
40
0.2777492
50
344.5986631
51
357.9269593
0
ARC
8
DEFAULT_255_1_234
10
23.6180528
20
84.3381276
40
0.3674917
50
357.4748886
51
0.0231117
0
ARC
8
DEFAULT_255_1_234
10
23.7203637
20
84.3405679
40
0.2651907
50
359.5047933
51
13.4239635
0
ARC
8
DEFAULT_255_1_234
10
23.8070281
20
84.3627478
40
0.1757509
50
12.9498199
51
48.7551375
0
ARC
8
DEFAULT_255_1_234
10
23.7888014
20
84.33784
40
0.2065134
50
49.5088623
51
72.1836453
0
ARC
8
DEFAULT_255_1_234
10
23.7530167
20
84.2316291
40
0.3185836
50
71.9010081
51
84.3554254
0
ARC
8
DEFAULT_255_1_234
10
23.7368799
20
84.0955326
40
0.4556151
50
84.0193428
51
89.333121
0
LINE
8
DEFAULT_255_1_234
10
22.5181458
20
93.1223211
11
22.8217456
21
92.535201
0
LINE
8
DEFAULT_255_1_234
10
22.8217456
20
92.535201
11
23.1269516
21
93.1223211
0
LINE
8
DEFAULT_255_1_234
10
23.1269516
20
93.1223211
11
23.3020435
21
93.1223211
0
LINE
8
DEFAULT_255_1_234
10
23.3020435
20
93.1223211
11
22.8988502
21
92.3890234
0
LINE
8
DEFAULT_255_1_234
10
22.8988502
20
92.3890234
11
22.8988502
21
91.9529
0
LINE
8
DEFAULT_255_1_234
10
22.8988502
20
91.9529
11
22.7446409
21
91.9529
0
LINE
8
DEFAULT_255_1_234
10
22.7446409
20
91.9529
11
22.7446409
21
92.3890234
0
LINE
8
DEFAULT_255_1_234
10
22.7446409
20
92.3890234
11
22.3414476
21
93.1223211
0
LINE
8
DEFAULT_255_1_234
10
22.3414476
20
93.1223211
11
22.5181458
21
93.1223211
0
LINE
8
DEFAULT_255_1_234
10
24.1807157
20
92.0741792
11
24.1807157
21
91.9529
0
LINE
8
DEFAULT_255_1_234
10
24.1807157
20
91.9529
11
23.4144878
21
91.9529
0
LINE
8
DEFAULT_255_1_234
10
23.4144878
20
91.9529
11
23.4144878
21
92.0597221
0
LINE
8
DEFAULT_255_1_234
10
23.4144878
20
92.0597221
11
23.8192875
21
92.5094995
0
LINE
8
DEFAULT_255_1_234
10
23.5405861
20
92.7777595
11
23.391999
21
92.7777595
0
LINE
8
DEFAULT_255_1_234
10
23.9068334
20
92.4139218
11
23.5935956
21
92.0741792
0
LINE
8
DEFAULT_255_1_234
10
23.5935956
20
92.0741792
11
24.1807157
21
92.0741792
0
ARC
8
DEFAULT_255_1_234
10
22.4702708
20
93.7024527
40
1.8008286
50
318.5132453
51
320.7828378
0
ARC
8
DEFAULT_255_1_234
10
22.9989682
20
93.2721426
40
1.1191493
50
320.7372736
51
323.9737074
0
ARC
8
DEFAULT_255_1_234
10
23.3909539
20
92.9881361
40
0.6350923
50
323.8961724
51
328.6421089
0
ARC
8
DEFAULT_255_1_234
10
23.5956134
20
92.8619031
40
0.3946393
50
328.8299013
51
331.789948
0
ARC
8
DEFAULT_255_1_234
10
23.6953313
20
92.8104509
40
0.2824501
50
331.4255242
51
352.9364833
0
ARC
8
DEFAULT_255_1_234
10
23.7089813
20
92.8073976
40
0.2685315
50
353.2248685
51
0.0169286
0
ARC
8
DEFAULT_255_1_234
10
23.729969
20
92.809695
40
0.2475536
50
359.4866256
51
15.9339782
0
ARC
8
DEFAULT_255_1_234
10
23.7806675
20
92.8233286
40
0.1950618
50
16.1714718
51
43.5284424
0
ARC
8
DEFAULT_255_1_234
10
23.7883984
20
92.8310573
40
0.184134
50
43.4415429
51
83.1661404
0
ARC
8
DEFAULT_255_1_234
10
23.7749902
20
92.7573771
40
0.258926
50
82.160215
51
90.1505798
0
ARC
8
DEFAULT_255_1_234
10
23.7718329
20
92.7036865
40
0.3126255
50
89.5460705
51
102.5418777
0
ARC
8
DEFAULT_255_1_234
10
23.7475416
20
92.8067665
40
0.2067346
50
102.1739365
51
129.2061916
0
ARC
8
DEFAULT_255_1_234
10
23.7396487
20
92.8192094
40
0.1921118
50
129.7279328
51
135.7542026
0
ARC
8
DEFAULT_255_1_234
10
23.7518015
20
92.8095045
40
0.2075944
50
136.175737
51
166.3674722
0
ARC
8
DEFAULT_255_1_234
10
23.8524934
20
92.7825182
40
0.3118201
50
165.9092917
51
178.8683903
0
ARC
8
DEFAULT_255_1_234
10
23.9389795
20
92.7778179
40
0.3983935
50
178.438168
51
180.0083905
0
ARC
8
DEFAULT_255_1_234
10
23.7988398
20
92.7817231
40
0.4068601
50
163.2878735
51
180.5581814
0
ARC
8
DEFAULT_255_1_234
10
23.7186659
20
92.803784
40
0.3237344
50
133.454115
51
162.9470031
0
ARC
8
DEFAULT_255_1_234
10
23.73652
20
92.7848
40
0.349795
50
100.7869394
51
133.4384016
0
ARC
8
DEFAULT_255_1_234
10
23.7712972
20
92.6299319
40
0.5084616
50
89.6605301
51
101.3704185
0
ARC
8
DEFAULT_255_1_234
10
23.7779311
20
92.6360496
40
0.502348
50
78.2171172
51
90.4130393
0
ARC
8
DEFAULT_255_1_234
10
23.8134389
20
92.7984637
40
0.3361092
50
55.9268222
51
78.4888551
0
ARC
8
DEFAULT_255_1_234
10
23.8330829
20
92.8323324
40
0.2970617
50
47.9292255
51
55.4054003
0
ARC
8
DEFAULT_255_1_234
10
23.843239
20
92.8426502
40
0.2825983
50
4.3347696
51
48.0560701
0
ARC
8
DEFAULT_255_1_234
10
23.7336783
20
92.8256601
40
0.393225
50
359.925209
51
5.5967654
0
ARC
8
DEFAULT_255_1_234
10
23.7765675
20
92.8312816
40
0.3503892
50
337.8914096
51
358.9967724
0
ARC
8
DEFAULT_255_1_234
10
23.5052087
20
92.9359706
40
0.6412172
50
326.9135351
51
338.3505194
0
ARC
8
DEFAULT_255_1_234
10
23.1066391
20
93.1914284
40
1.1146189
50
319.6472867
51
327.095818
0
ARC
8
DEFAULT_255_1_234
10
22.7233394
20
93.5076
40
1.6114559
50
317.2586784
51
319.9046139
0
LINE
8
DEFAULT_255_1_234
10
22.5269458
20
101.0598211
11
22.8305456
21
100.472701
0
LINE
8
DEFAULT_255_1_234
10
22.8305456
20
100.472701
11
23.1357516
21
101.0598211
0
LINE
8
DEFAULT_255_1_234
10
23.1357516
20
101.0598211
11
23.3108435
21
101.0598211
0
LINE
8
DEFAULT_255_1_234
10
23.3108435
20
101.0598211
11
22.9076502
21
100.3265234
0
LINE
8
DEFAULT_255_1_234
10
22.9076502
20
100.3265234
11
22.9076502
21
99.8904
0
LINE
8
DEFAULT_255_1_234
10
22.9076502
20
99.8904
11
22.7534409
21
99.8904
0
LINE
8
DEFAULT_255_1_234
10
22.7534409
20
99.8904
11
22.7534409
21
100.3265234
0
LINE
8
DEFAULT_255_1_234
10
22.7534409
20
100.3265234
11
22.3502476
21
101.0598211
0
LINE
8
DEFAULT_255_1_234
10
22.3502476
20
101.0598211
11
22.5269458
21
101.0598211
0
LINE
8
DEFAULT_255_1_234
10
23.9116175
20
101.0654433
11
23.9116175
21
99.8904
0
LINE
8
DEFAULT_255_1_234
10
23.9116175
20
99.8904
11
23.7622272
21
99.8904
0
LINE
8
DEFAULT_255_1_234
10
23.7622272
20
99.8904
11
23.7622272
21
100.8807133
0
LINE
8
DEFAULT_255_1_234
10
23.7622272
20
100.8807133
11
23.4626434
21
100.7706785
0
LINE
8
DEFAULT_255_1_234
10
23.4626434
20
100.7706785
11
23.4626434
21
100.9056117
0
LINE
8
DEFAULT_255_1_234
10
23.4626434
20
100.9056117
11
23.8883255
21
101.0654433
0
LINE
8
DEFAULT_255_1_234
10
23.8883255
20
101.0654433
11
23.9116175
21
101.0654433
0
LINE
8
DEFAULT_255_1_234
10
22.5181458
20
108.9973211
11
22.8217456
21
108.410201
0
LINE
8
DEFAULT_255_1_234
10
22.8217456
20
108.410201
11
23.1269516
21
108.9973211
0
LINE
8
DEFAULT_255_1_234
10
23.1269516
20
108.9973211
11
23.3020435
21
108.9973211
0
LINE
8
DEFAULT_255_1_234
10
23.3020435
20
108.9973211
11
22.8988502
21
108.2640234
0
LINE
8
DEFAULT_255_1_234
10
22.8988502
20
108.2640234
11
22.8988502
21
107.8279
0
LINE
8
DEFAULT_255_1_234
10
22.8988502
20
107.8279
11
22.7446409
21
107.8279
0
LINE
8
DEFAULT_255_1_234
10
22.7446409
20
107.8279
11
22.7446409
21
108.2640234
0
LINE
8
DEFAULT_255_1_234
10
22.7446409
20
108.2640234
11
22.3414476
21
108.9973211
0
LINE
8
DEFAULT_255_1_234
10
22.3414476
20
108.9973211
11
22.5181458
21
108.9973211
0
LINE
8
DEFAULT_255_1_234
10
24.1477855
20
108.5194327
11
24.1477855
21
108.3266709
0
LINE
8
DEFAULT_255_1_234
10
23.4096688
20
108.3065916
11
23.4096688
21
108.5049755
0
LINE
8
DEFAULT_255_1_234
10
23.9991984
20
108.2865123
11
23.9991984
21
108.5298739
0
LINE
8
DEFAULT_255_1_234
10
23.558256
20
108.5411184
11
23.558256
21
108.3033789
0
ARC
8
DEFAULT_255_1_234
10
22.9230745
20
108.3217805
40
1.2247208
50
353.8441951
51
0.2287902
0
ARC
8
DEFAULT_255_1_234
10
23.3870249
20
108.2699806
40
0.7578929
50
344.4934747
51
353.9765454
0
ARC
8
DEFAULT_255_1_234
10
23.6862839
20
108.1848981
40
0.4467846
50
329.2803592
51
344.7472793
0
ARC
8
DEFAULT_255_1_234
10
23.7855664
20
108.1304018
40
0.3336173
50
324.9352394
51
328.6160465
0
ARC
8
DEFAULT_255_1_234
10
23.8232773
20
108.1040427
40
0.2876076
50
280.580143
51
324.9173126
0
ARC
8
DEFAULT_255_1_234
10
23.7831565
20
108.2711099
40
0.4592847
50
269.5977311
51
281.6734359
0
ARC
8
DEFAULT_255_1_234
10
23.7759471
20
108.2591173
40
0.4472986
50
256.6228859
51
270.51044
0
ARC
8
DEFAULT_255_1_234
10
23.7357449
20
108.1042877
40
0.2873874
50
215.8618325
51
257.2788573
0
ARC
8
DEFAULT_255_1_234
10
23.837848
20
108.1727977
40
0.4102928
50
197.9693508
51
215.2623606
0
ARC
8
DEFAULT_255_1_234
10
24.0863596
20
108.2566709
40
0.6725652
50
187.8816417
51
198.2346507
0
ARC
8
DEFAULT_255_1_234
10
24.4821804
20
108.3138079
40
1.0724845
50
180.8976217
51
188.0055519
0
ARC
8
DEFAULT_255_1_234
10
24.7621992
20
108.3241777
40
1.3526448
50
180.7449369
51
181.1510016
0
ARC
8
DEFAULT_255_1_234
10
24.6044721
20
108.5098042
40
1.1948131
50
173.7675579
51
180.231553
0
ARC
8
DEFAULT_255_1_234
10
24.1526868
20
108.5608666
40
0.7401564
50
164.3058563
51
173.9002247
0
ARC
8
DEFAULT_255_1_234
10
23.8614937
20
108.6447656
40
0.4371288
50
148.7922025
51
164.568378
0
ARC
8
DEFAULT_255_1_234
10
23.7663389
20
108.6978929
40
0.3282386
50
144.5883898
51
148.1176286
0
ARC
8
DEFAULT_255_1_234
10
23.7320287
20
108.7218315
40
0.2864044
50
101.6440918
51
144.514236
0
ARC
8
DEFAULT_255_1_234
10
23.7745354
20
108.5529069
40
0.4604934
50
89.5284041
51
102.5819763
0
ARC
8
DEFAULT_255_1_234
10
23.7824441
20
108.5490018
40
0.464401
50
77.0437873
51
90.5081339
0
ARC
8
DEFAULT_255_1_234
10
23.8226443
20
108.7132615
40
0.2953195
50
48.2778575
51
77.4994676
0
ARC
8
DEFAULT_255_1_234
10
23.8299074
20
108.7261746
40
0.2808655
50
36.3142134
51
47.6305865
0
ARC
8
DEFAULT_255_1_234
10
23.7430381
20
108.6676515
40
0.3855453
50
18.2931786
51
35.6769206
0
ARC
8
DEFAULT_255_1_234
10
23.488714
20
108.5803593
40
0.654423
50
8.024666
51
18.5605216
0
ARC
8
DEFAULT_255_1_234
10
23.072406
20
108.5188792
40
1.0752407
50
1.1274072
51
8.1718305
0
ARC
8
DEFAULT_255_1_234
10
22.7488251
20
108.5061885
40
1.3990231
50
0.5424119
51
1.3863029
0
ARC
8
DEFAULT_255_1_234
10
22.9309629
20
108.5334342
40
1.0682415
50
359.8090433
51
4.9407866
0
ARC
8
DEFAULT_255_1_234
10
23.3519643
20
108.5710113
40
0.6455691
50
4.8362157
51
12.2904523
0
ARC
8
DEFAULT_255_1_234
10
23.6274757
20
108.6323965
40
0.3633074
50
12.0805627
51
23.8173984
0
ARC
8
DEFAULT_255_1_234
10
23.7448463
20
108.6820919
40
0.2358723
50
24.2871213
51
31.3935614
0
ARC
8
DEFAULT_255_1_234
10
23.797316
20
108.7164233
40
0.1732111
50
30.7407893
51
82.4657128
0
ARC
8
DEFAULT_255_1_234
10
23.7793294
20
108.6280691
40
0.263235
50
81.1060089
51
90.2184952
0
ARC
8
DEFAULT_255_1_234
10
23.7757593
20
108.6538924
40
0.2374236
50
89.3806855
51
105.6762551
0
ARC
8
DEFAULT_255_1_234
10
23.7574224
20
108.7205567
40
0.1682847
50
105.7981136
51
149.7388061
0
ARC
8
DEFAULT_255_1_234
10
23.8638302
20
108.656595
40
0.2924306
50
149.4208916
51
163.6286378
0
ARC
8
DEFAULT_255_1_234
10
24.072919
20
108.592825
40
0.5110213
50
163.3763315
51
172.1410975
0
ARC
8
DEFAULT_255_1_234
10
24.4029909
20
108.5455518
40
0.8444586
50
172.0259487
51
178.0703232
0
ARC
8
DEFAULT_255_1_234
10
24.7059999
20
108.5311906
40
1.1477868
50
177.8631668
51
179.5044149
0
ARC
8
DEFAULT_255_1_234
10
24.5987403
20
108.2997389
40
1.0404907
50
179.7995573
51
185.2460446
0
ARC
8
DEFAULT_255_1_234
10
24.1944442
20
108.2614513
40
0.6343885
50
185.1411642
51
193.0079639
0
ARC
8
DEFAULT_255_1_234
10
23.9300915
20
108.1989641
40
0.3627568
50
192.7897626
51
205.2507664
0
ARC
8
DEFAULT_255_1_234
10
23.8254462
20
108.1522415
40
0.2481908
50
205.8005384
51
211.2537509
0
ARC
8
DEFAULT_255_1_234
10
23.7730902
20
108.117158
40
0.1852521
50
210.3789793
51
238.4008143
0
ARC
8
DEFAULT_255_1_234
10
23.7711424
20
108.1218376
40
0.1882621
50
239.6520629
51
265.9793761
0
ARC
8
DEFAULT_255_1_234
10
23.7796624
20
108.1890427
40
0.2559272
50
265.1315437
51
270.060332
0
ARC
8
DEFAULT_255_1_234
10
23.7825403
20
108.1566534
40
0.2235528
50
269.3314664
51
287.2178029
0
ARC
8
DEFAULT_255_1_234
10
23.7963255
20
108.1063279
40
0.1714108
50
287.7958004
51
329.080874
0
ARC
8
DEFAULT_255_1_234
10
23.7005712
20
108.166093
40
0.2842745
50
328.6634704
51
343.3325132
0
ARC
8
DEFAULT_255_1_234
10
23.4832732
20
108.2337863
40
0.5118644
50
343.0499468
51
351.9393422
0
ARC
8
DEFAULT_255_1_234
10
23.1366032
20
108.2848949
40
0.8622784
50
351.8069023
51
357.7959224
0
ARC
8
DEFAULT_255_1_234
10
22.8130588
20
108.3016721
40
1.1862365
50
357.5871873
51
359.2677531
0
ENDSEC
0
EOF