0
SECTION
2
HEADER
9
$MEASUREMENT
70
1
0
ENDSEC
0
SECTION
2
TABLES
0
TABLE
2
LTYPE
0
LTYPE
72
65
70
64
2
CONTINUOUS
3
______
73
0
40
0
0
ENDTAB
0
TABLE
2
LAYER
0
LAYER
2
DEFAULT_255_2_778
70
0
62
255
6
CONTINUOUS
0
ENDTAB
0
ENDSEC
0
SECTION
2
ENTITIES
0
LINE
8
DEFAULT_255_2_778
10
48.3589775
20
24.7643859
11
48.3589775
21
64.7643859
0
LINE
8
DEFAULT_255_2_778
10
48.3589775
20
64.7643859
11
78.3589775
21
64.7643859
0
LINE
8
DEFAULT_255_2_778
10
78.3589775
20
64.7643859
11
78.3589775
21
24.7643859
0
LINE
8
DEFAULT_255_2_778
10
78.3589775
20
24.7643859
11
48.3589775
21
24.7643859
0
LINE
8
DEFAULT_255_2_778
10
61.5010969
20
27.3608145
11
61.5010969
21
27.7846145
0
LINE
8
DEFAULT_255_2_778
10
61.5010969
20
27.7846145
11
63.5311969
21
28.5982145
0
LINE
8
DEFAULT_255_2_778
10
63.5311969
20
28.5982145
11
61.5010969
21
29.4118145
0
LINE
8
DEFAULT_255_2_778
10
61.5010969
20
29.4118145
11
61.5010969
21
29.8373145
0
LINE
8
DEFAULT_255_2_778
10
61.5010969
20
29.8373145
11
63.9894969
21
29.8373145
0
LINE
8
DEFAULT_255_2_778
10
63.9894969
20
29.8373145
11
63.9894969
21
29.5092145
0
LINE
8
DEFAULT_255_2_778
10
63.9894969
20
29.5092145
11
63.0205969
21
29.5092145
0
LINE
8
DEFAULT_255_2_778
10
63.0205969
20
29.5092145
11
61.9746969
21
29.5399145
0
LINE
8
DEFAULT_255_2_778
10
61.9746969
20
29.5399145
11
63.9894969
21
28.7228145
0
LINE
8
DEFAULT_255_2_778
10
63.9894969
20
28.7228145
11
63.9894969
21
28.4715145
0
LINE
8
DEFAULT_255_2_778
10
63.9894969
20
28.4715145
11
61.9796969
21
27.6563145
0
LINE
8
DEFAULT_255_2_778
10
61.9796969
20
27.6563145
11
63.0205969
21
27.6889145
0
LINE
8
DEFAULT_255_2_778
10
63.0205969
20
27.6889145
11
63.9894969
21
27.6889145
0
LINE
8
DEFAULT_255_2_778
10
63.9894969
20
27.6889145
11
63.9894969
21
27.3608145
0
LINE
8
DEFAULT_255_2_778
10
63.9894969
20
27.3608145
11
61.5010969
21
27.3608145
0
LINE
8
DEFAULT_255_2_778
10
61.5010969
20
27.3608145
11
61.5010969
21
27.3608145
0
LINE
8
DEFAULT_255_2_778
10
61.5010969
20
30.7686145
11
63.9894969
21
30.7686145
0
LINE
8
DEFAULT_255_2_778
10
63.9894969
20
30.7686145
11
63.9894969
21
30.4405145
0
LINE
8
DEFAULT_255_2_778
10
63.9894969
20
30.4405145
11
61.5010969
21
30.4405145
0
LINE
8
DEFAULT_255_2_778
10
61.5010969
20
30.4405145
11
61.5010969
21
30.7686145
0
LINE
8
DEFAULT_255_2_778
10
61.5010969
20
30.7686145
11
61.5010969
21
30.7686145
0
LINE
8
DEFAULT_255_2_778
10
61.5010969
20
33.0382145
11
61.7709969
21
33.0382145
0
LINE
8
DEFAULT_255_2_778
10
61.7709969
20
33.0382145
11
61.7709969
21
32.2384145
0
LINE
8
DEFAULT_255_2_778
10
61.7709969
20
32.2384145
11
63.9891969
21
32.2384145
0
LINE
8
DEFAULT_255_2_778
10
63.9891969
20
32.2384145
11
63.9891969
21
31.9119145
0
LINE
8
DEFAULT_255_2_778
10
63.9891969
20
31.9119145
11
61.7709969
21
31.9119145
0
LINE
8
DEFAULT_255_2_778
10
61.7709969
20
31.9119145
11
61.7709969
21
31.1139145
0
LINE
8
DEFAULT_255_2_778
10
61.7709969
20
31.1139145
11
61.5010969
21
31.1139145
0
LINE
8
DEFAULT_255_2_778
10
61.5010969
20
31.1139145
11
61.5010969
21
33.0382145
0
LINE
8
DEFAULT_255_2_778
10
61.5010969
20
33.0382145
11
61.5010969
21
33.0382145
0
ARC
8
DEFAULT_255_2_778
10
60.4296117
20
34.8053091
40
2.5466136
50
337.7075024
51
344.2241397
0
ARC
8
DEFAULT_255_2_778
10
61.457604
20
34.3789333
40
1.4337221
50
327.7673682
51
337.8895246
0
ARC
8
DEFAULT_255_2_778
10
61.9502786
20
34.0721344
40
0.8533463
50
317.7659868
51
327.5488815
0
ARC
8
DEFAULT_255_2_778
10
62.1554789
20
33.8753809
40
0.5692177
50
269.0056725
51
318.546092
0
ARC
8
DEFAULT_255_2_778
10
62.1365374
20
33.9083144
40
0.6021336
50
217.5731612
51
270.8624863
0
ARC
8
DEFAULT_255_2_778
10
62.3189942
20
34.069117
40
0.8449529
50
188.3402493
51
218.6711151
0
ARC
8
DEFAULT_255_2_778
10
62.7229891
20
34.1469423
40
1.2560986
50
179.7625037
51
189.179682
0
ARC
8
DEFAULT_255_2_778
10
62.517888
20
34.1661965
40
1.0510808
50
158.8630161
51
180.7657762
0
ARC
8
DEFAULT_255_2_778
10
62.3664449
20
34.2142794
40
0.8925413
50
153.7279113
51
158.2363198
0
ARC
8
DEFAULT_255_2_778
10
62.2461455
20
34.2871372
40
0.7525164
50
122.6913847
51
154.6479449
0
ARC
8
DEFAULT_255_2_778
10
62.2165834
20
34.3317941
40
0.6989669
50
89.662464
51
122.6291347
0
ARC
8
DEFAULT_255_2_778
10
62.2064293
20
34.2062326
40
0.4948222
50
88.3472316
51
119.6723727
0
ARC
8
DEFAULT_255_2_778
10
62.1741351
20
34.2828266
40
0.4124029
50
121.0420361
51
138.303825
0
ARC
8
DEFAULT_255_2_778
10
62.2487895
20
34.2271558
40
0.5052418
50
139.2213183
51
172.0318248
0
ARC
8
DEFAULT_255_2_778
10
62.60466
20
34.1567795
40
0.8676714
50
170.6869164
51
180.305774
0
ARC
8
DEFAULT_255_2_778
10
62.5142468
20
34.1394068
40
0.7773501
50
179.0607809
51
196.2797823
0
ARC
8
DEFAULT_255_2_778
10
62.2052692
20
34.0520064
40
0.4562687
50
196.62122
51
217.626513
0
ARC
8
DEFAULT_255_2_778
10
62.1241589
20
33.9932334
40
0.3561596
50
218.1043411
51
272.6299061
0
ARC
8
DEFAULT_255_2_778
10
62.1407923
20
33.9574747
40
0.3200259
50
269.947854
51
323.3959054
0
ARC
8
DEFAULT_255_2_778
10
61.8449073
20
34.1978092
40
0.7010565
50
322.0469833
51
335.5633285
0
ARC
8
DEFAULT_255_2_778
10
61.004341
20
34.5945703
40
1.6305147
50
335.0893834
51
342.332047
0
ARC
8
DEFAULT_255_2_778
10
59.9745104
20
34.9402825
40
2.7167455
50
341.9766451
51
344.3157513
0
ARC
8
DEFAULT_255_2_778
10
65.4252392
20
33.4219269
40
2.9415203
50
159.5150229
51
164.5437589
0
ARC
8
DEFAULT_255_2_778
10
64.1644451
20
33.8986064
40
1.5936432
50
151.4918347
51
159.7058068
0
ARC
8
DEFAULT_255_2_778
10
63.6809015
20
34.1512045
40
1.0482057
50
149.001361
51
151.0098654
0
ARC
8
DEFAULT_255_2_778
10
63.475512
20
34.2909201
40
0.8003161
50
130.1236138
51
150.0024165
0
ARC
8
DEFAULT_255_2_778
10
63.3314264
20
34.4484839
40
0.5870431
50
121.1567778
51
129.2807359
0
ARC
8
DEFAULT_255_2_778
10
63.3421381
20
34.4106907
40
0.6250132
50
88.7181763
51
120.2045547
0
ARC
8
DEFAULT_255_2_778
10
63.3572309
20
34.4870317
40
0.5485171
50
89.9613291
51
90.116057
0
ARC
8
DEFAULT_255_2_778
10
63.3744163
20
34.4543
40
0.5814922
50
36.4588497
51
91.6570762
0
ARC
8
DEFAULT_255_2_778
10
63.1640253
20
34.2904064
40
0.8481264
50
11.0843518
51
36.9177625
0
ARC
8
DEFAULT_255_2_778
10
62.6640044
20
34.1798184
40
1.360137
50
359.5589696
51
11.6064585
0
ARC
8
DEFAULT_255_2_778
10
62.8517999
20
34.1601868
40
1.172337
50
336.3896577
51
0.4477858
0
ARC
8
DEFAULT_255_2_778
10
63.15032
20
34.0180177
40
0.8419331
50
312.8896083
51
337.1182856
0
ARC
8
DEFAULT_255_2_778
10
63.2522482
20
33.9222492
40
0.7024599
50
305.1732841
51
312.1146891
0
ARC
8
DEFAULT_255_2_778
10
63.2775986
20
33.8850103
40
0.6574176
50
269.2506824
51
305.2368822
0
ARC
8
DEFAULT_255_2_778
10
63.285918
20
33.9857177
40
0.4285029
50
267.7374264
51
322.3966494
0
ARC
8
DEFAULT_255_2_778
10
63.1336308
20
34.095913
40
0.6164188
50
322.9191953
51
352.3629424
0
ARC
8
DEFAULT_255_2_778
10
62.7595682
20
34.1651391
40
0.9965426
50
351.2762254
51
0.2535447
0
ARC
8
DEFAULT_255_2_778
10
62.8548993
20
34.1820194
40
0.901288
50
359.2072137
51
13.7262899
0
ARC
8
DEFAULT_255_2_778
10
63.2663971
20
34.2838817
40
0.4773741
50
13.5688971
51
36.4871885
0
ARC
8
DEFAULT_255_2_778
10
63.3742173
20
34.3623818
40
0.3440097
50
36.6539603
51
92.1517457
0
ARC
8
DEFAULT_255_2_778
10
63.3437647
20
34.3686514
40
0.3379529
50
87.0255872
51
141.7126414
0
ARC
8
DEFAULT_255_2_778
10
63.6315094
20
34.1639179
40
0.6908854
50
143.1715809
51
155.2935844
0
ARC
8
DEFAULT_255_2_778
10
64.5702326
20
33.7171413
40
1.7304707
50
154.8458587
51
161.3396187
0
ARC
8
DEFAULT_255_2_778
10
65.9968856
20
33.2184964
40
3.2417118
50
161.0574769
51
163.9776458
0
LINE
8
DEFAULT_255_2_778
10
62.2207011
20
35.0307489
11
62.2207011
21
34.7008489
0
LINE
8
DEFAULT_255_2_778
10
63.2690011
20
33.2276489
11
63.2690011
21
33.5575489
0
LINE
8
DEFAULT_255_2_778
10
62.8811011
20
34.1132489
11
62.8803011
21
34.1129489
0
ARC
8
DEFAULT_255_2_778
10
63.2032018
20
36.3300711
40
0.8779932
50
66.8271652
51
90.6592973
0
ARC
8
DEFAULT_255_2_778
10
63.2469658
20
36.4584512
40
0.7428204
50
45.3393474
51
66.0338233
0
ARC
8
DEFAULT_255_2_778
10
63.1828443
20
36.400461
40
0.8291533
50
11.2001789
51
45.0044199
0
ARC
8
DEFAULT_255_2_778
10
62.8176679
20
36.3065181
40
1.2058088
50
4.0273931
51
12.2086623
0
ARC
8
DEFAULT_255_2_778
10
62.8456337
20
36.2912533
40
1.1783365
50
344.6092843
51
0.6298366
0
ARC
8
DEFAULT_255_2_778
10
63.2033933
20
36.1932609
40
0.8073996
50
318.0096467
51
344.5758546
0
ARC
8
DEFAULT_255_2_778
10
63.2552668
20
36.1568399
40
0.7445174
50
276.2119878
51
317.4221846
0
ARC
8
DEFAULT_255_2_778
10
63.1896838
20
36.511553
40
1.1045698
50
270.3690807
51
277.6030815
0
ARC
8
DEFAULT_255_2_778
10
63.199961
20
36.4356688
40
0.7041856
50
268.929013
51
289.8731558
0
ARC
8
DEFAULT_255_2_778
10
63.2732374
20
36.2170225
40
0.4736818
50
290.5280179
51
314.695959
0
ARC
8
DEFAULT_255_2_778
10
63.2419529
20
36.2339779
40
0.5078431
50
315.8595802
51
352.413566
0
ARC
8
DEFAULT_255_2_778
10
62.9090953
20
36.3002321
40
0.846813
50
350.9431525
51
0.2688881
0
ARC
8
DEFAULT_255_2_778
10
63.009686
20
36.3172024
40
0.7463261
50
359.0022236
51
18.1522041
0
ARC
8
DEFAULT_255_2_778
10
63.2755126
20
36.4011134
40
0.4675973
50
18.5297687
51
44.8186044
0
ARC
8
DEFAULT_255_2_778
10
63.2533919
20
36.362755
40
0.5104582
50
46.1226654
51
82.9578267
0
ARC
8
DEFAULT_255_2_778
10
63.1919883
20
36.0431047
40
0.8355084
50
81.4660452
51
90.2324255
0
ARC
8
DEFAULT_255_2_778
10
62.9791538
20
38.551863
40
1.4781073
50
169.7461809
51
180.4828694
0
ARC
8
DEFAULT_255_2_778
10
62.3293301
20
38.6749769
40
0.8167649
50
151.2072597
51
170.1301146
0
ARC
8
DEFAULT_255_2_778
10
62.1163137
20
38.7828654
40
0.5781766
50
140.7467407
51
150.4097269
0
ARC
8
DEFAULT_255_2_778
10
62.0931408
20
38.793397
40
0.5536067
50
96.8475232
51
140.0732371
0
ARC
8
DEFAULT_255_2_778
10
62.1606036
20
38.45361
40
0.8994029
50
89.7773265
51
98.5339905
0
ARC
8
DEFAULT_255_2_778
10
62.1719231
20
38.8480393
40
0.5050274
50
53.4613104
51
90.8876862
0
ARC
8
DEFAULT_255_2_778
10
62.0841976
20
38.7403176
40
0.6438371
50
22.2019915
51
52.8962409
0
ARC
8
DEFAULT_255_2_778
10
63.2393723
20
38.8388953
40
0.5774982
50
126.6190938
51
165.4880236
0
ARC
8
DEFAULT_255_2_778
10
63.2561976
20
38.8040841
40
0.6155173
50
88.5568881
51
125.9432478
0
ARC
8
DEFAULT_255_2_778
10
63.2854444
20
38.64521
40
0.7743182
50
67.8893006
51
91.0171494
0
ARC
8
DEFAULT_255_2_778
10
63.3394383
20
38.8024007
40
0.608433
50
41.1045949
51
67.0282687
0
ARC
8
DEFAULT_255_2_778
10
63.2393885
20
38.724215
40
0.7352556
50
12.3509988
51
40.5698099
0
ARC
8
DEFAULT_255_2_778
10
62.7349171
20
38.6015514
40
1.2543456
50
359.4223852
51
12.8954068
0
ARC
8
DEFAULT_255_2_778
10
63.0983959
20
38.608671
40
0.622938
50
358.8074548
51
21.1639727
0
ARC
8
DEFAULT_255_2_778
10
63.2841529
20
38.673462
40
0.4263698
50
22.056901
51
41.7198007
0
ARC
8
DEFAULT_255_2_778
10
63.3011122
20
38.6797337
40
0.4095909
50
42.6437729
51
90.4863636
0
ARC
8
DEFAULT_255_2_778
10
63.2752348
20
38.4562808
40
0.6334253
50
87.9733567
51
90.0122859
0
ARC
8
DEFAULT_255_2_778
10
63.2622143
20
38.5295143
40
0.56034
50
88.6823985
51
110.6982287
0
ARC
8
DEFAULT_255_2_778
10
63.201565
20
38.7183777
40
0.362369
50
112.2824687
51
169.7335112
0
ARC
8
DEFAULT_255_2_778
10
63.6039565
20
38.6100358
40
0.7784097
50
167.1644996
51
180.6646491
0
ARC
8
DEFAULT_255_2_778
10
61.9573687
20
38.5626202
40
0.6053745
50
358.7492532
51
21.9306234
0
ARC
8
DEFAULT_255_2_778
10
62.1303105
20
38.624215
40
0.4220085
50
22.9426125
51
39.7222076
0
ARC
8
DEFAULT_255_2_778
10
62.1781138
20
38.6626804
40
0.3606597
50
39.8753182
51
92.4655095
0
ARC
8
DEFAULT_255_2_778
10
62.1498617
20
38.5636674
40
0.4595153
50
88.4116216
51
112.8034357
0
ARC
8
DEFAULT_255_2_778
10
62.0857779
20
38.7304284
40
0.2810063
50
113.9364856
51
141.9811056
0
ARC
8
DEFAULT_255_2_778
10
62.2104635
20
38.6499219
40
0.4290287
50
143.7673112
51
170.1285895
0
ARC
8
DEFAULT_255_2_778
10
62.692945
20
38.5491233
40
0.921797
50
169.0973042
51
180.603996
0
LINE
8
DEFAULT_255_2_778
10
61.501099
20
36.8781062
11
61.501099
21
37.2080062
0
LINE
8
DEFAULT_255_2_778
10
61.501099
20
37.2080062
11
63.193099
21
37.2080062
0
LINE
8
DEFAULT_255_2_778
10
64.020499
20
36.3912062
11
64.023899
21
36.3042062
0
LINE
8
DEFAULT_255_2_778
10
63.196799
20
35.4070062
11
61.501599
21
35.4070062
0
LINE
8
DEFAULT_255_2_778
10
61.501599
20
35.4070062
11
61.501599
21
35.7316062
0
LINE
8
DEFAULT_255_2_778
10
61.501599
20
35.7316062
11
63.186799
21
35.7316062
0
LINE
8
DEFAULT_255_2_778
10
63.188599
20
36.8786062
11
61.501899
21
36.8786062
0
LINE
8
DEFAULT_255_2_778
10
61.501899
20
36.8786062
11
61.501099
21
36.8781062
0
LINE
8
DEFAULT_255_2_778
10
63.989499
20
38.5889062
11
63.989499
21
37.7258062
0
LINE
8
DEFAULT_255_2_778
10
63.989499
20
37.7258062
11
61.501099
21
37.7258062
0
LINE
8
DEFAULT_255_2_778
10
61.501099
20
37.7258062
11
61.501099
21
38.5394062
0
LINE
8
DEFAULT_255_2_778
10
63.989199
20
38.5889062
11
63.989499
21
38.5889062
0
LINE
8
DEFAULT_255_2_778
10
62.825599
20
38.6008062
11
62.825599
21
38.0539062
0
LINE
8
DEFAULT_255_2_778
10
62.825599
20
38.0539062
11
63.721199
21
38.0539062
0
LINE
8
DEFAULT_255_2_778
10
63.721199
20
38.0539062
11
63.721199
21
38.5957062
0
LINE
8
DEFAULT_255_2_778
10
62.825599
20
38.6010062
11
62.825599
21
38.6008062
0
LINE
8
DEFAULT_255_2_778
10
61.771199
20
38.0539062
11
62.562599
21
38.0539062
0
LINE
8
DEFAULT_255_2_778
10
62.562599
20
38.0539062
11
62.562599
21
38.5494062
0
LINE
8
DEFAULT_255_2_778
10
61.771199
20
38.5394062
11
61.771199
21
38.0541062
0
LINE
8
DEFAULT_255_2_778
10
61.771199
20
38.0541062
11
61.771199
21
38.0539062
0
LINE
8
DEFAULT_255_2_778
10
61.501099
20
40.2568062
11
63.989499
21
40.2568062
0
LINE
8
DEFAULT_255_2_778
10
63.989499
20
40.2568062
11
63.989499
21
39.9287062
0
LINE
8
DEFAULT_255_2_778
10
63.989499
20
39.9287062
11
61.501099
21
39.9287062
0
LINE
8
DEFAULT_255_2_778
10
61.501099
20
39.9287062
11
61.501099
21
40.2568062
0
LINE
8
DEFAULT_255_2_778
10
61.501099
20
40.2568062
11
61.501099
21
40.2568062
0
ARC
8
DEFAULT_255_2_778
10
60.4296117
20
42.2822091
40
2.5466136
50
337.7075024
51
344.2241397
0
ARC
8
DEFAULT_255_2_778
10
61.457604
20
41.8558333
40
1.4337221
50
327.7673682
51
337.8895246
0
ARC
8
DEFAULT_255_2_778
10
61.9502786
20
41.5490344
40
0.8533463
50
317.7659868
51
327.5488815
0
ARC
8
DEFAULT_255_2_778
10
62.1554789
20
41.3522809
40
0.5692177
50
269.0056725
51
318.546092
0
ARC
8
DEFAULT_255_2_778
10
62.1365374
20
41.3852144
40
0.6021336
50
217.5731612
51
270.8624863
0
ARC
8
DEFAULT_255_2_778
10
62.3189942
20
41.546017
40
0.8449529
50
188.3402493
51
218.6711151
0
ARC
8
DEFAULT_255_2_778
10
62.7229891
20
41.6238423
40
1.2560986
50
179.7625037
51
189.179682
0
ARC
8
DEFAULT_255_2_778
10
62.517888
20
41.6430965
40
1.0510808
50
158.8630161
51
180.7657762
0
ARC
8
DEFAULT_255_2_778
10
62.3664449
20
41.6911794
40
0.8925413
50
153.7279113
51
158.2363198
0
ARC
8
DEFAULT_255_2_778
10
62.2461455
20
41.7640372
40
0.7525164
50
122.6913847
51
154.6479449
0
ARC
8
DEFAULT_255_2_778
10
62.2165834
20
41.8086941
40
0.6989669
50
89.662464
51
122.6291347
0
ARC
8
DEFAULT_255_2_778
10
62.2064293
20
41.6831326
40
0.4948222
50
88.3472316
51
119.6723727
0
ARC
8
DEFAULT_255_2_778
10
62.1741351
20
41.7597266
40
0.4124029
50
121.0420361
51
138.303825
0
ARC
8
DEFAULT_255_2_778
10
62.2487895
20
41.7040558
40
0.5052418
50
139.2213183
51
172.0318248
0
ARC
8
DEFAULT_255_2_778
10
62.60466
20
41.6336795
40
0.8676714
50
170.6869164
51
180.305774
0
ARC
8
DEFAULT_255_2_778
10
62.5142468
20
41.6163068
40
0.7773501
50
179.0607809
51
196.2797823
0
ARC
8
DEFAULT_255_2_778
10
62.2052692
20
41.5289064
40
0.4562687
50
196.62122
51
217.626513
0
ARC
8
DEFAULT_255_2_778
10
62.1241589
20
41.4701334
40
0.3561596
50
218.1043411
51
272.6299061
0
ARC
8
DEFAULT_255_2_778
10
62.1407923
20
41.4343747
40
0.3200259
50
269.947854
51
323.3959054
0
ARC
8
DEFAULT_255_2_778
10
61.8449073
20
41.6747092
40
0.7010565
50
322.0469833
51
335.5633285
0
ARC
8
DEFAULT_255_2_778
10
61.004341
20
42.0714703
40
1.6305147
50
335.0893834
51
342.332047
0
ARC
8
DEFAULT_255_2_778
10
59.9745104
20
42.4171825
40
2.7167455
50
341.9766451
51
344.3157513
0
ARC
8
DEFAULT_255_2_778
10
65.4252392
20
40.8988269
40
2.9415203
50
159.5150229
51
164.5437589
0
ARC
8
DEFAULT_255_2_778
10
64.1644451
20
41.3755064
40
1.5936432
50
151.4918347
51
159.7058068
0
ARC
8
DEFAULT_255_2_778
10
63.6809015
20
41.6281045
40
1.0482057
50
149.001361
51
151.0098654
0
ARC
8
DEFAULT_255_2_778
10
63.475512
20
41.7678201
40
0.8003161
50
130.1236138
51
150.0024165
0
ARC
8
DEFAULT_255_2_778
10
63.3314264
20
41.9253839
40
0.5870431
50
121.1567778
51
129.2807359
0
ARC
8
DEFAULT_255_2_778
10
63.3421381
20
41.8875907
40
0.6250132
50
88.7181763
51
120.2045547
0
ARC
8
DEFAULT_255_2_778
10
63.3572309
20
41.9639317
40
0.5485171
50
89.9613291
51
90.116057
0
ARC
8
DEFAULT_255_2_778
10
63.3744163
20
41.9312
40
0.5814922
50
36.4588497
51
91.6570762
0
ARC
8
DEFAULT_255_2_778
10
63.1640253
20
41.7673064
40
0.8481264
50
11.0843518
51
36.9177625
0
ARC
8
DEFAULT_255_2_778
10
62.6640044
20
41.6567184
40
1.360137
50
359.5589696
51
11.6064585
0
ARC
8
DEFAULT_255_2_778
10
62.8517999
20
41.6370868
40
1.172337
50
336.3896577
51
0.4477858
0
ARC
8
DEFAULT_255_2_778
10
63.15032
20
41.4949177
40
0.8419331
50
312.8896083
51
337.1182856
0
ARC
8
DEFAULT_255_2_778
10
63.2522482
20
41.3991492
40
0.7024599
50
305.1732841
51
312.1146891
0
ARC
8
DEFAULT_255_2_778
10
63.2775986
20
41.3619103
40
0.6574176
50
269.2506824
51
305.2368822
0
ARC
8
DEFAULT_255_2_778
10
63.285918
20
41.4626177
40
0.4285029
50
267.7374264
51
322.3966494
0
ARC
8
DEFAULT_255_2_778
10
63.1336308
20
41.572813
40
0.6164188
50
322.9191953
51
352.3629424
0
ARC
8
DEFAULT_255_2_778
10
62.7595682
20
41.6420391
40
0.9965426
50
351.2762254
51
0.2535447
0
ARC
8
DEFAULT_255_2_778
10
62.8548993
20
41.6589194
40
0.901288
50
359.2072137
51
13.7262899
0
ARC
8
DEFAULT_255_2_778
10
63.2663971
20
41.7607817
40
0.4773741
50
13.5688971
51
36.4871885
0
ARC
8
DEFAULT_255_2_778
10
63.3742173
20
41.8392818
40
0.3440097
50
36.6539603
51
92.1517457
0
ARC
8
DEFAULT_255_2_778
10
63.3437647
20
41.8455514
40
0.3379529
50
87.0255872
51
141.7126414
0
ARC
8
DEFAULT_255_2_778
10
63.6315094
20
41.6408179
40
0.6908854
50
143.1715809
51
155.2935844
0
ARC
8
DEFAULT_255_2_778
10
64.5702326
20
41.1940413
40
1.7304707
50
154.8458587
51
161.3396187
0
ARC
8
DEFAULT_255_2_778
10
65.9968856
20
40.6953964
40
3.2417118
50
161.0574769
51
163.9776458
0
LINE
8
DEFAULT_255_2_778
10
62.2207011
20
42.5076489
11
62.2207011
21
42.1777489
0
LINE
8
DEFAULT_255_2_778
10
63.2690011
20
40.7045489
11
63.2690011
21
41.0344489
0
LINE
8
DEFAULT_255_2_778
10
62.8811011
20
41.5901489
11
62.8803011
21
41.5898489
0
LINE
8
DEFAULT_255_2_778
10
61.5010969
20
44.8454906
11
63.9894969
21
44.8454906
0
LINE
8
DEFAULT_255_2_778
10
63.9894969
20
44.8454906
11
63.9894969
21
44.5155906
0
LINE
8
DEFAULT_255_2_778
10
63.9894969
20
44.5155906
11
62.8393969
21
44.5155906
0
LINE
8
DEFAULT_255_2_778
10
62.8393969
20
44.5155906
11
62.8393969
21
43.2611906
0
LINE
8
DEFAULT_255_2_778
10
62.8393969
20
43.2611906
11
63.9894969
21
43.2611906
0
LINE
8
DEFAULT_255_2_778
10
63.9894969
20
43.2611906
11
63.9894969
21
42.9330906
0
LINE
8
DEFAULT_255_2_778
10
63.9894969
20
42.9330906
11
61.5010969
21
42.9330906
0
LINE
8
DEFAULT_255_2_778
10
61.5010969
20
42.9330906
11
61.5010969
21
43.2611906
0
LINE
8
DEFAULT_255_2_778
10
61.5010969
20
43.2611906
11
62.5707969
21
43.2611906
0
LINE
8
DEFAULT_255_2_778
10
62.5707969
20
43.2611906
11
62.5707969
21
44.5155906
0
LINE
8
DEFAULT_255_2_778
10
62.5707969
20
44.5155906
11
61.5010969
21
44.5155906
0
LINE
8
DEFAULT_255_2_778
10
61.5010969
20
44.5155906
11
61.5010969
21
44.8454906
0
LINE
8
DEFAULT_255_2_778
10
61.5010969
20
44.8454906
11
61.5010969
21
44.8454906
0
LINE
8
DEFAULT_255_2_778
10
61.5010969
20
45.7802906
11
63.9894969
21
45.7802906
0
LINE
8
DEFAULT_255_2_778
10
63.9894969
20
45.7802906
11
63.9894969
21
45.4521906
0
LINE
8
DEFAULT_255_2_778
10
63.9894969
20
45.4521906
11
61.5010969
21
45.4521906
0
LINE
8
DEFAULT_255_2_778
10
61.5010969
20
45.4521906
11
61.5010969
21
45.7802906
0
LINE
8
DEFAULT_255_2_778
10
61.5010969
20
45.7802906
11
61.5010969
21
45.7802906
0
ARC
8
DEFAULT_255_2_778
10
16.9580725
20
4.0630858
40
0.2993425
50
224.9661999
51
270.0781112
0
ARC
8
DEFAULT_255_2_778
10
16.9581659
20
4.0636188
40
0.2997853
50
179.976134
51
225.0256554
0
ARC
8
DEFAULT_255_2_778
10
16.9578188
20
6.2640123
40
0.2994383
50
134.9468036
51
180.0514071
0
ARC
8
DEFAULT_255_2_778
10
16.9580725
20
6.2644015
40
0.2993425
50
89.9218888
51
135.0338001
0
ARC
8
DEFAULT_255_2_778
10
16.9582457
20
83.264405
40
0.2997614
50
224.9994928
51
270.0449001
0
ARC
8
DEFAULT_255_2_778
10
16.9581659
20
83.2645188
40
0.2997853
50
179.976134
51
225.0256554
0
ARC
8
DEFAULT_255_2_778
10
16.9578188
20
85.4649123
40
0.2994383
50
134.9468036
51
180.0514071
0
ARC
8
DEFAULT_255_2_778
10
16.9582119
20
85.4653055
40
0.2994383
50
89.9485929
51
135.0531964
0
LINE
8
DEFAULT_255_2_778
10
44.6589806
20
80.1642436
11
42.5589806
21
80.1642436
0
LINE
8
DEFAULT_255_2_778
10
42.5589806
20
80.1642436
11
42.5589806
21
84.7643436
0
LINE
8
DEFAULT_255_2_778
10
42.5589806
20
84.7643436
11
44.6589806
21
84.7643436
0
LINE
8
DEFAULT_255_2_778
10
44.6589806
20
84.7643436
11
44.6589806
21
80.1642436
0
LINE
8
DEFAULT_255_2_778
10
42.5589806
20
84.2642436
11
42.6590806
21
84.2642436
0
LINE
8
DEFAULT_255_2_778
10
42.6590806
20
84.2642436
11
42.6590806
21
80.6643436
0
LINE
8
DEFAULT_255_2_778
10
42.6590806
20
80.6643436
11
44.4589806
21
80.6643436
0
LINE
8
DEFAULT_255_2_778
10
44.4589806
20
80.6643436
11
44.4589806
21
84.2642436
0
LINE
8
DEFAULT_255_2_778
10
44.4589806
20
84.2642436
11
42.6590806
21
84.2642436
0
LINE
8
DEFAULT_255_2_778
10
42.7590806
20
84.2642436
11
42.7590806
21
80.6643436
0
LINE
8
DEFAULT_255_2_778
10
43.1590806
20
80.6643436
11
43.1590806
21
84.2642436
0
LINE
8
DEFAULT_255_2_778
10
42.6590806
20
80.6643436
11
42.5589806
21
80.6643436
0
LINE
8
DEFAULT_255_2_778
10
16.3588806
20
6.2642436
11
16.6589806
21
6.2642436
0
LINE
8
DEFAULT_255_2_778
10
16.6589806
20
6.2642436
11
16.6589806
21
4.0642436
0
LINE
8
DEFAULT_255_2_778
10
16.6589806
20
4.0642436
11
16.3588806
21
4.0642436
0
LINE
8
DEFAULT_255_2_778
10
16.3588806
20
4.0642436
11
16.3588806
21
6.2642436
0
LINE
8
DEFAULT_255_2_778
10
16.3588806
20
4.0642436
11
16.3689806
21
4.0539436
0
LINE
8
DEFAULT_255_2_778
10
16.3689806
20
4.0539436
11
16.3792806
21
4.0433436
0
LINE
8
DEFAULT_255_2_778
10
16.3792806
20
4.0433436
11
16.3895806
21
4.0327436
0
LINE
8
DEFAULT_255_2_778
10
16.3895806
20
4.0327436
11
16.3999806
21
4.0222436
0
LINE
8
DEFAULT_255_2_778
10
16.3999806
20
4.0222436
11
16.4102806
21
4.0116436
0
LINE
8
DEFAULT_255_2_778
10
16.4102806
20
4.0116436
11
16.4205806
21
4.0013436
0
LINE
8
DEFAULT_255_2_778
10
16.4205806
20
4.0013436
11
16.4311806
21
3.9907436
0
LINE
8
DEFAULT_255_2_778
10
16.4311806
20
3.9907436
11
16.4417806
21
3.9804436
0
LINE
8
DEFAULT_255_2_778
10
16.4417806
20
3.9804436
11
16.4522806
21
3.9703436
0
LINE
8
DEFAULT_255_2_778
10
16.4522806
20
3.9703436
11
16.4631806
21
3.9600436
0
LINE
8
DEFAULT_255_2_778
10
16.4631806
20
3.9600436
11
16.4739806
21
3.9499436
0
LINE
8
DEFAULT_255_2_778
10
16.4739806
20
3.9499436
11
16.4848806
21
3.9401436
0
LINE
8
DEFAULT_255_2_778
10
16.4848806
20
3.9401436
11
16.4959806
21
3.9304436
0
LINE
8
DEFAULT_255_2_778
10
16.4959806
20
3.9304436
11
16.5070806
21
3.9208436
0
LINE
8
DEFAULT_255_2_778
10
16.5070806
20
3.9208436
11
16.5184806
21
3.9113436
0
LINE
8
DEFAULT_255_2_778
10
16.5184806
20
3.9113436
11
16.5298806
21
3.9020436
0
LINE
8
DEFAULT_255_2_778
10
16.5298806
20
3.9020436
11
16.5414806
21
3.8930436
0
LINE
8
DEFAULT_255_2_778
10
16.5414806
20
3.8930436
11
16.5530806
21
3.8840436
0
LINE
8
DEFAULT_255_2_778
10
16.5530806
20
3.8840436
11
16.5647806
21
3.8753436
0
LINE
8
DEFAULT_255_2_778
10
16.5647806
20
3.8753436
11
16.5766806
21
3.8669436
0
LINE
8
DEFAULT_255_2_778
10
16.5766806
20
3.8669436
11
16.5888806
21
3.8586436
0
LINE
8
DEFAULT_255_2_778
10
16.5888806
20
3.8586436
11
16.6009806
21
3.8507436
0
LINE
8
DEFAULT_255_2_778
10
16.6009806
20
3.8507436
11
16.6134806
21
3.8430436
0
LINE
8
DEFAULT_255_2_778
10
16.6134806
20
3.8430436
11
16.6261806
21
3.8356436
0
LINE
8
DEFAULT_255_2_778
10
16.6261806
20
3.8356436
11
16.6385806
21
3.8288436
0
LINE
8
DEFAULT_255_2_778
10
16.6385806
20
3.8288436
11
16.6515806
21
3.8219436
0
LINE
8
DEFAULT_255_2_778
10
16.6515806
20
3.8219436
11
16.6647806
21
3.8153436
0
LINE
8
DEFAULT_255_2_778
10
16.6647806
20
3.8153436
11
16.6779806
21
3.8092436
0
LINE
8
DEFAULT_255_2_778
10
16.6779806
20
3.8092436
11
16.6914806
21
3.8034436
0
LINE
8
DEFAULT_255_2_778
10
16.6914806
20
3.8034436
11
16.7052806
21
3.7978436
0
LINE
8
DEFAULT_255_2_778
10
16.7052806
20
3.7978436
11
16.7189806
21
3.7928436
0
LINE
8
DEFAULT_255_2_778
10
16.7189806
20
3.7928436
11
16.7330806
21
3.7880436
0
LINE
8
DEFAULT_255_2_778
10
16.7330806
20
3.7880436
11
16.7470806
21
3.7838436
0
LINE
8
DEFAULT_255_2_778
10
16.7470806
20
3.7838436
11
16.7613806
21
3.7798436
0
LINE
8
DEFAULT_255_2_778
10
16.7613806
20
3.7798436
11
16.7756806
21
3.7764436
0
LINE
8
DEFAULT_255_2_778
10
16.7756806
20
3.7764436
11
16.7898806
21
3.7735436
0
LINE
8
DEFAULT_255_2_778
10
16.7898806
20
3.7735436
11
16.8047806
21
3.7711436
0
LINE
8
DEFAULT_255_2_778
10
16.8047806
20
3.7711436
11
16.8192806
21
3.7690436
0
LINE
8
DEFAULT_255_2_778
10
16.8192806
20
3.7690436
11
16.8338806
21
3.7671436
0
LINE
8
DEFAULT_255_2_778
10
16.8338806
20
3.7671436
11
16.8488806
21
3.7655436
0
LINE
8
DEFAULT_255_2_778
10
16.8488806
20
3.7655436
11
16.8634806
21
3.7645436
0
LINE
8
DEFAULT_255_2_778
10
16.8634806
20
3.7645436
11
16.8780806
21
3.7637436
0
LINE
8
DEFAULT_255_2_778
10
16.8780806
20
3.7637436
11
17.6585806
21
3.7637436
0
LINE
8
DEFAULT_255_2_778
10
17.6585806
20
3.7637436
11
17.6585806
21
6.5637436
0
LINE
8
DEFAULT_255_2_778
10
17.8585806
20
3.3636436
11
16.2588806
21
3.3636436
0
LINE
8
DEFAULT_255_2_778
10
16.2588806
20
3.3636436
11
16.2588806
21
6.5635436
0
LINE
8
DEFAULT_255_2_778
10
16.2588806
20
6.5635436
11
17.8588806
21
6.5635436
0
LINE
8
DEFAULT_255_2_778
10
17.8588806
20
6.5635436
11
17.8585806
21
3.3636436
0
LINE
8
DEFAULT_255_2_778
10
17.6585806
20
4.0637436
11
16.9584806
21
4.0637436
0
LINE
8
DEFAULT_255_2_778
10
16.9584806
20
4.0637436
11
16.9584806
21
3.7637436
0
LINE
8
DEFAULT_255_2_778
10
16.6583806
20
4.0637436
11
16.9584806
21
4.0637436
0
LINE
8
DEFAULT_255_2_778
10
16.9584806
20
4.0637436
11
16.9584806
21
6.2637436
0
LINE
8
DEFAULT_255_2_778
10
16.9584806
20
6.2637436
11
16.6583806
21
6.2637436
0
LINE
8
DEFAULT_255_2_778
10
16.9584806
20
6.5637436
11
16.9584806
21
6.2637436
0
LINE
8
DEFAULT_255_2_778
10
16.9584806
20
6.2637436
11
17.6585806
21
6.2637436
0
LINE
8
DEFAULT_255_2_778
10
17.6585806
20
3.7637436
11
17.6585806
21
3.3636436
0
LINE
8
DEFAULT_255_2_778
10
16.6583806
20
6.5635436
11
16.2583806
21
6.1634436
0
LINE
8
DEFAULT_255_2_778
10
26.7588806
20
22.9642436
11
24.5588806
21
22.9642436
0
LINE
8
DEFAULT_255_2_778
10
24.5588806
20
17.5643436
11
24.5588806
21
25.9643436
0
LINE
8
DEFAULT_255_2_778
10
24.5588806
20
25.9643436
11
26.7588806
21
25.9643436
0
LINE
8
DEFAULT_255_2_778
10
26.7588806
20
25.9643436
11
26.7588806
21
17.5643436
0
LINE
8
DEFAULT_255_2_778
10
26.7588806
20
17.5643436
11
24.5588806
21
17.5643436
0
LINE
8
DEFAULT_255_2_778
10
26.7588806
20
19.0643436
11
24.5588806
21
19.0643436
0
LINE
8
DEFAULT_255_2_778
10
24.5588806
20
19.0643436
11
25.0589806
21
18.5642436
0
LINE
8
DEFAULT_255_2_778
10
24.5588806
20
17.7641436
11
25.0589806
21
17.7641436
0
LINE
8
DEFAULT_255_2_778
10
24.8588806
20
19.0640436
11
24.8588806
21
22.9639436
0
LINE
8
DEFAULT_255_2_778
10
25.0589806
20
22.9639436
11
25.0589806
21
17.7638436
0
LINE
8
DEFAULT_255_2_778
10
25.0589806
20
17.7638436
11
26.7588806
21
17.7638436
0
LINE
8
DEFAULT_255_2_778
10
16.3588806
20
83.2643436
11
16.6589806
21
83.2643436
0
LINE
8
DEFAULT_255_2_778
10
16.6589806
20
83.2643436
11
16.6589806
21
85.4643436
0
LINE
8
DEFAULT_255_2_778
10
16.6589806
20
85.4643436
11
16.3588806
21
85.4643436
0
LINE
8
DEFAULT_255_2_778
10
16.3588806
20
85.4643436
11
16.3588806
21
83.2643436
0
LINE
8
DEFAULT_255_2_778
10
16.3588806
20
85.4643436
11
16.3689806
21
85.4747436
0
LINE
8
DEFAULT_255_2_778
10
16.3689806
20
85.4747436
11
16.3792806
21
85.4853436
0
LINE
8
DEFAULT_255_2_778
10
16.3792806
20
85.4853436
11
16.3895806
21
85.4958436
0
LINE
8
DEFAULT_255_2_778
10
16.3895806
20
85.4958436
11
16.3999806
21
85.5064436
0
LINE
8
DEFAULT_255_2_778
10
16.3999806
20
85.5064436
11
16.4102806
21
85.5170436
0
LINE
8
DEFAULT_255_2_778
10
16.4102806
20
85.5170436
11
16.4205806
21
85.5273436
0
LINE
8
DEFAULT_255_2_778
10
16.4205806
20
85.5273436
11
16.4311806
21
85.5379436
0
LINE
8
DEFAULT_255_2_778
10
16.4311806
20
85.5379436
11
16.4417806
21
85.5482436
0
LINE
8
DEFAULT_255_2_778
10
16.4417806
20
85.5482436
11
16.4522806
21
85.5583436
0
LINE
8
DEFAULT_255_2_778
10
16.4522806
20
85.5583436
11
16.4631806
21
85.5686436
0
LINE
8
DEFAULT_255_2_778
10
16.4631806
20
85.5686436
11
16.4739806
21
85.5786436
0
LINE
8
DEFAULT_255_2_778
10
16.4739806
20
85.5786436
11
16.4848806
21
85.5884436
0
LINE
8
DEFAULT_255_2_778
10
16.4848806
20
85.5884436
11
16.4959806
21
85.5982436
0
LINE
8
DEFAULT_255_2_778
10
16.4959806
20
85.5982436
11
16.5070806
21
85.6078436
0
LINE
8
DEFAULT_255_2_778
10
16.5070806
20
85.6078436
11
16.5184806
21
85.6173436
0
LINE
8
DEFAULT_255_2_778
10
16.5184806
20
85.6173436
11
16.5298806
21
85.6265436
0
LINE
8
DEFAULT_255_2_778
10
16.5298806
20
85.6265436
11
16.5414806
21
85.6355436
0
LINE
8
DEFAULT_255_2_778
10
16.5414806
20
85.6355436
11
16.5530806
21
85.6445436
0
LINE
8
DEFAULT_255_2_778
10
16.5530806
20
85.6445436
11
16.5647806
21
85.6533436
0
LINE
8
DEFAULT_255_2_778
10
16.5647806
20
85.6533436
11
16.5766806
21
85.6617436
0
LINE
8
DEFAULT_255_2_778
10
16.5766806
20
85.6617436
11
16.5888806
21
85.6699436
0
LINE
8
DEFAULT_255_2_778
10
16.5888806
20
85.6699436
11
16.6009806
21
85.6779436
0
LINE
8
DEFAULT_255_2_778
10
16.6009806
20
85.6779436
11
16.6134806
21
85.6855436
0
LINE
8
DEFAULT_255_2_778
10
16.6134806
20
85.6855436
11
16.6261806
21
85.6929436
0
LINE
8
DEFAULT_255_2_778
10
16.6261806
20
85.6929436
11
16.6385806
21
85.6998436
0
LINE
8
DEFAULT_255_2_778
10
16.6385806
20
85.6998436
11
16.6515806
21
85.7067436
0
LINE
8
DEFAULT_255_2_778
10
16.6515806
20
85.7067436
11
16.6647806
21
85.7133436
0
LINE
8
DEFAULT_255_2_778
10
16.6647806
20
85.7133436
11
16.6779806
21
85.7194436
0
LINE
8
DEFAULT_255_2_778
10
16.6779806
20
85.7194436
11
16.6914806
21
85.7252436
0
LINE
8
DEFAULT_255_2_778
10
16.6914806
20
85.7252436
11
16.7052806
21
85.7308436
0
LINE
8
DEFAULT_255_2_778
10
16.7052806
20
85.7308436
11
16.7189806
21
85.7358436
0
LINE
8
DEFAULT_255_2_778
10
16.7189806
20
85.7358436
11
16.7330806
21
85.7406436
0
LINE
8
DEFAULT_255_2_778
10
16.7330806
20
85.7406436
11
16.7470806
21
85.7448436
0
LINE
8
DEFAULT_255_2_778
10
16.7470806
20
85.7448436
11
16.7613806
21
85.7488436
0
LINE
8
DEFAULT_255_2_778
10
16.7613806
20
85.7488436
11
16.7756806
21
85.7522436
0
LINE
8
DEFAULT_255_2_778
10
16.7756806
20
85.7522436
11
16.7898806
21
85.7551436
0
LINE
8
DEFAULT_255_2_778
10
16.7898806
20
85.7551436
11
16.8047806
21
85.7575436
0
LINE
8
DEFAULT_255_2_778
10
16.8047806
20
85.7575436
11
16.8192806
21
85.7596436
0
LINE
8
DEFAULT_255_2_778
10
16.8192806
20
85.7596436
11
16.8338806
21
85.7615436
0
LINE
8
DEFAULT_255_2_778
10
16.8338806
20
85.7615436
11
16.8488806
21
85.7631436
0
LINE
8
DEFAULT_255_2_778
10
16.8488806
20
85.7631436
11
16.8634806
21
85.7641436
0
LINE
8
DEFAULT_255_2_778
10
16.8634806
20
85.7641436
11
16.8780806
21
85.7649436
0
LINE
8
DEFAULT_255_2_778
10
16.8780806
20
85.7649436
11
17.6585806
21
85.7649436
0
LINE
8
DEFAULT_255_2_778
10
17.6585806
20
85.7649436
11
17.6585806
21
82.9646436
0
LINE
8
DEFAULT_255_2_778
10
17.6585806
20
83.2646436
11
16.9584806
21
83.2646436
0
LINE
8
DEFAULT_255_2_778
10
16.9584806
20
83.2646436
11
16.9584806
21
82.9646436
0
LINE
8
DEFAULT_255_2_778
10
16.6583806
20
83.2646436
11
16.9584806
21
83.2646436
0
LINE
8
DEFAULT_255_2_778
10
16.9584806
20
83.2646436
11
16.9584806
21
85.4646436
0
LINE
8
DEFAULT_255_2_778
10
16.9584806
20
85.4646436
11
16.6583806
21
85.4646436
0
LINE
8
DEFAULT_255_2_778
10
16.9584806
20
85.7647436
11
16.9584806
21
85.4646436
0
LINE
8
DEFAULT_255_2_778
10
16.9584806
20
85.4646436
11
17.6585806
21
85.4646436
0
LINE
8
DEFAULT_255_2_778
10
16.2588806
20
82.9646436
11
16.2588806
21
86.1644436
0
LINE
8
DEFAULT_255_2_778
10
16.2588806
20
86.1644436
11
17.8588806
21
86.1644436
0
LINE
8
DEFAULT_255_2_778
10
17.8588806
20
86.1644436
11
17.8588806
21
82.9646436
0
LINE
8
DEFAULT_255_2_778
10
17.8588806
20
82.9646436
11
16.2588806
21
82.9646436
0
LINE
8
DEFAULT_255_2_778
10
17.6587806
20
85.7647436
11
17.6587806
21
86.1647436
0
LINE
8
DEFAULT_255_2_778
10
16.6586806
20
82.9646436
11
16.2586806
21
83.3646436
0
LINE
8
DEFAULT_255_2_778
10
24.5588806
20
66.5644436
11
26.7588806
21
66.5644436
0
LINE
8
DEFAULT_255_2_778
10
24.5588806
20
71.7642436
11
26.7588806
21
71.7642436
0
LINE
8
DEFAULT_255_2_778
10
24.5588806
20
63.5643436
11
24.5588806
21
71.9642436
0
LINE
8
DEFAULT_255_2_778
10
24.5588806
20
71.9642436
11
26.7588806
21
71.9642436
0
LINE
8
DEFAULT_255_2_778
10
26.7588806
20
71.9642436
11
26.7588806
21
63.5643436
0
LINE
8
DEFAULT_255_2_778
10
26.7588806
20
63.5643436
11
24.5588806
21
63.5643436
0
LINE
8
DEFAULT_255_2_778
10
26.7588806
20
70.4643436
11
25.0589806
21
70.4643436
0
LINE
8
DEFAULT_255_2_778
10
25.0589806
20
70.4643436
11
25.0589806
21
66.5644436
0
LINE
8
DEFAULT_255_2_778
10
24.8588806
20
66.5644436
11
24.8588806
21
70.4643436
0
LINE
8
DEFAULT_255_2_778
10
25.0589806
20
70.9644436
11
24.5588806
21
70.4643436
0
LINE
8
DEFAULT_255_2_778
10
24.5588806
20
70.4643436
11
25.0589806
21
70.4643436
0
LINE
8
DEFAULT_255_2_778
10
25.0589806
20
70.4643436
11
25.0589806
21
71.7642436
0
ARC
8
DEFAULT_255_2_778
10
49.0593901
20
75.7641302
40
1.000515
50
135.0116647
51
179.9927292
0
ARC
8
DEFAULT_255_2_778
10
49.0591021
20
75.7638417
40
1.0005155
50
90.0072757
51
134.9883214
0
ARC
8
DEFAULT_255_2_778
10
49.0589927
20
75.764191
40
1.0001661
50
45.0033929
51
90.0010116
0
ARC
8
DEFAULT_255_2_778
10
49.05898
20
75.7643042
40
1.000095
50
359.9973023
51
44.9982952
0
LINE
8
DEFAULT_255_2_778
10
50.059075
20
75.7642571
11
50.059075
21
65.2642571
0
LINE
8
DEFAULT_255_2_778
10
50.059075
20
65.2642571
11
48.059175
21
65.2642571
0
LINE
8
DEFAULT_255_2_778
10
48.059175
20
65.2642571
11
48.059175
21
75.7642571
0
ARC
8
DEFAULT_255_2_778
10
52.8596901
20
75.7641302
40
1.000515
50
135.0116647
51
179.9927292
0
ARC
8
DEFAULT_255_2_778
10
52.8594021
20
75.7638417
40
1.0005155
50
90.0072757
51
134.9883214
0
ARC
8
DEFAULT_255_2_778
10
52.8592927
20
75.764191
40
1.0001661
50
45.0033929
51
90.0010116
0
ARC
8
DEFAULT_255_2_778
10
52.85928
20
75.7643042
40
1.000095
50
359.9973023
51
44.9982952
0
LINE
8
DEFAULT_255_2_778
10
53.859375
20
75.7642571
11
53.859375
21
65.2642571
0
LINE
8
DEFAULT_255_2_778
10
53.859375
20
65.2642571
11
51.859475
21
65.2642571
0
LINE
8
DEFAULT_255_2_778
10
51.859475
20
65.2642571
11
51.859475
21
75.7642571
0
ARC
8
DEFAULT_255_2_778
10
49.0626811
20
13.7629336
40
0.9962817
50
318.352397
51
0.0818679
0
ARC
8
DEFAULT_255_2_778
10
49.0599161
20
13.7620378
40
0.9977557
50
271.7308645
51
318.4963478
0
ARC
8
DEFAULT_255_2_778
10
49.0587715
20
13.7833809
40
1.0191238
50
269.9994553
51
271.7589451
0
ARC
8
DEFAULT_255_2_778
10
49.0573428
20
13.7605787
40
0.9963226
50
228.3541388
51
270.0816049
0
ARC
8
DEFAULT_255_2_778
10
49.0563233
20
13.7632408
40
0.9976376
50
181.732932
51
228.4994886
0
ARC
8
DEFAULT_255_2_778
10
49.077421
20
13.7643474
40
1.0187592
50
179.9994554
51
181.7592612
0
LINE
8
DEFAULT_255_2_778
10
48.0586618
20
13.7643571
11
48.0586618
21
24.2643571
0
LINE
8
DEFAULT_255_2_778
10
48.0586618
20
24.2643571
11
50.0586618
21
24.2643571
0
LINE
8
DEFAULT_255_2_778
10
50.0586618
20
24.2643571
11
50.0586618
21
13.7643571
0
ARC
8
DEFAULT_255_2_778
10
52.8627188
20
13.7629126
40
0.9963573
50
318.3578711
51
0.0830675
0
ARC
8
DEFAULT_255_2_778
10
52.8601493
20
13.7618708
40
0.9975883
50
271.730003
51
318.5006483
0
ARC
8
DEFAULT_255_2_778
10
52.8589849
20
13.7833578
40
1.0191008
50
269.999446
51
271.7589697
0
ARC
8
DEFAULT_255_2_778
10
52.857556
20
13.7605787
40
0.9963226
50
228.3541388
51
270.0816049
0
ARC
8
DEFAULT_255_2_778
10
52.8565365
20
13.7632408
40
0.9976376
50
181.732932
51
228.4994886
0
ARC
8
DEFAULT_255_2_778
10
52.8776342
20
13.7643474
40
1.0187592
50
179.9994554
51
181.7592612
0
LINE
8
DEFAULT_255_2_778
10
51.858875
20
13.7643571
11
51.858875
21
24.2643571
0
LINE
8
DEFAULT_255_2_778
10
51.858875
20
24.2643571
11
53.858875
21
24.2643571
0
LINE
8
DEFAULT_255_2_778
10
53.858875
20
24.2643571
11
53.858875
21
13.7643571
0
ARC
8
DEFAULT_255_2_778
10
41.4625627
20
13.7629181
40
0.9963573
50
318.3578711
51
0.0830675
0
ARC
8
DEFAULT_255_2_778
10
41.4599933
20
13.7618763
40
0.9975883
50
271.730003
51
318.5006483
0
ARC
8
DEFAULT_255_2_778
10
41.4588288
20
13.7833634
40
1.0191008
50
269.999446
51
271.7589697
0
ARC
8
DEFAULT_255_2_778
10
41.4574
20
13.7605842
40
0.9963226
50
228.3541388
51
270.0816049
0
ARC
8
DEFAULT_255_2_778
10
41.4563805
20
13.7632463
40
0.9976376
50
181.732932
51
228.4994886
0
ARC
8
DEFAULT_255_2_778
10
41.4774782
20
13.764353
40
1.0187592
50
179.9994554
51
181.7592612
0
ARC
8
DEFAULT_255_2_778
10
41.4550371
20
75.7656231
40
0.9963191
50
138.3540548
51
180.083984
0
ARC
8
DEFAULT_255_2_778
10
41.4576646
20
75.7666039
40
0.9976339
50
91.7307506
51
138.4964297
0
ARC
8
DEFAULT_255_2_778
10
41.4588093
20
75.7455036
40
1.0187593
50
89.9994553
51
91.7592611
0
ARC
8
DEFAULT_255_2_778
10
41.4603049
20
75.7679099
40
0.9963538
50
48.3577872
51
90.0854462
0
ARC
8
DEFAULT_255_2_778
10
41.4613081
20
75.765375
40
0.9975846
50
1.7278219
51
48.4975893
0
ARC
8
DEFAULT_255_2_778
10
41.4398184
20
75.7641725
40
1.0191008
50
359.999446
51
1.7589696
0
ARC
8
DEFAULT_255_2_778
10
45.2625974
20
13.7629436
40
0.9963226
50
318.3541388
51
0.0816049
0
ARC
8
DEFAULT_255_2_778
10
45.2599353
20
13.7619241
40
0.9976376
50
271.732932
51
318.4994886
0
ARC
8
DEFAULT_255_2_778
10
45.2588287
20
13.7830218
40
1.0187592
50
269.9994554
51
271.7592612
0
ARC
8
DEFAULT_255_2_778
10
45.2573745
20
13.7607386
40
0.996477
50
228.3575081
51
270.0830578
0
ARC
8
DEFAULT_255_2_778
10
45.2562389
20
13.7632412
40
0.9975959
50
181.7327121
51
228.5017548
0
ARC
8
DEFAULT_255_2_778
10
45.2773782
20
13.764353
40
1.0187592
50
179.9994554
51
181.7592612
0
ARC
8
DEFAULT_255_2_778
10
45.2548962
20
75.7656276
40
0.9962783
50
138.352313
51
180.084247
0
ARC
8
DEFAULT_255_2_778
10
45.2576266
20
75.7664847
40
0.997752
50
91.7286836
51
138.4932889
0
ARC
8
DEFAULT_255_2_778
10
45.2588093
20
75.745139
40
1.0191238
50
89.9994552
51
91.758945
0
ARC
8
DEFAULT_255_2_778
10
45.2602635
20
75.7679064
40
0.9963573
50
48.3578711
51
90.0830675
0
ARC
8
DEFAULT_255_2_778
10
45.2613053
20
75.7653369
40
0.9975883
50
1.730003
51
48.5006483
0
ARC
8
DEFAULT_255_2_778
10
45.2398183
20
75.7641725
40
1.0191008
50
359.999446
51
1.7589697
0
ARC
8
DEFAULT_255_2_778
10
56.6553406
20
75.7658817
40
0.9963226
50
138.3541388
51
180.0816049
0
ARC
8
DEFAULT_255_2_778
10
56.6580026
20
75.7669012
40
0.9976376
50
91.732932
51
138.4994886
0
ARC
8
DEFAULT_255_2_778
10
56.6591093
20
75.7458035
40
1.0187592
50
89.9994554
51
91.7592612
0
ARC
8
DEFAULT_255_2_778
10
56.6605635
20
75.7680867
40
0.996477
50
48.3575081
51
90.0830578
0
ARC
8
DEFAULT_255_2_778
10
56.661699
20
75.7655841
40
0.9975959
50
1.7327121
51
48.5017548
0
ARC
8
DEFAULT_255_2_778
10
56.6405598
20
75.7644723
40
1.0187592
50
359.9994554
51
1.7592612
0
ARC
8
DEFAULT_255_2_778
10
53.1590583
20
72.9648342
40
3.0000607
50
326.7692134
51
359.9967242
0
LINE
8
DEFAULT_255_2_778
10
40.458719
20
13.7643627
11
40.458719
21
75.7641627
0
LINE
8
DEFAULT_255_2_778
10
42.458919
20
75.7641627
11
42.458919
21
13.7640627
0
LINE
8
DEFAULT_255_2_778
10
44.258619
20
13.7643627
11
44.258619
21
75.7641627
0
LINE
8
DEFAULT_255_2_778
10
46.258919
20
75.7641627
11
46.258919
21
13.7643627
0
LINE
8
DEFAULT_255_2_778
10
44.258919
20
46.7642627
11
46.258919
21
46.7642627
0
LINE
8
DEFAULT_255_2_778
10
46.258919
20
42.7642627
11
44.258919
21
42.7642627
0
LINE
8
DEFAULT_255_2_778
10
46.258919
20
63.9642627
11
44.558919
21
63.9642627
0
LINE
8
DEFAULT_255_2_778
10
44.558919
20
63.9642627
11
44.558919
21
69.9642627
0
LINE
8
DEFAULT_255_2_778
10
44.558919
20
69.9642627
11
46.258919
21
69.9642627
0
LINE
8
DEFAULT_255_2_778
10
55.659019
20
74.7643627
11
57.659019
21
74.7643627
0
LINE
8
DEFAULT_255_2_778
10
57.659319
20
75.7644627
11
57.659319
21
65.2644627
0
LINE
8
DEFAULT_255_2_778
10
57.659319
20
65.2644627
11
55.659319
21
65.2644627
0
LINE
8
DEFAULT_255_2_778
10
55.659319
20
65.2644627
11
55.659019
21
75.7644627
0
LINE
8
DEFAULT_255_2_778
10
56.159119
20
72.9646627
11
56.159119
21
74.7645627
0
ARC
8
DEFAULT_255_2_778
10
60.4594768
20
75.7643302
40
1.000515
50
135.0116647
51
179.9927292
0
ARC
8
DEFAULT_255_2_778
10
60.4591888
20
75.7640417
40
1.0005155
50
90.0072757
51
134.9883214
0
ARC
8
DEFAULT_255_2_778
10
60.4590795
20
75.764391
40
1.0001661
50
45.0033929
51
90.0010116
0
ARC
8
DEFAULT_255_2_778
10
60.4590706
20
75.7643644
40
1.0001912
50
0.0053149
51
45.0041129
0
LINE
8
DEFAULT_255_2_778
10
59.4589618
20
67.1644571
11
61.4589618
21
67.1644571
0
LINE
8
DEFAULT_255_2_778
10
59.4589618
20
74.7643571
11
61.4589618
21
74.7643571
0
LINE
8
DEFAULT_255_2_778
10
61.4592618
20
75.7644571
11
61.4592618
21
65.2644571
0
LINE
8
DEFAULT_255_2_778
10
61.4592618
20
65.2644571
11
59.4592618
21
65.2644571
0
LINE
8
DEFAULT_255_2_778
10
59.4592618
20
65.2644571
11
59.4589618
21
75.7644571
0
ARC
8
DEFAULT_255_2_778
10
64.2594901
20
75.7643302
40
1.000515
50
135.0116647
51
179.9927292
0
ARC
8
DEFAULT_255_2_778
10
64.2592021
20
75.7640417
40
1.0005155
50
90.0072757
51
134.9883214
0
ARC
8
DEFAULT_255_2_778
10
64.2590927
20
75.764391
40
1.0001661
50
45.0033929
51
90.0010116
0
ARC
8
DEFAULT_255_2_778
10
64.25908
20
75.7645042
40
1.000095
50
359.9973023
51
44.9982952
0
LINE
8
DEFAULT_255_2_778
10
63.258975
20
67.1644571
11
65.258975
21
67.1644571
0
LINE
8
DEFAULT_255_2_778
10
63.258975
20
74.7643571
11
65.258975
21
74.7643571
0
LINE
8
DEFAULT_255_2_778
10
65.259175
20
75.7644571
11
65.259175
21
65.2644571
0
LINE
8
DEFAULT_255_2_778
10
65.259175
20
65.2644571
11
63.259275
21
65.2644571
0
LINE
8
DEFAULT_255_2_778
10
63.259275
20
65.2644571
11
63.258975
21
75.7644571
0
ARC
8
DEFAULT_255_2_778
10
68.0552677
20
75.765914
40
0.9963226
50
138.3541388
51
180.0816049
0
ARC
8
DEFAULT_255_2_778
10
68.0579298
20
75.7669335
40
0.9976376
50
91.732932
51
138.4994886
0
ARC
8
DEFAULT_255_2_778
10
68.0590364
20
75.7458358
40
1.0187592
50
89.9994554
51
91.7592612
0
ARC
8
DEFAULT_255_2_778
10
68.0604907
20
75.768119
40
0.996477
50
48.3575081
51
90.0830578
0
ARC
8
DEFAULT_255_2_778
10
68.0616262
20
75.7656164
40
0.9975959
50
1.7327121
51
48.5017548
0
ARC
8
DEFAULT_255_2_778
10
68.0404869
20
75.7645046
40
1.0187592
50
359.9994554
51
1.7592612
0
ARC
8
DEFAULT_255_2_778
10
71.8554677
20
75.765914
40
0.9963226
50
138.3541388
51
180.0816049
0
ARC
8
DEFAULT_255_2_778
10
71.8581298
20
75.7669335
40
0.9976376
50
91.732932
51
138.4994886
0
ARC
8
DEFAULT_255_2_778
10
71.8592364
20
75.7458358
40
1.0187592
50
89.9994554
51
91.7592612
0
ARC
8
DEFAULT_255_2_778
10
71.8606907
20
75.768119
40
0.996477
50
48.3575081
51
90.0830578
0
ARC
8
DEFAULT_255_2_778
10
71.8618262
20
75.7656164
40
0.9975959
50
1.7327121
51
48.5017548
0
ARC
8
DEFAULT_255_2_778
10
71.8406869
20
75.7645046
40
1.0187592
50
359.9994554
51
1.7592612
0
ARC
8
DEFAULT_255_2_778
10
75.6555024
20
75.7659395
40
0.9963573
50
138.3578711
51
180.0830675
0
ARC
8
DEFAULT_255_2_778
10
75.6580718
20
75.7669813
40
0.9975883
50
91.730003
51
138.5006483
0
ARC
8
DEFAULT_255_2_778
10
75.6592363
20
75.7454942
40
1.0191008
50
89.999446
51
91.7589697
0
ARC
8
DEFAULT_255_2_778
10
75.6606652
20
75.7682734
40
0.9963226
50
48.3541388
51
90.0816049
0
ARC
8
DEFAULT_255_2_778
10
75.6616847
20
75.7656113
40
0.9976376
50
1.732932
51
48.4994886
0
ARC
8
DEFAULT_255_2_778
10
75.6405869
20
75.7645046
40
1.0187592
50
359.9994554
51
1.7592612
0
ARC
8
DEFAULT_255_2_778
10
56.6626899
20
13.7626504
40
0.9963573
50
318.3578711
51
0.0830675
0
ARC
8
DEFAULT_255_2_778
10
56.6601204
20
13.7616086
40
0.9975883
50
271.730003
51
318.5006483
0
ARC
8
DEFAULT_255_2_778
10
56.658956
20
13.7830957
40
1.0191008
50
269.999446
51
271.7589697
0
ARC
8
DEFAULT_255_2_778
10
56.6575271
20
13.7603165
40
0.9963226
50
228.3541388
51
270.0816049
0
ARC
8
DEFAULT_255_2_778
10
56.6565076
20
13.7629786
40
0.9976376
50
181.732932
51
228.4994886
0
ARC
8
DEFAULT_255_2_778
10
56.6776053
20
13.7640853
40
1.0187592
50
179.9994554
51
181.7592612
0
ARC
8
DEFAULT_255_2_778
10
53.1617326
20
16.5631889
40
2.9972498
50
328.220785
51
344.1760521
0
ARC
8
DEFAULT_255_2_778
10
53.1580675
20
16.5636684
40
3.0009068
50
344.1863267
51
359.8179443
0
ARC
8
DEFAULT_255_2_778
10
53.1680074
20
16.5639162
40
2.9909677
50
359.8125908
51
359.9999998
0
ARC
8
DEFAULT_255_2_778
10
53.1598203
20
16.5644676
40
2.9991548
50
359.9894667
51
24.7085628
0
ARC
8
DEFAULT_255_2_778
10
53.1556763
20
16.561794
40
3.0040368
50
24.7218487
51
33.1407747
0
LINE
8
DEFAULT_255_2_778
10
69.0589461
20
70.2642949
11
68.1588461
21
70.2642949
0
LINE
8
DEFAULT_255_2_778
10
68.1588461
20
70.2642949
11
68.1588461
21
72.7643949
0
LINE
8
DEFAULT_255_2_778
10
68.1588461
20
72.7643949
11
69.0589461
21
72.7643949
0
LINE
8
DEFAULT_255_2_778
10
67.0589461
20
74.7643949
11
69.0589461
21
74.7643949
0
LINE
8
DEFAULT_255_2_778
10
69.0592461
20
75.7644949
11
69.0592461
21
65.2644949
0
LINE
8
DEFAULT_255_2_778
10
69.0592461
20
65.2644949
11
67.0592461
21
65.2644949
0
LINE
8
DEFAULT_255_2_778
10
67.0592461
20
65.2644949
11
67.0589461
21
75.7644949
0
LINE
8
DEFAULT_255_2_778
10
72.1590461
20
72.7643949
11
72.1590461
21
70.2642949
0
LINE
8
DEFAULT_255_2_778
10
70.8591461
20
74.7643949
11
72.8591461
21
74.7643949
0
LINE
8
DEFAULT_255_2_778
10
72.8594461
20
75.7644949
11
72.8594461
21
65.2644949
0
LINE
8
DEFAULT_255_2_778
10
72.8594461
20
65.2644949
11
70.8594461
21
65.2644949
0
LINE
8
DEFAULT_255_2_778
10
70.8594461
20
65.2644949
11
70.8591461
21
75.7644949
0
LINE
8
DEFAULT_255_2_778
10
72.8591461
20
70.2645949
11
70.8591461
21
70.2645949
0
LINE
8
DEFAULT_255_2_778
10
70.8591461
20
72.7645949
11
72.8591461
21
72.7645949
0
LINE
8
DEFAULT_255_2_778
10
74.6591461
20
74.7643949
11
76.6590461
21
74.7643949
0
LINE
8
DEFAULT_255_2_778
10
76.6593461
20
75.7644949
11
76.6593461
21
65.2644949
0
LINE
8
DEFAULT_255_2_778
10
76.6593461
20
65.2644949
11
74.6593461
21
65.2644949
0
LINE
8
DEFAULT_255_2_778
10
74.6593461
20
65.2644949
11
74.6591461
21
75.7644949
0
LINE
8
DEFAULT_255_2_778
10
76.6590461
20
70.2645949
11
74.6591461
21
70.2645949
0
LINE
8
DEFAULT_255_2_778
10
76.6590461
20
72.7645949
11
74.6591461
21
72.7645949
0
LINE
8
DEFAULT_255_2_778
10
55.6591461
20
14.7642949
11
57.6590461
21
14.7642949
0
LINE
8
DEFAULT_255_2_778
10
55.6588461
20
13.7640949
11
55.6588461
21
24.2640949
0
LINE
8
DEFAULT_255_2_778
10
55.6588461
20
24.2640949
11
57.6588461
21
24.2640949
0
LINE
8
DEFAULT_255_2_778
10
57.6588461
20
24.2640949
11
57.6590461
21
13.7640949
0
ARC
8
DEFAULT_255_2_778
10
60.4626188
20
13.7627126
40
0.9963573
50
318.3578711
51
0.0830675
0
ARC
8
DEFAULT_255_2_778
10
60.4600493
20
13.7616708
40
0.9975883
50
271.730003
51
318.5006483
0
ARC
8
DEFAULT_255_2_778
10
60.4588849
20
13.7831578
40
1.0191008
50
269.999446
51
271.7589697
0
ARC
8
DEFAULT_255_2_778
10
60.457456
20
13.7603787
40
0.9963226
50
228.3541388
51
270.0816049
0
ARC
8
DEFAULT_255_2_778
10
60.4564365
20
13.7630408
40
0.9976376
50
181.732932
51
228.4994886
0
ARC
8
DEFAULT_255_2_778
10
60.4775342
20
13.7641474
40
1.0187592
50
179.9994554
51
181.7592612
0
LINE
8
DEFAULT_255_2_778
10
59.459075
20
14.7642571
11
61.458975
21
14.7642571
0
LINE
8
DEFAULT_255_2_778
10
59.458775
20
13.7641571
11
59.458775
21
24.2641571
0
LINE
8
DEFAULT_255_2_778
10
59.458775
20
24.2641571
11
61.458775
21
24.2641571
0
LINE
8
DEFAULT_255_2_778
10
61.458775
20
24.2641571
11
61.458975
21
13.7641571
0
ARC
8
DEFAULT_255_2_778
10
64.2625188
20
13.7627126
40
0.9963573
50
318.3578711
51
0.0830675
0
ARC
8
DEFAULT_255_2_778
10
64.2599493
20
13.7616708
40
0.9975883
50
271.730003
51
318.5006483
0
ARC
8
DEFAULT_255_2_778
10
64.2587849
20
13.7831578
40
1.0191008
50
269.999446
51
271.7589697
0
ARC
8
DEFAULT_255_2_778
10
64.257356
20
13.7603787
40
0.9963226
50
228.3541388
51
270.0816049
0
ARC
8
DEFAULT_255_2_778
10
64.2563365
20
13.7630408
40
0.9976376
50
181.732932
51
228.4994886
0
ARC
8
DEFAULT_255_2_778
10
64.2774342
20
13.7641474
40
1.0187592
50
179.9994554
51
181.7592612
0
LINE
8
DEFAULT_255_2_778
10
63.258975
20
14.7642571
11
65.258875
21
14.7642571
0
LINE
8
DEFAULT_255_2_778
10
63.258675
20
13.7641571
11
63.258675
21
24.2641571
0
LINE
8
DEFAULT_255_2_778
10
63.258675
20
24.2641571
11
65.258675
21
24.2641571
0
LINE
8
DEFAULT_255_2_778
10
65.258675
20
24.2641571
11
65.258875
21
13.7641571
0
ARC
8
DEFAULT_255_2_778
10
68.0625188
20
13.7627126
40
0.9963573
50
318.3578711
51
0.0830675
0
ARC
8
DEFAULT_255_2_778
10
68.0599493
20
13.7616708
40
0.9975883
50
271.730003
51
318.5006483
0
ARC
8
DEFAULT_255_2_778
10
68.0587849
20
13.7831578
40
1.0191008
50
269.999446
51
271.7589697
0
ARC
8
DEFAULT_255_2_778
10
68.057356
20
13.7603787
40
0.9963226
50
228.3541388
51
270.0816049
0
ARC
8
DEFAULT_255_2_778
10
68.0563365
20
13.7630408
40
0.9976376
50
181.732932
51
228.4994886
0
ARC
8
DEFAULT_255_2_778
10
68.0774342
20
13.7641474
40
1.0187592
50
179.9994554
51
181.7592612
0
LINE
8
DEFAULT_255_2_778
10
67.058975
20
14.7642571
11
69.058875
21
14.7642571
0
LINE
8
DEFAULT_255_2_778
10
67.058675
20
13.7641571
11
67.058675
21
24.2641571
0
LINE
8
DEFAULT_255_2_778
10
67.058675
20
24.2641571
11
69.058675
21
24.2641571
0
LINE
8
DEFAULT_255_2_778
10
69.058675
20
24.2641571
11
69.058875
21
13.7641571
0
ARC
8
DEFAULT_255_2_778
10
71.8627188
20
13.7627126
40
0.9963573
50
318.3578711
51
0.0830675
0
ARC
8
DEFAULT_255_2_778
10
71.8601493
20
13.7616708
40
0.9975883
50
271.730003
51
318.5006483
0
ARC
8
DEFAULT_255_2_778
10
71.8589849
20
13.7831578
40
1.0191008
50
269.999446
51
271.7589697
0
ARC
8
DEFAULT_255_2_778
10
71.857556
20
13.7603787
40
0.9963226
50
228.3541388
51
270.0816049
0
ARC
8
DEFAULT_255_2_778
10
71.8565365
20
13.7630408
40
0.9976376
50
181.732932
51
228.4994886
0
ARC
8
DEFAULT_255_2_778
10
71.8776342
20
13.7641474
40
1.0187592
50
179.9994554
51
181.7592612
0
LINE
8
DEFAULT_255_2_778
10
70.859175
20
14.7642571
11
72.859075
21
14.7642571
0
LINE
8
DEFAULT_255_2_778
10
70.858875
20
13.7641571
11
70.858875
21
24.2641571
0
LINE
8
DEFAULT_255_2_778
10
70.858875
20
24.2641571
11
72.858875
21
24.2641571
0
LINE
8
DEFAULT_255_2_778
10
72.858875
20
24.2641571
11
72.859075
21
13.7641571
0
ARC
8
DEFAULT_255_2_778
10
75.6626188
20
13.7627126
40
0.9963573
50
318.3578711
51
0.0830675
0
ARC
8
DEFAULT_255_2_778
10
75.6600493
20
13.7616708
40
0.9975883
50
271.730003
51
318.5006483
0
ARC
8
DEFAULT_255_2_778
10
75.6588849
20
13.7831578
40
1.0191008
50
269.999446
51
271.7589697
0
ARC
8
DEFAULT_255_2_778
10
75.657456
20
13.7603787
40
0.9963226
50
228.3541388
51
270.0816049
0
ARC
8
DEFAULT_255_2_778
10
75.6564365
20
13.7630408
40
0.9976376
50
181.732932
51
228.4994886
0
ARC
8
DEFAULT_255_2_778
10
75.6775342
20
13.7641474
40
1.0187592
50
179.9994554
51
181.7592612
0
LINE
8
DEFAULT_255_2_778
10
74.659075
20
14.7642571
11
76.658975
21
14.7642571
0
LINE
8
DEFAULT_255_2_778
10
74.658775
20
13.7641571
11
74.658775
21
24.2641571
0
LINE
8
DEFAULT_255_2_778
10
74.658775
20
24.2641571
11
76.658775
21
24.2641571
0
LINE
8
DEFAULT_255_2_778
10
76.658775
20
24.2641571
11
76.658975
21
13.7641571
0
ARC
8
DEFAULT_255_2_778
10
83.0091976
20
59.7643494
40
0.7496722
50
306.8573821
51
0.0201745
0
ARC
8
DEFAULT_255_2_778
10
83.0089141
20
59.7647354
40
0.7499559
50
359.9906704
51
53.1317868
0
ARC
8
DEFAULT_255_2_778
10
18.3585549
20
53.4642864
40
1.000515
50
0.0072708
51
44.9883353
0
ARC
8
DEFAULT_255_2_778
10
18.3588425
20
53.4639972
40
1.0005162
50
45.0116873
51
89.9926997
0
ARC
8
DEFAULT_255_2_778
10
5.7562052
20
56.9589334
40
2.4944216
50
249.2085478
51
270.0635041
0
ARC
8
DEFAULT_255_2_778
10
5.7624141
20
56.9671896
40
2.5043458
50
190.4603575
51
249.1427984
0
ARC
8
DEFAULT_255_2_778
10
5.773665
20
56.9637723
40
2.5147952
50
179.9831157
51
190.3372543
0
ARC
8
DEFAULT_255_2_778
10
2.958739
20
57.7645825
40
0.3001309
50
0.0058902
51
89.9750049
0
ARC
8
DEFAULT_255_2_778
10
500.1764303
20
44.7647439
40
499.8175353
50
178.6242591
51
179.9999978
0
ARC
8
DEFAULT_255_2_778
10
500.1764303
20
44.7647827
40
499.8175353
50
180.0000022
51
181.3757409
0
ARC
8
DEFAULT_255_2_778
10
30.5107462
20
34.2560107
40
30.0448099
50
182.8450894
51
185.3305302
0
ARC
8
DEFAULT_255_2_778
10
2.9587605
20
31.7649228
40
0.3001094
50
270.0208901
51
359.9791099
0
ARC
8
DEFAULT_255_2_778
10
5.7536656
20
32.5675001
40
2.494797
50
159.2074489
51
180.0594088
0
ARC
8
DEFAULT_255_2_778
10
5.7615961
20
32.5614502
40
2.5043601
50
100.4597502
51
159.1424592
0
ARC
8
DEFAULT_255_2_778
10
5.7582256
20
32.5499604
40
2.5150531
50
89.9830434
51
100.3367233
0
ARC
8
DEFAULT_255_2_778
10
18.359017
20
36.0651083
40
1.000095
50
269.9973023
51
314.9982952
0
ARC
8
DEFAULT_255_2_778
10
18.3585538
20
36.0652408
40
1.0005162
50
315.0116873
51
359.9926997
0
ARC
8
DEFAULT_255_2_778
10
5.3521686
20
57.7620374
40
1.9933
50
179.9317062
51
204.3119945
0
ARC
8
DEFAULT_255_2_778
10
5.3606539
20
57.7668804
40
2.0030269
50
204.3383105
51
260.196385
0
ARC
8
DEFAULT_255_2_778
10
5.3582535
20
57.777523
40
2.0131097
50
260.3152812
51
270.0175439
0
ARC
8
DEFAULT_255_2_778
10
21.8616255
20
53.2701857
40
2.4942291
50
69.2076704
51
90.0632985
0
ARC
8
DEFAULT_255_2_778
10
21.8553851
20
53.2617946
40
2.5042906
50
10.4576233
51
69.1423437
0
ARC
8
DEFAULT_255_2_778
10
21.8441724
20
53.2652388
40
2.5146977
50
359.9789138
51
10.334082
0
ARC
8
DEFAULT_255_2_778
10
21.8646138
20
36.2615604
40
2.4942577
50
339.2078563
51
0.0632377
0
ARC
8
DEFAULT_255_2_778
10
21.8562633
20
36.2677651
40
2.5042687
50
280.459066
51
339.1429628
0
ARC
8
DEFAULT_255_2_778
10
21.8597938
20
36.2786968
40
2.5143836
50
269.9789487
51
280.3347321
0
ARC
8
DEFAULT_255_2_778
10
5.356794
20
31.7710147
40
1.9933
50
89.9317062
51
114.3119945
0
ARC
8
DEFAULT_255_2_778
10
5.361637
20
31.7625294
40
2.0030269
50
114.3383105
51
170.196385
0
ARC
8
DEFAULT_255_2_778
10
5.3722796
20
31.7649297
40
2.0131097
50
170.3152812
51
180.0175439
0
ARC
8
DEFAULT_255_2_778
10
8.8591163
20
89.2643177
40
0.5000956
50
90.0053149
51
135.0041129
0
ARC
8
DEFAULT_255_2_778
10
8.8587174
20
89.2644112
40
0.4997474
50
134.9793514
51
180.0112208
0
ARC
8
DEFAULT_255_2_778
10
4.3242754
20
88.7598532
40
1.0040722
50
90.2799203
51
134.8594311
0
ARC
8
DEFAULT_255_2_778
10
4.3222645
20
88.7588442
40
1.003371
50
134.737398
51
177.3455126
0
ARC
8
DEFAULT_255_2_778
10
30.4642356
20
34.2548656
40
29.4944783
50
182.8590371
51
185.4270775
0
ARC
8
DEFAULT_255_2_778
10
500.6966465
20
44.7653012
40
499.8338016
50
178.6264318
51
180.0000043
0
ARC
8
DEFAULT_255_2_778
10
500.6966465
20
44.7652254
40
499.8338016
50
179.9999957
51
181.3735682
0
ARC
8
DEFAULT_255_2_778
10
30.7753771
20
55.2531186
40
29.8063579
50
174.5863513
51
177.1275166
0
ARC
8
DEFAULT_255_2_778
10
30.4617518
20
34.2510791
40
29.4955858
50
186.7887934
51
200.6167901
0
ARC
8
DEFAULT_255_2_778
10
30.4522315
20
55.2805163
40
29.4856537
50
159.3808672
51
173.2135446
0
ARC
8
DEFAULT_255_2_778
10
8.8590669
20
0.2649103
40
0.5000969
50
179.9996485
51
270.0003515
0
ARC
8
DEFAULT_255_2_778
10
33.4589552
20
80.3644382
40
0.2997853
50
134.9743446
51
180.023866
0
ARC
8
DEFAULT_255_2_778
10
33.4590353
20
80.3645516
40
0.2997618
50
89.9551546
51
135.000488
0
ARC
8
DEFAULT_255_2_778
10
33.4590013
20
84.5636515
40
0.2994383
50
224.9468036
51
270.0514071
0
ARC
8
DEFAULT_255_2_778
10
33.4586081
20
84.5640447
40
0.2994383
50
179.9485929
51
225.0531964
0
ARC
8
DEFAULT_255_2_778
10
8.8590669
20
8.2643103
40
0.5000969
50
179.9996485
51
270.0003515
0
ARC
8
DEFAULT_255_2_778
10
86.0598318
20
60.7642447
40
0.2994383
50
314.9468036
51
0.0514071
0
ARC
8
DEFAULT_255_2_778
10
86.0594386
20
60.7638515
40
0.2994383
50
269.9485929
51
315.0531964
0
ARC
8
DEFAULT_255_2_778
10
6.7655247
20
72.2626063
40
1.5934462
50
331.483464
51
0.0613793
0
ARC
8
DEFAULT_255_2_778
10
6.7576514
20
72.2661786
40
1.6020699
50
278.5723863
51
331.5056342
0
ARC
8
DEFAULT_255_2_778
10
6.7588465
20
72.2777493
40
1.613336
50
270.0079367
51
278.4691676
0
ARC
8
DEFAULT_255_2_778
10
3.6059405
20
71.6645773
40
1.0001639
50
206.2693359
51
269.9902323
0
ARC
8
DEFAULT_255_2_778
10
6.7579351
20
17.2605623
40
1.5939356
50
359.944322
51
28.4719163
0
ARC
8
DEFAULT_255_2_778
10
6.7504927
20
17.2572242
40
1.6020695
50
28.44997
51
81.6670364
0
ARC
8
DEFAULT_255_2_778
10
6.751539
20
17.2448053
40
1.614208
50
81.767669
51
89.9847052
0
ARC
8
DEFAULT_255_2_778
10
3.6060519
20
17.85867
40
1.0003434
50
90.0161476
51
153.7242732
0
ARC
8
DEFAULT_255_2_778
10
4.3209543
20
0.7633243
40
1.0027406
50
182.6299553
51
227.4171044
0
ARC
8
DEFAULT_255_2_778
10
4.3228617
20
0.7622322
40
1.0032294
50
227.2946899
51
269.7377552
0
ARC
8
DEFAULT_255_2_778
10
30.4582625
20
34.2438353
40
29.992314
50
186.6736424
51
200.4632775
0
ARC
8
DEFAULT_255_2_778
10
30.4560121
20
55.2734037
40
29.9894881
50
159.5361604
51
173.3272883
0
LINE
8
DEFAULT_255_2_778
10
2.4590699
20
58.2644133
11
2.4590699
21
58.0644133
0
LINE
8
DEFAULT_255_2_778
10
0.6151699
20
58.2644133
11
0.5958699
21
58.0644133
0
LINE
8
DEFAULT_255_2_778
10
83.3588699
20
60.3644133
11
83.4588699
21
60.3644133
0
LINE
8
DEFAULT_255_2_778
10
83.4588699
20
60.3644133
11
83.4588699
21
59.1645133
0
LINE
8
DEFAULT_255_2_778
10
83.4588699
20
59.1645133
11
83.3588699
21
59.1645133
0
LINE
8
DEFAULT_255_2_778
10
2.4590699
20
31.4643133
11
2.4590699
21
31.2642133
0
LINE
8
DEFAULT_255_2_778
10
2.1089699
20
31.2642133
11
0.6151699
21
31.2642133
0
LINE
8
DEFAULT_255_2_778
10
0.6151699
20
31.2642133
11
0.5958699
21
31.4643133
0
LINE
8
DEFAULT_255_2_778
10
18.3589699
20
54.4645133
11
5.7589699
21
54.4645133
0
LINE
8
DEFAULT_255_2_778
10
3.2588699
20
56.9645133
11
3.2588699
21
57.7646133
0
LINE
8
DEFAULT_255_2_778
10
2.9588699
20
58.0647133
11
0.5958699
21
58.0647133
0
LINE
8
DEFAULT_255_2_778
10
0.5958699
20
58.0647133
11
0.5029699
21
56.7648133
0
LINE
8
DEFAULT_255_2_778
10
0.5958699
20
31.4648133
11
2.9588699
21
31.4648133
0
LINE
8
DEFAULT_255_2_778
10
3.2588699
20
31.7648133
11
3.2588699
21
32.5649133
0
LINE
8
DEFAULT_255_2_778
10
5.7589699
20
35.0650133
11
18.3589699
21
35.0650133
0
LINE
8
DEFAULT_255_2_778
10
0.6696699
20
58.7645133
11
1.6089699
21
58.7645133
0
LINE
8
DEFAULT_255_2_778
10
1.6089699
20
58.7645133
11
2.1089699
21
58.2644133
0
LINE
8
DEFAULT_255_2_778
10
2.1089699
20
58.2644133
11
3.3588699
21
58.2644133
0
LINE
8
DEFAULT_255_2_778
10
3.3588699
20
58.2644133
11
3.3588699
21
57.7644133
0
LINE
8
DEFAULT_255_2_778
10
5.3588699
20
55.7644133
11
21.8588699
21
55.7644133
0
LINE
8
DEFAULT_255_2_778
10
24.3588699
20
53.2643133
11
24.3588699
21
36.2643133
0
LINE
8
DEFAULT_255_2_778
10
21.8588699
20
33.7643133
11
5.3591699
21
33.7643133
0
LINE
8
DEFAULT_255_2_778
10
3.3591699
20
31.7643133
11
3.3591699
21
31.2642133
0
LINE
8
DEFAULT_255_2_778
10
3.3591699
20
31.2642133
11
2.1089699
21
31.2642133
0
LINE
8
DEFAULT_255_2_778
10
2.1089699
20
31.2642133
11
1.6089699
21
30.7642133
0
LINE
8
DEFAULT_255_2_778
10
1.6089699
20
30.7642133
11
0.6696699
21
30.7642133
0
LINE
8
DEFAULT_255_2_778
10
0.3849699
20
39.6645133
11
0.4201699
21
39.6645133
0
LINE
8
DEFAULT_255_2_778
10
0.3741699
20
40.8644133
11
0.4056699
21
40.8644133
0
LINE
8
DEFAULT_255_2_778
10
0.3632699
20
46.8643133
11
0.3841699
21
46.8643133
0
LINE
8
DEFAULT_255_2_778
10
0.3598699
20
45.6644133
11
0.3698699
21
45.6644133
0
LINE
8
DEFAULT_255_2_778
10
0.3635699
20
42.6643133
11
0.3844699
21
42.6643133
0
LINE
8
DEFAULT_255_2_778
10
0.3601699
20
43.8642133
11
0.3701699
21
43.8642133
0
LINE
8
DEFAULT_255_2_778
10
0.3855699
20
49.8642133
11
0.4206699
21
49.8642133
0
LINE
8
DEFAULT_255_2_778
10
0.3746699
20
48.6643133
11
0.4061699
21
48.6643133
0
LINE
8
DEFAULT_255_2_778
10
33.4592699
20
8.2643133
11
78.3592699
21
8.2643133
0
LINE
8
DEFAULT_255_2_778
10
78.3592699
20
8.2643133
11
78.3592699
21
-0.2356867
0
LINE
8
DEFAULT_255_2_778
10
78.3592699
20
0.2643133
11
33.4589699
21
0.2643133
0
LINE
8
DEFAULT_255_2_778
10
33.4589699
20
6.7643133
11
78.3589699
21
6.7643133
0
LINE
8
DEFAULT_255_2_778
10
33.1589699
20
8.0642133
11
33.4589699
21
8.0642133
0
LINE
8
DEFAULT_255_2_778
10
33.4589699
20
8.5643133
11
33.1589699
21
8.5643133
0
LINE
8
DEFAULT_255_2_778
10
33.1589699
20
7.0644133
11
33.4589699
21
7.0644133
0
LINE
8
DEFAULT_255_2_778
10
33.4589699
20
89.4644133
11
33.1589699
21
89.4644133
0
LINE
8
DEFAULT_255_2_778
10
33.4589699
20
84.7643133
11
33.1589699
21
84.7643133
0
LINE
8
DEFAULT_255_2_778
10
33.1589699
20
88.4642133
11
33.4589699
21
88.4642133
0
LINE
8
DEFAULT_255_2_778
10
33.1589699
20
0.0643133
11
33.4589699
21
0.0643133
0
LINE
8
DEFAULT_255_2_778
10
33.4589699
20
0.5644133
11
33.1589699
21
0.5644133
0
LINE
8
DEFAULT_255_2_778
10
40.4590699
20
46.7643133
11
42.4590699
21
46.7643133
0
LINE
8
DEFAULT_255_2_778
10
42.4590699
20
42.7643133
11
40.4590699
21
42.7643133
0
LINE
8
DEFAULT_255_2_778
10
2.3590699
20
23.7644133
11
2.3672699
21
23.7696133
0
LINE
8
DEFAULT_255_2_778
10
2.3672699
20
23.7696133
11
2.3756699
21
23.7744133
0
LINE
8
DEFAULT_255_2_778
10
2.3756699
20
23.7744133
11
2.3844699
21
23.7789133
0
LINE
8
DEFAULT_255_2_778
10
2.3844699
20
23.7789133
11
2.3934699
21
23.7829133
0
LINE
8
DEFAULT_255_2_778
10
2.3934699
20
23.7829133
11
2.4024699
21
23.7866133
0
LINE
8
DEFAULT_255_2_778
10
2.4024699
20
23.7866133
11
2.4116699
21
23.7900133
0
LINE
8
DEFAULT_255_2_778
10
2.4116699
20
23.7900133
11
2.4209699
21
23.7929133
0
LINE
8
DEFAULT_255_2_778
10
2.4209699
20
23.7929133
11
2.4304699
21
23.7956133
0
LINE
8
DEFAULT_255_2_778
10
2.4304699
20
23.7956133
11
2.4399699
21
23.7980133
0
LINE
8
DEFAULT_255_2_778
10
2.4399699
20
23.7980133
11
2.4495699
21
23.8003133
0
LINE
8
DEFAULT_255_2_778
10
2.4495699
20
23.8003133
11
2.4590699
21
23.8025133
0
LINE
8
DEFAULT_255_2_778
10
2.4590699
20
23.8025133
11
2.4685699
21
23.8043133
0
LINE
8
DEFAULT_255_2_778
10
2.4685699
20
23.8043133
11
2.4780699
21
23.8062133
0
LINE
8
DEFAULT_255_2_778
10
2.4780699
20
23.8062133
11
2.4873699
21
23.8077133
0
LINE
8
DEFAULT_255_2_778
10
2.4873699
20
23.8077133
11
2.4971699
21
23.8093133
0
LINE
8
DEFAULT_255_2_778
10
2.4971699
20
23.8093133
11
2.5069699
21
23.8109133
0
LINE
8
DEFAULT_255_2_778
10
2.5069699
20
23.8109133
11
2.5167699
21
23.8125133
0
LINE
8
DEFAULT_255_2_778
10
2.5167699
20
23.8125133
11
2.5265699
21
23.8141133
0
LINE
8
DEFAULT_255_2_778
10
2.5265699
20
23.8141133
11
2.5363699
21
23.8154133
0
LINE
8
DEFAULT_255_2_778
10
2.5363699
20
23.8154133
11
2.5460699
21
23.8167133
0
LINE
8
DEFAULT_255_2_778
10
2.5460699
20
23.8167133
11
2.5564699
21
23.8183133
0
LINE
8
DEFAULT_255_2_778
10
2.5564699
20
23.8183133
11
2.5661699
21
23.8199133
0
LINE
8
DEFAULT_255_2_778
10
2.5661699
20
23.8199133
11
2.5759699
21
23.8215133
0
LINE
8
DEFAULT_255_2_778
10
2.5759699
20
23.8215133
11
2.5857699
21
23.8231133
0
LINE
8
DEFAULT_255_2_778
10
2.5857699
20
23.8231133
11
2.5947699
21
23.8244133
0
LINE
8
DEFAULT_255_2_778
10
2.5947699
20
23.8244133
11
2.6045699
21
23.8260133
0
LINE
8
DEFAULT_255_2_778
10
2.6045699
20
23.8260133
11
2.6143699
21
23.8276133
0
LINE
8
DEFAULT_255_2_778
10
2.6143699
20
23.8276133
11
2.6238699
21
23.8292133
0
LINE
8
DEFAULT_255_2_778
10
2.6238699
20
23.8292133
11
2.6334699
21
23.8308133
0
LINE
8
DEFAULT_255_2_778
10
2.6334699
20
23.8308133
11
2.6429699
21
23.8324133
0
LINE
8
DEFAULT_255_2_778
10
2.6429699
20
23.8324133
11
2.6524699
21
23.8339133
0
LINE
8
DEFAULT_255_2_778
10
2.6524699
20
23.8339133
11
2.6619699
21
23.8355133
0
LINE
8
DEFAULT_255_2_778
10
2.6619699
20
23.8355133
11
2.6715699
21
23.8371133
0
LINE
8
DEFAULT_255_2_778
10
2.6715699
20
23.8371133
11
2.6810699
21
23.8387133
0
LINE
8
DEFAULT_255_2_778
10
2.6810699
20
23.8387133
11
2.6905699
21
23.8403133
0
LINE
8
DEFAULT_255_2_778
10
2.6905699
20
23.8403133
11
2.7000699
21
23.8419133
0
LINE
8
DEFAULT_255_2_778
10
2.7000699
20
23.8419133
11
2.7096699
21
23.8435133
0
LINE
8
DEFAULT_255_2_778
10
2.7096699
20
23.8435133
11
2.7188699
21
23.8451133
0
LINE
8
DEFAULT_255_2_778
10
2.7188699
20
23.8451133
11
2.7286699
21
23.8466133
0
LINE
8
DEFAULT_255_2_778
10
2.7286699
20
23.8466133
11
2.7384699
21
23.8482133
0
LINE
8
DEFAULT_255_2_778
10
2.7384699
20
23.8482133
11
2.7482699
21
23.8498133
0
LINE
8
DEFAULT_255_2_778
10
2.7482699
20
23.8498133
11
2.7580699
21
23.8514133
0
LINE
8
DEFAULT_255_2_778
10
2.7580699
20
23.8514133
11
2.7678699
21
23.8530133
0
LINE
8
DEFAULT_255_2_778
10
2.7678699
20
23.8530133
11
2.7776699
21
23.8543133
0
LINE
8
DEFAULT_255_2_778
10
2.7776699
20
23.8543133
11
2.7873699
21
23.8556133
0
LINE
8
DEFAULT_255_2_778
10
2.7873699
20
23.8556133
11
2.7971699
21
23.8570133
0
LINE
8
DEFAULT_255_2_778
10
2.7971699
20
23.8570133
11
2.8069699
21
23.8583133
0
LINE
8
DEFAULT_255_2_778
10
2.8069699
20
23.8583133
11
2.8167699
21
23.8596133
0
LINE
8
DEFAULT_255_2_778
10
2.8167699
20
23.8596133
11
2.8265699
21
23.8609133
0
LINE
8
DEFAULT_255_2_778
10
2.8265699
20
23.8609133
11
2.8363699
21
23.8622133
0
LINE
8
DEFAULT_255_2_778
10
2.8363699
20
23.8622133
11
2.8461699
21
23.8636133
0
LINE
8
DEFAULT_255_2_778
10
2.8461699
20
23.8636133
11
2.8567699
21
23.8649133
0
LINE
8
DEFAULT_255_2_778
10
2.8567699
20
65.6638133
11
2.8469699
21
65.6648133
0
LINE
8
DEFAULT_255_2_778
10
2.8469699
20
65.6648133
11
2.8371699
21
65.6662133
0
LINE
8
DEFAULT_255_2_778
10
2.8371699
20
65.6662133
11
2.8273699
21
65.6675133
0
LINE
8
DEFAULT_255_2_778
10
2.8273699
20
65.6675133
11
2.8175699
21
65.6688133
0
LINE
8
DEFAULT_255_2_778
10
2.8175699
20
65.6688133
11
2.8077699
21
65.6701133
0
LINE
8
DEFAULT_255_2_778
10
2.8077699
20
65.6701133
11
2.7979699
21
65.6714133
0
LINE
8
DEFAULT_255_2_778
10
2.7979699
20
65.6714133
11
2.7881699
21
65.6728133
0
LINE
8
DEFAULT_255_2_778
10
2.7881699
20
65.6728133
11
2.7783699
21
65.6741133
0
LINE
8
DEFAULT_255_2_778
10
2.7783699
20
65.6741133
11
2.7686699
21
65.6754133
0
LINE
8
DEFAULT_255_2_778
10
2.7686699
20
65.6754133
11
2.7588699
21
65.6770133
0
LINE
8
DEFAULT_255_2_778
10
2.7588699
20
65.6770133
11
2.7490699
21
65.6786133
0
LINE
8
DEFAULT_255_2_778
10
2.7490699
20
65.6786133
11
2.7392699
21
65.6802133
0
LINE
8
DEFAULT_255_2_778
10
2.7392699
20
65.6802133
11
2.7294699
21
65.6818133
0
LINE
8
DEFAULT_255_2_778
10
2.7294699
20
65.6818133
11
2.7191699
21
65.6833133
0
LINE
8
DEFAULT_255_2_778
10
2.7191699
20
65.6833133
11
2.7096699
21
65.6849133
0
LINE
8
DEFAULT_255_2_778
10
2.7096699
20
65.6849133
11
2.7000699
21
65.6865133
0
LINE
8
DEFAULT_255_2_778
10
2.7000699
20
65.6865133
11
2.6905699
21
65.6881133
0
LINE
8
DEFAULT_255_2_778
10
2.6905699
20
65.6881133
11
2.6810699
21
65.6897133
0
LINE
8
DEFAULT_255_2_778
10
2.6810699
20
65.6897133
11
2.6715699
21
65.6913133
0
LINE
8
DEFAULT_255_2_778
10
2.6715699
20
65.6913133
11
2.6619699
21
65.6929133
0
LINE
8
DEFAULT_255_2_778
10
2.6619699
20
65.6929133
11
2.6524699
21
65.6945133
0
LINE
8
DEFAULT_255_2_778
10
2.6524699
20
65.6945133
11
2.6429699
21
65.6960133
0
LINE
8
DEFAULT_255_2_778
10
2.6429699
20
65.6960133
11
2.6334699
21
65.6976133
0
LINE
8
DEFAULT_255_2_778
10
2.6334699
20
65.6976133
11
2.6238699
21
65.6992133
0
LINE
8
DEFAULT_255_2_778
10
2.6238699
20
65.6992133
11
2.6143699
21
65.7008133
0
LINE
8
DEFAULT_255_2_778
10
2.6143699
20
65.7008133
11
2.6045699
21
65.7024133
0
LINE
8
DEFAULT_255_2_778
10
2.6045699
20
65.7024133
11
2.5953699
21
65.7040133
0
LINE
8
DEFAULT_255_2_778
10
2.5953699
20
65.7040133
11
2.5855699
21
65.7056133
0
LINE
8
DEFAULT_255_2_778
10
2.5855699
20
65.7056133
11
2.5757699
21
65.7072133
0
LINE
8
DEFAULT_255_2_778
10
2.5757699
20
65.7072133
11
2.5659699
21
65.7087133
0
LINE
8
DEFAULT_255_2_778
10
2.5659699
20
65.7087133
11
2.5569699
21
65.7101133
0
LINE
8
DEFAULT_255_2_778
10
2.5569699
20
65.7101133
11
2.5471699
21
65.7117133
0
LINE
8
DEFAULT_255_2_778
10
2.5471699
20
65.7117133
11
2.5373699
21
65.7130133
0
LINE
8
DEFAULT_255_2_778
10
2.5373699
20
65.7130133
11
2.5275699
21
65.7143133
0
LINE
8
DEFAULT_255_2_778
10
2.5275699
20
65.7143133
11
2.5177699
21
65.7159133
0
LINE
8
DEFAULT_255_2_778
10
2.5177699
20
65.7159133
11
2.5079699
21
65.7175133
0
LINE
8
DEFAULT_255_2_778
10
2.5079699
20
65.7175133
11
2.4982699
21
65.7191133
0
LINE
8
DEFAULT_255_2_778
10
2.4982699
20
65.7191133
11
2.4878699
21
65.7207133
0
LINE
8
DEFAULT_255_2_778
10
2.4878699
20
65.7207133
11
2.4783699
21
65.7222133
0
LINE
8
DEFAULT_255_2_778
10
2.4783699
20
65.7222133
11
2.4688699
21
65.7241133
0
LINE
8
DEFAULT_255_2_778
10
2.4688699
20
65.7241133
11
2.4585699
21
65.7262133
0
LINE
8
DEFAULT_255_2_778
10
2.4585699
20
65.7262133
11
2.4489699
21
65.7283133
0
LINE
8
DEFAULT_255_2_778
10
2.4489699
20
65.7283133
11
2.4394699
21
65.7307133
0
LINE
8
DEFAULT_255_2_778
10
2.4394699
20
65.7307133
11
2.4299699
21
65.7331133
0
LINE
8
DEFAULT_255_2_778
10
2.4299699
20
65.7331133
11
2.4206699
21
65.7357133
0
LINE
8
DEFAULT_255_2_778
10
2.4206699
20
65.7357133
11
2.4108699
21
65.7389133
0
LINE
8
DEFAULT_255_2_778
10
2.4108699
20
65.7389133
11
2.4016699
21
65.7424133
0
LINE
8
DEFAULT_255_2_778
10
2.4016699
20
65.7424133
11
2.3928699
21
65.7461133
0
LINE
8
DEFAULT_255_2_778
10
2.3928699
20
65.7461133
11
2.3839699
21
65.7500133
0
LINE
8
DEFAULT_255_2_778
10
2.3839699
20
65.7500133
11
2.3751699
21
65.7545133
0
LINE
8
DEFAULT_255_2_778
10
2.3751699
20
65.7545133
11
2.3667699
21
65.7595133
0
LINE
8
DEFAULT_255_2_778
10
2.3667699
20
65.7595133
11
2.3595699
21
65.7643133
0
LINE
8
DEFAULT_255_2_778
10
3.1824699
20
74.1540133
11
3.1683699
21
74.1542133
0
LINE
8
DEFAULT_255_2_778
10
3.1683699
20
74.1542133
11
3.1543699
21
74.1545133
0
LINE
8
DEFAULT_255_2_778
10
3.1543699
20
74.1545133
11
3.1403699
21
74.1545133
0
LINE
8
DEFAULT_255_2_778
10
3.1403699
20
74.1545133
11
3.1263699
21
74.1548133
0
LINE
8
DEFAULT_255_2_778
10
3.1263699
20
74.1548133
11
3.1122699
21
74.1550133
0
LINE
8
DEFAULT_255_2_778
10
3.1122699
20
74.1550133
11
3.0982699
21
74.1553133
0
LINE
8
DEFAULT_255_2_778
10
3.0982699
20
74.1553133
11
3.0842699
21
74.1553133
0
LINE
8
DEFAULT_255_2_778
10
3.0842699
20
74.1553133
11
3.0702699
21
74.1556133
0
LINE
8
DEFAULT_255_2_778
10
3.0702699
20
74.1556133
11
3.0562699
21
74.1558133
0
LINE
8
DEFAULT_255_2_778
10
3.0562699
20
74.1558133
11
3.0421699
21
74.1561133
0
LINE
8
DEFAULT_255_2_778
10
3.0421699
20
74.1561133
11
3.0281699
21
74.1564133
0
LINE
8
DEFAULT_255_2_778
10
3.0281699
20
74.1564133
11
3.0141699
21
74.1564133
0
LINE
8
DEFAULT_255_2_778
10
3.0141699
20
74.1564133
11
3.0001699
21
74.1566133
0
LINE
8
DEFAULT_255_2_778
10
3.0001699
20
74.1566133
11
2.9860699
21
74.1569133
0
LINE
8
DEFAULT_255_2_778
10
2.9860699
20
74.1569133
11
2.9720699
21
74.1572133
0
LINE
8
DEFAULT_255_2_778
10
2.9720699
20
74.1572133
11
2.9580699
21
74.1574133
0
LINE
8
DEFAULT_255_2_778
10
2.9580699
20
74.1574133
11
2.9440699
21
74.1574133
0
LINE
8
DEFAULT_255_2_778
10
2.9440699
20
74.1574133
11
2.9300699
21
74.1577133
0
LINE
8
DEFAULT_255_2_778
10
2.9300699
20
74.1577133
11
2.9159699
21
74.1580133
0
LINE
8
DEFAULT_255_2_778
10
2.9159699
20
74.1580133
11
2.9019699
21
74.1582133
0
LINE
8
DEFAULT_255_2_778
10
2.9019699
20
74.1582133
11
2.8879699
21
74.1585133
0
LINE
8
DEFAULT_255_2_778
10
2.8879699
20
74.1585133
11
2.8739699
21
74.1587133
0
LINE
8
DEFAULT_255_2_778
10
2.8739699
20
74.1587133
11
2.8598699
21
74.1590133
0
LINE
8
DEFAULT_255_2_778
10
2.8598699
20
74.1590133
11
2.8458699
21
74.1593133
0
LINE
8
DEFAULT_255_2_778
10
2.8458699
20
74.1593133
11
2.8318699
21
74.1595133
0
LINE
8
DEFAULT_255_2_778
10
2.8318699
20
74.1595133
11
2.8178699
21
74.1598133
0
LINE
8
DEFAULT_255_2_778
10
2.8178699
20
74.1598133
11
2.8037699
21
74.1601133
0
LINE
8
DEFAULT_255_2_778
10
2.8037699
20
74.1601133
11
2.7897699
21
74.1603133
0
LINE
8
DEFAULT_255_2_778
10
2.7897699
20
74.1603133
11
2.7757699
21
74.1606133
0
LINE
8
DEFAULT_255_2_778
10
2.7757699
20
74.1606133
11
2.7617699
21
74.1609133
0
LINE
8
DEFAULT_255_2_778
10
2.7617699
20
74.1609133
11
2.7477699
21
74.1614133
0
LINE
8
DEFAULT_255_2_778
10
2.7477699
20
74.1614133
11
2.7336699
21
74.1619133
0
LINE
8
DEFAULT_255_2_778
10
2.7336699
20
74.1619133
11
2.7196699
21
74.1627133
0
LINE
8
DEFAULT_255_2_778
10
2.7196699
20
74.1627133
11
2.7058699
21
74.1643133
0
LINE
8
DEFAULT_255_2_778
10
2.7058699
20
74.1643133
11
2.5516699
21
70.4644133
0
LINE
8
DEFAULT_255_2_778
10
2.5516699
20
70.4644133
11
2.8559699
21
70.4644133
0
LINE
8
DEFAULT_255_2_778
10
2.8559699
20
70.4644133
11
2.8559699
21
69.9643133
0
LINE
8
DEFAULT_255_2_778
10
2.8559699
20
69.9643133
11
2.5339699
21
69.9643133
0
LINE
8
DEFAULT_255_2_778
10
3.3189699
20
0.7229133
11
3.3210699
21
0.6988133
0
LINE
8
DEFAULT_255_2_778
10
3.3210699
20
0.6988133
11
3.3234699
21
0.6747133
0
LINE
8
DEFAULT_255_2_778
10
3.3234699
20
0.6747133
11
3.3263699
21
0.6506133
0
LINE
8
DEFAULT_255_2_778
10
3.3263699
20
0.6506133
11
3.3295699
21
0.6265133
0
LINE
8
DEFAULT_255_2_778
10
3.3295699
20
0.6265133
11
3.3332699
21
0.6025133
0
LINE
8
DEFAULT_255_2_778
10
3.3332699
20
0.6025133
11
3.3374699
21
0.5787133
0
LINE
8
DEFAULT_255_2_778
10
3.3374699
20
0.5787133
11
3.3422699
21
0.5548133
0
LINE
8
DEFAULT_255_2_778
10
3.3422699
20
0.5548133
11
3.3477699
21
0.5313133
0
LINE
8
DEFAULT_255_2_778
10
3.3477699
20
0.5313133
11
3.3538699
21
0.5077133
0
LINE
8
DEFAULT_255_2_778
10
3.3538699
20
0.5077133
11
3.3604699
21
0.4845133
0
LINE
8
DEFAULT_255_2_778
10
3.3604699
20
0.4845133
11
3.3676699
21
0.4614133
0
LINE
8
DEFAULT_255_2_778
10
3.3676699
20
0.4614133
11
3.3752699
21
0.4384133
0
LINE
8
DEFAULT_255_2_778
10
3.3752699
20
0.4384133
11
3.3837699
21
0.4157133
0
LINE
8
DEFAULT_255_2_778
10
3.3837699
20
0.4157133
11
3.3927699
21
0.3932133
0
LINE
8
DEFAULT_255_2_778
10
3.3927699
20
0.3932133
11
3.4022699
21
0.3710133
0
LINE
8
DEFAULT_255_2_778
10
3.4022699
20
0.3710133
11
3.4123699
21
0.3490133
0
LINE
8
DEFAULT_255_2_778
10
3.4123699
20
0.3490133
11
3.4229699
21
0.3270133
0
LINE
8
DEFAULT_255_2_778
10
3.4229699
20
0.3270133
11
3.4340699
21
0.3053133
0
LINE
8
DEFAULT_255_2_778
10
3.4340699
20
0.3053133
11
3.4456699
21
0.2839133
0
LINE
8
DEFAULT_255_2_778
10
3.4456699
20
0.2839133
11
3.4575699
21
0.2627133
0
LINE
8
DEFAULT_255_2_778
10
3.4575699
20
0.2627133
11
3.4700699
21
0.2421133
0
LINE
8
DEFAULT_255_2_778
10
3.4700699
20
0.2421133
11
3.4829699
21
0.2217133
0
LINE
8
DEFAULT_255_2_778
10
3.4829699
20
0.2217133
11
3.4964699
21
0.2016133
0
LINE
8
DEFAULT_255_2_778
10
3.4964699
20
0.2016133
11
3.5104699
21
0.1818133
0
LINE
8
DEFAULT_255_2_778
10
3.5104699
20
0.1818133
11
3.5247699
21
0.1622133
0
LINE
8
DEFAULT_255_2_778
10
3.5247699
20
0.1622133
11
3.5396699
21
0.1431133
0
LINE
8
DEFAULT_255_2_778
10
3.5396699
20
0.1431133
11
3.5549699
21
0.1244133
0
LINE
8
DEFAULT_255_2_778
10
3.5549699
20
0.1244133
11
3.5705699
21
0.1061133
0
LINE
8
DEFAULT_255_2_778
10
3.5705699
20
0.1061133
11
3.5866699
21
0.0881133
0
LINE
8
DEFAULT_255_2_778
10
3.5866699
20
0.0881133
11
3.6033699
21
0.0704133
0
LINE
8
DEFAULT_255_2_778
10
3.6033699
20
0.0704133
11
3.6205699
21
0.0529133
0
LINE
8
DEFAULT_255_2_778
10
3.6205699
20
0.0529133
11
3.6377699
21
0.0357133
0
LINE
8
DEFAULT_255_2_778
10
3.6377699
20
0.0357133
11
3.6552699
21
0.0188133
0
LINE
8
DEFAULT_255_2_778
10
3.6552699
20
0.0188133
11
3.6729699
21
0.0024133
0
LINE
8
DEFAULT_255_2_778
10
4.1214699
20
-0.2174867
11
4.1272699
21
-0.2184867
0
LINE
8
DEFAULT_255_2_778
10
4.1272699
20
-0.2184867
11
4.1330699
21
-0.2195867
0
LINE
8
DEFAULT_255_2_778
10
4.1330699
20
-0.2195867
11
4.1391699
21
-0.2206867
0
LINE
8
DEFAULT_255_2_778
10
4.1391699
20
-0.2206867
11
4.1449699
21
-0.2216867
0
LINE
8
DEFAULT_255_2_778
10
4.1449699
20
-0.2216867
11
4.1507699
21
-0.2227867
0
LINE
8
DEFAULT_255_2_778
10
4.1507699
20
-0.2227867
11
4.1568699
21
-0.2237867
0
LINE
8
DEFAULT_255_2_778
10
4.1568699
20
-0.2237867
11
4.1626699
21
-0.2245867
0
LINE
8
DEFAULT_255_2_778
10
4.1626699
20
-0.2245867
11
4.1685699
21
-0.2253867
0
LINE
8
DEFAULT_255_2_778
10
4.1685699
20
-0.2253867
11
4.1746699
21
-0.2261867
0
LINE
8
DEFAULT_255_2_778
10
4.1746699
20
-0.2261867
11
4.1804699
21
-0.2269867
0
LINE
8
DEFAULT_255_2_778
10
4.1804699
20
-0.2269867
11
4.1862699
21
-0.2277867
0
LINE
8
DEFAULT_255_2_778
10
4.1862699
20
-0.2277867
11
4.1923699
21
-0.2285867
0
LINE
8
DEFAULT_255_2_778
10
4.1923699
20
-0.2285867
11
4.1981699
21
-0.2293867
0
LINE
8
DEFAULT_255_2_778
10
4.1981699
20
-0.2293867
11
4.2039699
21
-0.2298867
0
LINE
8
DEFAULT_255_2_778
10
4.2039699
20
-0.2298867
11
4.2100699
21
-0.2303867
0
LINE
8
DEFAULT_255_2_778
10
4.2100699
20
-0.2303867
11
4.2158699
21
-0.2309867
0
LINE
8
DEFAULT_255_2_778
10
4.2158699
20
-0.2309867
11
4.2216699
21
-0.2314867
0
LINE
8
DEFAULT_255_2_778
10
4.2216699
20
-0.2314867
11
4.2280699
21
-0.2319867
0
LINE
8
DEFAULT_255_2_778
10
4.2280699
20
-0.2319867
11
4.2338699
21
-0.2325867
0
LINE
8
DEFAULT_255_2_778
10
4.2338699
20
-0.2325867
11
4.2396699
21
-0.2330867
0
LINE
8
DEFAULT_255_2_778
10
4.2396699
20
-0.2330867
11
4.2460699
21
-0.2335867
0
LINE
8
DEFAULT_255_2_778
10
4.2460699
20
-0.2335867
11
4.2518699
21
-0.2338867
0
LINE
8
DEFAULT_255_2_778
10
4.2518699
20
-0.2338867
11
4.2576699
21
-0.2340867
0
LINE
8
DEFAULT_255_2_778
10
4.2576699
20
-0.2340867
11
4.2640699
21
-0.2343867
0
LINE
8
DEFAULT_255_2_778
10
4.2640699
20
-0.2343867
11
4.2698699
21
-0.2346867
0
LINE
8
DEFAULT_255_2_778
10
4.2698699
20
-0.2346867
11
4.2756699
21
-0.2348867
0
LINE
8
DEFAULT_255_2_778
10
4.2756699
20
-0.2348867
11
4.2822699
21
-0.2351867
0
LINE
8
DEFAULT_255_2_778
10
4.2822699
20
-0.2351867
11
4.2881699
21
-0.2351867
0
LINE
8
DEFAULT_255_2_778
10
4.2881699
20
-0.2351867
11
4.2939699
21
-0.2354867
0
LINE
8
DEFAULT_255_2_778
10
4.2939699
20
-0.2354867
11
4.3005699
21
-0.2354867
0
LINE
8
DEFAULT_255_2_778
10
4.3005699
20
-0.2354867
11
4.3063699
21
-0.2354867
0
LINE
8
DEFAULT_255_2_778
10
4.3063699
20
-0.2354867
11
4.3121699
21
-0.2354867
0
LINE
8
DEFAULT_255_2_778
10
4.3121699
20
-0.2354867
11
4.3180699
21
-0.2354867
0
LINE
8
DEFAULT_255_2_778
10
4.3180699
20
-0.2354867
11
4.3190699
21
-0.2354867
0
LINE
8
DEFAULT_255_2_778
10
4.3190699
20
-0.2354867
11
4.2952699
21
-0.2327867
0
LINE
8
DEFAULT_255_2_778
10
4.2952699
20
-0.2327867
11
4.2719699
21
-0.2290867
0
LINE
8
DEFAULT_255_2_778
10
4.2719699
20
-0.2290867
11
4.2492699
21
-0.2243867
0
LINE
8
DEFAULT_255_2_778
10
4.2492699
20
-0.2243867
11
4.2264699
21
-0.2179867
0
LINE
8
DEFAULT_255_2_778
10
4.2264699
20
-0.2179867
11
4.2042699
21
-0.2097867
0
LINE
8
DEFAULT_255_2_778
10
4.2042699
20
-0.2097867
11
4.1828699
21
-0.1999867
0
LINE
8
DEFAULT_255_2_778
10
4.1828699
20
-0.1999867
11
4.1621699
21
-0.1885867
0
LINE
8
DEFAULT_255_2_778
10
4.1621699
20
-0.1885867
11
4.1423699
21
-0.1758867
0
LINE
8
DEFAULT_255_2_778
10
4.1423699
20
-0.1758867
11
4.1232699
21
-0.1621867
0
LINE
8
DEFAULT_255_2_778
10
4.1232699
20
-0.1621867
11
4.1050699
21
-0.1473867
0
LINE
8
DEFAULT_255_2_778
10
4.1050699
20
-0.1473867
11
4.0875699
21
-0.1314867
0
LINE
8
DEFAULT_255_2_778
10
4.0875699
20
-0.1314867
11
4.0708699
21
-0.1147867
0
LINE
8
DEFAULT_255_2_778
10
4.0708699
20
-0.1147867
11
4.0550699
21
-0.0975867
0
LINE
8
DEFAULT_255_2_778
10
4.0550699
20
-0.0975867
11
4.0396699
21
-0.0795867
0
LINE
8
DEFAULT_255_2_778
10
4.0396699
20
-0.0795867
11
4.0251699
21
-0.0610867
0
LINE
8
DEFAULT_255_2_778
10
4.0251699
20
-0.0610867
11
4.0110699
21
-0.0420867
0
LINE
8
DEFAULT_255_2_778
10
4.0110699
20
-0.0420867
11
3.9978699
21
-0.0226867
0
LINE
8
DEFAULT_255_2_778
10
3.9978699
20
-0.0226867
11
3.9851699
21
-0.0028867
0
LINE
8
DEFAULT_255_2_778
10
3.9851699
20
-0.0028867
11
3.9729699
21
0.0172133
0
LINE
8
DEFAULT_255_2_778
10
3.9729699
20
0.0172133
11
3.9613699
21
0.0376133
0
LINE
8
DEFAULT_255_2_778
10
3.9613699
20
0.0376133
11
3.9502699
21
0.0582133
0
LINE
8
DEFAULT_255_2_778
10
3.9502699
20
0.0582133
11
3.9396699
21
0.0791133
0
LINE
8
DEFAULT_255_2_778
10
3.9396699
20
0.0791133
11
3.9293699
21
0.1003133
0
LINE
8
DEFAULT_255_2_778
10
3.9293699
20
0.1003133
11
3.9195699
21
0.1217133
0
LINE
8
DEFAULT_255_2_778
10
3.9195699
20
0.1217133
11
3.9102699
21
0.1434133
0
LINE
8
DEFAULT_255_2_778
10
3.9102699
20
0.1434133
11
3.9012699
21
0.1651133
0
LINE
8
DEFAULT_255_2_778
10
3.9012699
20
0.1651133
11
3.8928699
21
0.1871133
0
LINE
8
DEFAULT_255_2_778
10
3.8928699
20
0.1871133
11
3.8846699
21
0.2093133
0
LINE
8
DEFAULT_255_2_778
10
3.8846699
20
0.2093133
11
3.8769699
21
0.2315133
0
LINE
8
DEFAULT_255_2_778
10
3.8769699
20
0.2315133
11
3.8695699
21
0.2540133
0
LINE
8
DEFAULT_255_2_778
10
3.8695699
20
0.2540133
11
3.8626699
21
0.2765133
0
LINE
8
DEFAULT_255_2_778
10
3.8626699
20
0.2765133
11
3.8560699
21
0.2990133
0
LINE
8
DEFAULT_255_2_778
10
3.8560699
20
0.2990133
11
3.8496699
21
0.3217133
0
LINE
8
DEFAULT_255_2_778
10
3.8496699
20
0.3217133
11
3.8438699
21
0.3445133
0
LINE
8
DEFAULT_255_2_778
10
3.8438699
20
0.3445133
11
3.8383699
21
0.3675133
0
LINE
8
DEFAULT_255_2_778
10
3.8383699
20
0.3675133
11
3.8330699
21
0.3905133
0
LINE
8
DEFAULT_255_2_778
10
3.8330699
20
0.3905133
11
3.8282699
21
0.4136133
0
LINE
8
DEFAULT_255_2_778
10
3.8282699
20
0.4136133
11
3.8237699
21
0.4366133
0
LINE
8
DEFAULT_255_2_778
10
3.8237699
20
0.4366133
11
3.8195699
21
0.4599133
0
LINE
8
DEFAULT_255_2_778
10
3.8195699
20
0.4599133
11
3.8158699
21
0.4831133
0
LINE
8
DEFAULT_255_2_778
10
3.8158699
20
0.4831133
11
3.8123699
21
0.5064133
0
LINE
8
DEFAULT_255_2_778
10
3.8123699
20
0.5064133
11
3.8092699
21
0.5297133
0
LINE
8
DEFAULT_255_2_778
10
3.8092699
20
0.5297133
11
3.8063699
21
0.5530133
0
LINE
8
DEFAULT_255_2_778
10
3.8063699
20
0.5530133
11
3.8039699
21
0.5765133
0
LINE
8
DEFAULT_255_2_778
10
3.8039699
20
0.5765133
11
3.8018699
21
0.6001133
0
LINE
8
DEFAULT_255_2_778
10
3.8018699
20
0.6001133
11
3.7999699
21
0.6236133
0
LINE
8
DEFAULT_255_2_778
10
3.7999699
20
0.6236133
11
3.7983699
21
0.6472133
0
LINE
8
DEFAULT_255_2_778
10
3.7983699
20
0.6472133
11
3.7970699
21
0.6707133
0
LINE
8
DEFAULT_255_2_778
10
3.7970699
20
0.6707133
11
3.7957699
21
0.6943133
0
LINE
8
DEFAULT_255_2_778
10
3.7957699
20
0.6943133
11
3.7946699
21
0.7178133
0
LINE
8
DEFAULT_255_2_778
10
3.7946699
20
0.7178133
11
3.7938699
21
0.7414133
0
LINE
8
DEFAULT_255_2_778
10
3.7938699
20
0.7414133
11
3.7930699
21
0.7649133
0
LINE
8
DEFAULT_255_2_778
10
3.7930699
20
0.7649133
11
3.7880699
21
0.7647133
0
LINE
8
DEFAULT_255_2_778
10
3.7880699
20
0.7647133
11
3.7830699
21
0.7644133
0
LINE
8
DEFAULT_255_2_778
10
3.7830699
20
0.7644133
11
3.7779699
21
0.7641133
0
LINE
8
DEFAULT_255_2_778
10
3.7779699
20
0.7641133
11
3.7729699
21
0.7639133
0
LINE
8
DEFAULT_255_2_778
10
3.7729699
20
0.7639133
11
3.7679699
21
0.7636133
0
LINE
8
DEFAULT_255_2_778
10
3.7679699
20
0.7636133
11
3.7629699
21
0.7633133
0
LINE
8
DEFAULT_255_2_778
10
3.7629699
20
0.7633133
11
3.7578699
21
0.7631133
0
LINE
8
DEFAULT_255_2_778
10
3.7578699
20
0.7631133
11
3.7528699
21
0.7628133
0
LINE
8
DEFAULT_255_2_778
10
3.7528699
20
0.7628133
11
3.7478699
21
0.7625133
0
LINE
8
DEFAULT_255_2_778
10
3.7478699
20
0.7625133
11
3.7428699
21
0.7623133
0
LINE
8
DEFAULT_255_2_778
10
3.7428699
20
0.7623133
11
3.7377699
21
0.7620133
0
LINE
8
DEFAULT_255_2_778
10
3.7377699
20
0.7620133
11
3.7327699
21
0.7617133
0
LINE
8
DEFAULT_255_2_778
10
3.7327699
20
0.7617133
11
3.7277699
21
0.7615133
0
LINE
8
DEFAULT_255_2_778
10
3.7277699
20
0.7615133
11
3.7221699
21
0.7610133
0
LINE
8
DEFAULT_255_2_778
10
3.7221699
20
0.7610133
11
3.7171699
21
0.7607133
0
LINE
8
DEFAULT_255_2_778
10
3.7171699
20
0.7607133
11
3.7121699
21
0.7604133
0
LINE
8
DEFAULT_255_2_778
10
3.7121699
20
0.7604133
11
3.7070699
21
0.7602133
0
LINE
8
DEFAULT_255_2_778
10
3.7070699
20
0.7602133
11
3.7020699
21
0.7599133
0
LINE
8
DEFAULT_255_2_778
10
3.7020699
20
0.7599133
11
3.6970699
21
0.7596133
0
LINE
8
DEFAULT_255_2_778
10
3.6970699
20
0.7596133
11
3.6920699
21
0.7594133
0
LINE
8
DEFAULT_255_2_778
10
3.6920699
20
0.7594133
11
3.6869699
21
0.7591133
0
LINE
8
DEFAULT_255_2_778
10
3.6869699
20
0.7591133
11
3.6819699
21
0.7588133
0
LINE
8
DEFAULT_255_2_778
10
3.6819699
20
0.7588133
11
3.6769699
21
0.7586133
0
LINE
8
DEFAULT_255_2_778
10
3.6769699
20
0.7586133
11
3.6718699
21
0.7583133
0
LINE
8
DEFAULT_255_2_778
10
3.6718699
20
0.7583133
11
3.6668699
21
0.7580133
0
LINE
8
DEFAULT_255_2_778
10
3.6668699
20
0.7580133
11
3.6618699
21
0.7578133
0
LINE
8
DEFAULT_255_2_778
10
3.6618699
20
0.7578133
11
3.6568699
21
0.7575133
0
LINE
8
DEFAULT_255_2_778
10
3.6568699
20
0.7575133
11
3.6517699
21
0.7572133
0
LINE
8
DEFAULT_255_2_778
10
3.6517699
20
0.7572133
11
3.6467699
21
0.7570133
0
LINE
8
DEFAULT_255_2_778
10
3.6467699
20
0.7570133
11
3.6417699
21
0.7567133
0
LINE
8
DEFAULT_255_2_778
10
3.6417699
20
0.7567133
11
3.6367699
21
0.7565133
0
LINE
8
DEFAULT_255_2_778
10
3.6367699
20
0.7565133
11
3.6316699
21
0.7562133
0
LINE
8
DEFAULT_255_2_778
10
3.6316699
20
0.7562133
11
3.6266699
21
0.7559133
0
LINE
8
DEFAULT_255_2_778
10
3.6266699
20
0.7559133
11
3.6216699
21
0.7557133
0
LINE
8
DEFAULT_255_2_778
10
3.6216699
20
0.7557133
11
3.6165699
21
0.7554133
0
LINE
8
DEFAULT_255_2_778
10
3.6165699
20
0.7554133
11
3.6115699
21
0.7551133
0
LINE
8
DEFAULT_255_2_778
10
3.6115699
20
0.7551133
11
3.6065699
21
0.7549133
0
LINE
8
DEFAULT_255_2_778
10
3.6065699
20
0.7549133
11
3.6015699
21
0.7546133
0
LINE
8
DEFAULT_255_2_778
10
3.6015699
20
0.7546133
11
3.5964699
21
0.7543133
0
LINE
8
DEFAULT_255_2_778
10
3.5964699
20
0.7543133
11
3.5914699
21
0.7541133
0
LINE
8
DEFAULT_255_2_778
10
3.5914699
20
0.7541133
11
3.5872699
21
0.7538133
0
LINE
8
DEFAULT_255_2_778
10
3.5872699
20
0.7538133
11
3.5821699
21
0.7535133
0
LINE
8
DEFAULT_255_2_778
10
3.5821699
20
0.7535133
11
3.5771699
21
0.7533133
0
LINE
8
DEFAULT_255_2_778
10
3.5771699
20
0.7533133
11
3.5721699
21
0.7530133
0
LINE
8
DEFAULT_255_2_778
10
3.5721699
20
0.7530133
11
3.5663699
21
0.7525133
0
LINE
8
DEFAULT_255_2_778
10
3.5663699
20
0.7525133
11
3.5612699
21
0.7522133
0
LINE
8
DEFAULT_255_2_778
10
3.5612699
20
0.7522133
11
3.5562699
21
0.7520133
0
LINE
8
DEFAULT_255_2_778
10
3.5562699
20
0.7520133
11
3.5512699
21
0.7517133
0
LINE
8
DEFAULT_255_2_778
10
3.5512699
20
0.7517133
11
3.5459699
21
0.7514133
0
LINE
8
DEFAULT_255_2_778
10
3.5459699
20
0.7514133
11
3.5409699
21
0.7512133
0
LINE
8
DEFAULT_255_2_778
10
3.5409699
20
0.7512133
11
3.5358699
21
0.7509133
0
LINE
8
DEFAULT_255_2_778
10
3.5358699
20
0.7509133
11
3.5308699
21
0.7506133
0
LINE
8
DEFAULT_255_2_778
10
3.5308699
20
0.7506133
11
3.5261699
21
0.7504133
0
LINE
8
DEFAULT_255_2_778
10
3.5261699
20
0.7504133
11
3.5210699
21
0.7501133
0
LINE
8
DEFAULT_255_2_778
10
3.5210699
20
0.7501133
11
3.5160699
21
0.7498133
0
LINE
8
DEFAULT_255_2_778
10
3.5160699
20
0.7498133
11
3.5110699
21
0.7496133
0
LINE
8
DEFAULT_255_2_778
10
3.5110699
20
0.7496133
11
3.5070699
21
0.7493133
0
LINE
8
DEFAULT_255_2_778
10
3.5070699
20
0.7493133
11
3.5020699
21
0.7490133
0
LINE
8
DEFAULT_255_2_778
10
3.5020699
20
0.7490133
11
3.4970699
21
0.7488133
0
LINE
8
DEFAULT_255_2_778
10
3.4970699
20
0.7488133
11
3.4919699
21
0.7485133
0
LINE
8
DEFAULT_255_2_778
10
3.4919699
20
0.7485133
11
3.4869699
21
0.7483133
0
LINE
8
DEFAULT_255_2_778
10
3.4869699
20
0.7483133
11
3.4819699
21
0.7480133
0
LINE
8
DEFAULT_255_2_778
10
3.4819699
20
0.7480133
11
3.4768699
21
0.7477133
0
LINE
8
DEFAULT_255_2_778
10
3.4768699
20
0.7477133
11
3.4718699
21
0.7475133
0
LINE
8
DEFAULT_255_2_778
10
3.4718699
20
0.7475133
11
3.4668699
21
0.7472133
0
LINE
8
DEFAULT_255_2_778
10
3.4668699
20
0.7472133
11
3.4618699
21
0.7467133
0
LINE
8
DEFAULT_255_2_778
10
3.4618699
20
0.7467133
11
3.4567699
21
0.7461133
0
LINE
8
DEFAULT_255_2_778
10
3.4567699
20
0.7461133
11
3.4517699
21
0.7456133
0
LINE
8
DEFAULT_255_2_778
10
3.4517699
20
0.7456133
11
3.4467699
21
0.7451133
0
LINE
8
DEFAULT_255_2_778
10
3.4467699
20
0.7451133
11
3.4417699
21
0.7445133
0
LINE
8
DEFAULT_255_2_778
10
3.4417699
20
0.7445133
11
3.4377699
21
0.7443133
0
LINE
8
DEFAULT_255_2_778
10
3.4377699
20
0.7443133
11
3.4327699
21
0.7438133
0
LINE
8
DEFAULT_255_2_778
10
3.4327699
20
0.7438133
11
3.4276699
21
0.7432133
0
LINE
8
DEFAULT_255_2_778
10
3.4276699
20
0.7432133
11
3.4223699
21
0.7427133
0
LINE
8
DEFAULT_255_2_778
10
3.4223699
20
0.7427133
11
3.4173699
21
0.7422133
0
LINE
8
DEFAULT_255_2_778
10
3.4173699
20
0.7422133
11
3.4123699
21
0.7416133
0
LINE
8
DEFAULT_255_2_778
10
3.4123699
20
0.7416133
11
3.4081699
21
0.7414133
0
LINE
8
DEFAULT_255_2_778
10
3.4081699
20
0.7414133
11
3.4030699
21
0.7408133
0
LINE
8
DEFAULT_255_2_778
10
3.4030699
20
0.7408133
11
3.3980699
21
0.7403133
0
LINE
8
DEFAULT_255_2_778
10
3.3980699
20
0.7403133
11
3.3930699
21
0.7398133
0
LINE
8
DEFAULT_255_2_778
10
3.3930699
20
0.7398133
11
3.3879699
21
0.7393133
0
LINE
8
DEFAULT_255_2_778
10
3.3879699
20
0.7393133
11
3.3821699
21
0.7387133
0
LINE
8
DEFAULT_255_2_778
10
3.3821699
20
0.7387133
11
3.3771699
21
0.7382133
0
LINE
8
DEFAULT_255_2_778
10
3.3771699
20
0.7382133
11
3.3721699
21
0.7377133
0
LINE
8
DEFAULT_255_2_778
10
3.3721699
20
0.7377133
11
3.3670699
21
0.7371133
0
LINE
8
DEFAULT_255_2_778
10
3.3670699
20
0.7371133
11
3.3620699
21
0.7366133
0
LINE
8
DEFAULT_255_2_778
10
3.3620699
20
0.7366133
11
3.3570699
21
0.7361133
0
LINE
8
DEFAULT_255_2_778
10
3.3570699
20
0.7361133
11
3.3520699
21
0.7356133
0
LINE
8
DEFAULT_255_2_778
10
3.3520699
20
0.7356133
11
3.3469699
21
0.7350133
0
LINE
8
DEFAULT_255_2_778
10
3.3469699
20
0.7350133
11
3.3419699
21
0.7345133
0
LINE
8
DEFAULT_255_2_778
10
3.3419699
20
0.7345133
11
3.3369699
21
0.7340133
0
LINE
8
DEFAULT_255_2_778
10
3.3369699
20
0.7340133
11
3.3321699
21
0.7332133
0
LINE
8
DEFAULT_255_2_778
10
3.3321699
20
0.7332133
11
3.3274699
21
0.7324133
0
LINE
8
DEFAULT_255_2_778
10
3.3274699
20
0.7324133
11
3.3231699
21
0.7316133
0
LINE
8
DEFAULT_255_2_778
10
3.3231699
20
0.7316133
11
3.3189699
21
0.7308133
0
LINE
8
DEFAULT_255_2_778
10
3.3189699
20
0.7308133
11
3.3139699
21
0.7292133
0
LINE
8
DEFAULT_255_2_778
10
3.1760699
20
15.3802133
11
3.1620699
21
15.3802133
0
LINE
8
DEFAULT_255_2_778
10
3.1620699
20
15.3802133
11
3.1480699
21
15.3800133
0
LINE
8
DEFAULT_255_2_778
10
3.1480699
20
15.3800133
11
3.1339699
21
15.3797133
0
LINE
8
DEFAULT_255_2_778
10
3.1339699
20
15.3797133
11
3.1199699
21
15.3794133
0
LINE
8
DEFAULT_255_2_778
10
3.1199699
20
15.3794133
11
3.1059699
21
15.3794133
0
LINE
8
DEFAULT_255_2_778
10
3.1059699
20
15.3794133
11
3.0919699
21
15.3792133
0
LINE
8
DEFAULT_255_2_778
10
3.0919699
20
15.3792133
11
3.0779699
21
15.3789133
0
LINE
8
DEFAULT_255_2_778
10
3.0779699
20
15.3789133
11
3.0638699
21
15.3786133
0
LINE
8
DEFAULT_255_2_778
10
3.0638699
20
15.3786133
11
3.0498699
21
15.3784133
0
LINE
8
DEFAULT_255_2_778
10
3.0498699
20
15.3784133
11
3.0358699
21
15.3784133
0
LINE
8
DEFAULT_255_2_778
10
3.0358699
20
15.3784133
11
3.0218699
21
15.3781133
0
LINE
8
DEFAULT_255_2_778
10
3.0218699
20
15.3781133
11
3.0077699
21
15.3779133
0
LINE
8
DEFAULT_255_2_778
10
3.0077699
20
15.3779133
11
2.9937699
21
15.3776133
0
LINE
8
DEFAULT_255_2_778
10
2.9937699
20
15.3776133
11
2.9797699
21
15.3776133
0
LINE
8
DEFAULT_255_2_778
10
2.9797699
20
15.3776133
11
2.9657699
21
15.3773133
0
LINE
8
DEFAULT_255_2_778
10
2.9657699
20
15.3773133
11
2.9516699
21
15.3771133
0
LINE
8
DEFAULT_255_2_778
10
2.9516699
20
15.3771133
11
2.9376699
21
15.3768133
0
LINE
8
DEFAULT_255_2_778
10
2.9376699
20
15.3768133
11
2.9236699
21
15.3765133
0
LINE
8
DEFAULT_255_2_778
10
2.9236699
20
15.3765133
11
2.9096699
21
15.3763133
0
LINE
8
DEFAULT_255_2_778
10
2.9096699
20
15.3763133
11
2.8956699
21
15.3760133
0
LINE
8
DEFAULT_255_2_778
10
2.8956699
20
15.3760133
11
2.8815699
21
15.3760133
0
LINE
8
DEFAULT_255_2_778
10
2.8815699
20
15.3760133
11
2.8675699
21
15.3757133
0
LINE
8
DEFAULT_255_2_778
10
2.8675699
20
15.3757133
11
2.8535699
21
15.3755133
0
LINE
8
DEFAULT_255_2_778
10
2.8535699
20
15.3755133
11
2.8395699
21
15.3752133
0
LINE
8
DEFAULT_255_2_778
10
2.8395699
20
15.3752133
11
2.8254699
21
15.3749133
0
LINE
8
DEFAULT_255_2_778
10
2.8254699
20
15.3749133
11
2.8114699
21
15.3747133
0
LINE
8
DEFAULT_255_2_778
10
2.8114699
20
15.3747133
11
2.7974699
21
15.3744133
0
LINE
8
DEFAULT_255_2_778
10
2.7974699
20
15.3744133
11
2.7834699
21
15.3742133
0
LINE
8
DEFAULT_255_2_778
10
2.7834699
20
15.3742133
11
2.7693699
21
15.3739133
0
LINE
8
DEFAULT_255_2_778
10
2.7693699
20
15.3739133
11
2.7553699
21
15.3736133
0
LINE
8
DEFAULT_255_2_778
10
2.7553699
20
15.3736133
11
2.7413699
21
15.3731133
0
LINE
8
DEFAULT_255_2_778
10
2.7413699
20
15.3731133
11
2.7273699
21
15.3726133
0
LINE
8
DEFAULT_255_2_778
10
2.7273699
20
15.3726133
11
2.7133699
21
15.3718133
0
LINE
8
DEFAULT_255_2_778
10
2.7133699
20
15.3718133
11
2.6995699
21
15.3702133
0
LINE
8
DEFAULT_255_2_778
10
2.6995699
20
15.3702133
11
2.5452699
21
19.0701133
0
LINE
8
DEFAULT_255_2_778
10
2.5452699
20
19.0701133
11
2.8495699
21
19.0701133
0
LINE
8
DEFAULT_255_2_778
10
4.1214699
20
89.7456133
11
4.1275699
21
89.7467133
0
LINE
8
DEFAULT_255_2_778
10
4.1275699
20
89.7467133
11
4.1333699
21
89.7477133
0
LINE
8
DEFAULT_255_2_778
10
4.1333699
20
89.7477133
11
4.1391699
21
89.7488133
0
LINE
8
DEFAULT_255_2_778
10
4.1391699
20
89.7488133
11
4.1452699
21
89.7498133
0
LINE
8
DEFAULT_255_2_778
10
4.1452699
20
89.7498133
11
4.1510699
21
89.7509133
0
LINE
8
DEFAULT_255_2_778
10
4.1510699
20
89.7509133
11
4.1568699
21
89.7520133
0
LINE
8
DEFAULT_255_2_778
10
4.1568699
20
89.7520133
11
4.1629699
21
89.7530133
0
LINE
8
DEFAULT_255_2_778
10
4.1629699
20
89.7530133
11
4.1687699
21
89.7538133
0
LINE
8
DEFAULT_255_2_778
10
4.1687699
20
89.7538133
11
4.1746699
21
89.7546133
0
LINE
8
DEFAULT_255_2_778
10
4.1746699
20
89.7546133
11
4.1796699
21
89.7554133
0
LINE
8
DEFAULT_255_2_778
10
4.1796699
20
89.7554133
11
4.1854699
21
89.7562133
0
LINE
8
DEFAULT_255_2_778
10
4.1854699
20
89.7562133
11
4.1912699
21
89.7570133
0
LINE
8
DEFAULT_255_2_778
10
4.1912699
20
89.7570133
11
4.1970699
21
89.7578133
0
LINE
8
DEFAULT_255_2_778
10
4.1970699
20
89.7578133
11
4.2029699
21
89.7583133
0
LINE
8
DEFAULT_255_2_778
10
4.2029699
20
89.7583133
11
4.2087699
21
89.7588133
0
LINE
8
DEFAULT_255_2_778
10
4.2087699
20
89.7588133
11
4.2145699
21
89.7594133
0
LINE
8
DEFAULT_255_2_778
10
4.2145699
20
89.7594133
11
4.2203699
21
89.7599133
0
LINE
8
DEFAULT_255_2_778
10
4.2203699
20
89.7599133
11
4.2261699
21
89.7604133
0
LINE
8
DEFAULT_255_2_778
10
4.2261699
20
89.7604133
11
4.2320699
21
89.7610133
0
LINE
8
DEFAULT_255_2_778
10
4.2320699
20
89.7610133
11
4.2378699
21
89.7615133
0
LINE
8
DEFAULT_255_2_778
10
4.2378699
20
89.7615133
11
4.2436699
21
89.7620133
0
LINE
8
DEFAULT_255_2_778
10
4.2436699
20
89.7620133
11
4.2494699
21
89.7623133
0
LINE
8
DEFAULT_255_2_778
10
4.2494699
20
89.7623133
11
4.2552699
21
89.7625133
0
LINE
8
DEFAULT_255_2_778
10
4.2552699
20
89.7625133
11
4.2611699
21
89.7628133
0
LINE
8
DEFAULT_255_2_778
10
4.2611699
20
89.7628133
11
4.2669699
21
89.7631133
0
LINE
8
DEFAULT_255_2_778
10
4.2669699
20
89.7631133
11
4.2727699
21
89.7633133
0
LINE
8
DEFAULT_255_2_778
10
4.2727699
20
89.7633133
11
4.2785699
21
89.7633133
0
LINE
8
DEFAULT_255_2_778
10
4.2785699
20
89.7633133
11
4.2844699
21
89.7636133
0
LINE
8
DEFAULT_255_2_778
10
4.2844699
20
89.7636133
11
4.2902699
21
89.7639133
0
LINE
8
DEFAULT_255_2_778
10
4.2902699
20
89.7639133
11
4.2960699
21
89.7639133
0
LINE
8
DEFAULT_255_2_778
10
4.2960699
20
89.7639133
11
4.3018699
21
89.7639133
0
LINE
8
DEFAULT_255_2_778
10
4.3018699
20
89.7639133
11
4.3076699
21
89.7639133
0
LINE
8
DEFAULT_255_2_778
10
4.3076699
20
89.7639133
11
4.3135699
21
89.7639133
0
LINE
8
DEFAULT_255_2_778
10
4.3135699
20
89.7639133
11
4.3193699
21
89.7639133
0
LINE
8
DEFAULT_255_2_778
10
3.3199699
20
88.8053133
11
3.3218699
21
88.8283133
0
LINE
8
DEFAULT_255_2_778
10
3.3218699
20
88.8283133
11
3.3242699
21
88.8524133
0
LINE
8
DEFAULT_255_2_778
10
3.3242699
20
88.8524133
11
3.3271699
21
88.8765133
0
LINE
8
DEFAULT_255_2_778
10
3.3271699
20
88.8765133
11
3.3303699
21
88.9005133
0
LINE
8
DEFAULT_255_2_778
10
3.3303699
20
88.9005133
11
3.3340699
21
88.9246133
0
LINE
8
DEFAULT_255_2_778
10
3.3340699
20
88.9246133
11
3.3382699
21
88.9484133
0
LINE
8
DEFAULT_255_2_778
10
3.3382699
20
88.9484133
11
3.3430699
21
88.9722133
0
LINE
8
DEFAULT_255_2_778
10
3.3430699
20
88.9722133
11
3.3485699
21
88.9958133
0
LINE
8
DEFAULT_255_2_778
10
3.3485699
20
88.9958133
11
3.3546699
21
89.0193133
0
LINE
8
DEFAULT_255_2_778
10
3.3546699
20
89.0193133
11
3.3612699
21
89.0426133
0
LINE
8
DEFAULT_255_2_778
10
3.3612699
20
89.0426133
11
3.3684699
21
89.0656133
0
LINE
8
DEFAULT_255_2_778
10
3.3684699
20
89.0656133
11
3.3760699
21
89.0887133
0
LINE
8
DEFAULT_255_2_778
10
3.3760699
20
89.0887133
11
3.3845699
21
89.1114133
0
LINE
8
DEFAULT_255_2_778
10
3.3845699
20
89.1114133
11
3.3935699
21
89.1339133
0
LINE
8
DEFAULT_255_2_778
10
3.3935699
20
89.1339133
11
3.4030699
21
89.1561133
0
LINE
8
DEFAULT_255_2_778
10
3.4030699
20
89.1561133
11
3.4131699
21
89.1781133
0
LINE
8
DEFAULT_255_2_778
10
3.4131699
20
89.1781133
11
3.4237699
21
89.2000133
0
LINE
8
DEFAULT_255_2_778
10
3.4237699
20
89.2000133
11
3.4348699
21
89.2217133
0
LINE
8
DEFAULT_255_2_778
10
3.4348699
20
89.2217133
11
3.4464699
21
89.2432133
0
LINE
8
DEFAULT_255_2_778
10
3.4464699
20
89.2432133
11
3.4583699
21
89.2643133
0
LINE
8
DEFAULT_255_2_778
10
3.4583699
20
89.2643133
11
3.4708699
21
89.2850133
0
LINE
8
DEFAULT_255_2_778
10
3.4708699
20
89.2850133
11
3.4837699
21
89.3053133
0
LINE
8
DEFAULT_255_2_778
10
3.4837699
20
89.3053133
11
3.4972699
21
89.3255133
0
LINE
8
DEFAULT_255_2_778
10
3.4972699
20
89.3255133
11
3.5112699
21
89.3453133
0
LINE
8
DEFAULT_255_2_778
10
3.5112699
20
89.3453133
11
3.5255699
21
89.3649133
0
LINE
8
DEFAULT_255_2_778
10
3.5255699
20
89.3649133
11
3.5409699
21
89.3847133
0
LINE
8
DEFAULT_255_2_778
10
3.5409699
20
89.3847133
11
3.5562699
21
89.4035133
0
LINE
8
DEFAULT_255_2_778
10
3.5562699
20
89.4035133
11
3.5721699
21
89.4220133
0
LINE
8
DEFAULT_255_2_778
10
3.5721699
20
89.4220133
11
3.5885699
21
89.4403133
0
LINE
8
DEFAULT_255_2_778
10
3.5885699
20
89.4403133
11
3.6052699
21
89.4580133
0
LINE
8
DEFAULT_255_2_778
10
3.6052699
20
89.4580133
11
3.6221699
21
89.4752133
0
LINE
8
DEFAULT_255_2_778
10
3.6221699
20
89.4752133
11
3.6393699
21
89.4921133
0
LINE
8
DEFAULT_255_2_778
10
3.6393699
20
89.4921133
11
3.6568699
21
89.5091133
0
LINE
8
DEFAULT_255_2_778
10
3.6568699
20
89.5091133
11
3.6745699
21
89.5257133
0
LINE
8
DEFAULT_255_2_778
10
0.5029699
20
32.7644133
11
0.5175699
21
32.7657133
0
LINE
8
DEFAULT_255_2_778
10
0.5175699
20
32.7657133
11
0.5323699
21
32.7665133
0
LINE
8
DEFAULT_255_2_778
10
0.5323699
20
32.7665133
11
0.5471699
21
32.7673133
0
LINE
8
DEFAULT_255_2_778
10
0.5471699
20
32.7673133
11
0.5619699
21
32.7679133
0
LINE
8
DEFAULT_255_2_778
10
0.5619699
20
32.7679133
11
0.5767699
21
32.7684133
0
LINE
8
DEFAULT_255_2_778
10
0.5767699
20
32.7684133
11
0.5916699
21
32.7689133
0
LINE
8
DEFAULT_255_2_778
10
0.5916699
20
32.7689133
11
0.6064699
21
32.7694133
0
LINE
8
DEFAULT_255_2_778
10
0.6064699
20
32.7694133
11
0.6212699
21
32.7700133
0
LINE
8
DEFAULT_255_2_778
10
0.6212699
20
32.7700133
11
0.6360699
21
32.7705133
0
LINE
8
DEFAULT_255_2_778
10
0.6360699
20
32.7705133
11
0.6508699
21
32.7710133
0
LINE
8
DEFAULT_255_2_778
10
0.6508699
20
32.7710133
11
0.6656699
21
32.7716133
0
LINE
8
DEFAULT_255_2_778
10
0.6656699
20
32.7716133
11
0.6805699
21
32.7721133
0
LINE
8
DEFAULT_255_2_778
10
0.6805699
20
32.7721133
11
0.6953699
21
32.7726133
0
LINE
8
DEFAULT_255_2_778
10
0.6953699
20
32.7726133
11
0.7101699
21
32.7732133
0
LINE
8
DEFAULT_255_2_778
10
0.7101699
20
32.7732133
11
0.7249699
21
32.7737133
0
LINE
8
DEFAULT_255_2_778
10
0.7249699
20
32.7737133
11
0.7397699
21
32.7742133
0
LINE
8
DEFAULT_255_2_778
10
0.7397699
20
32.7742133
11
0.7545699
21
32.7747133
0
LINE
8
DEFAULT_255_2_778
10
0.7545699
20
32.7747133
11
0.7694699
21
32.7753133
0
LINE
8
DEFAULT_255_2_778
10
0.7694699
20
32.7753133
11
0.7842699
21
32.7758133
0
LINE
8
DEFAULT_255_2_778
10
0.7842699
20
32.7758133
11
0.7990699
21
32.7763133
0
LINE
8
DEFAULT_255_2_778
10
0.7990699
20
32.7763133
11
0.8138699
21
32.7769133
0
LINE
8
DEFAULT_255_2_778
10
0.8138699
20
32.7769133
11
0.8286699
21
32.7774133
0
LINE
8
DEFAULT_255_2_778
10
0.8286699
20
32.7774133
11
0.8434699
21
32.7779133
0
LINE
8
DEFAULT_255_2_778
10
0.8434699
20
32.7779133
11
0.8583699
21
32.7784133
0
LINE
8
DEFAULT_255_2_778
10
0.8583699
20
32.7784133
11
0.8731699
21
32.7790133
0
LINE
8
DEFAULT_255_2_778
10
0.8731699
20
32.7790133
11
0.8879699
21
32.7795133
0
LINE
8
DEFAULT_255_2_778
10
0.8879699
20
32.7795133
11
0.9027699
21
32.7800133
0
LINE
8
DEFAULT_255_2_778
10
0.9027699
20
32.7800133
11
0.9175699
21
32.7806133
0
LINE
8
DEFAULT_255_2_778
10
0.9175699
20
32.7806133
11
0.9323699
21
32.7811133
0
LINE
8
DEFAULT_255_2_778
10
0.9323699
20
32.7811133
11
0.9472699
21
32.7816133
0
LINE
8
DEFAULT_255_2_778
10
0.9472699
20
32.7816133
11
0.9620699
21
32.7821133
0
LINE
8
DEFAULT_255_2_778
10
0.9620699
20
32.7821133
11
0.9768699
21
32.7827133
0
LINE
8
DEFAULT_255_2_778
10
0.9768699
20
32.7827133
11
0.9916699
21
32.7832133
0
LINE
8
DEFAULT_255_2_778
10
0.9916699
20
32.7832133
11
1.0064699
21
32.7837133
0
LINE
8
DEFAULT_255_2_778
10
1.0064699
20
56.7468133
11
0.9916699
21
56.7473133
0
LINE
8
DEFAULT_255_2_778
10
0.9916699
20
56.7473133
11
0.9768699
21
56.7478133
0
LINE
8
DEFAULT_255_2_778
10
0.9768699
20
56.7478133
11
0.9620699
21
56.7484133
0
LINE
8
DEFAULT_255_2_778
10
0.9620699
20
56.7484133
11
0.9472699
21
56.7489133
0
LINE
8
DEFAULT_255_2_778
10
0.9472699
20
56.7489133
11
0.9323699
21
56.7494133
0
LINE
8
DEFAULT_255_2_778
10
0.9323699
20
56.7494133
11
0.9175699
21
56.7500133
0
LINE
8
DEFAULT_255_2_778
10
0.9175699
20
56.7500133
11
0.9027699
21
56.7505133
0
LINE
8
DEFAULT_255_2_778
10
0.9027699
20
56.7505133
11
0.8879699
21
56.7510133
0
LINE
8
DEFAULT_255_2_778
10
0.8879699
20
56.7510133
11
0.8731699
21
56.7515133
0
LINE
8
DEFAULT_255_2_778
10
0.8731699
20
56.7515133
11
0.8583699
21
56.7521133
0
LINE
8
DEFAULT_255_2_778
10
0.8583699
20
56.7521133
11
0.8434699
21
56.7526133
0
LINE
8
DEFAULT_255_2_778
10
0.8434699
20
56.7526133
11
0.8286699
21
56.7531133
0
LINE
8
DEFAULT_255_2_778
10
0.8286699
20
56.7531133
11
0.8138699
21
56.7537133
0
LINE
8
DEFAULT_255_2_778
10
0.8138699
20
56.7537133
11
0.7990699
21
56.7542133
0
LINE
8
DEFAULT_255_2_778
10
0.7990699
20
56.7542133
11
0.7842699
21
56.7547133
0
LINE
8
DEFAULT_255_2_778
10
0.7842699
20
56.7547133
11
0.7694699
21
56.7552133
0
LINE
8
DEFAULT_255_2_778
10
0.7694699
20
56.7552133
11
0.7545699
21
56.7558133
0
LINE
8
DEFAULT_255_2_778
10
0.7545699
20
56.7558133
11
0.7397699
21
56.7563133
0
LINE
8
DEFAULT_255_2_778
10
0.7397699
20
56.7563133
11
0.7249699
21
56.7568133
0
LINE
8
DEFAULT_255_2_778
10
0.7249699
20
56.7568133
11
0.7101699
21
56.7574133
0
LINE
8
DEFAULT_255_2_778
10
0.7101699
20
56.7574133
11
0.6953699
21
56.7579133
0
LINE
8
DEFAULT_255_2_778
10
0.6953699
20
56.7579133
11
0.6805699
21
56.7584133
0
LINE
8
DEFAULT_255_2_778
10
0.6805699
20
56.7584133
11
0.6656699
21
56.7590133
0
LINE
8
DEFAULT_255_2_778
10
0.6656699
20
56.7590133
11
0.6508699
21
56.7595133
0
LINE
8
DEFAULT_255_2_778
10
0.6508699
20
56.7595133
11
0.6360699
21
56.7600133
0
LINE
8
DEFAULT_255_2_778
10
0.6360699
20
56.7600133
11
0.6212699
21
56.7605133
0
LINE
8
DEFAULT_255_2_778
10
0.6212699
20
56.7605133
11
0.6064699
21
56.7611133
0
LINE
8
DEFAULT_255_2_778
10
0.6064699
20
56.7611133
11
0.5916699
21
56.7616133
0
LINE
8
DEFAULT_255_2_778
10
0.5916699
20
56.7616133
11
0.5767699
21
56.7621133
0
LINE
8
DEFAULT_255_2_778
10
0.5767699
20
56.7621133
11
0.5619699
21
56.7627133
0
LINE
8
DEFAULT_255_2_778
10
0.5619699
20
56.7627133
11
0.5471699
21
56.7632133
0
LINE
8
DEFAULT_255_2_778
10
0.5471699
20
56.7632133
11
0.5323699
21
56.7640133
0
LINE
8
DEFAULT_255_2_778
10
0.5323699
20
56.7640133
11
0.5175699
21
56.7648133
0
LINE
8
DEFAULT_255_2_778
10
0.5175699
20
56.7648133
11
0.5029699
21
56.7661133
0
LINE
8
DEFAULT_255_2_778
10
1.9301699
20
64.4660133
11
1.9076699
21
64.4660133
0
LINE
8
DEFAULT_255_2_778
10
1.0326699
20
60.9645133
11
1.0101699
21
60.9645133
0
LINE
8
DEFAULT_255_2_778
10
33.1589699
20
6.7646133
11
8.4589699
21
6.7646133
0
LINE
8
DEFAULT_255_2_778
10
2.8551699
20
23.8652133
11
3.0551699
21
19.0646133
0
LINE
8
DEFAULT_255_2_778
10
3.0551699
20
19.0646133
11
3.0702699
21
18.7053133
0
LINE
8
DEFAULT_255_2_778
10
3.0702699
20
70.8234133
11
2.8553699
21
65.6640133
0
LINE
8
DEFAULT_255_2_778
10
8.3589699
20
0.2649133
11
8.8590699
21
0.2649133
0
LINE
8
DEFAULT_255_2_778
10
8.8590699
20
0.2649133
11
8.8590699
21
-0.2351867
0
LINE
8
DEFAULT_255_2_778
10
8.8590699
20
-0.2351867
11
33.1591699
21
-0.2351867
0
LINE
8
DEFAULT_255_2_778
10
33.1591699
20
-0.2351867
11
33.1591699
21
80.3643133
0
LINE
8
DEFAULT_255_2_778
10
33.4592699
20
80.6643133
11
39.6591699
21
80.6643133
0
LINE
8
DEFAULT_255_2_778
10
39.6591699
20
84.2642133
11
33.4592699
21
84.2642133
0
LINE
8
DEFAULT_255_2_778
10
33.1591699
20
84.5643133
11
33.1591699
21
89.7644133
0
LINE
8
DEFAULT_255_2_778
10
33.1591699
20
89.7644133
11
8.8590699
21
89.7644133
0
LINE
8
DEFAULT_255_2_778
10
8.8590699
20
89.7644133
11
8.8590699
21
88.7643133
0
LINE
8
DEFAULT_255_2_778
10
8.8590699
20
88.7643133
11
33.1591699
21
88.7643133
0
LINE
8
DEFAULT_255_2_778
10
3.1824699
20
70.7557133
11
3.1824699
21
74.1540133
0
LINE
8
DEFAULT_255_2_778
10
3.1824699
20
74.1540133
11
3.7912699
21
88.7643133
0
LINE
8
DEFAULT_255_2_778
10
3.7912699
20
88.7643133
11
8.8590699
21
88.7643133
0
LINE
8
DEFAULT_255_2_778
10
8.8590699
20
88.7643133
11
8.8590699
21
70.4644133
0
LINE
8
DEFAULT_255_2_778
10
8.8590699
20
70.4644133
11
2.8590699
21
70.4644133
0
LINE
8
DEFAULT_255_2_778
10
2.5339699
20
19.5644133
11
2.8588699
21
19.5644133
0
LINE
8
DEFAULT_255_2_778
10
2.8588699
20
19.5644133
11
2.8588699
21
19.0643133
0
LINE
8
DEFAULT_255_2_778
10
2.8588699
20
19.0643133
11
8.8587699
21
19.0643133
0
LINE
8
DEFAULT_255_2_778
10
8.8587699
20
19.0643133
11
8.8587699
21
8.2643133
0
LINE
8
DEFAULT_255_2_778
10
8.8587699
20
8.2643133
11
33.1589699
21
8.2643133
0
LINE
8
DEFAULT_255_2_778
10
33.1589699
20
7.7642133
11
8.8590699
21
7.7642133
0
LINE
8
DEFAULT_255_2_778
10
8.8590699
20
7.7642133
11
8.8590699
21
8.2643133
0
LINE
8
DEFAULT_255_2_778
10
8.8590699
20
8.2643133
11
8.3589699
21
8.2643133
0
LINE
8
DEFAULT_255_2_778
10
8.8590699
20
7.7642133
11
8.8590699
21
7.3642133
0
LINE
8
DEFAULT_255_2_778
10
8.8590699
20
7.3642133
11
8.3589699
21
6.6141133
0
LINE
8
DEFAULT_255_2_778
10
8.3589699
20
1.6140133
11
8.8590699
21
1.6140133
0
LINE
8
DEFAULT_255_2_778
10
8.8590699
20
1.6140133
11
8.8590699
21
0.2641133
0
LINE
8
DEFAULT_255_2_778
10
8.8590699
20
0.2641133
11
33.1591699
21
0.2641133
0
LINE
8
DEFAULT_255_2_778
10
8.2669699
20
71.7643133
11
8.3592699
21
71.7643133
0
LINE
8
DEFAULT_255_2_778
10
78.3592699
20
0.7644133
11
86.3592699
21
0.7644133
0
LINE
8
DEFAULT_255_2_778
10
86.3592699
20
88.7643133
11
33.4589699
21
88.7643133
0
LINE
8
DEFAULT_255_2_778
10
83.3588699
20
62.1644133
11
86.3589699
21
62.1644133
0
LINE
8
DEFAULT_255_2_778
10
86.3589699
20
62.1644133
11
86.3589699
21
89.7644133
0
LINE
8
DEFAULT_255_2_778
10
86.3589699
20
89.7644133
11
33.4589699
21
89.7644133
0
LINE
8
DEFAULT_255_2_778
10
33.4589699
20
89.7644133
11
33.4589699
21
84.7643133
0
LINE
8
DEFAULT_255_2_778
10
33.4589699
20
84.7643133
11
39.6589699
21
84.7643133
0
LINE
8
DEFAULT_255_2_778
10
39.6589699
20
84.7643133
11
39.6589699
21
80.1643133
0
LINE
8
DEFAULT_255_2_778
10
39.6589699
20
80.1643133
11
33.4589699
21
80.1643133
0
LINE
8
DEFAULT_255_2_778
10
33.1589699
20
80.1643133
11
33.4589699
21
80.1643133
0
LINE
8
DEFAULT_255_2_778
10
33.4589699
20
80.1643133
11
33.4589699
21
7.7642133
0
LINE
8
DEFAULT_255_2_778
10
33.4589699
20
7.7642133
11
78.3589699
21
7.7642133
0
LINE
8
DEFAULT_255_2_778
10
86.3589699
20
25.0643133
11
84.8590699
21
27.0642133
0
LINE
8
DEFAULT_255_2_778
10
84.8590699
20
27.0642133
11
83.3590699
21
27.0642133
0
LINE
8
DEFAULT_255_2_778
10
83.3590699
20
27.0642133
11
83.3590699
21
62.9645133
0
LINE
8
DEFAULT_255_2_778
10
83.3590699
20
62.9645133
11
86.3592699
21
62.9645133
0
LINE
8
DEFAULT_255_2_778
10
83.3590699
20
62.4644133
11
86.3592699
21
62.4644133
0
LINE
8
DEFAULT_255_2_778
10
86.3592699
20
62.1644133
11
86.3592699
21
60.7645133
0
LINE
8
DEFAULT_255_2_778
10
86.0591699
20
60.4644133
11
85.3590699
21
60.4644133
0
LINE
8
DEFAULT_255_2_778
10
85.3590699
20
60.4644133
11
84.7590699
21
61.2645133
0
LINE
8
DEFAULT_255_2_778
10
84.7590699
20
61.2645133
11
84.6089699
21
62.1647133
0
LINE
8
DEFAULT_255_2_778
10
86.3589699
20
25.5646133
11
85.9840699
21
25.5646133
0
LINE
8
DEFAULT_255_2_778
10
83.4590699
20
27.0645133
11
83.4590699
21
27.5646133
0
LINE
8
DEFAULT_255_2_778
10
83.4590699
20
27.5646133
11
84.4592699
21
27.5646133
0
LINE
8
DEFAULT_255_2_778
10
84.4592699
20
27.5646133
11
84.6592699
21
28.8645133
0
LINE
8
DEFAULT_255_2_778
10
84.6592699
20
28.8645133
11
85.0593699
21
28.8645133
0
LINE
8
DEFAULT_255_2_778
10
85.0593699
20
28.8645133
11
86.3592699
21
26.5644133
0
LINE
8
DEFAULT_255_2_778
10
86.3592699
20
26.5644133
11
86.3592699
21
-0.2359867
0
LINE
8
DEFAULT_255_2_778
10
86.3592699
20
-0.2359867
11
33.4592699
21
-0.2354867
0
LINE
8
DEFAULT_255_2_778
10
33.4592699
20
-0.2354867
11
33.4592699
21
7.7645133
0
LINE
8
DEFAULT_255_2_778
10
8.3592699
20
0.7644133
11
3.7912699
21
0.7644133
0
LINE
8
DEFAULT_255_2_778
10
3.7912699
20
0.7644133
11
3.1824699
21
15.3747133
0
LINE
8
DEFAULT_255_2_778
10
3.1824699
20
15.3747133
11
3.1824699
21
18.7730133
0
LINE
8
DEFAULT_255_2_778
10
6.7590699
20
70.6644133
11
3.6057699
21
70.6644133
0
LINE
8
DEFAULT_255_2_778
10
2.7090699
20
71.2219133
11
2.7090699
21
74.1643133
0
LINE
8
DEFAULT_255_2_778
10
2.7090699
20
74.1643133
11
3.3192699
21
88.8058133
0
LINE
8
DEFAULT_255_2_778
10
8.3592699
20
70.4641133
11
8.3592699
21
89.7644133
0
LINE
8
DEFAULT_255_2_778
10
8.3592699
20
89.7644133
11
4.3182699
21
89.7644133
0
LINE
8
DEFAULT_255_2_778
10
4.3182699
20
89.7644133
11
4.2944699
21
89.7618133
0
LINE
8
DEFAULT_255_2_778
10
4.2944699
20
89.7618133
11
4.2711699
21
89.7581133
0
LINE
8
DEFAULT_255_2_778
10
4.2711699
20
89.7581133
11
4.2484699
21
89.7533133
0
LINE
8
DEFAULT_255_2_778
10
4.2484699
20
89.7533133
11
4.2256699
21
89.7469133
0
LINE
8
DEFAULT_255_2_778
10
4.2256699
20
89.7469133
11
4.2034699
21
89.7387133
0
LINE
8
DEFAULT_255_2_778
10
4.2034699
20
89.7387133
11
4.1820699
21
89.7289133
0
LINE
8
DEFAULT_255_2_778
10
4.1820699
20
89.7289133
11
4.1613699
21
89.7176133
0
LINE
8
DEFAULT_255_2_778
10
4.1613699
20
89.7176133
11
4.1415699
21
89.7049133
0
LINE
8
DEFAULT_255_2_778
10
4.1415699
20
89.7049133
11
4.1224699
21
89.6911133
0
LINE
8
DEFAULT_255_2_778
10
4.1224699
20
89.6911133
11
4.1042699
21
89.6763133
0
LINE
8
DEFAULT_255_2_778
10
4.1042699
20
89.6763133
11
4.0867699
21
89.6604133
0
LINE
8
DEFAULT_255_2_778
10
4.0867699
20
89.6604133
11
4.0700699
21
89.6438133
0
LINE
8
DEFAULT_255_2_778
10
4.0700699
20
89.6438133
11
4.0542699
21
89.6266133
0
LINE
8
DEFAULT_255_2_778
10
4.0542699
20
89.6266133
11
4.0388699
21
89.6086133
0
LINE
8
DEFAULT_255_2_778
10
4.0388699
20
89.6086133
11
4.0243699
21
89.5900133
0
LINE
8
DEFAULT_255_2_778
10
4.0243699
20
89.5900133
11
4.0102699
21
89.5710133
0
LINE
8
DEFAULT_255_2_778
10
4.0102699
20
89.5710133
11
3.9970699
21
89.5517133
0
LINE
8
DEFAULT_255_2_778
10
3.9970699
20
89.5517133
11
3.9843699
21
89.5318133
0
LINE
8
DEFAULT_255_2_778
10
3.9843699
20
89.5318133
11
3.9721699
21
89.5117133
0
LINE
8
DEFAULT_255_2_778
10
3.9721699
20
89.5117133
11
3.9605699
21
89.4914133
0
LINE
8
DEFAULT_255_2_778
10
3.9605699
20
89.4914133
11
3.9494699
21
89.4707133
0
LINE
8
DEFAULT_255_2_778
10
3.9494699
20
89.4707133
11
3.9388699
21
89.4498133
0
LINE
8
DEFAULT_255_2_778
10
3.9388699
20
89.4498133
11
3.9285699
21
89.4286133
0
LINE
8
DEFAULT_255_2_778
10
3.9285699
20
89.4286133
11
3.9187699
21
89.4072133
0
LINE
8
DEFAULT_255_2_778
10
3.9187699
20
89.4072133
11
3.9094699
21
89.3855133
0
LINE
8
DEFAULT_255_2_778
10
3.9094699
20
89.3855133
11
3.9004699
21
89.3638133
0
LINE
8
DEFAULT_255_2_778
10
3.9004699
20
89.3638133
11
3.8920699
21
89.3419133
0
LINE
8
DEFAULT_255_2_778
10
3.8920699
20
89.3419133
11
3.8838699
21
89.3196133
0
LINE
8
DEFAULT_255_2_778
10
3.8838699
20
89.3196133
11
3.8761699
21
89.2974133
0
LINE
8
DEFAULT_255_2_778
10
3.8761699
20
89.2974133
11
3.8687699
21
89.2749133
0
LINE
8
DEFAULT_255_2_778
10
3.8687699
20
89.2749133
11
3.8618699
21
89.2524133
0
LINE
8
DEFAULT_255_2_778
10
3.8618699
20
89.2524133
11
3.8552699
21
89.2299133
0
LINE
8
DEFAULT_255_2_778
10
3.8552699
20
89.2299133
11
3.8488699
21
89.2072133
0
LINE
8
DEFAULT_255_2_778
10
3.8488699
20
89.2072133
11
3.8430699
21
89.1844133
0
LINE
8
DEFAULT_255_2_778
10
3.8430699
20
89.1844133
11
3.8375699
21
89.1614133
0
LINE
8
DEFAULT_255_2_778
10
3.8375699
20
89.1614133
11
3.8322699
21
89.1384133
0
LINE
8
DEFAULT_255_2_778
10
3.8322699
20
89.1384133
11
3.8274699
21
89.1154133
0
LINE
8
DEFAULT_255_2_778
10
3.8274699
20
89.1154133
11
3.8229699
21
89.0924133
0
LINE
8
DEFAULT_255_2_778
10
3.8229699
20
89.0924133
11
3.8187699
21
89.0691133
0
LINE
8
DEFAULT_255_2_778
10
3.8187699
20
89.0691133
11
3.8150699
21
89.0458133
0
LINE
8
DEFAULT_255_2_778
10
3.8150699
20
89.0458133
11
3.8115699
21
89.0225133
0
LINE
8
DEFAULT_255_2_778
10
3.8115699
20
89.0225133
11
3.8084699
21
88.9992133
0
LINE
8
DEFAULT_255_2_778
10
3.8084699
20
88.9992133
11
3.8055699
21
88.9759133
0
LINE
8
DEFAULT_255_2_778
10
3.8055699
20
88.9759133
11
3.8031699
21
88.9524133
0
LINE
8
DEFAULT_255_2_778
10
3.8031699
20
88.9524133
11
3.8010699
21
88.9288133
0
LINE
8
DEFAULT_255_2_778
10
3.8010699
20
88.9288133
11
3.7991699
21
88.9053133
0
LINE
8
DEFAULT_255_2_778
10
3.7991699
20
88.9053133
11
3.7975699
21
88.8818133
0
LINE
8
DEFAULT_255_2_778
10
3.7975699
20
88.8818133
11
3.7962699
21
88.8582133
0
LINE
8
DEFAULT_255_2_778
10
3.7962699
20
88.8582133
11
3.7949699
21
88.8347133
0
LINE
8
DEFAULT_255_2_778
10
3.7949699
20
88.8347133
11
3.7938699
21
88.8111133
0
LINE
8
DEFAULT_255_2_778
10
3.7938699
20
88.8111133
11
3.7930699
21
88.7876133
0
LINE
8
DEFAULT_255_2_778
10
3.7930699
20
88.7876133
11
3.7922699
21
88.7640133
0
LINE
8
DEFAULT_255_2_778
10
3.7922699
20
88.7640133
11
3.7872699
21
88.7643133
0
LINE
8
DEFAULT_255_2_778
10
3.7872699
20
88.7643133
11
3.7822699
21
88.7645133
0
LINE
8
DEFAULT_255_2_778
10
3.7822699
20
88.7645133
11
3.7771699
21
88.7648133
0
LINE
8
DEFAULT_255_2_778
10
3.7771699
20
88.7648133
11
3.7721699
21
88.7651133
0
LINE
8
DEFAULT_255_2_778
10
3.7721699
20
88.7651133
11
3.7671699
21
88.7653133
0
LINE
8
DEFAULT_255_2_778
10
3.7671699
20
88.7653133
11
3.7621699
21
88.7656133
0
LINE
8
DEFAULT_255_2_778
10
3.7621699
20
88.7656133
11
3.7570699
21
88.7659133
0
LINE
8
DEFAULT_255_2_778
10
3.7570699
20
88.7659133
11
3.7520699
21
88.7661133
0
LINE
8
DEFAULT_255_2_778
10
3.7520699
20
88.7661133
11
3.7470699
21
88.7664133
0
LINE
8
DEFAULT_255_2_778
10
3.7470699
20
88.7664133
11
3.7420699
21
88.7667133
0
LINE
8
DEFAULT_255_2_778
10
3.7420699
20
88.7667133
11
3.7369699
21
88.7669133
0
LINE
8
DEFAULT_255_2_778
10
3.7369699
20
88.7669133
11
3.7319699
21
88.7672133
0
LINE
8
DEFAULT_255_2_778
10
3.7319699
20
88.7672133
11
3.7269699
21
88.7675133
0
LINE
8
DEFAULT_255_2_778
10
3.7269699
20
88.7675133
11
3.7213699
21
88.7680133
0
LINE
8
DEFAULT_255_2_778
10
3.7213699
20
88.7680133
11
3.7163699
21
88.7682133
0
LINE
8
DEFAULT_255_2_778
10
3.7163699
20
88.7682133
11
3.7113699
21
88.7685133
0
LINE
8
DEFAULT_255_2_778
10
3.7113699
20
88.7685133
11
3.7062699
21
88.7688133
0
LINE
8
DEFAULT_255_2_778
10
3.7062699
20
88.7688133
11
3.7012699
21
88.7690133
0
LINE
8
DEFAULT_255_2_778
10
3.7012699
20
88.7690133
11
3.6962699
21
88.7693133
0
LINE
8
DEFAULT_255_2_778
10
3.6962699
20
88.7693133
11
3.6912699
21
88.7696133
0
LINE
8
DEFAULT_255_2_778
10
3.6912699
20
88.7696133
11
3.6861699
21
88.7698133
0
LINE
8
DEFAULT_255_2_778
10
3.6861699
20
88.7698133
11
3.6811699
21
88.7701133
0
LINE
8
DEFAULT_255_2_778
10
3.6811699
20
88.7701133
11
3.6761699
21
88.7704133
0
LINE
8
DEFAULT_255_2_778
10
3.6761699
20
88.7704133
11
3.6710699
21
88.7706133
0
LINE
8
DEFAULT_255_2_778
10
3.6710699
20
88.7706133
11
3.6660699
21
88.7709133
0
LINE
8
DEFAULT_255_2_778
10
3.6660699
20
88.7709133
11
3.6610699
21
88.7712133
0
LINE
8
DEFAULT_255_2_778
10
3.6610699
20
88.7712133
11
3.6560699
21
88.7714133
0
LINE
8
DEFAULT_255_2_778
10
3.6560699
20
88.7714133
11
3.6509699
21
88.7717133
0
LINE
8
DEFAULT_255_2_778
10
3.6509699
20
88.7717133
11
3.6459699
21
88.7719133
0
LINE
8
DEFAULT_255_2_778
10
3.6459699
20
88.7719133
11
3.6409699
21
88.7722133
0
LINE
8
DEFAULT_255_2_778
10
3.6409699
20
88.7722133
11
3.6359699
21
88.7725133
0
LINE
8
DEFAULT_255_2_778
10
3.6359699
20
88.7725133
11
3.6308699
21
88.7727133
0
LINE
8
DEFAULT_255_2_778
10
3.6308699
20
88.7727133
11
3.6258699
21
88.7730133
0
LINE
8
DEFAULT_255_2_778
10
3.6258699
20
88.7730133
11
3.6208699
21
88.7733133
0
LINE
8
DEFAULT_255_2_778
10
3.6208699
20
88.7733133
11
3.6158699
21
88.7735133
0
LINE
8
DEFAULT_255_2_778
10
3.6158699
20
88.7735133
11
3.6107699
21
88.7738133
0
LINE
8
DEFAULT_255_2_778
10
3.6107699
20
88.7738133
11
3.6057699
21
88.7741133
0
LINE
8
DEFAULT_255_2_778
10
3.6057699
20
88.7741133
11
3.6007699
21
88.7743133
0
LINE
8
DEFAULT_255_2_778
10
3.6007699
20
88.7743133
11
3.5956699
21
88.7746133
0
LINE
8
DEFAULT_255_2_778
10
3.5956699
20
88.7746133
11
3.5906699
21
88.7749133
0
LINE
8
DEFAULT_255_2_778
10
3.5906699
20
88.7749133
11
3.5864699
21
88.7751133
0
LINE
8
DEFAULT_255_2_778
10
3.5864699
20
88.7751133
11
3.5814699
21
88.7754133
0
LINE
8
DEFAULT_255_2_778
10
3.5814699
20
88.7754133
11
3.5763699
21
88.7757133
0
LINE
8
DEFAULT_255_2_778
10
3.5763699
20
88.7757133
11
3.5713699
21
88.7759133
0
LINE
8
DEFAULT_255_2_778
10
3.5713699
20
88.7759133
11
3.5655699
21
88.7764133
0
LINE
8
DEFAULT_255_2_778
10
3.5655699
20
88.7764133
11
3.5605699
21
88.7767133
0
LINE
8
DEFAULT_255_2_778
10
3.5605699
20
88.7767133
11
3.5554699
21
88.7770133
0
LINE
8
DEFAULT_255_2_778
10
3.5554699
20
88.7770133
11
3.5504699
21
88.7772133
0
LINE
8
DEFAULT_255_2_778
10
3.5504699
20
88.7772133
11
3.5451699
21
88.7775133
0
LINE
8
DEFAULT_255_2_778
10
3.5451699
20
88.7775133
11
3.5401699
21
88.7778133
0
LINE
8
DEFAULT_255_2_778
10
3.5401699
20
88.7778133
11
3.5351699
21
88.7780133
0
LINE
8
DEFAULT_255_2_778
10
3.5351699
20
88.7780133
11
3.5300699
21
88.7783133
0
LINE
8
DEFAULT_255_2_778
10
3.5300699
20
88.7783133
11
3.5253699
21
88.7786133
0
LINE
8
DEFAULT_255_2_778
10
3.5253699
20
88.7786133
11
3.5202699
21
88.7788133
0
LINE
8
DEFAULT_255_2_778
10
3.5202699
20
88.7788133
11
3.5152699
21
88.7791133
0
LINE
8
DEFAULT_255_2_778
10
3.5152699
20
88.7791133
11
3.5102699
21
88.7794133
0
LINE
8
DEFAULT_255_2_778
10
3.5102699
20
88.7794133
11
3.5062699
21
88.7796133
0
LINE
8
DEFAULT_255_2_778
10
3.5062699
20
88.7796133
11
3.5012699
21
88.7799133
0
LINE
8
DEFAULT_255_2_778
10
3.5012699
20
88.7799133
11
3.4962699
21
88.7802133
0
LINE
8
DEFAULT_255_2_778
10
3.4962699
20
88.7802133
11
3.4911699
21
88.7804133
0
LINE
8
DEFAULT_255_2_778
10
3.4911699
20
88.7804133
11
3.4861699
21
88.7807133
0
LINE
8
DEFAULT_255_2_778
10
3.4861699
20
88.7807133
11
3.4811699
21
88.7809133
0
LINE
8
DEFAULT_255_2_778
10
3.4811699
20
88.7809133
11
3.4761699
21
88.7812133
0
LINE
8
DEFAULT_255_2_778
10
3.4761699
20
88.7812133
11
3.4710699
21
88.7815133
0
LINE
8
DEFAULT_255_2_778
10
3.4710699
20
88.7815133
11
3.4660699
21
88.7817133
0
LINE
8
DEFAULT_255_2_778
10
3.4660699
20
88.7817133
11
3.4610699
21
88.7823133
0
LINE
8
DEFAULT_255_2_778
10
3.4610699
20
88.7823133
11
3.4559699
21
88.7828133
0
LINE
8
DEFAULT_255_2_778
10
3.4559699
20
88.7828133
11
3.4509699
21
88.7833133
0
LINE
8
DEFAULT_255_2_778
10
3.4509699
20
88.7833133
11
3.4459699
21
88.7839133
0
LINE
8
DEFAULT_255_2_778
10
3.4459699
20
88.7839133
11
3.4409699
21
88.7844133
0
LINE
8
DEFAULT_255_2_778
10
3.4409699
20
88.7844133
11
3.4369699
21
88.7846133
0
LINE
8
DEFAULT_255_2_778
10
3.4369699
20
88.7846133
11
3.4319699
21
88.7852133
0
LINE
8
DEFAULT_255_2_778
10
3.4319699
20
88.7852133
11
3.4268699
21
88.7857133
0
LINE
8
DEFAULT_255_2_778
10
3.4268699
20
88.7857133
11
3.4215699
21
88.7862133
0
LINE
8
DEFAULT_255_2_778
10
3.4215699
20
88.7862133
11
3.4165699
21
88.7868133
0
LINE
8
DEFAULT_255_2_778
10
3.4165699
20
88.7868133
11
3.4115699
21
88.7873133
0
LINE
8
DEFAULT_255_2_778
10
3.4115699
20
88.7873133
11
3.4073699
21
88.7876133
0
LINE
8
DEFAULT_255_2_778
10
3.4073699
20
88.7876133
11
3.4022699
21
88.7881133
0
LINE
8
DEFAULT_255_2_778
10
3.4022699
20
88.7881133
11
3.3972699
21
88.7886133
0
LINE
8
DEFAULT_255_2_778
10
3.3972699
20
88.7886133
11
3.3922699
21
88.7891133
0
LINE
8
DEFAULT_255_2_778
10
3.3922699
20
88.7891133
11
3.3872699
21
88.7897133
0
LINE
8
DEFAULT_255_2_778
10
3.3872699
20
88.7897133
11
3.3813699
21
88.7902133
0
LINE
8
DEFAULT_255_2_778
10
3.3813699
20
88.7902133
11
3.3763699
21
88.7907133
0
LINE
8
DEFAULT_255_2_778
10
3.3763699
20
88.7907133
11
3.3713699
21
88.7913133
0
LINE
8
DEFAULT_255_2_778
10
3.3713699
20
88.7913133
11
3.3662699
21
88.7918133
0
LINE
8
DEFAULT_255_2_778
10
3.3662699
20
88.7918133
11
3.3612699
21
88.7923133
0
LINE
8
DEFAULT_255_2_778
10
3.3612699
20
88.7923133
11
3.3562699
21
88.7929133
0
LINE
8
DEFAULT_255_2_778
10
3.3562699
20
88.7929133
11
3.3512699
21
88.7934133
0
LINE
8
DEFAULT_255_2_778
10
3.3512699
20
88.7934133
11
3.3461699
21
88.7939133
0
LINE
8
DEFAULT_255_2_778
10
3.3461699
20
88.7939133
11
3.3411699
21
88.7944133
0
LINE
8
DEFAULT_255_2_778
10
3.3411699
20
88.7944133
11
3.3361699
21
88.7950133
0
LINE
8
DEFAULT_255_2_778
10
3.3361699
20
88.7950133
11
3.3313699
21
88.7958133
0
LINE
8
DEFAULT_255_2_778
10
3.3313699
20
88.7958133
11
3.3266699
21
88.7966133
0
LINE
8
DEFAULT_255_2_778
10
3.3266699
20
88.7966133
11
3.3223699
21
88.7973133
0
LINE
8
DEFAULT_255_2_778
10
3.3223699
20
88.7973133
11
3.3181699
21
88.7981133
0
LINE
8
DEFAULT_255_2_778
10
3.3181699
20
88.7981133
11
3.3131699
21
88.7997133
0
LINE
8
DEFAULT_255_2_778
10
6.7519699
20
18.8590133
11
3.6057699
21
18.8590133
0
LINE
8
DEFAULT_255_2_778
10
2.7090699
20
18.3015133
11
2.7090699
21
15.3588133
0
LINE
8
DEFAULT_255_2_778
10
2.7090699
20
15.3588133
11
3.3192699
21
0.7173133
0
LINE
8
DEFAULT_255_2_778
10
4.3182699
20
-0.2409867
11
8.3589699
21
-0.2409867
0
LINE
8
DEFAULT_255_2_778
10
8.3589699
20
-0.2409867
11
8.3589699
21
19.0590133
0
LINE
8
DEFAULT_255_2_778
10
3.9306699
20
33.1589133
11
3.3319699
21
33.1589133
0
LINE
8
DEFAULT_255_2_778
10
3.4866699
20
33.5590133
11
4.5317699
21
33.5590133
0
LINE
8
DEFAULT_255_2_778
10
4.5317699
20
55.9589133
11
3.4866699
21
55.9589133
0
LINE
8
DEFAULT_255_2_778
10
3.3319699
20
56.3589133
11
3.9306699
21
56.3589133
0
LINE
8
DEFAULT_255_2_778
10
3.4509699
20
32.3588133
11
3.2588699
21
32.3588133
0
LINE
8
DEFAULT_255_2_778
10
3.2588699
20
57.1587133
11
3.4509699
21
57.1587133
0
LINE
8
DEFAULT_255_2_778
10
3.2668699
20
56.7587133
11
3.6266699
21
56.7587133
0
LINE
8
DEFAULT_255_2_778
10
3.6266699
20
32.7586133
11
3.2668699
21
32.7586133
0
LINE
8
DEFAULT_255_2_778
10
19.3587699
20
55.7586133
11
19.3587699
21
33.7585133
0
LINE
8
DEFAULT_255_2_778
10
0.6148699
20
31.2584133
11
0.6691699
21
30.7583133
0
LINE
8
DEFAULT_255_2_778
10
2.3585699
20
23.7583133
11
2.5333699
21
19.5583133
0
LINE
8
DEFAULT_255_2_778
10
2.5333699
20
19.5583133
11
2.5458699
21
19.2582133
0
LINE
8
DEFAULT_255_2_778
10
2.5458699
20
19.2582133
11
2.8582699
21
19.2582133
0
LINE
8
DEFAULT_255_2_778
10
2.8582699
20
70.2583133
11
2.5466699
21
70.2583133
0
LINE
8
DEFAULT_255_2_778
10
2.5466699
20
70.2583133
11
2.3590699
21
65.7582133
0
LINE
8
DEFAULT_255_2_778
10
0.6696699
20
58.7581133
11
0.6154699
21
58.2581133
0
LINE
8
DEFAULT_255_2_778
10
0.6154699
20
58.2581133
11
2.1089699
21
58.2581133
0
LINE
8
DEFAULT_255_2_778
10
0.4109699
20
51.9644133
11
0.2108699
21
51.9644133
0
LINE
8
DEFAULT_255_2_778
10
0.2108699
20
51.9644133
11
0.1595699
21
43.9645133
0
LINE
8
DEFAULT_255_2_778
10
0.1595699
20
43.9645133
11
0.3595699
21
43.9645133
0
LINE
8
DEFAULT_255_2_778
10
0.3590699
20
42.1645133
11
0.3659699
21
42.1645133
0
ENDSEC
0
EOF