0
SECTION
2
HEADER
9
$MEASUREMENT
70
1
0
ENDSEC
0
SECTION
2
TABLES
0
TABLE
2
LTYPE
0
LTYPE
72
65
70
64
2
CONTINUOUS
3
______
73
0
40
0
0
ENDTAB
0
TABLE
2
LAYER
0
LAYER
2
DEFAULT_255_2_778
70
0
62
255
6
CONTINUOUS
0
LAYER
2
DEFAULT_255_1_234
70
0
62
255
6
CONTINUOUS
0
ENDTAB
0
ENDSEC
0
SECTION
2
ENTITIES
0
ARC
8
DEFAULT_255_2_778
10
3.5700693
20
176.346835
40
0.7914215
50
129.1312896
51
180.1450914
0
ARC
8
DEFAULT_255_2_778
10
3.5703345
20
176.3473221
40
0.7912112
50
89.854026
51
129.1684493
0
ARC
8
DEFAULT_255_2_778
10
25.7993937
20
176.3470086
40
0.7915249
50
39.4792447
51
90.147911
0
ARC
8
DEFAULT_255_2_778
10
25.7999935
20
176.3468553
40
0.7911595
50
359.8533901
51
39.5154338
0
ARC
8
DEFAULT_255_2_778
10
25.7995996
20
-1.9863575
40
0.7915532
50
308.9618967
51
0.1439251
0
ARC
8
DEFAULT_255_2_778
10
25.7993681
20
-1.9868759
40
0.7912959
50
269.8538953
51
308.9985331
0
ARC
8
DEFAULT_255_2_778
10
3.5703815
20
-1.9867746
40
0.7913971
50
218.9526075
51
270.1425421
0
ARC
8
DEFAULT_255_2_778
10
3.5700217
20
-1.986367
40
0.7913738
50
179.8553541
51
218.9919299
0
LINE
8
DEFAULT_255_2_778
10
3.5723503
20
177.1385308
11
25.7973503
21
177.1385308
0
LINE
8
DEFAULT_255_2_778
10
26.5911503
20
176.3448308
11
26.5911503
21
-1.9843692
0
LINE
8
DEFAULT_255_2_778
10
25.7973503
20
-2.7781692
11
3.5723503
21
-2.7781692
0
LINE
8
DEFAULT_255_2_778
10
2.7786503
20
-1.9843692
11
2.7786503
21
176.3448308
0
LINE
8
DEFAULT_255_1_234
10
8.815185
20
-0.0087609
11
8.815185
21
-0.1348592
0
LINE
8
DEFAULT_255_1_234
10
8.815185
20
-0.1348592
11
8.3244458
21
-0.1348592
0
LINE
8
DEFAULT_255_1_234
10
8.3244458
20
-0.1348592
11
8.3244458
21
-0.6513
0
LINE
8
DEFAULT_255_1_234
10
8.3244458
20
-0.6513
11
8.1702364
21
-0.6513
0
LINE
8
DEFAULT_255_1_234
10
8.1702364
20
-0.6513
11
8.1702364
21
0.5181211
0
LINE
8
DEFAULT_255_1_234
10
8.1702364
20
0.5181211
11
8.8946992
21
0.5181211
0
LINE
8
DEFAULT_255_1_234
10
8.8946992
20
0.5181211
11
8.8946992
21
0.3912196
0
LINE
8
DEFAULT_255_1_234
10
8.8946992
20
0.3912196
11
8.3244458
21
0.3912196
0
LINE
8
DEFAULT_255_1_234
10
8.3244458
20
0.3912196
11
8.3244458
21
-0.0087609
0
LINE
8
DEFAULT_255_1_234
10
8.3244458
20
-0.0087609
11
8.815185
21
-0.0087609
0
LINE
8
DEFAULT_255_1_234
10
9.1790227
20
0.5181211
11
9.4609367
21
0.0699501
0
LINE
8
DEFAULT_255_1_234
10
9.4609367
20
0.0699501
11
9.7412444
21
0.5181211
0
LINE
8
DEFAULT_255_1_234
10
9.7412444
20
0.5181211
11
9.9227617
21
0.5181211
0
LINE
8
DEFAULT_255_1_234
10
9.9227617
20
0.5181211
11
9.5533017
21
-0.0617704
0
LINE
8
DEFAULT_255_1_234
10
9.5533017
20
-0.0617704
11
9.9315966
21
-0.6513
0
LINE
8
DEFAULT_255_1_234
10
9.9315966
20
-0.6513
11
9.7484729
21
-0.6513
0
LINE
8
DEFAULT_255_1_234
10
9.7484729
20
-0.6513
11
9.4609367
21
-0.1950973
0
LINE
8
DEFAULT_255_1_234
10
9.4609367
20
-0.1950973
11
9.1717941
21
-0.6513
0
LINE
8
DEFAULT_255_1_234
10
9.1717941
20
-0.6513
11
8.9894737
21
-0.6513
0
LINE
8
DEFAULT_255_1_234
10
8.9894737
20
-0.6513
11
9.3685717
21
-0.0617704
0
LINE
8
DEFAULT_255_1_234
10
9.3685717
20
-0.0617704
11
8.9983086
21
0.5181211
0
LINE
8
DEFAULT_255_1_234
10
8.9983086
20
0.5181211
11
9.1790227
21
0.5181211
0
LINE
8
DEFAULT_255_1_234
10
10.2882058
20
-0.1155831
11
10.2882058
21
0.0056962
0
LINE
8
DEFAULT_255_1_234
10
10.2882058
20
0.0056962
11
10.3998469
21
0.0056962
0
LINE
8
DEFAULT_255_1_234
10
10.2094947
20
0.2113087
11
10.0609076
21
0.2113087
0
LINE
8
DEFAULT_255_1_234
10
10.0504663
20
-0.3428813
11
10.1998566
21
-0.3428813
0
LINE
8
DEFAULT_255_1_234
10
10.3998469
20
-0.1155831
11
10.2882058
21
-0.1155831
0
ARC
8
DEFAULT_255_1_234
10
10.3969336
20
0.3449713
40
0.3392876
50
270.4919872
51
281.8951556
0
ARC
8
DEFAULT_255_1_234
10
10.4210597
20
0.2347702
40
0.2264817
50
281.6691735
51
301.2943132
0
ARC
8
DEFAULT_255_1_234
10
10.4380808
20
0.2036304
40
0.1910381
50
301.7833094
51
311.7545298
0
ARC
8
DEFAULT_255_1_234
10
10.4472383
20
0.1934748
40
0.1773635
50
311.7323931
51
354.2802411
0
ARC
8
DEFAULT_255_1_234
10
10.3746009
20
0.2059722
40
0.2509385
50
353.0937916
51
0.1181479
0
ARC
8
DEFAULT_255_1_234
10
10.3284793
20
0.2107386
40
0.2970898
50
359.1805295
51
15.0453146
0
ARC
8
DEFAULT_255_1_234
10
10.463063
20
0.2499992
40
0.1569564
50
13.9577229
51
77.6713066
0
ARC
8
DEFAULT_255_1_234
10
10.424416
20
0.1114949
40
0.3006298
50
76.1116566
51
90.7026153
0
ARC
8
DEFAULT_255_1_234
10
10.4184998
20
0.1388545
40
0.2732568
50
89.5324876
51
103.531937
0
ARC
8
DEFAULT_255_1_234
10
10.3984442
20
0.2187884
40
0.1908508
50
103.2931773
51
133.5619022
0
ARC
8
DEFAULT_255_1_234
10
10.393993
20
0.2247375
40
0.1834746
50
133.8349307
51
173.5344437
0
ARC
8
DEFAULT_255_1_234
10
10.4662973
20
0.2119213
40
0.2568033
50
172.5096846
51
180.1366907
0
ARC
8
DEFAULT_255_1_234
10
10.3711867
20
0.2153622
40
0.3103056
50
155.3484492
51
180.7484736
0
ARC
8
DEFAULT_255_1_234
10
10.3662956
20
0.2124846
40
0.3070957
50
131.5744599
51
154.4798489
0
ARC
8
DEFAULT_255_1_234
10
10.3976104
20
0.180831
40
0.3515643
50
96.9875458
51
131.9690667
0
ARC
8
DEFAULT_255_1_234
10
10.4195584
20
0.0562636
40
0.4779224
50
89.8596053
51
97.7825159
0
ARC
8
DEFAULT_255_1_234
10
10.4243647
20
0.0300616
40
0.5041361
50
78.3655447
51
90.4131539
0
ARC
8
DEFAULT_255_1_234
10
10.4601565
20
0.1959887
40
0.3344039
50
56.6229102
51
78.638727
0
ARC
8
DEFAULT_255_1_234
10
10.4816508
20
0.2335805
40
0.2912001
50
47.0253525
51
56.0854072
0
ARC
8
DEFAULT_255_1_234
10
10.4836288
20
0.2375223
40
0.2869704
50
10.9208013
51
46.7778124
0
ARC
8
DEFAULT_255_1_234
10
10.3472355
20
0.2059857
40
0.426899
50
359.6364486
51
11.6087304
0
ARC
8
DEFAULT_255_1_234
10
10.5307199
20
0.2044752
40
0.243409
50
332.3549906
51
359.7179418
0
ARC
8
DEFAULT_255_1_234
10
10.46568
20
0.2353142
40
0.3153459
50
325.2333722
51
332.8745602
0
ARC
8
DEFAULT_255_1_234
10
10.4809424
20
0.2246828
40
0.2967456
50
292.9802137
51
325.2392345
0
ARC
8
DEFAULT_255_1_234
10
10.4534798
20
0.2780863
40
0.3566604
50
292.5402179
51
293.6924929
0
ARC
8
DEFAULT_255_1_234
10
10.4927394
20
-0.3673909
40
0.3307468
50
57.6435486
51
72.8625112
0
ARC
8
DEFAULT_255_1_234
10
10.5281894
20
-0.3099451
40
0.2632492
50
36.7248896
51
57.4697979
0
ARC
8
DEFAULT_255_1_234
10
10.5270526
20
-0.308678
40
0.2634081
50
8.0545065
51
36.356114
0
ARC
8
DEFAULT_255_1_234
10
10.4407712
20
-0.3241826
40
0.3510261
50
359.8320645
51
8.5869982
0
ARC
8
DEFAULT_255_1_234
10
10.4032488
20
-0.3289899
40
0.3885653
50
343.9829931
51
0.5571613
0
ARC
8
DEFAULT_255_1_234
10
10.4918685
20
-0.3532562
40
0.2966924
50
311.6359546
51
343.7651759
0
ARC
8
DEFAULT_255_1_234
10
10.4540254
20
-0.3105898
40
0.3537231
50
279.7829875
51
311.6255694
0
ARC
8
DEFAULT_255_1_234
10
10.423903
20
-0.166872
40
0.5004971
50
269.7286406
51
280.3856417
0
ARC
8
DEFAULT_255_1_234
10
10.4177103
20
-0.1710004
40
0.4963778
50
256.6828919
51
270.4412052
0
ARC
8
DEFAULT_255_1_234
10
10.3838399
20
-0.3094606
40
0.3538406
50
229.4223008
51
256.8556159
0
ARC
8
DEFAULT_255_1_234
10
10.3423792
20
-0.3561264
40
0.2914296
50
181.818294
51
229.6455059
0
ARC
8
DEFAULT_255_1_234
10
10.4463748
20
-0.3430504
40
0.3959084
50
179.9755256
51
183.2323064
0
ARC
8
DEFAULT_255_1_234
10
10.4291494
20
-0.3450963
40
0.2293034
50
179.4465117
51
196.2869258
0
ARC
8
DEFAULT_255_1_234
10
10.3803902
20
-0.3584349
40
0.1787621
50
196.5661473
51
227.705904
0
ARC
8
DEFAULT_255_1_234
10
10.3967996
20
-0.3400845
40
0.2033784
50
227.7652068
51
257.8762805
0
ARC
8
DEFAULT_255_1_234
10
10.4192967
20
-0.2457844
40
0.3003081
50
257.4584385
51
270.426602
0
ARC
8
DEFAULT_255_1_234
10
10.4238533
20
-0.2168004
40
0.329292
50
269.5962073
51
280.8789248
0
ARC
8
DEFAULT_255_1_234
10
10.4468062
20
-0.3314315
40
0.2123908
50
280.6346389
51
299.8595945
0
ARC
8
DEFAULT_255_1_234
10
10.4658968
20
-0.3676788
40
0.171457
50
300.3576302
51
314.5517981
0
ARC
8
DEFAULT_255_1_234
10
10.4576028
20
-0.3616081
40
0.1816095
50
315.0728369
51
345.0431014
0
ARC
8
DEFAULT_255_1_234
10
10.3652843
20
-0.3347159
40
0.2777492
50
344.5986631
51
357.9269593
0
ARC
8
DEFAULT_255_1_234
10
10.2757169
20
-0.3285724
40
0.3674917
50
357.4748886
51
0.0231117
0
ARC
8
DEFAULT_255_1_234
10
10.3780278
20
-0.3261321
40
0.2651907
50
359.5047933
51
13.4239635
0
ARC
8
DEFAULT_255_1_234
10
10.4646922
20
-0.3039522
40
0.1757509
50
12.9498199
51
48.7551375
0
ARC
8
DEFAULT_255_1_234
10
10.4464656
20
-0.32886
40
0.2065134
50
49.5088623
51
72.1836453
0
ARC
8
DEFAULT_255_1_234
10
10.4106808
20
-0.4350709
40
0.3185836
50
71.9010081
51
84.3554254
0
ARC
8
DEFAULT_255_1_234
10
10.394544
20
-0.5711674
40
0.4556151
50
84.0193428
51
89.333121
0
LINE
8
DEFAULT_255_1_234
10
11.8977661
20
-0.068999
11
11.8977661
21
-0.4978938
0
LINE
8
DEFAULT_255_1_234
10
10.9966051
20
-0.1228116
11
10.9966051
21
-0.0208085
0
LINE
8
DEFAULT_255_1_234
10
11.8977661
20
0.1751659
11
11.7435567
21
0.1751659
0
LINE
8
DEFAULT_255_1_234
10
11.1516176
20
-0.0167927
11
11.1516176
21
-0.1123704
0
LINE
8
DEFAULT_255_1_234
10
11.7443599
20
-0.4569319
11
11.7443599
21
-0.1942941
0
LINE
8
DEFAULT_255_1_234
10
11.7443599
20
-0.1942941
11
11.4736903
21
-0.1942941
0
LINE
8
DEFAULT_255_1_234
10
11.4736903
20
-0.1942941
11
11.4736903
21
-0.068999
0
LINE
8
DEFAULT_255_1_234
10
11.4736903
20
-0.068999
11
11.8977661
21
-0.068999
0
ARC
8
DEFAULT_255_1_234
10
11.6146167
20
-0.2985604
40
0.3462765
50
295.8437914
51
324.8549609
0
ARC
8
DEFAULT_255_1_234
10
11.5730134
20
-0.2232433
40
0.4322211
50
291.5695085
51
296.4549398
0
ARC
8
DEFAULT_255_1_234
10
11.5219386
20
-0.0867725
40
0.5779178
50
278.6622409
51
291.3045483
0
ARC
8
DEFAULT_255_1_234
10
11.4879877
20
0.1280408
40
0.7953952
50
270.020006
51
278.7494541
0
ARC
8
DEFAULT_255_1_234
10
11.4841801
20
0.2597036
40
0.927067
50
269.9969998
51
270.2524872
0
ARC
8
DEFAULT_255_1_234
10
11.4803515
20
-0.1486411
40
0.5187361
50
253.5786322
51
270.4175299
0
ARC
8
DEFAULT_255_1_234
10
11.4630171
20
-0.2157764
40
0.4494451
50
238.8203306
51
253.2788235
0
ARC
8
DEFAULT_255_1_234
10
11.4610544
20
-0.2208769
40
0.4440665
50
206.7883783
51
238.6962764
0
ARC
8
DEFAULT_255_1_234
10
11.5384454
20
-0.1744595
40
0.5341121
50
206.1129412
51
207.4916643
0
ARC
8
DEFAULT_255_1_234
10
11.5981369
20
-0.1490512
40
0.5989041
50
188.6921119
51
205.7821245
0
ARC
8
DEFAULT_255_1_234
10
11.7837731
20
-0.117477
40
0.7871862
50
180.3882829
51
188.9219216
0
ARC
8
DEFAULT_255_1_234
10
11.9065545
20
-0.0151536
40
0.909967
50
170.2024264
51
180.3560651
0
ARC
8
DEFAULT_255_1_234
10
11.5902063
20
0.0414237
40
0.5886083
50
154.2857445
51
170.3893044
0
ARC
8
DEFAULT_255_1_234
10
11.4620266
20
0.100095
40
0.4476743
50
139.8401567
51
153.9332699
0
ARC
8
DEFAULT_255_1_234
10
11.4261002
20
0.1288577
40
0.4016697
50
98.4190291
51
139.6707122
0
ARC
8
DEFAULT_255_1_234
10
11.4640519
20
-0.0556672
40
0.5898566
50
89.7659205
51
99.4415478
0
ARC
8
DEFAULT_255_1_234
10
11.4705769
20
-0.0491156
40
0.5833147
50
78.0551672
51
90.4042112
0
ARC
8
DEFAULT_255_1_234
10
11.5110279
20
0.1327644
40
0.3970055
50
54.6380464
51
78.3339173
0
ARC
8
DEFAULT_255_1_234
10
11.5300335
20
0.1647795
40
0.3599102
50
50.031736
51
54.1558201
0
ARC
8
DEFAULT_255_1_234
10
11.5193122
20
0.1551766
40
0.3741624
50
18.1092409
51
49.7180913
0
ARC
8
DEFAULT_255_1_234
10
11.3736322
20
0.1018089
40
0.5292424
50
7.9672797
51
18.6984571
0
ARC
8
DEFAULT_255_1_234
10
11.3886801
20
0.1141504
40
0.3600838
50
9.7557294
51
27.3215714
0
ARC
8
DEFAULT_255_1_234
10
11.5014272
20
0.1704912
40
0.2340608
50
27.7361077
51
84.5257964
0
ARC
8
DEFAULT_255_1_234
10
11.4686659
20
0.006164
40
0.4011215
50
82.106034
51
90.2001166
0
ARC
8
DEFAULT_255_1_234
10
11.4636876
20
0.0569215
40
0.3503799
50
89.4150119
51
105.5823402
0
ARC
8
DEFAULT_255_1_234
10
11.4379874
20
0.1504867
40
0.2533503
50
105.6678618
51
144.2648758
0
ARC
8
DEFAULT_255_1_234
10
11.527313
20
0.0869289
40
0.3629787
50
144.3561283
51
162.8564086
0
ARC
8
DEFAULT_255_1_234
10
11.7357039
20
0.0200017
40
0.5818441
50
162.6076014
51
173.6780284
0
ARC
8
DEFAULT_255_1_234
10
12.0418182
20
-0.017211
40
0.8902007
50
173.4670142
51
179.9730753
0
ARC
8
DEFAULT_255_1_234
10
11.8509854
20
-0.116574
40
0.6993804
50
179.6556203
51
190.0080463
0
ARC
8
DEFAULT_255_1_234
10
11.6193683
20
-0.1590625
40
0.4639066
50
189.8116607
51
206.6796816
0
ARC
8
DEFAULT_255_1_234
10
11.5348835
20
-0.1984497
40
0.3707421
50
207.1031645
51
217.7074368
0
ARC
8
DEFAULT_255_1_234
10
11.4714524
20
-0.2536441
40
0.2868417
50
216.7345547
51
265.6812148
0
ARC
8
DEFAULT_255_1_234
10
11.4845315
20
-0.1632145
40
0.3780509
50
264.7366618
51
270.0611241
0
ARC
8
DEFAULT_255_1_234
10
11.4868578
20
0.1208111
40
0.662079
50
269.8335834
51
276.0539546
0
ARC
8
DEFAULT_255_1_234
10
11.5075582
20
-0.069344
40
0.4708016
50
275.9894168
51
284.4615085
0
ARC
8
DEFAULT_255_1_234
10
11.5273589
20
-0.1526337
40
0.3852094
50
284.7034461
51
286.4953897
0
ARC
8
DEFAULT_255_1_234
10
11.5680603
20
-0.2837035
40
0.2479842
50
286.0770838
51
304.2625829
0
ARC
8
DEFAULT_255_1_234
10
11.5814017
20
-0.3055406
40
0.2224291
50
304.5891602
51
317.1073298
0
LINE
8
DEFAULT_255_1_234
10
12.4407116
20
-0.0938974
11
12.4407116
21
-0.2151766
0
LINE
8
DEFAULT_255_1_234
10
12.4407116
20
-0.2151766
11
12.0487628
21
-0.2151766
0
LINE
8
DEFAULT_255_1_234
10
12.0487628
20
-0.2151766
11
12.0487628
21
-0.0938974
0
LINE
8
DEFAULT_255_1_234
10
12.0487628
20
-0.0938974
11
12.4407116
21
-0.0938974
0
LINE
8
DEFAULT_255_1_234
10
13.1973014
20
0.5181211
11
13.1973014
21
-0.258548
0
LINE
8
DEFAULT_255_1_234
10
13.1973014
20
-0.258548
11
13.3595425
21
-0.258548
0
LINE
8
DEFAULT_255_1_234
10
13.3595425
20
-0.258548
11
13.3595425
21
-0.3798272
0
LINE
8
DEFAULT_255_1_234
10
13.3595425
20
-0.3798272
11
13.1973014
21
-0.3798272
0
LINE
8
DEFAULT_255_1_234
10
13.1973014
20
-0.3798272
11
13.1973014
21
-0.6513
0
LINE
8
DEFAULT_255_1_234
10
13.1973014
20
-0.6513
11
13.047911
21
-0.6513
0
LINE
8
DEFAULT_255_1_234
10
13.047911
20
-0.6513
11
13.047911
21
-0.3798272
0
LINE
8
DEFAULT_255_1_234
10
13.047911
20
-0.3798272
11
12.5154068
21
-0.3798272
0
LINE
8
DEFAULT_255_1_234
10
12.5154068
20
-0.3798272
11
12.5154068
21
-0.2922813
0
LINE
8
DEFAULT_255_1_234
10
12.5154068
20
-0.2922813
11
13.0390761
21
0.5181211
0
LINE
8
DEFAULT_255_1_234
10
13.0390761
20
0.5181211
11
13.1973014
21
0.5181211
0
LINE
8
DEFAULT_255_1_234
10
13.0302412
20
0.2827912
11
12.6840733
21
-0.258548
0
LINE
8
DEFAULT_255_1_234
10
12.6840733
20
-0.258548
11
13.047911
21
-0.258548
0
LINE
8
DEFAULT_255_1_234
10
13.047911
20
-0.258548
11
13.047911
21
0.3149181
0
LINE
8
DEFAULT_255_1_234
10
13.047911
20
0.3149181
11
13.0302412
21
0.2827912
0
LINE
8
DEFAULT_255_1_234
10
14.2269702
20
0.0402327
11
14.2269702
21
-0.1525291
0
LINE
8
DEFAULT_255_1_234
10
13.4888535
20
-0.1726084
11
13.4888535
21
0.0257755
0
LINE
8
DEFAULT_255_1_234
10
14.0783831
20
-0.1926877
11
14.0783831
21
0.0506739
0
LINE
8
DEFAULT_255_1_234
10
13.6374406
20
0.0619184
11
13.6374406
21
-0.1758211
0
ARC
8
DEFAULT_255_1_234
10
13.0022592
20
-0.1574195
40
1.2247208
50
353.8441951
51
0.2287902
0
ARC
8
DEFAULT_255_1_234
10
13.4662095
20
-0.2092194
40
0.7578929
50
344.4934747
51
353.9765454
0
ARC
8
DEFAULT_255_1_234
10
13.7654686
20
-0.2943019
40
0.4467846
50
329.2803592
51
344.7472793
0
ARC
8
DEFAULT_255_1_234
10
13.864751
20
-0.3487982
40
0.3336173
50
324.9352394
51
328.6160465
0
ARC
8
DEFAULT_255_1_234
10
13.9024619
20
-0.3751573
40
0.2876076
50
280.580143
51
324.9173126
0
ARC
8
DEFAULT_255_1_234
10
13.8623412
20
-0.2080901
40
0.4592847
50
269.5977311
51
281.6734359
0
ARC
8
DEFAULT_255_1_234
10
13.8551317
20
-0.2200827
40
0.4472986
50
256.6228859
51
270.51044
0
ARC
8
DEFAULT_255_1_234
10
13.8149295
20
-0.3749123
40
0.2873874
50
215.8618325
51
257.2788573
0
ARC
8
DEFAULT_255_1_234
10
13.9170327
20
-0.3064023
40
0.4102928
50
197.9693508
51
215.2623606
0
ARC
8
DEFAULT_255_1_234
10
14.1655442
20
-0.2225291
40
0.6725652
50
187.8816417
51
198.2346507
0
ARC
8
DEFAULT_255_1_234
10
14.5613651
20
-0.1653921
40
1.0724845
50
180.8976217
51
188.0055519
0
ARC
8
DEFAULT_255_1_234
10
14.8413839
20
-0.1550223
40
1.3526448
50
180.7449369
51
181.1510016
0
ARC
8
DEFAULT_255_1_234
10
14.6836568
20
0.0306042
40
1.1948131
50
173.7675579
51
180.231553
0
ARC
8
DEFAULT_255_1_234
10
14.2318714
20
0.0816666
40
0.7401564
50
164.3058563
51
173.9002247
0
ARC
8
DEFAULT_255_1_234
10
13.9406783
20
0.1655656
40
0.4371288
50
148.7922025
51
164.568378
0
ARC
8
DEFAULT_255_1_234
10
13.8455235
20
0.2186929
40
0.3282386
50
144.5883898
51
148.1176286
0
ARC
8
DEFAULT_255_1_234
10
13.8112133
20
0.2426315
40
0.2864044
50
101.6440918
51
144.514236
0
ARC
8
DEFAULT_255_1_234
10
13.85372
20
0.0737069
40
0.4604934
50
89.5284041
51
102.5819763
0
ARC
8
DEFAULT_255_1_234
10
13.8616288
20
0.0698018
40
0.464401
50
77.0437873
51
90.5081339
0
ARC
8
DEFAULT_255_1_234
10
13.901829
20
0.2340615
40
0.2953195
50
48.2778575
51
77.4994676
0
ARC
8
DEFAULT_255_1_234
10
13.9090921
20
0.2469746
40
0.2808655
50
36.3142134
51
47.6305865
0
ARC
8
DEFAULT_255_1_234
10
13.8222228
20
0.1884515
40
0.3855453
50
18.2931786
51
35.6769206
0
ARC
8
DEFAULT_255_1_234
10
13.5678987
20
0.1011593
40
0.654423
50
8.024666
51
18.5605216
0
ARC
8
DEFAULT_255_1_234
10
13.1515907
20
0.0396792
40
1.0752407
50
1.1274072
51
8.1718305
0
ARC
8
DEFAULT_255_1_234
10
12.8280097
20
0.0269885
40
1.3990231
50
0.5424119
51
1.3863029
0
ARC
8
DEFAULT_255_1_234
10
13.0101475
20
0.0542342
40
1.0682415
50
359.8090433
51
4.9407866
0
ARC
8
DEFAULT_255_1_234
10
13.4311489
20
0.0918113
40
0.6455691
50
4.8362157
51
12.2904523
0
ARC
8
DEFAULT_255_1_234
10
13.7066604
20
0.1531965
40
0.3633074
50
12.0805627
51
23.8173984
0
ARC
8
DEFAULT_255_1_234
10
13.8240309
20
0.2028919
40
0.2358723
50
24.2871213
51
31.3935614
0
ARC
8
DEFAULT_255_1_234
10
13.8765007
20
0.2372233
40
0.1732111
50
30.7407893
51
82.4657128
0
ARC
8
DEFAULT_255_1_234
10
13.8585141
20
0.1488691
40
0.263235
50
81.1060089
51
90.2184952
0
ARC
8
DEFAULT_255_1_234
10
13.854944
20
0.1746924
40
0.2374236
50
89.3806855
51
105.6762551
0
ARC
8
DEFAULT_255_1_234
10
13.836607
20
0.2413567
40
0.1682847
50
105.7981136
51
149.7388061
0
ARC
8
DEFAULT_255_1_234
10
13.9430149
20
0.177395
40
0.2924306
50
149.4208916
51
163.6286378
0
ARC
8
DEFAULT_255_1_234
10
14.1521037
20
0.113625
40
0.5110213
50
163.3763315
51
172.1410975
0
ARC
8
DEFAULT_255_1_234
10
14.4821756
20
0.0663518
40
0.8444586
50
172.0259487
51
178.0703232
0
ARC
8
DEFAULT_255_1_234
10
14.7851845
20
0.0519906
40
1.1477868
50
177.8631668
51
179.5044149
0
ARC
8
DEFAULT_255_1_234
10
14.677925
20
-0.1794611
40
1.0404907
50
179.7995573
51
185.2460446
0
ARC
8
DEFAULT_255_1_234
10
14.2736289
20
-0.2177487
40
0.6343885
50
185.1411642
51
193.0079639
0
ARC
8
DEFAULT_255_1_234
10
14.0092761
20
-0.2802359
40
0.3627568
50
192.7897626
51
205.2507664
0
ARC
8
DEFAULT_255_1_234
10
13.9046308
20
-0.3269585
40
0.2481908
50
205.8005384
51
211.2537509
0
ARC
8
DEFAULT_255_1_234
10
13.8522749
20
-0.362042
40
0.1852521
50
210.3789793
51
238.4008143
0
ARC
8
DEFAULT_255_1_234
10
13.8503271
20
-0.3573624
40
0.1882621
50
239.6520629
51
265.9793761
0
ARC
8
DEFAULT_255_1_234
10
13.8588471
20
-0.2901573
40
0.2559272
50
265.1315437
51
270.060332
0
ARC
8
DEFAULT_255_1_234
10
13.861725
20
-0.3225466
40
0.2235528
50
269.3314664
51
287.2178029
0
ARC
8
DEFAULT_255_1_234
10
13.8755102
20
-0.3728721
40
0.1714108
50
287.7958004
51
329.080874
0
ARC
8
DEFAULT_255_1_234
10
13.7797559
20
-0.313107
40
0.2842745
50
328.6634704
51
343.3325132
0
ARC
8
DEFAULT_255_1_234
10
13.5624579
20
-0.2454137
40
0.5118644
50
343.0499468
51
351.9393422
0
ARC
8
DEFAULT_255_1_234
10
13.2157879
20
-0.1943051
40
0.8622784
50
351.8069023
51
357.7959224
0
ARC
8
DEFAULT_255_1_234
10
12.8922435
20
-0.1775279
40
1.1862365
50
357.5871873
51
359.2677531
0
LINE
8
DEFAULT_255_1_234
10
14.4558748
20
0.5181211
11
14.6550619
21
0.5181211
0
LINE
8
DEFAULT_255_1_234
10
14.6550619
20
0.5181211
11
15.0373726
21
-0.4360494
0
LINE
8
DEFAULT_255_1_234
10
15.0373726
20
-0.4360494
11
15.4196833
21
0.5181211
0
LINE
8
DEFAULT_255_1_234
10
15.4196833
20
0.5181211
11
15.6196736
21
0.5181211
0
LINE
8
DEFAULT_255_1_234
10
15.6196736
20
0.5181211
11
15.6196736
21
-0.6513
0
LINE
8
DEFAULT_255_1_234
10
15.6196736
20
-0.6513
11
15.4654643
21
-0.6513
0
LINE
8
DEFAULT_255_1_234
10
15.4654643
20
-0.6513
11
15.4654643
21
-0.1959004
0
LINE
8
DEFAULT_255_1_234
10
15.4654643
20
-0.1959004
11
15.4799214
21
0.2956419
0
LINE
8
DEFAULT_255_1_234
10
15.4799214
20
0.2956419
11
15.0960043
21
-0.6513
0
LINE
8
DEFAULT_255_1_234
10
15.0960043
20
-0.6513
11
14.9779377
21
-0.6513
0
LINE
8
DEFAULT_255_1_234
10
14.9779377
20
-0.6513
11
14.5948238
21
0.2932324
0
LINE
8
DEFAULT_255_1_234
10
14.5948238
20
0.2932324
11
14.6100841
21
-0.1959004
0
LINE
8
DEFAULT_255_1_234
10
14.6100841
20
-0.1959004
11
14.6100841
21
-0.6513
0
LINE
8
DEFAULT_255_1_234
10
14.6100841
20
-0.6513
11
14.4558748
21
-0.6513
0
LINE
8
DEFAULT_255_1_234
10
14.4558748
20
-0.6513
11
14.4558748
21
0.5181211
0
LINE
8
DEFAULT_255_1_234
10
16.6766504
20
0.5181211
11
16.6766504
21
0.3912196
0
LINE
8
DEFAULT_255_1_234
10
16.6766504
20
0.3912196
11
16.300765
21
0.3912196
0
LINE
8
DEFAULT_255_1_234
10
16.300765
20
0.3912196
11
16.300765
21
-0.6513
0
LINE
8
DEFAULT_255_1_234
10
16.300765
20
-0.6513
11
16.1473588
21
-0.6513
0
LINE
8
DEFAULT_255_1_234
10
16.1473588
20
-0.6513
11
16.1473588
21
0.3912196
0
LINE
8
DEFAULT_255_1_234
10
16.1473588
20
0.3912196
11
15.7722767
21
0.3912196
0
LINE
8
DEFAULT_255_1_234
10
15.7722767
20
0.3912196
11
15.7722767
21
0.5181211
0
LINE
8
DEFAULT_255_1_234
10
15.7722767
20
0.5181211
11
16.6766504
21
0.5181211
0
LINE
8
DEFAULT_255_1_234
10
17.3440878
20
0.5181211
11
16.8565613
21
-0.7516967
0
LINE
8
DEFAULT_255_1_234
10
16.8565613
20
-0.7516967
11
16.7288567
21
-0.7516967
0
LINE
8
DEFAULT_255_1_234
10
16.7288567
20
-0.7516967
11
17.2171864
21
0.5181211
0
LINE
8
DEFAULT_255_1_234
10
17.2171864
20
0.5181211
11
17.3440878
21
0.5181211
0
LINE
8
DEFAULT_255_1_234
10
18.1890267
20
0.0153343
11
18.1890267
21
-0.110764
0
LINE
8
DEFAULT_255_1_234
10
18.1890267
20
-0.110764
11
17.682224
21
-0.110764
0
LINE
8
DEFAULT_255_1_234
10
17.682224
20
-0.110764
11
17.682224
21
-0.5252017
0
LINE
8
DEFAULT_255_1_234
10
17.682224
20
-0.5252017
11
18.2709504
21
-0.5252017
0
LINE
8
DEFAULT_255_1_234
10
18.2709504
20
-0.5252017
11
18.2709504
21
-0.6513
0
LINE
8
DEFAULT_255_1_234
10
18.2709504
20
-0.6513
11
17.5280146
21
-0.6513
0
LINE
8
DEFAULT_255_1_234
10
17.5280146
20
-0.6513
11
17.5280146
21
0.5181211
0
LINE
8
DEFAULT_255_1_234
10
17.5280146
20
0.5181211
11
18.2629187
21
0.5181211
0
LINE
8
DEFAULT_255_1_234
10
18.2629187
20
0.5181211
11
18.2629187
21
0.3912196
0
LINE
8
DEFAULT_255_1_234
10
18.2629187
20
0.3912196
11
17.682224
21
0.3912196
0
LINE
8
DEFAULT_255_1_234
10
17.682224
20
0.3912196
11
17.682224
21
0.0153343
0
LINE
8
DEFAULT_255_1_234
10
17.682224
20
0.0153343
11
18.1890267
21
0.0153343
0
LINE
8
DEFAULT_255_1_234
10
19.2387749
20
0.1799849
11
19.0837624
21
0.1799849
0
LINE
8
DEFAULT_255_1_234
10
18.3914265
20
-0.3123606
11
18.5464391
21
-0.3123606
0
ARC
8
DEFAULT_255_1_234
10
19.1496436
20
1.0746768
40
1.252368
50
248.9199003
51
254.1439814
0
ARC
8
DEFAULT_255_1_234
10
18.9815931
20
0.6420234
40
0.788226
50
241.633709
51
249.0064503
0
ARC
8
DEFAULT_255_1_234
10
18.8287326
20
0.3619317
40
0.4691427
50
230.498225
51
241.8087113
0
ARC
8
DEFAULT_255_1_234
10
18.75029
20
0.2619906
40
0.3421437
50
227.4064532
51
229.9881192
0
ARC
8
DEFAULT_255_1_234
10
18.701542
20
0.2144088
40
0.2741476
50
200.6781896
51
228.1763934
0
ARC
8
DEFAULT_255_1_234
10
18.7087731
20
0.2129077
40
0.2804109
50
179.5061581
51
199.8694617
0
ARC
8
DEFAULT_255_1_234
10
18.7078483
20
0.220321
40
0.2795204
50
132.4834203
51
181.0242172
0
ARC
8
DEFAULT_255_1_234
10
18.7674065
20
0.1640704
40
0.3612768
50
129.2532479
51
133.4242687
0
ARC
8
DEFAULT_255_1_234
10
18.7820515
20
0.1420965
40
0.3875675
50
101.98776
51
128.8742646
0
ARC
8
DEFAULT_255_1_234
10
18.8219125
20
-0.0300259
40
0.5642249
50
89.5906553
51
102.3169264
0
ARC
8
DEFAULT_255_1_234
10
18.8289618
20
0.0018148
40
0.5323783
50
77.2360837
51
90.3248275
0
ARC
8
DEFAULT_255_1_234
10
18.8496697
20
0.09854
40
0.4334697
50
63.837784
51
77.0809408
0
ARC
8
DEFAULT_255_1_234
10
18.8774458
20
0.1502911
40
0.3747796
50
45.9864267
51
64.1607727
0
ARC
8
DEFAULT_255_1_234
10
18.903534
20
0.1800866
40
0.3352302
50
32.2747395
51
45.6547121
0
ARC
8
DEFAULT_255_1_234
10
18.910178
20
0.181988
40
0.328603
50
359.6507365
51
32.6130309
0
ARC
8
DEFAULT_255_1_234
10
18.8158876
20
0.182466
40
0.2678863
50
359.469343
51
14.9832209
0
ARC
8
DEFAULT_255_1_234
10
18.8863938
20
0.2013539
40
0.1948938
50
14.9781179
51
48.2004265
0
ARC
8
DEFAULT_255_1_234
10
18.8699582
20
0.1806983
40
0.2212521
50
48.5927837
51
74.1241538
0
ARC
8
DEFAULT_255_1_234
10
18.8366072
20
0.0706248
40
0.3362561
50
73.7888341
51
86.6652678
0
ARC
8
DEFAULT_255_1_234
10
18.8263637
20
-0.0501119
40
0.4573953
50
86.2640471
51
90.0526343
0
ARC
8
DEFAULT_255_1_234
10
18.823535
20
-0.0105808
40
0.4178709
50
89.6697524
51
99.2309573
0
ARC
8
DEFAULT_255_1_234
10
18.7992801
20
0.1338964
40
0.2713749
50
99.069534
51
113.7658566
0
ARC
8
DEFAULT_255_1_234
10
18.7718992
20
0.1984677
40
0.2012469
50
114.0401004
51
127.9850673
0
ARC
8
DEFAULT_255_1_234
10
18.7478556
20
0.228073
40
0.1631167
50
127.7287463
51
176.7105154
0
ARC
8
DEFAULT_255_1_234
10
18.8157273
20
0.2179693
40
0.2315392
50
175.1779447
51
180.0581938
0
ARC
8
DEFAULT_255_1_234
10
18.731412
20
0.2167428
40
0.1472271
50
179.6142195
51
228.1246017
0
ARC
8
DEFAULT_255_1_234
10
18.7755789
20
0.2576308
40
0.2072299
50
226.5779593
51
230.8800004
0
ARC
8
DEFAULT_255_1_234
10
18.8226867
20
0.3201636
40
0.2854818
50
231.4635071
51
241.9260842
0
ARC
8
DEFAULT_255_1_234
10
18.9424045
20
0.54048
40
0.53622
50
241.7178533
51
248.3259551
0
ARC
8
DEFAULT_255_1_234
10
19.0809417
20
0.8837064
40
0.9063478
50
248.2007737
51
252.4528373
0
ARC
8
DEFAULT_255_1_234
10
19.2013142
20
1.2558441
40
1.2974635
50
252.3391078
51
254.3469452
0
ARC
8
DEFAULT_255_1_234
10
18.4470845
20
-1.4418852
40
1.5037162
50
71.0197183
51
74.4087047
0
ARC
8
DEFAULT_255_1_234
10
18.616553
20
-0.9526889
40
0.9859993
50
66.1847285
51
71.086374
0
ARC
8
DEFAULT_255_1_234
10
18.7721842
20
-0.60228
40
0.6025855
50
59.3536294
51
66.2691831
0
ARC
8
DEFAULT_255_1_234
10
18.8610495
20
-0.4519391
40
0.4279449
50
49.1020879
51
59.3293958
0
ARC
8
DEFAULT_255_1_234
10
18.9429235
20
-0.3586166
40
0.3038015
50
32.7919921
51
49.2505539
0
ARC
8
DEFAULT_255_1_234
10
18.9750325
20
-0.3357809
40
0.264448
50
31.1181161
51
32.4005348
0
ARC
8
DEFAULT_255_1_234
10
18.9661862
20
-0.3393221
40
0.2738556
50
8.1116974
51
30.7958831
0
ARC
8
DEFAULT_255_1_234
10
18.885153
20
-0.3531247
40
0.3560327
50
359.8389159
51
8.4706516
0
ARC
8
DEFAULT_255_1_234
10
18.9477322
20
-0.3579863
40
0.2934776
50
337.4731098
51
0.7537279
0
ARC
8
DEFAULT_255_1_234
10
18.9656017
20
-0.3599613
40
0.2762607
50
307.5917067
51
336.4315538
0
ARC
8
DEFAULT_255_1_234
10
18.9195845
20
-0.3086898
40
0.3449979
50
307.6551545
51
308.4529766
0
ARC
8
DEFAULT_255_1_234
10
18.8965564
20
-0.273175
40
0.3871988
50
284.3734338
51
307.1424381
0
ARC
8
DEFAULT_255_1_234
10
18.8470394
20
-0.0910068
40
0.5759636
50
272.4382747
51
284.646547
0
ARC
8
DEFAULT_255_1_234
10
18.8343602
20
0.0889893
40
0.7563528
50
269.9708387
51
272.8178037
0
ARC
8
DEFAULT_255_1_234
10
18.8300642
20
-0.1148284
40
0.5525489
50
248.2707594
51
270.4055579
0
ARC
8
DEFAULT_255_1_234
10
18.8246383
20
-0.1338808
40
0.5328452
50
246.1383403
51
248.0542782
0
ARC
8
DEFAULT_255_1_234
10
18.7827762
20
-0.2218157
40
0.4355005
50
233.1670131
51
246.4950969
0
ARC
8
DEFAULT_255_1_234
10
18.7273667
20
-0.2966188
40
0.3424126
50
215.3403242
51
233.0843104
0
ARC
8
DEFAULT_255_1_234
10
18.7001098
20
-0.3164451
40
0.3087104
50
179.2419209
51
215.2648451
0
ARC
8
DEFAULT_255_1_234
10
18.7768692
20
-0.3150334
40
0.2304457
50
179.335461
51
199.1045811
0
ARC
8
DEFAULT_255_1_234
10
18.7436369
20
-0.3237234
40
0.1962176
50
199.8828939
51
232.7063202
0
ARC
8
DEFAULT_255_1_234
10
18.7908637
20
-0.2643212
40
0.2720938
50
232.3738199
51
255.5136649
0
ARC
8
DEFAULT_255_1_234
10
18.8249504
20
-0.1399165
40
0.4010747
50
255.2446292
51
267.5320849
0
ARC
8
DEFAULT_255_1_234
10
18.8337127
20
-0.0166298
40
0.5246356
50
267.1557994
51
270.0286766
0
ARC
8
DEFAULT_255_1_234
10
18.8364899
20
-0.061005
40
0.4802668
50
269.7000017
51
278.1660162
0
ARC
8
DEFAULT_255_1_234
10
18.8620904
20
-0.2340485
40
0.3053425
50
278.0231263
51
290.625471
0
ARC
8
DEFAULT_255_1_234
10
18.8968591
20
-0.3267975
40
0.206291
50
290.6619762
51
307.0370976
0
ARC
8
DEFAULT_255_1_234
10
18.9268981
20
-0.3636496
40
0.1587906
50
306.3943566
51
355.3030547
0
ARC
8
DEFAULT_255_1_234
10
18.8756912
20
-0.3559887
40
0.2104809
50
354.3660432
51
0.0698737
0
ARC
8
DEFAULT_255_1_234
10
18.8899257
20
-0.3537383
40
0.1962563
50
359.417946
51
16.1971788
0
ARC
8
DEFAULT_255_1_234
10
18.9354567
20
-0.3412582
40
0.149053
50
16.4723299
51
52.6262157
0
ARC
8
DEFAULT_255_1_234
10
18.8533621
20
-0.4496567
40
0.2850296
50
52.7386432
51
62.4979148
0
ARC
8
DEFAULT_255_1_234
10
18.7148698
20
-0.7102717
40
0.5801521
50
62.2515216
51
68.1220564
0
ARC
8
DEFAULT_255_1_234
10
18.5428609
20
-1.1330128
40
1.0365451
50
68.0062803
51
71.8053402
0
ARC
8
DEFAULT_255_1_234
10
18.3632981
20
-1.6715242
40
1.6042013
50
71.7183119
51
73.9258742
0
LINE
8
DEFAULT_255_1_234
10
20.2146311
20
0.1799849
11
20.0596186
21
0.1799849
0
LINE
8
DEFAULT_255_1_234
10
19.3672827
20
-0.3123606
11
19.5222953
21
-0.3123606
0
ARC
8
DEFAULT_255_1_234
10
20.1254998
20
1.0746768
40
1.252368
50
248.9199003
51
254.1439814
0
ARC
8
DEFAULT_255_1_234
10
19.9574493
20
0.6420234
40
0.788226
50
241.633709
51
249.0064503
0
ARC
8
DEFAULT_255_1_234
10
19.8045888
20
0.3619317
40
0.4691427
50
230.498225
51
241.8087113
0
ARC
8
DEFAULT_255_1_234
10
19.7261462
20
0.2619906
40
0.3421437
50
227.4064532
51
229.9881192
0
ARC
8
DEFAULT_255_1_234
10
19.6773982
20
0.2144088
40
0.2741476
50
200.6781896
51
228.1763934
0
ARC
8
DEFAULT_255_1_234
10
19.6846293
20
0.2129077
40
0.2804109
50
179.5061581
51
199.8694617
0
ARC
8
DEFAULT_255_1_234
10
19.6837045
20
0.220321
40
0.2795204
50
132.4834203
51
181.0242172
0
ARC
8
DEFAULT_255_1_234
10
19.7432627
20
0.1640704
40
0.3612768
50
129.2532479
51
133.4242687
0
ARC
8
DEFAULT_255_1_234
10
19.7579077
20
0.1420965
40
0.3875675
50
101.98776
51
128.8742646
0
ARC
8
DEFAULT_255_1_234
10
19.7977687
20
-0.0300259
40
0.5642249
50
89.5906553
51
102.3169264
0
ARC
8
DEFAULT_255_1_234
10
19.804818
20
0.0018148
40
0.5323783
50
77.2360837
51
90.3248275
0
ARC
8
DEFAULT_255_1_234
10
19.8255259
20
0.09854
40
0.4334697
50
63.837784
51
77.0809408
0
ARC
8
DEFAULT_255_1_234
10
19.853302
20
0.1502911
40
0.3747796
50
45.9864267
51
64.1607727
0
ARC
8
DEFAULT_255_1_234
10
19.8793902
20
0.1800866
40
0.3352302
50
32.2747395
51
45.6547121
0
ARC
8
DEFAULT_255_1_234
10
19.8860342
20
0.181988
40
0.328603
50
359.6507365
51
32.6130309
0
ARC
8
DEFAULT_255_1_234
10
19.7917438
20
0.182466
40
0.2678863
50
359.469343
51
14.9832209
0
ARC
8
DEFAULT_255_1_234
10
19.86225
20
0.2013539
40
0.1948938
50
14.9781179
51
48.2004265
0
ARC
8
DEFAULT_255_1_234
10
19.8458144
20
0.1806983
40
0.2212521
50
48.5927837
51
74.1241538
0
ARC
8
DEFAULT_255_1_234
10
19.8124634
20
0.0706248
40
0.3362561
50
73.7888341
51
86.6652678
0
ARC
8
DEFAULT_255_1_234
10
19.8022199
20
-0.0501119
40
0.4573953
50
86.2640471
51
90.0526343
0
ARC
8
DEFAULT_255_1_234
10
19.7993912
20
-0.0105808
40
0.4178709
50
89.6697524
51
99.2309573
0
ARC
8
DEFAULT_255_1_234
10
19.7751363
20
0.1338964
40
0.2713749
50
99.069534
51
113.7658566
0
ARC
8
DEFAULT_255_1_234
10
19.7477554
20
0.1984677
40
0.2012469
50
114.0401004
51
127.9850673
0
ARC
8
DEFAULT_255_1_234
10
19.7237118
20
0.228073
40
0.1631167
50
127.7287463
51
176.7105154
0
ARC
8
DEFAULT_255_1_234
10
19.7915835
20
0.2179693
40
0.2315392
50
175.1779447
51
180.0581938
0
ARC
8
DEFAULT_255_1_234
10
19.7072682
20
0.2167428
40
0.1472271
50
179.6142195
51
228.1246017
0
ARC
8
DEFAULT_255_1_234
10
19.7514351
20
0.2576308
40
0.2072299
50
226.5779593
51
230.8800004
0
ARC
8
DEFAULT_255_1_234
10
19.7985429
20
0.3201636
40
0.2854818
50
231.4635071
51
241.9260842
0
ARC
8
DEFAULT_255_1_234
10
19.9182607
20
0.54048
40
0.53622
50
241.7178533
51
248.3259551
0
ARC
8
DEFAULT_255_1_234
10
20.0567979
20
0.8837064
40
0.9063478
50
248.2007737
51
252.4528373
0
ARC
8
DEFAULT_255_1_234
10
20.1771704
20
1.2558441
40
1.2974635
50
252.3391078
51
254.3469452
0
ARC
8
DEFAULT_255_1_234
10
19.4229407
20
-1.4418852
40
1.5037162
50
71.0197183
51
74.4087047
0
ARC
8
DEFAULT_255_1_234
10
19.5924092
20
-0.9526889
40
0.9859993
50
66.1847285
51
71.086374
0
ARC
8
DEFAULT_255_1_234
10
19.7480404
20
-0.60228
40
0.6025855
50
59.3536294
51
66.2691831
0
ARC
8
DEFAULT_255_1_234
10
19.8369057
20
-0.4519391
40
0.4279449
50
49.1020879
51
59.3293958
0
ARC
8
DEFAULT_255_1_234
10
19.9187797
20
-0.3586166
40
0.3038015
50
32.7919921
51
49.2505539
0
ARC
8
DEFAULT_255_1_234
10
19.9508887
20
-0.3357809
40
0.264448
50
31.1181161
51
32.4005348
0
ARC
8
DEFAULT_255_1_234
10
19.9420424
20
-0.3393221
40
0.2738556
50
8.1116974
51
30.7958831
0
ARC
8
DEFAULT_255_1_234
10
19.8610092
20
-0.3531247
40
0.3560327
50
359.8389159
51
8.4706516
0
ARC
8
DEFAULT_255_1_234
10
19.9235884
20
-0.3579863
40
0.2934776
50
337.4731098
51
0.7537279
0
ARC
8
DEFAULT_255_1_234
10
19.9414579
20
-0.3599613
40
0.2762607
50
307.5917067
51
336.4315538
0
ARC
8
DEFAULT_255_1_234
10
19.8954407
20
-0.3086898
40
0.3449979
50
307.6551545
51
308.4529766
0
ARC
8
DEFAULT_255_1_234
10
19.8724126
20
-0.273175
40
0.3871988
50
284.3734338
51
307.1424381
0
ARC
8
DEFAULT_255_1_234
10
19.8228956
20
-0.0910068
40
0.5759636
50
272.4382747
51
284.646547
0
ARC
8
DEFAULT_255_1_234
10
19.8102164
20
0.0889893
40
0.7563528
50
269.9708387
51
272.8178037
0
ARC
8
DEFAULT_255_1_234
10
19.8059204
20
-0.1148284
40
0.5525489
50
248.2707594
51
270.4055579
0
ARC
8
DEFAULT_255_1_234
10
19.8004945
20
-0.1338808
40
0.5328452
50
246.1383403
51
248.0542782
0
ARC
8
DEFAULT_255_1_234
10
19.7586324
20
-0.2218157
40
0.4355005
50
233.1670131
51
246.4950969
0
ARC
8
DEFAULT_255_1_234
10
19.7032229
20
-0.2966188
40
0.3424126
50
215.3403242
51
233.0843104
0
ARC
8
DEFAULT_255_1_234
10
19.675966
20
-0.3164451
40
0.3087104
50
179.2419209
51
215.2648451
0
ARC
8
DEFAULT_255_1_234
10
19.7527254
20
-0.3150334
40
0.2304457
50
179.335461
51
199.1045811
0
ARC
8
DEFAULT_255_1_234
10
19.7194931
20
-0.3237234
40
0.1962176
50
199.8828939
51
232.7063202
0
ARC
8
DEFAULT_255_1_234
10
19.7667199
20
-0.2643212
40
0.2720938
50
232.3738199
51
255.5136649
0
ARC
8
DEFAULT_255_1_234
10
19.8008066
20
-0.1399165
40
0.4010747
50
255.2446292
51
267.5320849
0
ARC
8
DEFAULT_255_1_234
10
19.8095689
20
-0.0166298
40
0.5246356
50
267.1557994
51
270.0286766
0
ARC
8
DEFAULT_255_1_234
10
19.8123461
20
-0.061005
40
0.4802668
50
269.7000017
51
278.1660162
0
ARC
8
DEFAULT_255_1_234
10
19.8379466
20
-0.2340485
40
0.3053425
50
278.0231263
51
290.625471
0
ARC
8
DEFAULT_255_1_234
10
19.8727153
20
-0.3267975
40
0.206291
50
290.6619762
51
307.0370976
0
ARC
8
DEFAULT_255_1_234
10
19.9027543
20
-0.3636496
40
0.1587906
50
306.3943566
51
355.3030547
0
ARC
8
DEFAULT_255_1_234
10
19.8515474
20
-0.3559887
40
0.2104809
50
354.3660432
51
0.0698737
0
ARC
8
DEFAULT_255_1_234
10
19.8657819
20
-0.3537383
40
0.1962563
50
359.417946
51
16.1971788
0
ARC
8
DEFAULT_255_1_234
10
19.911313
20
-0.3412582
40
0.149053
50
16.4723299
51
52.6262157
0
ARC
8
DEFAULT_255_1_234
10
19.8292183
20
-0.4496567
40
0.2850296
50
52.7386432
51
62.4979148
0
ARC
8
DEFAULT_255_1_234
10
19.690726
20
-0.7102717
40
0.5801521
50
62.2515216
51
68.1220564
0
ARC
8
DEFAULT_255_1_234
10
19.5187171
20
-1.1330128
40
1.0365451
50
68.0062803
51
71.8053402
0
ARC
8
DEFAULT_255_1_234
10
19.3391543
20
-1.6715242
40
1.6042013
50
71.7183119
51
73.9258742
0
LINE
8
DEFAULT_255_2_778
10
10.5738396
20
173.1910073
11
9.3932396
21
173.1910073
0
LINE
8
DEFAULT_255_2_778
10
9.3932396
20
173.1910073
11
9.9837396
21
174.2136073
0
LINE
8
DEFAULT_255_2_778
10
9.9837396
20
174.2136073
11
11.1643396
21
174.2136073
0
LINE
8
DEFAULT_255_2_778
10
11.1643396
20
174.2136073
11
10.5738396
21
173.1910073
0
LINE
8
DEFAULT_255_2_778
10
10.5738396
20
173.1910073
11
10.5738396
21
173.1910073
0
LINE
8
DEFAULT_255_2_778
10
11.7546396
20
173.1910073
11
12.9354396
21
173.1910073
0
LINE
8
DEFAULT_255_2_778
10
12.9354396
20
173.1910073
11
12.3451396
21
174.2136073
0
LINE
8
DEFAULT_255_2_778
10
12.3451396
20
174.2136073
11
11.1643396
21
174.2136073
0
LINE
8
DEFAULT_255_2_778
10
11.1643396
20
174.2136073
11
11.7546396
21
173.1910073
0
LINE
8
DEFAULT_255_2_778
10
11.7546396
20
173.1910073
11
11.7546396
21
173.1910073
0
LINE
8
DEFAULT_255_2_778
10
11.7545823
20
175.2362146
11
11.1642823
21
176.2588146
0
LINE
8
DEFAULT_255_2_778
10
11.1642823
20
176.2588146
11
10.5737823
21
175.2362146
0
LINE
8
DEFAULT_255_2_778
10
10.5737823
20
175.2362146
11
11.1642823
21
174.2136146
0
LINE
8
DEFAULT_255_2_778
10
11.1642823
20
174.2136146
11
11.7545823
21
175.2362146
0
LINE
8
DEFAULT_255_2_778
10
11.7545823
20
175.2362146
11
11.7545823
21
175.2362146
0
ARC
8
DEFAULT_255_2_778
10
16.5183731
20
174.8824426
40
0.5650491
50
268.7543645
51
289.1417717
0
ARC
8
DEFAULT_255_2_778
10
16.606208
20
174.6272531
40
0.2951681
50
289.2776255
51
3.7648372
0
ARC
8
DEFAULT_255_2_778
10
16.3901618
20
174.6538085
40
0.5106278
50
359.1949826
51
0.0020862
0
ARC
8
DEFAULT_255_2_778
10
16.547449
20
174.6397832
40
0.1541914
50
280.2616216
51
358.5297855
0
ARC
8
DEFAULT_255_2_778
10
16.5080075
20
174.752355
40
0.2726346
50
269.5969454
51
284.2065679
0
ARC
8
DEFAULT_255_2_778
10
16.4981967
20
174.7367316
40
0.2571258
50
246.5290903
51
271.7590909
0
ARC
8
DEFAULT_255_2_778
10
16.4527148
20
174.6287009
40
0.1399248
50
188.1071678
51
245.9934684
0
ARC
8
DEFAULT_255_2_778
10
16.4829007
20
174.6356617
40
0.1708111
50
179.9445314
51
188.990814
0
ARC
8
DEFAULT_255_2_778
10
16.4924507
20
174.6424849
40
0.3763411
50
178.2272621
51
205.8283807
0
ARC
8
DEFAULT_255_2_778
10
16.4132476
20
174.6247833
40
0.2979176
50
209.4028057
51
263.0375728
0
ARC
8
DEFAULT_255_2_778
10
16.5005111
20
174.9994629
40
0.6816586
50
259.5722942
51
270.4689037
0
ARC
8
DEFAULT_255_2_778
10
17.411252
20
175.0556767
40
0.1217154
50
2.0482843
51
87.015299
0
ARC
8
DEFAULT_255_2_778
10
17.4060617
20
175.0600852
40
0.126828
50
353.0600847
51
359.9737428
0
ARC
8
DEFAULT_255_2_778
10
17.4110442
20
175.0569555
40
0.1215295
50
270.5739762
51
354.2410513
0
ARC
8
DEFAULT_255_2_778
10
17.4065059
20
175.0931297
40
0.1578027
50
269.9941256
51
272.0902921
0
ARC
8
DEFAULT_255_2_778
10
17.414084
20
174.6422295
40
0.1400686
50
358.2807293
51
95.6106825
0
ARC
8
DEFAULT_255_2_778
10
17.4103233
20
174.6383963
40
0.1437669
50
266.9962473
51
359.8528392
0
ARC
8
DEFAULT_255_2_778
10
17.4725249
20
174.6786988
40
0.3335288
50
268.2414507
51
302.0223478
0
ARC
8
DEFAULT_255_2_778
10
17.5091261
20
174.603383
40
0.2504234
50
304.0600275
51
2.0468005
0
ARC
8
DEFAULT_255_2_778
10
17.4832788
20
174.6100521
40
0.2761203
50
0.4720601
51
65.8403529
0
ARC
8
DEFAULT_255_2_778
10
17.5191655
20
174.6748061
40
0.2024466
50
67.606893
51
75.8693222
0
ARC
8
DEFAULT_255_2_778
10
17.5042026
20
175.082422
40
0.2208874
50
286.9473417
51
358.0074963
0
ARC
8
DEFAULT_255_2_778
10
17.4710866
20
175.0912045
40
0.2544031
50
356.2897886
51
0.0050857
0
ARC
8
DEFAULT_255_2_778
10
17.497262
20
175.0962946
40
0.2282839
50
358.7280137
51
81.8073164
0
ARC
8
DEFAULT_255_2_778
10
17.4216369
20
174.8448283
40
0.4895182
50
77.2355086
51
90.5088275
0
ARC
8
DEFAULT_255_2_778
10
17.5842742
20
173.8803263
40
0.130243
50
89.9974494
51
92.6776592
0
ARC
8
DEFAULT_255_2_778
10
17.5843316
20
173.8808872
40
0.129682
50
45.0880141
51
90.022782
0
ARC
8
DEFAULT_255_2_778
10
17.5844118
20
173.880919
40
0.1296029
50
0.001866
51
45.1031959
0
ARC
8
DEFAULT_255_2_778
10
17.5845123
20
173.8809202
40
0.1295026
50
357.4803735
51
0.0013544
0
ARC
8
DEFAULT_255_2_778
10
17.5901979
20
173.8770512
40
0.1237052
50
339.8672523
51
359.1550732
0
ARC
8
DEFAULT_255_2_778
10
17.5794513
20
173.8742079
40
0.1329691
50
272.0853006
51
342.6124646
0
ARC
8
DEFAULT_255_2_778
10
17.6596145
20
173.9124661
40
0.2575135
50
286.787355
51
290.6121696
0
ARC
8
DEFAULT_255_2_778
10
17.6689461
20
173.8981533
40
0.24086
50
289.7330405
51
342.3216972
0
ARC
8
DEFAULT_255_2_778
10
17.641261
20
173.9029954
40
0.268735
50
343.130572
51
0.3905272
0
ARC
8
DEFAULT_255_2_778
10
17.6578783
20
173.9203767
40
0.2525904
50
356.4706028
51
80.1788963
0
ARC
8
DEFAULT_255_2_778
10
17.5921649
20
173.6934163
40
0.4881286
50
77.1212301
51
90.4900821
0
ARC
8
DEFAULT_255_2_778
10
17.5166337
20
173.395736
40
0.1865405
50
50.1507009
51
92.9634648
0
ARC
8
DEFAULT_255_2_778
10
17.5301354
20
173.4240678
40
0.1563319
50
12.621233
51
47.2950617
0
ARC
8
DEFAULT_255_2_778
10
16.8485884
20
173.2911726
40
0.8506657
50
2.8173892
51
11.3253986
0
ARC
8
DEFAULT_255_2_778
10
-29.2295733
20
169.7948175
40
47.060992
50
4.3048394
51
4.3117143
0
ARC
8
DEFAULT_255_2_778
10
18.5500859
20
173.367284
40
0.8523717
50
182.6850102
51
191.2954256
0
ARC
8
DEFAULT_255_2_778
10
17.9656837
20
173.2609399
40
0.2586603
50
193.5512904
51
195.3825538
0
ARC
8
DEFAULT_255_2_778
10
19.3415679
20
173.5185916
40
1.4608773
50
182.5958701
51
192.9049706
0
ARC
8
DEFAULT_255_2_778
10
17.6207606
20
173.4469215
40
0.261487
50
1.2064311
51
30.4123358
0
ARC
8
DEFAULT_255_2_778
10
17.6663626
20
173.461976
40
0.2147766
50
33.1081154
51
71.7312197
0
LINE
8
DEFAULT_255_2_778
10
13.4657897
20
173.6265271
11
13.9385897
21
173.6265271
0
LINE
8
DEFAULT_255_2_778
10
13.9385897
20
173.6265271
11
13.9385897
21
173.7979271
0
LINE
8
DEFAULT_255_2_778
10
13.9385897
20
173.7979271
11
13.4657897
21
173.7979271
0
LINE
8
DEFAULT_255_2_778
10
13.4657897
20
173.7979271
11
13.4657897
21
174.0088271
0
LINE
8
DEFAULT_255_2_778
10
13.4657897
20
174.0088271
11
13.9977897
21
174.0088271
0
LINE
8
DEFAULT_255_2_778
10
13.9977897
20
174.0088271
11
13.9977897
21
174.1802271
0
LINE
8
DEFAULT_255_2_778
10
13.9977897
20
174.1802271
11
13.4657897
21
174.1802271
0
LINE
8
DEFAULT_255_2_778
10
13.4657897
20
174.1802271
11
13.2651897
21
174.1802271
0
LINE
8
DEFAULT_255_2_778
10
13.2651897
20
174.1802271
11
13.2651897
21
174.0088271
0
LINE
8
DEFAULT_255_2_778
10
13.2651897
20
174.0088271
11
13.2651897
21
173.3624271
0
LINE
8
DEFAULT_255_2_778
10
13.2651897
20
173.3624271
11
13.2651897
21
173.1909271
0
LINE
8
DEFAULT_255_2_778
10
13.2651897
20
173.1909271
11
13.4657897
21
173.1909271
0
LINE
8
DEFAULT_255_2_778
10
13.4657897
20
173.1909271
11
14.0118897
21
173.1909271
0
LINE
8
DEFAULT_255_2_778
10
14.0118897
20
173.1909271
11
14.0118897
21
173.3624271
0
LINE
8
DEFAULT_255_2_778
10
14.0118897
20
173.3624271
11
13.4657897
21
173.3624271
0
LINE
8
DEFAULT_255_2_778
10
13.4657897
20
173.3624271
11
13.4657897
21
173.6262271
0
LINE
8
DEFAULT_255_2_778
10
13.4657897
20
173.6262271
11
13.4657897
21
173.6265271
0
LINE
8
DEFAULT_255_2_778
10
13.4519897
20
175.0806271
11
13.6620897
21
174.3453271
0
LINE
8
DEFAULT_255_2_778
10
13.6620897
20
174.3453271
11
13.6704897
21
174.3453271
0
LINE
8
DEFAULT_255_2_778
10
13.6704897
20
174.3453271
11
13.8464897
21
174.3453271
0
LINE
8
DEFAULT_255_2_778
10
13.8464897
20
174.3453271
11
13.8546897
21
174.3453271
0
LINE
8
DEFAULT_255_2_778
10
13.8546897
20
174.3453271
11
14.0647897
21
175.0806271
0
LINE
8
DEFAULT_255_2_778
10
14.0647897
20
175.0806271
11
14.0647897
21
174.3453271
0
LINE
8
DEFAULT_255_2_778
10
14.0647897
20
174.3453271
11
14.2515897
21
174.3453271
0
LINE
8
DEFAULT_255_2_778
10
14.2515897
20
174.3453271
11
14.2515897
21
175.3346271
0
LINE
8
DEFAULT_255_2_778
10
14.2515897
20
175.3346271
11
14.1496897
21
175.3346271
0
LINE
8
DEFAULT_255_2_778
10
14.1496897
20
175.3346271
11
14.0615897
21
175.3346271
0
LINE
8
DEFAULT_255_2_778
10
14.0615897
20
175.3346271
11
13.9655897
21
175.3346271
0
LINE
8
DEFAULT_255_2_778
10
13.9655897
20
175.3346271
11
13.7583897
21
174.6403271
0
LINE
8
DEFAULT_255_2_778
10
13.7583897
20
174.6403271
11
13.5511897
21
175.3346271
0
LINE
8
DEFAULT_255_2_778
10
13.5511897
20
175.3346271
11
13.4551897
21
175.3346271
0
LINE
8
DEFAULT_255_2_778
10
13.4551897
20
175.3346271
11
13.3669897
21
175.3346271
0
LINE
8
DEFAULT_255_2_778
10
13.3669897
20
175.3346271
11
13.2651897
21
175.3346271
0
LINE
8
DEFAULT_255_2_778
10
13.2651897
20
175.3346271
11
13.2651897
21
174.3453271
0
LINE
8
DEFAULT_255_2_778
10
13.2651897
20
174.3453271
11
13.4519897
21
174.3453271
0
LINE
8
DEFAULT_255_2_778
10
13.4519897
20
174.3453271
11
13.4519897
21
175.0806271
0
LINE
8
DEFAULT_255_2_778
10
13.4519897
20
175.0806271
11
13.4519897
21
175.0806271
0
LINE
8
DEFAULT_255_2_778
10
18.0056897
20
175.3346271
11
17.8064897
21
175.3346271
0
LINE
8
DEFAULT_255_2_778
10
17.8064897
20
175.3346271
11
17.8064897
21
174.3453271
0
LINE
8
DEFAULT_255_2_778
10
17.8064897
20
174.3453271
11
18.0056897
21
174.3453271
0
LINE
8
DEFAULT_255_2_778
10
18.0056897
20
174.3453271
11
18.0056897
21
175.3346271
0
LINE
8
DEFAULT_255_2_778
10
18.0056897
20
175.3346271
11
18.0056897
21
175.3346271
0
LINE
8
DEFAULT_255_2_778
10
18.1681897
20
174.1805271
11
17.9689897
21
174.1805271
0
LINE
8
DEFAULT_255_2_778
10
17.9689897
20
174.1805271
11
17.9689897
21
173.1912271
0
LINE
8
DEFAULT_255_2_778
10
17.9689897
20
173.1912271
11
18.1681897
21
173.1912271
0
LINE
8
DEFAULT_255_2_778
10
18.1681897
20
173.1912271
11
18.1681897
21
174.1805271
0
LINE
8
DEFAULT_255_2_778
10
18.1681897
20
174.1805271
11
18.1681897
21
174.1805271
0
LINE
8
DEFAULT_255_2_778
10
19.9765897
20
175.3346271
11
19.7773897
21
175.3346271
0
LINE
8
DEFAULT_255_2_778
10
19.7773897
20
175.3346271
11
19.7773897
21
174.3453271
0
LINE
8
DEFAULT_255_2_778
10
19.7773897
20
174.3453271
11
19.9765897
21
174.3453271
0
LINE
8
DEFAULT_255_2_778
10
19.9765897
20
174.3453271
11
19.9765897
21
175.3346271
0
LINE
8
DEFAULT_255_2_778
10
19.9765897
20
175.3346271
11
19.9765897
21
175.3346271
0
LINE
8
DEFAULT_255_2_778
10
14.5298897
20
175.3346271
11
14.3306897
21
175.3346271
0
LINE
8
DEFAULT_255_2_778
10
14.3306897
20
175.3346271
11
14.3306897
21
174.3453271
0
LINE
8
DEFAULT_255_2_778
10
14.3306897
20
174.3453271
11
14.5298897
21
174.3453271
0
LINE
8
DEFAULT_255_2_778
10
14.5298897
20
174.3453271
11
14.5298897
21
175.3346271
0
LINE
8
DEFAULT_255_2_778
10
14.5298897
20
175.3346271
11
14.5298897
21
175.3346271
0
LINE
8
DEFAULT_255_2_778
10
19.4989897
20
174.9486271
11
19.1029897
21
174.9486271
0
LINE
8
DEFAULT_255_2_778
10
19.1029897
20
174.9486271
11
19.1029897
21
175.3343271
0
LINE
8
DEFAULT_255_2_778
10
19.1029897
20
175.3343271
11
18.9068897
21
175.3343271
0
LINE
8
DEFAULT_255_2_778
10
18.9068897
20
175.3343271
11
18.9068897
21
174.3453271
0
LINE
8
DEFAULT_255_2_778
10
18.9068897
20
174.3453271
11
19.1029897
21
174.3453271
0
LINE
8
DEFAULT_255_2_778
10
19.1029897
20
174.3453271
11
19.1029897
21
174.7771271
0
LINE
8
DEFAULT_255_2_778
10
19.1029897
20
174.7771271
11
19.4989897
21
174.7771271
0
LINE
8
DEFAULT_255_2_778
10
19.4989897
20
174.7771271
11
19.4989897
21
174.3453271
0
LINE
8
DEFAULT_255_2_778
10
19.4989897
20
174.3453271
11
19.6950897
21
174.3453271
0
LINE
8
DEFAULT_255_2_778
10
19.6950897
20
174.3453271
11
19.6950897
21
175.3343271
0
LINE
8
DEFAULT_255_2_778
10
19.6950897
20
175.3343271
11
19.4989897
21
175.3343271
0
LINE
8
DEFAULT_255_2_778
10
19.4989897
20
175.3343271
11
19.4989897
21
174.9486271
0
LINE
8
DEFAULT_255_2_778
10
19.4989897
20
174.9486271
11
19.4989897
21
174.9486271
0
LINE
8
DEFAULT_255_2_778
10
14.8246897
20
174.3453271
11
15.0280897
21
174.3453271
0
LINE
8
DEFAULT_255_2_778
10
15.0280897
20
174.3453271
11
15.0280897
21
175.1632271
0
LINE
8
DEFAULT_255_2_778
10
15.0280897
20
175.1632271
11
15.2696897
21
175.1632271
0
LINE
8
DEFAULT_255_2_778
10
15.2696897
20
175.1632271
11
15.2696897
21
175.3346271
0
LINE
8
DEFAULT_255_2_778
10
15.2696897
20
175.3346271
11
15.0280897
21
175.3346271
0
LINE
8
DEFAULT_255_2_778
10
15.0280897
20
175.3346271
11
14.8246897
21
175.3346271
0
LINE
8
DEFAULT_255_2_778
10
14.8246897
20
175.3346271
11
14.5830897
21
175.3346271
0
LINE
8
DEFAULT_255_2_778
10
14.5830897
20
175.3346271
11
14.5830897
21
175.1632271
0
LINE
8
DEFAULT_255_2_778
10
14.5830897
20
175.1632271
11
14.8246897
21
175.1632271
0
LINE
8
DEFAULT_255_2_778
10
14.8246897
20
175.1632271
11
14.8246897
21
174.3453271
0
LINE
8
DEFAULT_255_2_778
10
14.8246897
20
174.3453271
11
14.8246897
21
174.3453271
0
LINE
8
DEFAULT_255_2_778
10
16.6422897
20
173.1912271
11
16.8454897
21
173.1912271
0
LINE
8
DEFAULT_255_2_778
10
16.8454897
20
173.1912271
11
16.8454897
21
174.0090271
0
LINE
8
DEFAULT_255_2_778
10
16.8454897
20
174.0090271
11
17.0873897
21
174.0090271
0
LINE
8
DEFAULT_255_2_778
10
17.0873897
20
174.0090271
11
17.0873897
21
174.1808271
0
LINE
8
DEFAULT_255_2_778
10
17.0873897
20
174.1808271
11
16.8454897
21
174.1808271
0
LINE
8
DEFAULT_255_2_778
10
16.8454897
20
174.1808271
11
16.6422897
21
174.1808271
0
LINE
8
DEFAULT_255_2_778
10
16.6422897
20
174.1808271
11
16.4004897
21
174.1808271
0
LINE
8
DEFAULT_255_2_778
10
16.4004897
20
174.1808271
11
16.4004897
21
174.0090271
0
LINE
8
DEFAULT_255_2_778
10
16.4004897
20
174.0090271
11
16.6422897
21
174.0090271
0
LINE
8
DEFAULT_255_2_778
10
16.6422897
20
174.0090271
11
16.6422897
21
173.1912271
0
LINE
8
DEFAULT_255_2_778
10
16.6422897
20
173.1912271
11
16.6422897
21
173.1912271
0
LINE
8
DEFAULT_255_2_778
10
16.9007897
20
174.6538271
11
16.9007897
21
175.3343271
0
LINE
8
DEFAULT_255_2_778
10
16.9007897
20
175.3343271
11
16.7015897
21
175.3343271
0
LINE
8
DEFAULT_255_2_778
10
16.7015897
20
175.3343271
11
16.7015897
21
174.6358271
0
LINE
8
DEFAULT_255_2_778
10
16.3120897
20
174.6358271
11
16.3120897
21
175.3343271
0
LINE
8
DEFAULT_255_2_778
10
16.3120897
20
175.3343271
11
16.1162897
21
175.3343271
0
LINE
8
DEFAULT_255_2_778
10
16.1162897
20
175.3343271
11
16.1162897
21
174.6541271
0
LINE
8
DEFAULT_255_2_778
10
15.0000897
20
173.6265271
11
15.4730897
21
173.6265271
0
LINE
8
DEFAULT_255_2_778
10
15.4730897
20
173.6265271
11
15.4730897
21
173.7979271
0
LINE
8
DEFAULT_255_2_778
10
15.4730897
20
173.7979271
11
15.0000897
21
173.7979271
0
LINE
8
DEFAULT_255_2_778
10
15.0000897
20
173.7979271
11
15.0000897
21
174.0088271
0
LINE
8
DEFAULT_255_2_778
10
15.0000897
20
174.0088271
11
15.5320897
21
174.0088271
0
LINE
8
DEFAULT_255_2_778
10
15.5320897
20
174.0088271
11
15.5320897
21
174.1802271
0
LINE
8
DEFAULT_255_2_778
10
15.5320897
20
174.1802271
11
15.0000897
21
174.1802271
0
LINE
8
DEFAULT_255_2_778
10
15.0000897
20
174.1802271
11
14.7997897
21
174.1802271
0
LINE
8
DEFAULT_255_2_778
10
14.7997897
20
174.1802271
11
14.7997897
21
174.0088271
0
LINE
8
DEFAULT_255_2_778
10
14.7997897
20
174.0088271
11
14.7997897
21
173.3624271
0
LINE
8
DEFAULT_255_2_778
10
14.7997897
20
173.3624271
11
14.7997897
21
173.1909271
0
LINE
8
DEFAULT_255_2_778
10
14.7997897
20
173.1909271
11
15.0000897
21
173.1909271
0
LINE
8
DEFAULT_255_2_778
10
15.0000897
20
173.1909271
11
15.5461897
21
173.1909271
0
LINE
8
DEFAULT_255_2_778
10
15.5461897
20
173.1909271
11
15.5461897
21
173.3624271
0
LINE
8
DEFAULT_255_2_778
10
15.5461897
20
173.3624271
11
15.0000897
21
173.3624271
0
LINE
8
DEFAULT_255_2_778
10
15.0000897
20
173.3624271
11
15.0000897
21
173.6262271
0
LINE
8
DEFAULT_255_2_778
10
15.0000897
20
173.6262271
11
15.0000897
21
173.6265271
0
LINE
8
DEFAULT_255_2_778
10
17.4064897
20
174.9353271
11
17.1690897
21
174.9353271
0
LINE
8
DEFAULT_255_2_778
10
17.1690897
20
174.9353271
11
17.1690897
21
175.1769271
0
LINE
8
DEFAULT_255_2_778
10
17.1690897
20
175.1769271
11
17.4175897
21
175.1769271
0
LINE
8
DEFAULT_255_2_778
10
17.4175897
20
175.1769271
11
17.4175897
21
175.1772271
0
LINE
8
DEFAULT_255_2_778
10
17.4027897
20
174.4945271
11
17.1690897
21
174.4945271
0
LINE
8
DEFAULT_255_2_778
10
17.1690897
20
174.4945271
11
17.1690897
21
174.7816271
0
LINE
8
DEFAULT_255_2_778
10
17.1690897
20
174.7816271
11
17.4003897
21
174.7816271
0
LINE
8
DEFAULT_255_2_778
10
17.1767897
20
174.3453271
11
17.4622897
21
174.3453271
0
LINE
8
DEFAULT_255_2_778
10
17.4172897
20
175.3343271
11
17.1770897
21
175.3343271
0
LINE
8
DEFAULT_255_2_778
10
17.1770897
20
175.3343271
11
16.9722897
21
175.3343271
0
LINE
8
DEFAULT_255_2_778
10
16.9722897
20
175.3343271
11
16.9711897
21
175.3343271
0
LINE
8
DEFAULT_255_2_778
10
16.9711897
20
175.3343271
11
16.9711897
21
174.3453271
0
LINE
8
DEFAULT_255_2_778
10
16.9711897
20
174.3453271
11
16.9722897
21
174.3453271
0
LINE
8
DEFAULT_255_2_778
10
16.9722897
20
174.3453271
11
17.1770897
21
174.3453271
0
LINE
8
DEFAULT_255_2_778
10
17.1770897
20
174.3453271
11
17.1767897
21
174.3453271
0
LINE
8
DEFAULT_255_2_778
10
17.3368897
20
173.7410271
11
17.3368897
21
174.0104271
0
LINE
8
DEFAULT_255_2_778
10
17.3368897
20
174.0104271
11
17.5781897
21
174.0104271
0
LINE
8
DEFAULT_255_2_778
10
17.5842897
20
173.7413271
11
17.3370897
21
173.7413271
0
LINE
8
DEFAULT_255_2_778
10
17.3370897
20
173.7413271
11
17.3368897
21
173.7410271
0
LINE
8
DEFAULT_255_2_778
10
17.5879897
20
174.1815271
11
17.3368897
21
174.1815271
0
LINE
8
DEFAULT_255_2_778
10
17.3368897
20
174.1815271
11
17.1383897
21
174.1815271
0
LINE
8
DEFAULT_255_2_778
10
17.1383897
20
174.1815271
11
17.1362897
21
174.1815271
0
LINE
8
DEFAULT_255_2_778
10
17.1362897
20
174.1815271
11
17.1362897
21
173.1923271
0
LINE
8
DEFAULT_255_2_778
10
17.1362897
20
173.1923271
11
17.3368897
21
173.1923271
0
LINE
8
DEFAULT_255_2_778
10
17.3368897
20
173.1923271
11
17.3368897
21
173.5820271
0
LINE
8
DEFAULT_255_2_778
10
17.3368897
20
173.5820271
11
17.5069897
21
173.5820271
0
LINE
8
DEFAULT_255_2_778
10
17.7162897
20
173.1923271
11
17.9175897
21
173.1923271
0
LINE
8
DEFAULT_255_2_778
10
14.2763897
20
174.1805271
11
14.0760897
21
174.1805271
0
LINE
8
DEFAULT_255_2_778
10
14.0760897
20
174.1805271
11
14.0760897
21
173.3627271
0
LINE
8
DEFAULT_255_2_778
10
14.0760897
20
173.3627271
11
14.0760897
21
173.1912271
0
LINE
8
DEFAULT_255_2_778
10
14.0760897
20
173.1912271
11
14.2763897
21
173.1912271
0
LINE
8
DEFAULT_255_2_778
10
14.2763897
20
173.1912271
11
14.7428897
21
173.1912271
0
LINE
8
DEFAULT_255_2_778
10
14.7428897
20
173.1912271
11
14.7428897
21
173.3627271
0
LINE
8
DEFAULT_255_2_778
10
14.7428897
20
173.3627271
11
14.2763897
21
173.3627271
0
LINE
8
DEFAULT_255_2_778
10
14.2763897
20
173.3627271
11
14.2763897
21
174.1805271
0
LINE
8
DEFAULT_255_2_778
10
14.2763897
20
174.1805271
11
14.2763897
21
174.1805271
0
ARC
8
DEFAULT_255_2_778
10
15.4584271
20
173.8063969
40
0.9681224
50
72.4822103
51
81.3184214
0
ARC
8
DEFAULT_255_2_778
10
15.7160297
20
174.5830918
40
0.1503783
50
28.8883513
51
77.0092434
0
ARC
8
DEFAULT_255_2_778
10
15.7432379
20
174.6120196
40
0.113238
50
358.9917455
51
22.7117017
0
ARC
8
DEFAULT_255_2_778
10
15.7394861
20
174.6161918
40
0.1171346
50
289.2958104
51
356.9831562
0
ARC
8
DEFAULT_255_2_778
10
15.6668261
20
174.7736882
40
0.2902651
50
268.4665462
51
292.5613311
0
ARC
8
DEFAULT_255_2_778
10
15.6496856
20
174.7146179
40
0.2312808
50
236.4956947
51
272.3225735
0
ARC
8
DEFAULT_255_2_778
10
15.6106646
20
174.6463839
40
0.1529307
50
178.9722202
51
234.5742435
0
ARC
8
DEFAULT_255_2_778
10
15.5656113
20
174.6368079
40
0.3002058
50
177.6481608
51
245.5596397
0
ARC
8
DEFAULT_255_2_778
10
15.6409971
20
174.8090561
40
0.488217
50
245.8690375
51
267.169035
0
ARC
8
DEFAULT_255_2_778
10
15.6671503
20
175.0600916
40
0.7403648
50
266.1069867
51
270.0547972
0
ARC
8
DEFAULT_255_2_778
10
15.6772894
20
174.8913135
40
0.5716642
50
269.0547216
51
287.7147747
0
ARC
8
DEFAULT_255_2_778
10
15.7598889
20
174.6456091
40
0.3125017
50
286.995984
51
325.1221533
0
ARC
8
DEFAULT_255_2_778
10
15.7678294
20
174.629061
40
0.2966627
50
326.8673922
51
0.8625726
0
ARC
8
DEFAULT_255_2_778
10
15.7898286
20
174.6376409
40
0.2746606
50
359.1417932
51
76.9739731
0
ARC
8
DEFAULT_255_2_778
10
15.6705461
20
174.3567719
40
0.577616
50
71.7185727
51
79.1315439
0
ARC
8
DEFAULT_255_2_778
10
14.2492968
20
167.003167
40
8.0673056
50
79.0662148
51
79.6216572
0
ARC
8
DEFAULT_255_2_778
10
16.4356585
20
178.8808581
40
4.0099443
50
259.1227669
51
259.4665204
0
ARC
8
DEFAULT_255_2_778
10
15.7836732
20
175.5858142
40
0.6513291
50
249.9945768
51
260.7485895
0
ARC
8
DEFAULT_255_2_778
10
15.5880401
20
175.0747999
40
0.1046098
50
178.6705173
51
254.9333545
0
ARC
8
DEFAULT_255_2_778
10
15.6049957
20
175.0713688
40
0.1216785
50
93.288632
51
177.2403935
0
ARC
8
DEFAULT_255_2_778
10
15.6585677
20
174.8843752
40
0.3143588
50
89.6189463
51
101.1057977
0
ARC
8
DEFAULT_255_2_778
10
15.6722733
20
174.996216
40
0.2028439
50
53.5634072
51
93.2825843
0
ARC
8
DEFAULT_255_2_778
10
15.7018505
20
175.0544144
40
0.1388739
50
357.1985816
51
49.1152298
0
ARC
8
DEFAULT_255_2_778
10
15.7254907
20
175.0476274
40
0.3087677
50
359.9999335
51
2.3703878
0
ARC
8
DEFAULT_255_2_778
10
15.7353555
20
175.0491337
40
0.298851
50
2.1600756
51
60.1092229
0
ARC
8
DEFAULT_255_2_778
10
15.6766212
20
174.9425133
40
0.4205645
50
60.4106856
51
86.1444419
0
ARC
8
DEFAULT_255_2_778
10
15.6536151
20
174.7658228
40
0.5985046
50
85.0843314
51
90.0628677
0
ARC
8
DEFAULT_255_2_778
10
15.6529718
20
174.8892466
40
0.4750804
50
90.001616
51
92.2300394
0
ARC
8
DEFAULT_255_2_778
10
15.6281193
20
174.994387
40
0.3696351
50
89.0131319
51
149.6364996
0
ARC
8
DEFAULT_255_2_778
10
15.5505461
20
175.0666055
40
0.2671974
50
154.5962367
51
180.4885883
0
ARC
8
DEFAULT_255_2_778
10
15.5651524
20
175.065084
40
0.281795
50
180.1539064
51
255.1120325
0
ARC
8
DEFAULT_255_2_778
10
15.7094242
20
175.387932
40
0.6333958
50
249.9962237
51
260.4976723
0
ARC
8
DEFAULT_255_2_778
10
18.2470963
20
173.8075351
40
0.967002
50
72.4685023
51
81.3064395
0
ARC
8
DEFAULT_255_2_778
10
18.5045397
20
174.583127
40
0.1503535
50
28.8782248
51
76.9904304
0
ARC
8
DEFAULT_255_2_778
10
18.5317197
20
174.6120189
40
0.1132561
50
358.9922779
51
22.7082666
0
ARC
8
DEFAULT_255_2_778
10
18.5280402
20
174.6161088
40
0.1170763
50
289.2761556
51
357.0223042
0
ARC
8
DEFAULT_255_2_778
10
18.4553612
20
174.7739836
40
0.2905613
50
268.4611814
51
292.5289055
0
ARC
8
DEFAULT_255_2_778
10
18.4381801
20
174.7155175
40
0.2321799
50
236.6698634
51
272.3149402
0
ARC
8
DEFAULT_255_2_778
10
18.39878
20
174.6463762
40
0.1528464
50
178.9687581
51
234.7686008
0
ARC
8
DEFAULT_255_2_778
10
18.3540113
20
174.6368079
40
0.3002058
50
177.6481608
51
245.5596397
0
ARC
8
DEFAULT_255_2_778
10
18.4293971
20
174.8090561
40
0.488217
50
245.8690375
51
267.169035
0
ARC
8
DEFAULT_255_2_778
10
18.4555503
20
175.0600916
40
0.7403648
50
266.1069867
51
270.0547972
0
ARC
8
DEFAULT_255_2_778
10
18.4656836
20
174.8919451
40
0.5722957
50
269.0563423
51
287.7048702
0
ARC
8
DEFAULT_255_2_778
10
18.548344
20
174.6459682
40
0.312856
50
286.9832601
51
325.0871916
0
ARC
8
DEFAULT_255_2_778
10
18.5567708
20
174.6290856
40
0.2964208
50
326.8311942
51
0.8585267
0
ARC
8
DEFAULT_255_2_778
10
18.5785756
20
174.6377282
40
0.2746149
50
359.1234265
51
76.9343785
0
ARC
8
DEFAULT_255_2_778
10
18.4596421
20
174.3578965
40
0.5764934
50
71.6999697
51
79.1198353
0
ARC
8
DEFAULT_255_2_778
10
17.0173657
20
166.8811392
40
8.1910887
50
79.0843627
51
79.6321368
0
ARC
8
DEFAULT_255_2_778
10
19.2200266
20
178.8606177
40
3.9892176
50
259.1314419
51
259.4772924
0
ARC
8
DEFAULT_255_2_778
10
18.5723251
20
175.5852131
40
0.6507003
50
249.9919323
51
260.7592458
0
ARC
8
DEFAULT_255_2_778
10
18.376901
20
175.0747546
40
0.1045718
50
178.6452075
51
254.9151907
0
ARC
8
DEFAULT_255_2_778
10
18.3939581
20
175.0713016
40
0.121744
50
93.2745253
51
177.21023
0
ARC
8
DEFAULT_255_2_778
10
18.4475726
20
174.8842052
40
0.3145287
50
89.6200387
51
101.1027534
0
ARC
8
DEFAULT_255_2_778
10
18.4613489
20
174.9975453
40
0.2015212
50
53.1490002
51
93.3256649
0
ARC
8
DEFAULT_255_2_778
10
18.4902753
20
175.0543519
40
0.1391457
50
357.2298288
51
48.6469881
0
ARC
8
DEFAULT_255_2_778
10
18.5137232
20
175.0476226
40
0.3092351
50
0.0008291
51
2.3676985
0
ARC
8
DEFAULT_255_2_778
10
18.5240744
20
175.0491868
40
0.2988304
50
2.1500394
51
60.0956838
0
ARC
8
DEFAULT_255_2_778
10
18.4654399
20
174.9426909
40
0.4203859
50
60.40452
51
86.1455285
0
ARC
8
DEFAULT_255_2_778
10
18.4424157
20
174.7658686
40
0.5984588
50
85.0841409
51
90.0629301
0
ARC
8
DEFAULT_255_2_778
10
18.4417778
20
174.8888392
40
0.4754878
50
90.0023409
51
92.3231329
0
ARC
8
DEFAULT_255_2_778
10
18.4167555
20
174.9941604
40
0.3698206
50
89.1093915
51
149.6400816
0
ARC
8
DEFAULT_255_2_778
10
18.338761
20
175.0665917
40
0.2669122
50
154.6001925
51
180.486137
0
ARC
8
DEFAULT_255_2_778
10
18.3537607
20
175.0652152
40
0.2819037
50
180.1805176
51
255.132702
0
ARC
8
DEFAULT_255_2_778
10
18.4982264
20
175.3884784
40
0.6339516
50
250.0026216
51
260.4967164
0
ARC
8
DEFAULT_255_2_778
10
16.008917
20
173.5956283
40
0.2519711
50
190.2626864
51
267.3480013
0
ARC
8
DEFAULT_255_2_778
10
16.2443543
20
173.6869548
40
0.5022041
50
179.6723028
51
195.7380858
0
ARC
8
DEFAULT_255_2_778
10
16.1790511
20
173.7024671
40
0.4370755
50
148.7005643
51
181.6572045
0
ARC
8
DEFAULT_255_2_778
10
15.9957576
20
173.8125723
40
0.2232598
50
89.6148479
51
148.4074796
0
ARC
8
DEFAULT_255_2_778
10
16.0060936
20
173.834649
40
0.201372
50
41.9769772
51
92.5146611
0
ARC
8
DEFAULT_255_2_778
10
15.9522078
20
173.7969523
40
0.2667646
50
15.1848537
51
40.2549591
0
ARC
8
DEFAULT_255_2_778
10
16.028123
20
173.8072326
40
0.3935735
50
8.7091682
51
82.0550801
0
ARC
8
DEFAULT_255_2_778
10
15.9931241
20
173.6607871
40
0.543642
50
80.5350289
51
90.1544743
0
ARC
8
DEFAULT_255_2_778
10
15.9818804
20
173.7494192
40
0.4551129
50
88.7689246
51
119.6437418
0
ARC
8
DEFAULT_255_2_778
10
16.0077717
20
173.7531647
40
0.4653013
50
122.644121
51
173.3997839
0
ARC
8
DEFAULT_255_2_778
10
16.2711934
20
173.6888568
40
0.7351371
50
170.7798304
51
180.1348114
0
ARC
8
DEFAULT_255_2_778
10
16.1377257
20
173.6734615
40
0.6018225
50
178.6988735
51
210.5289552
0
ARC
8
DEFAULT_255_2_778
10
15.970325
20
173.5826953
40
0.4115783
50
211.4828222
51
265.8686737
0
ARC
8
DEFAULT_255_2_778
10
15.9909864
20
173.7074011
40
0.5375742
50
264.6297133
51
270.0503073
0
ARC
8
DEFAULT_255_2_778
10
16.0020995
20
173.6392749
40
0.4695684
50
268.7014824
51
300.1403067
0
ARC
8
DEFAULT_255_2_778
10
16.0350333
20
173.5608852
40
0.385394
50
301.7580058
51
353.77968
0
ARC
8
DEFAULT_255_2_778
10
16.0012256
20
173.5552219
40
0.2113379
50
268.8430278
51
350.1661143
0
ARC
8
DEFAULT_255_2_778
10
18.6896799
20
173.5955824
40
0.2519281
50
190.2538303
51
267.3332171
0
ARC
8
DEFAULT_255_2_778
10
18.9252249
20
173.6869581
40
0.5022746
50
179.672724
51
195.7362088
0
ARC
8
DEFAULT_255_2_778
10
18.8600432
20
173.7024917
40
0.4372682
50
148.7196987
51
181.6596982
0
ARC
8
DEFAULT_255_2_778
10
18.676443
20
173.8126906
40
0.2231415
50
89.6108896
51
148.4244661
0
ARC
8
DEFAULT_255_2_778
10
18.686876
20
173.834667
40
0.2013576
50
42.5913083
51
92.5383066
0
ARC
8
DEFAULT_255_2_778
10
18.6345542
20
173.7982973
40
0.2646316
50
15.0085433
51
40.7215892
0
ARC
8
DEFAULT_255_2_778
10
18.708623
20
173.8072326
40
0.3935735
50
8.7091682
51
82.0550801
0
ARC
8
DEFAULT_255_2_778
10
18.6736241
20
173.6607871
40
0.543642
50
80.5350289
51
90.1544743
0
ARC
8
DEFAULT_255_2_778
10
18.6623804
20
173.7494192
40
0.4551129
50
88.7689246
51
119.6437418
0
ARC
8
DEFAULT_255_2_778
10
18.6882717
20
173.7531647
40
0.4653013
50
122.644121
51
173.3997839
0
ARC
8
DEFAULT_255_2_778
10
18.9516934
20
173.6888568
40
0.7351371
50
170.7798304
51
180.1348114
0
ARC
8
DEFAULT_255_2_778
10
18.8177822
20
173.67352
40
0.6013778
50
178.7034849
51
210.5604279
0
ARC
8
DEFAULT_255_2_778
10
18.6511312
20
173.5830377
40
0.4119265
50
211.5090145
51
265.8592607
0
ARC
8
DEFAULT_255_2_778
10
18.6716883
20
173.7071521
40
0.5373252
50
264.628472
51
270.0501277
0
ARC
8
DEFAULT_255_2_778
10
18.682837
20
173.6390685
40
0.4693629
50
268.6963312
51
300.2191972
0
ARC
8
DEFAULT_255_2_778
10
18.7155684
20
173.5611124
40
0.3856821
50
301.8465101
51
353.7503927
0
ARC
8
DEFAULT_255_2_778
10
18.6820648
20
173.5550604
40
0.2111733
50
268.8857714
51
350.2028431
0
LINE
8
DEFAULT_255_2_778
10
15.4577584
20
174.6491271
11
15.2656584
21
174.6491271
0
LINE
8
DEFAULT_255_2_778
10
15.8405584
20
175.0476271
11
16.0342584
21
175.0476271
0
LINE
8
DEFAULT_255_2_778
10
18.2459584
20
174.6491271
11
18.0540584
21
174.6491271
0
LINE
8
DEFAULT_255_2_778
10
18.6292584
20
175.0476271
11
18.8229584
21
175.0476271
0
LINE
8
DEFAULT_255_2_778
10
16.2096584
20
173.8668271
11
16.4171584
21
173.8668271
0
LINE
8
DEFAULT_255_2_778
10
16.4181584
20
173.5191271
11
16.2094584
21
173.5191271
0
LINE
8
DEFAULT_255_2_778
10
18.8901584
20
173.8668271
11
19.0976584
21
173.8668271
0
LINE
8
DEFAULT_255_2_778
10
19.0989584
20
173.5191271
11
18.8901584
21
173.5191271
0
LINE
8
DEFAULT_255_1_234
10
12.017785
20
171.3089391
11
12.017785
21
171.1828408
0
LINE
8
DEFAULT_255_1_234
10
12.017785
20
171.1828408
11
11.5270458
21
171.1828408
0
LINE
8
DEFAULT_255_1_234
10
11.5270458
20
171.1828408
11
11.5270458
21
170.6664
0
LINE
8
DEFAULT_255_1_234
10
11.5270458
20
170.6664
11
11.3728364
21
170.6664
0
LINE
8
DEFAULT_255_1_234
10
11.3728364
20
170.6664
11
11.3728364
21
171.8358211
0
LINE
8
DEFAULT_255_1_234
10
11.3728364
20
171.8358211
11
12.0972992
21
171.8358211
0
LINE
8
DEFAULT_255_1_234
10
12.0972992
20
171.8358211
11
12.0972992
21
171.7089196
0
LINE
8
DEFAULT_255_1_234
10
12.0972992
20
171.7089196
11
11.5270458
21
171.7089196
0
LINE
8
DEFAULT_255_1_234
10
11.5270458
20
171.7089196
11
11.5270458
21
171.3089391
0
LINE
8
DEFAULT_255_1_234
10
11.5270458
20
171.3089391
11
12.017785
21
171.3089391
0
LINE
8
DEFAULT_255_1_234
10
13.4651042
20
171.4976849
11
13.3100917
21
171.4976849
0
LINE
8
DEFAULT_255_1_234
10
12.6177558
20
171.0053394
11
12.7727684
21
171.0053394
0
ARC
8
DEFAULT_255_1_234
10
13.3759729
20
172.3923768
40
1.252368
50
248.9199003
51
254.1439814
0
ARC
8
DEFAULT_255_1_234
10
13.2079224
20
171.9597234
40
0.788226
50
241.633709
51
249.0064503
0
ARC
8
DEFAULT_255_1_234
10
13.0550619
20
171.6796317
40
0.4691427
50
230.498225
51
241.8087113
0
ARC
8
DEFAULT_255_1_234
10
12.9766193
20
171.5796906
40
0.3421437
50
227.4064532
51
229.9881192
0
ARC
8
DEFAULT_255_1_234
10
12.9278713
20
171.5321088
40
0.2741476
50
200.6781896
51
228.1763934
0
ARC
8
DEFAULT_255_1_234
10
12.9351024
20
171.5306077
40
0.2804109
50
179.5061581
51
199.8694617
0
ARC
8
DEFAULT_255_1_234
10
12.9341776
20
171.538021
40
0.2795204
50
132.4834203
51
181.0242172
0
ARC
8
DEFAULT_255_1_234
10
12.9937358
20
171.4817704
40
0.3612768
50
129.2532479
51
133.4242687
0
ARC
8
DEFAULT_255_1_234
10
13.0083808
20
171.4597965
40
0.3875675
50
101.98776
51
128.8742646
0
ARC
8
DEFAULT_255_1_234
10
13.0482418
20
171.2876741
40
0.5642249
50
89.5906553
51
102.3169264
0
ARC
8
DEFAULT_255_1_234
10
13.0552911
20
171.3195148
40
0.5323783
50
77.2360837
51
90.3248275
0
ARC
8
DEFAULT_255_1_234
10
13.075999
20
171.41624
40
0.4334697
50
63.837784
51
77.0809408
0
ARC
8
DEFAULT_255_1_234
10
13.1037751
20
171.4679911
40
0.3747796
50
45.9864267
51
64.1607727
0
ARC
8
DEFAULT_255_1_234
10
13.1298633
20
171.4977866
40
0.3352302
50
32.2747395
51
45.6547121
0
ARC
8
DEFAULT_255_1_234
10
13.1365073
20
171.499688
40
0.328603
50
359.6507365
51
32.6130309
0
ARC
8
DEFAULT_255_1_234
10
13.0422169
20
171.500166
40
0.2678863
50
359.469343
51
14.9832209
0
ARC
8
DEFAULT_255_1_234
10
13.1127231
20
171.5190539
40
0.1948938
50
14.9781179
51
48.2004265
0
ARC
8
DEFAULT_255_1_234
10
13.0962875
20
171.4983983
40
0.2212521
50
48.5927837
51
74.1241538
0
ARC
8
DEFAULT_255_1_234
10
13.0629365
20
171.3883248
40
0.3362561
50
73.7888341
51
86.6652678
0
ARC
8
DEFAULT_255_1_234
10
13.052693
20
171.2675881
40
0.4573953
50
86.2640471
51
90.0526343
0
ARC
8
DEFAULT_255_1_234
10
13.0498643
20
171.3071192
40
0.4178709
50
89.6697524
51
99.2309573
0
ARC
8
DEFAULT_255_1_234
10
13.0256094
20
171.4515964
40
0.2713749
50
99.069534
51
113.7658566
0
ARC
8
DEFAULT_255_1_234
10
12.9982285
20
171.5161677
40
0.2012469
50
114.0401004
51
127.9850673
0
ARC
8
DEFAULT_255_1_234
10
12.9741849
20
171.545773
40
0.1631167
50
127.7287463
51
176.7105154
0
ARC
8
DEFAULT_255_1_234
10
13.0420566
20
171.5356693
40
0.2315392
50
175.1779447
51
180.0581938
0
ARC
8
DEFAULT_255_1_234
10
12.9577413
20
171.5344428
40
0.1472271
50
179.6142195
51
228.1246017
0
ARC
8
DEFAULT_255_1_234
10
13.0019082
20
171.5753308
40
0.2072299
50
226.5779593
51
230.8800004
0
ARC
8
DEFAULT_255_1_234
10
13.049016
20
171.6378636
40
0.2854818
50
231.4635071
51
241.9260842
0
ARC
8
DEFAULT_255_1_234
10
13.1687338
20
171.85818
40
0.53622
50
241.7178533
51
248.3259551
0
ARC
8
DEFAULT_255_1_234
10
13.307271
20
172.2014064
40
0.9063478
50
248.2007737
51
252.4528373
0
ARC
8
DEFAULT_255_1_234
10
13.4276435
20
172.5735441
40
1.2974635
50
252.3391078
51
254.3469452
0
ARC
8
DEFAULT_255_1_234
10
12.6734138
20
169.8758148
40
1.5037162
50
71.0197183
51
74.4087047
0
ARC
8
DEFAULT_255_1_234
10
12.8428823
20
170.3650111
40
0.9859993
50
66.1847285
51
71.086374
0
ARC
8
DEFAULT_255_1_234
10
12.9985135
20
170.71542
40
0.6025855
50
59.3536294
51
66.2691831
0
ARC
8
DEFAULT_255_1_234
10
13.0873788
20
170.8657609
40
0.4279449
50
49.1020879
51
59.3293958
0
ARC
8
DEFAULT_255_1_234
10
13.1692528
20
170.9590834
40
0.3038015
50
32.7919921
51
49.2505539
0
ARC
8
DEFAULT_255_1_234
10
13.2013618
20
170.9819191
40
0.264448
50
31.1181161
51
32.4005348
0
ARC
8
DEFAULT_255_1_234
10
13.1925155
20
170.9783779
40
0.2738556
50
8.1116974
51
30.7958831
0
ARC
8
DEFAULT_255_1_234
10
13.1114823
20
170.9645753
40
0.3560327
50
359.8389159
51
8.4706516
0
ARC
8
DEFAULT_255_1_234
10
13.1740615
20
170.9597137
40
0.2934776
50
337.4731098
51
0.7537279
0
ARC
8
DEFAULT_255_1_234
10
13.191931
20
170.9577387
40
0.2762607
50
307.5917067
51
336.4315538
0
ARC
8
DEFAULT_255_1_234
10
13.1459138
20
171.0090102
40
0.3449979
50
307.6551545
51
308.4529766
0
ARC
8
DEFAULT_255_1_234
10
13.1228857
20
171.044525
40
0.3871988
50
284.3734338
51
307.1424381
0
ARC
8
DEFAULT_255_1_234
10
13.0733687
20
171.2266932
40
0.5759636
50
272.4382747
51
284.646547
0
ARC
8
DEFAULT_255_1_234
10
13.0606895
20
171.4066893
40
0.7563528
50
269.9708387
51
272.8178037
0
ARC
8
DEFAULT_255_1_234
10
13.0563935
20
171.2028716
40
0.5525489
50
248.2707594
51
270.4055579
0
ARC
8
DEFAULT_255_1_234
10
13.0509676
20
171.1838192
40
0.5328452
50
246.1383403
51
248.0542782
0
ARC
8
DEFAULT_255_1_234
10
13.0091055
20
171.0958843
40
0.4355005
50
233.1670131
51
246.4950969
0
ARC
8
DEFAULT_255_1_234
10
12.953696
20
171.0210812
40
0.3424126
50
215.3403242
51
233.0843104
0
ARC
8
DEFAULT_255_1_234
10
12.9264391
20
171.0012549
40
0.3087104
50
179.2419209
51
215.2648451
0
ARC
8
DEFAULT_255_1_234
10
13.0031985
20
171.0026666
40
0.2304457
50
179.335461
51
199.1045811
0
ARC
8
DEFAULT_255_1_234
10
12.9699662
20
170.9939766
40
0.1962176
50
199.8828939
51
232.7063202
0
ARC
8
DEFAULT_255_1_234
10
13.017193
20
171.0533788
40
0.2720938
50
232.3738199
51
255.5136649
0
ARC
8
DEFAULT_255_1_234
10
13.0512797
20
171.1777835
40
0.4010747
50
255.2446292
51
267.5320849
0
ARC
8
DEFAULT_255_1_234
10
13.060042
20
171.3010702
40
0.5246356
50
267.1557994
51
270.0286766
0
ARC
8
DEFAULT_255_1_234
10
13.0628192
20
171.256695
40
0.4802668
50
269.7000017
51
278.1660162
0
ARC
8
DEFAULT_255_1_234
10
13.0884197
20
171.0836515
40
0.3053425
50
278.0231263
51
290.625471
0
ARC
8
DEFAULT_255_1_234
10
13.1231884
20
170.9909025
40
0.206291
50
290.6619762
51
307.0370976
0
ARC
8
DEFAULT_255_1_234
10
13.1532274
20
170.9540504
40
0.1587906
50
306.3943566
51
355.3030547
0
ARC
8
DEFAULT_255_1_234
10
13.1020205
20
170.9617113
40
0.2104809
50
354.3660432
51
0.0698737
0
ARC
8
DEFAULT_255_1_234
10
13.116255
20
170.9639617
40
0.1962563
50
359.417946
51
16.1971788
0
ARC
8
DEFAULT_255_1_234
10
13.161786
20
170.9764418
40
0.149053
50
16.4723299
51
52.6262157
0
ARC
8
DEFAULT_255_1_234
10
13.0796914
20
170.8680433
40
0.2850296
50
52.7386432
51
62.4979148
0
ARC
8
DEFAULT_255_1_234
10
12.9411991
20
170.6074283
40
0.5801521
50
62.2515216
51
68.1220564
0
ARC
8
DEFAULT_255_1_234
10
12.7691902
20
170.1846872
40
1.0365451
50
68.0062803
51
71.8053402
0
ARC
8
DEFAULT_255_1_234
10
12.5896274
20
169.6461758
40
1.6042013
50
71.7183119
51
73.9258742
0
LINE
8
DEFAULT_255_1_234
10
13.6040533
20
171.0768218
11
13.6040533
21
171.1041297
0
LINE
8
DEFAULT_255_1_234
10
14.3413668
20
171.1201932
11
14.3413668
21
171.0583488
0
LINE
8
DEFAULT_255_1_234
10
14.3413668
20
171.0583488
11
13.7526404
21
171.0583488
0
LINE
8
DEFAULT_255_1_234
10
14.2393638
20
170.8888792
11
14.3301224
21
170.8181999
0
LINE
8
DEFAULT_255_1_234
10
13.7574595
20
171.1804313
11
14.1927797
21
171.1804313
0
LINE
8
DEFAULT_255_1_234
10
14.1927797
20
171.1804313
11
14.1927797
21
171.1916757
0
ARC
8
DEFAULT_255_1_234
10
13.9979898
20
171.0879332
40
0.4376191
50
252.3266134
51
270.5810217
0
ARC
8
DEFAULT_255_1_234
10
13.9774987
20
171.0138644
40
0.3608374
50
223.3000567
51
251.8561855
0
ARC
8
DEFAULT_255_1_234
10
13.9986348
20
171.0343937
40
0.3902993
50
190.9374509
51
223.3654032
0
ARC
8
DEFAULT_255_1_234
10
14.171132
20
171.0733885
40
0.5670891
50
179.6531105
51
191.4989439
0
ARC
8
DEFAULT_255_1_234
10
14.1833332
20
171.1073417
40
0.5792888
50
167.4007466
51
180.3176909
0
ARC
8
DEFAULT_255_1_234
10
14.0781394
20
171.1295885
40
0.471777
50
154.1835823
51
167.250763
0
ARC
8
DEFAULT_255_1_234
10
14.0149861
20
171.1628417
40
0.4004528
50
134.3149965
51
154.5315275
0
ARC
8
DEFAULT_255_1_234
10
13.9932356
20
171.1819228
40
0.371612
50
122.8616532
51
133.9707695
0
ARC
8
DEFAULT_255_1_234
10
13.982893
20
171.2041703
40
0.3473289
50
89.8249009
51
123.4199222
0
ARC
8
DEFAULT_255_1_234
10
13.9878971
20
171.1394967
40
0.4120197
50
74.7876118
51
90.5482747
0
ARC
8
DEFAULT_255_1_234
10
14.0172715
20
171.248003
40
0.2996077
50
39.8178249
51
74.7633718
0
ARC
8
DEFAULT_255_1_234
10
13.9660035
20
171.2080351
40
0.3645855
50
16.8990863
51
39.4829761
0
ARC
8
DEFAULT_255_1_234
10
13.7765331
20
171.1473526
40
0.5635218
50
4.9636328
51
17.2026414
0
ARC
8
DEFAULT_255_1_234
10
13.5347401
20
171.121834
40
0.8066286
50
359.8834553
51
5.2834307
0
ARC
8
DEFAULT_255_1_234
10
14.1384926
20
171.0649803
40
0.3859091
50
180.9846213
51
194.9401313
0
ARC
8
DEFAULT_255_1_234
10
14.0335204
20
171.0362849
40
0.2770883
50
194.80314
51
222.0412631
0
ARC
8
DEFAULT_255_1_234
10
14.0031085
20
171.0061116
40
0.2343055
50
221.5417084
51
268.8614402
0
ARC
8
DEFAULT_255_1_234
10
14.010408
20
171.0737686
40
0.3021528
50
267.732405
51
270.0097136
0
ARC
8
DEFAULT_255_1_234
10
14.012189
20
171.0939105
40
0.3222994
50
269.6924892
51
280.4117579
0
ARC
8
DEFAULT_255_1_234
10
14.0298297
20
171.0020193
40
0.2287344
50
280.2255091
51
298.6338936
0
ARC
8
DEFAULT_255_1_234
10
14.0415089
20
170.9776223
40
0.2017294
50
299.0430333
51
300.4643464
0
ARC
8
DEFAULT_255_1_234
10
13.9735094
20
171.0910038
40
0.3339357
50
300.6577328
51
322.0378878
0
ARC
8
DEFAULT_255_1_234
10
13.9384633
20
171.1214021
40
0.3802736
50
321.6750233
51
322.3046845
0
ARC
8
DEFAULT_255_1_234
10
14.0315595
20
171.004737
40
0.3520454
50
276.9728461
51
328.0035423
0
ARC
8
DEFAULT_255_1_234
10
14.0038648
20
171.1527841
40
0.5024498
50
269.8361028
51
278.0581756
0
ARC
8
DEFAULT_255_1_234
10
13.9811385
20
171.2272757
40
0.202159
50
89.2018686
51
117.2851756
0
ARC
8
DEFAULT_255_1_234
10
13.9864554
20
171.2230752
40
0.2083484
50
118.0551165
51
137.4540413
0
ARC
8
DEFAULT_255_1_234
10
14.0239294
20
171.1890304
40
0.2589774
50
137.5109581
51
158.8516286
0
ARC
8
DEFAULT_255_1_234
10
14.137713
20
171.1431074
40
0.38167
50
158.5845963
51
170.1721436
0
ARC
8
DEFAULT_255_1_234
10
14.2546519
20
171.1198823
40
0.5008657
50
169.8376422
51
173.0566086
0
ARC
8
DEFAULT_255_1_234
10
13.7849593
20
171.1709509
40
0.4083467
50
2.9091802
51
12.8847116
0
ARC
8
DEFAULT_255_1_234
10
13.9220269
20
171.2032101
40
0.2675383
50
12.6957781
51
28.6404489
0
ARC
8
DEFAULT_255_1_234
10
13.976194
20
171.2312458
40
0.2065654
50
29.0169854
51
41.1487595
0
ARC
8
DEFAULT_255_1_234
10
13.9964725
20
171.2489003
40
0.1796786
50
41.1646065
51
85.0013516
0
ARC
8
DEFAULT_255_1_234
10
13.9843822
20
171.1754431
40
0.2539726
50
83.7280015
51
90.0964893
0
LINE
8
DEFAULT_255_1_234
10
14.933306
20
171.5402531
11
14.933306
21
171.4021072
0
LINE
8
DEFAULT_255_1_234
10
14.6618332
20
171.2832375
11
14.6618332
21
170.6664
0
LINE
8
DEFAULT_255_1_234
10
14.6618332
20
170.6664
11
14.513246
21
170.6664
0
LINE
8
DEFAULT_255_1_234
10
14.513246
20
170.6664
11
14.513246
21
171.5354341
0
LINE
8
DEFAULT_255_1_234
10
14.513246
20
171.5354341
11
14.6578173
21
171.5354341
0
LINE
8
DEFAULT_255_1_234
10
14.6578173
20
171.5354341
11
14.6602269
21
171.4350374
0
ARC
8
DEFAULT_255_1_234
10
14.8666465
20
170.9961342
40
0.4114092
50
80.6754243
51
86.8932892
0
ARC
8
DEFAULT_255_1_234
10
14.8605999
20
170.89937
40
0.5083596
50
86.8038578
51
90.0431435
0
ARC
8
DEFAULT_255_1_234
10
14.856898
20
171.1450866
40
0.2626638
50
89.2759698
51
106.6213787
0
ARC
8
DEFAULT_255_1_234
10
14.8364544
20
171.219383
40
0.1856317
50
107.1346045
51
157.6458115
0
ARC
8
DEFAULT_255_1_234
10
14.9056146
20
171.1810311
40
0.2643398
50
155.6586782
51
157.2539184
0
ARC
8
DEFAULT_255_1_234
10
14.8851348
20
171.2979157
40
0.2634121
50
127.8165941
51
148.6302098
0
ARC
8
DEFAULT_255_1_234
10
14.8597817
20
171.3239218
40
0.2273596
50
91.3329982
51
126.7875809
0
ARC
8
DEFAULT_255_1_234
10
14.8673757
20
171.2524195
40
0.299078
50
89.986594
51
92.4688449
0
ARC
8
DEFAULT_255_1_234
10
14.8682152
20
171.2799078
40
0.2715908
50
85.3589899
51
90.1623399
0
ARC
8
DEFAULT_255_1_234
10
14.8766668
20
171.3803164
40
0.1708278
50
78.401942
51
85.4594656
0
ARC
8
DEFAULT_255_1_234
10
14.8911552
20
171.4494236
40
0.1002194
50
67.7858312
51
78.5728455
0
ARC
8
DEFAULT_255_1_234
10
14.9019404
20
171.4773887
40
0.0702548
50
63.4835954
51
67.3062642
0
LINE
8
DEFAULT_255_1_234
10
15.2312834
20
171.5354341
11
15.2312834
21
170.6664
0
LINE
8
DEFAULT_255_1_234
10
15.2312834
20
170.6664
11
15.0826963
21
170.6664
0
LINE
8
DEFAULT_255_1_234
10
15.0826963
20
170.6664
11
15.0826963
21
171.5354341
0
LINE
8
DEFAULT_255_1_234
10
15.0826963
20
171.5354341
11
15.2312834
21
171.5354341
0
ARC
8
DEFAULT_255_1_234
10
15.1685112
20
171.7668889
40
0.097867
50
161.415052
51
180.5526306
0
ARC
8
DEFAULT_255_1_234
10
15.156089
20
171.7703077
40
0.0850062
50
138.1827368
51
160.9307106
0
ARC
8
DEFAULT_255_1_234
10
15.1450835
20
171.7798588
40
0.0704362
50
104.6368899
51
138.0039868
0
ARC
8
DEFAULT_255_1_234
10
15.155799
20
171.7431963
40
0.1086221
50
92.0600725
51
105.2189128
0
ARC
8
DEFAULT_255_1_234
10
15.1581338
20
171.7089117
40
0.1429728
50
89.9756393
51
92.5012496
0
ARC
8
DEFAULT_255_1_234
10
15.1591358
20
171.7314731
40
0.1204151
50
78.0235316
51
90.4478182
0
ARC
8
DEFAULT_255_1_234
10
15.168345
20
171.7728295
40
0.0780493
50
55.051506
51
78.3369085
0
ARC
8
DEFAULT_255_1_234
10
15.1733724
20
171.7812711
40
0.0682538
50
42.0501187
51
54.4513741
0
ARC
8
DEFAULT_255_1_234
10
15.1598591
20
171.7688798
40
0.0865878
50
1.7497075
51
42.1496013
0
ARC
8
DEFAULT_255_1_234
10
15.1343924
20
171.7659738
40
0.1121515
50
359.9852656
51
2.8364544
0
ARC
8
DEFAULT_255_1_234
10
15.1509916
20
171.7650229
40
0.0955566
50
342.1070653
51
0.552888
0
ARC
8
DEFAULT_255_1_234
10
15.1652614
20
171.7610904
40
0.0807713
50
316.7107116
51
341.6516965
0
ARC
8
DEFAULT_255_1_234
10
15.1719651
20
171.7550823
40
0.0717724
50
285.4397031
51
316.5324284
0
ARC
8
DEFAULT_255_1_234
10
15.1609568
20
171.7916554
40
0.1099597
50
272.3547054
51
285.8953117
0
ARC
8
DEFAULT_255_1_234
10
15.1582726
20
171.8282048
40
0.1465932
50
269.9695369
51
272.8160237
0
ARC
8
DEFAULT_255_1_234
10
15.1572907
20
171.8062863
40
0.1246779
50
258.8431134
51
270.4153935
0
ARC
8
DEFAULT_255_1_234
10
15.1482949
20
171.7627414
40
0.0802162
50
238.5431189
51
259.1288175
0
ARC
8
DEFAULT_255_1_234
10
15.1414834
20
171.7503856
40
0.0661247
50
222.5062634
51
237.9906969
0
ARC
8
DEFAULT_255_1_234
10
15.1542422
20
171.7619889
40
0.0833707
50
184.1069131
51
222.460413
0
ARC
8
DEFAULT_255_1_234
10
15.1811662
20
171.7658349
40
0.1105176
50
179.9429482
51
185.0960898
0
LINE
8
DEFAULT_255_1_234
10
15.4312737
20
171.0768218
11
15.4312737
21
171.1041297
0
LINE
8
DEFAULT_255_1_234
10
16.1685873
20
171.1201932
11
16.1685873
21
171.0583488
0
LINE
8
DEFAULT_255_1_234
10
16.1685873
20
171.0583488
11
15.5798609
21
171.0583488
0
LINE
8
DEFAULT_255_1_234
10
16.0665842
20
170.8888792
11
16.1573429
21
170.8181999
0
LINE
8
DEFAULT_255_1_234
10
15.5846799
20
171.1804313
11
16.0200001
21
171.1804313
0
LINE
8
DEFAULT_255_1_234
10
16.0200001
20
171.1804313
11
16.0200001
21
171.1916757
0
ARC
8
DEFAULT_255_1_234
10
15.8252102
20
171.0879332
40
0.4376191
50
252.3266134
51
270.5810217
0
ARC
8
DEFAULT_255_1_234
10
15.8047192
20
171.0138644
40
0.3608374
50
223.3000567
51
251.8561855
0
ARC
8
DEFAULT_255_1_234
10
15.8258552
20
171.0343937
40
0.3902993
50
190.9374509
51
223.3654032
0
ARC
8
DEFAULT_255_1_234
10
15.9983524
20
171.0733885
40
0.5670891
50
179.6531105
51
191.4989439
0
ARC
8
DEFAULT_255_1_234
10
16.0105537
20
171.1073417
40
0.5792888
50
167.4007466
51
180.3176909
0
ARC
8
DEFAULT_255_1_234
10
15.9053598
20
171.1295885
40
0.471777
50
154.1835823
51
167.250763
0
ARC
8
DEFAULT_255_1_234
10
15.8422066
20
171.1628417
40
0.4004528
50
134.3149965
51
154.5315275
0
ARC
8
DEFAULT_255_1_234
10
15.8204561
20
171.1819228
40
0.371612
50
122.8616532
51
133.9707695
0
ARC
8
DEFAULT_255_1_234
10
15.8101135
20
171.2041703
40
0.3473289
50
89.8249009
51
123.4199222
0
ARC
8
DEFAULT_255_1_234
10
15.8151176
20
171.1394967
40
0.4120197
50
74.7876118
51
90.5482747
0
ARC
8
DEFAULT_255_1_234
10
15.8444919
20
171.248003
40
0.2996077
50
39.8178249
51
74.7633718
0
ARC
8
DEFAULT_255_1_234
10
15.7932239
20
171.2080351
40
0.3645855
50
16.8990863
51
39.4829761
0
ARC
8
DEFAULT_255_1_234
10
15.6037536
20
171.1473526
40
0.5635218
50
4.9636328
51
17.2026414
0
ARC
8
DEFAULT_255_1_234
10
15.3619606
20
171.121834
40
0.8066286
50
359.8834553
51
5.2834307
0
ARC
8
DEFAULT_255_1_234
10
15.9657131
20
171.0649803
40
0.3859091
50
180.9846213
51
194.9401313
0
ARC
8
DEFAULT_255_1_234
10
15.8607408
20
171.0362849
40
0.2770883
50
194.80314
51
222.0412631
0
ARC
8
DEFAULT_255_1_234
10
15.830329
20
171.0061116
40
0.2343055
50
221.5417084
51
268.8614402
0
ARC
8
DEFAULT_255_1_234
10
15.8376285
20
171.0737686
40
0.3021528
50
267.732405
51
270.0097136
0
ARC
8
DEFAULT_255_1_234
10
15.8394095
20
171.0939105
40
0.3222994
50
269.6924892
51
280.4117579
0
ARC
8
DEFAULT_255_1_234
10
15.8570502
20
171.0020193
40
0.2287344
50
280.2255091
51
298.6338936
0
ARC
8
DEFAULT_255_1_234
10
15.8687294
20
170.9776223
40
0.2017294
50
299.0430333
51
300.4643464
0
ARC
8
DEFAULT_255_1_234
10
15.8007299
20
171.0910038
40
0.3339357
50
300.6577328
51
322.0378878
0
ARC
8
DEFAULT_255_1_234
10
15.7656838
20
171.1214021
40
0.3802736
50
321.6750233
51
322.3046845
0
ARC
8
DEFAULT_255_1_234
10
15.8587799
20
171.004737
40
0.3520454
50
276.9728461
51
328.0035423
0
ARC
8
DEFAULT_255_1_234
10
15.8310852
20
171.1527841
40
0.5024498
50
269.8361028
51
278.0581756
0
ARC
8
DEFAULT_255_1_234
10
15.808359
20
171.2272757
40
0.202159
50
89.2018686
51
117.2851756
0
ARC
8
DEFAULT_255_1_234
10
15.8136759
20
171.2230752
40
0.2083484
50
118.0551165
51
137.4540413
0
ARC
8
DEFAULT_255_1_234
10
15.8511499
20
171.1890304
40
0.2589774
50
137.5109581
51
158.8516286
0
ARC
8
DEFAULT_255_1_234
10
15.9649334
20
171.1431074
40
0.38167
50
158.5845963
51
170.1721436
0
ARC
8
DEFAULT_255_1_234
10
16.0818723
20
171.1198823
40
0.5008657
50
169.8376422
51
173.0566086
0
ARC
8
DEFAULT_255_1_234
10
15.6121797
20
171.1709509
40
0.4083467
50
2.9091802
51
12.8847116
0
ARC
8
DEFAULT_255_1_234
10
15.7492474
20
171.2032101
40
0.2675383
50
12.6957781
51
28.6404489
0
ARC
8
DEFAULT_255_1_234
10
15.8034145
20
171.2312458
40
0.2065654
50
29.0169854
51
41.1487595
0
ARC
8
DEFAULT_255_1_234
10
15.823693
20
171.2489003
40
0.1796786
50
41.1646065
51
85.0013516
0
ARC
8
DEFAULT_255_1_234
10
15.8116027
20
171.1754431
40
0.2539726
50
83.7280015
51
90.0964893
0
LINE
8
DEFAULT_255_1_234
10
16.9870214
20
171.2800248
11
16.8376311
21
171.2800248
0
LINE
8
DEFAULT_255_1_234
10
16.3043237
20
170.9338569
11
16.4529108
21
170.9338569
0
ARC
8
DEFAULT_255_1_234
10
16.718813
20
170.8983959
40
0.1276617
50
359.3334982
51
18.5871358
0
ARC
8
DEFAULT_255_1_234
10
16.7396767
20
170.9039133
40
0.1061371
50
19.3540742
51
54.6485071
0
ARC
8
DEFAULT_255_1_234
10
16.6892669
20
170.8343919
40
0.1920087
50
54.3827097
51
65.0622807
0
ARC
8
DEFAULT_255_1_234
10
16.6124065
20
170.67269
40
0.3710447
50
64.8282493
51
71.4200025
0
ARC
8
DEFAULT_255_1_234
10
16.5221941
20
170.4080107
40
0.6506741
50
71.3164301
51
75.8006402
0
ARC
8
DEFAULT_255_1_234
10
16.4380761
20
170.0839561
40
0.9854641
50
75.6809531
51
78.0061883
0
ARC
8
DEFAULT_255_1_234
10
16.8829294
20
172.181877
40
1.1591028
50
254.6901892
51
258.0466452
0
ARC
8
DEFAULT_255_1_234
10
16.7791202
20
171.8059781
40
0.7691345
50
249.9010773
51
254.755261
0
ARC
8
DEFAULT_255_1_234
10
16.6787544
20
171.5333982
40
0.478665
50
243.3097214
51
249.9709442
0
ARC
8
DEFAULT_255_1_234
10
16.6158565
20
171.4079778
40
0.3383568
50
234.4047477
51
243.2862168
0
ARC
8
DEFAULT_255_1_234
10
16.5536089
20
171.3220232
40
0.2322322
50
220.8667099
51
234.5493881
0
ARC
8
DEFAULT_255_1_234
10
16.519403
20
171.2908817
40
0.1859923
50
214.3062465
51
220.5065136
0
ARC
8
DEFAULT_255_1_234
10
16.5168109
20
171.287788
40
0.1821108
50
186.912965
51
213.9618616
0
ARC
8
DEFAULT_255_1_234
10
16.5700204
20
171.2964009
40
0.2359799
50
179.8808832
51
187.4339886
0
ARC
8
DEFAULT_255_1_234
10
16.5545337
20
171.2984088
40
0.2204978
50
132.005434
51
180.3942919
0
ARC
8
DEFAULT_255_1_234
10
16.6201951
20
171.2378083
40
0.3095791
50
129.2319861
51
133.5302299
0
ARC
8
DEFAULT_255_1_234
10
16.6255459
20
171.2283928
40
0.3202615
50
100.4410011
51
128.9081242
0
ARC
8
DEFAULT_255_1_234
10
16.6529343
20
171.0998455
40
0.4516583
50
89.6985377
51
100.9026564
0
ARC
8
DEFAULT_255_1_234
10
16.6586384
20
171.0838166
40
0.4676928
50
77.6965325
51
90.4076836
0
ARC
8
DEFAULT_255_1_234
10
16.6917369
20
171.2265413
40
0.3211988
50
50.7276602
51
78.0399361
0
ARC
8
DEFAULT_255_1_234
10
16.7361827
20
171.2783296
40
0.2529778
50
25.7545084
51
51.0957453
0
ARC
8
DEFAULT_255_1_234
10
16.7363052
20
171.2833206
40
0.250738
50
359.2468627
51
24.7394243
0
ARC
8
DEFAULT_255_1_234
10
16.7078504
20
171.2804664
40
0.1297815
50
359.8050318
51
45.1544908
0
ARC
8
DEFAULT_255_1_234
10
16.6671646
20
171.2456794
40
0.1831883
50
43.8047702
51
49.6271585
0
ARC
8
DEFAULT_255_1_234
10
16.6679547
20
171.2457678
40
0.18261
50
49.7980766
51
82.1218353
0
ARC
8
DEFAULT_255_1_234
10
16.6560519
20
171.1810998
40
0.2483163
50
81.4465357
51
90.1710293
0
ARC
8
DEFAULT_255_1_234
10
16.6536122
20
171.128488
40
0.300932
50
89.6766211
51
99.1264602
0
ARC
8
DEFAULT_255_1_234
10
16.6364584
20
171.2318537
40
0.1961547
50
98.968313
51
113.4570237
0
ARC
8
DEFAULT_255_1_234
10
16.6168669
20
171.2786965
40
0.1453859
50
113.722589
51
127.4763106
0
ARC
8
DEFAULT_255_1_234
10
16.6000315
20
171.2987124
40
0.1192639
50
126.9083309
51
150.3165862
0
ARC
8
DEFAULT_255_1_234
10
16.5952648
20
171.3037981
40
0.112623
50
151.3635175
51
180.0701457
0
ARC
8
DEFAULT_255_1_234
10
16.6261432
20
171.301699
40
0.1435149
50
179.2169974
51
179.9954013
0
ARC
8
DEFAULT_255_1_234
10
16.5900489
20
171.3004056
40
0.1074286
50
179.3040112
51
198.4225446
0
ARC
8
DEFAULT_255_1_234
10
16.5708623
20
171.2954127
40
0.0876573
50
199.2895851
51
238.6034594
0
ARC
8
DEFAULT_255_1_234
10
16.631147
20
171.390045
40
0.1998512
50
237.9846301
51
246.8744712
0
ARC
8
DEFAULT_255_1_234
10
16.7169415
20
171.5863205
40
0.4140547
50
246.6234531
51
251.8168941
0
ARC
8
DEFAULT_255_1_234
10
16.8199958
20
171.8957905
40
0.7402308
50
251.713434
51
255.0778414
0
ARC
8
DEFAULT_255_1_234
10
16.9399221
20
172.3424563
40
1.2027155
50
255.0367487
51
257.4705983
0
ARC
8
DEFAULT_255_1_234
10
16.4291231
20
170.0410863
40
1.1546601
50
73.6837552
51
77.5016755
0
ARC
8
DEFAULT_255_1_234
10
16.5380005
20
170.4110581
40
0.7690009
50
68.7044154
51
73.7249639
0
ARC
8
DEFAULT_255_1_234
10
16.6283026
20
170.6437654
40
0.5193873
50
63.590599
51
68.6626804
0
ARC
8
DEFAULT_255_1_234
10
16.7054045
20
170.7975123
40
0.3473927
50
54.7106439
51
63.7013633
0
ARC
8
DEFAULT_255_1_234
10
16.76785
20
170.88474
40
0.2401192
50
41.0622434
51
54.8487496
0
ARC
8
DEFAULT_255_1_234
10
16.8019886
20
170.9160592
40
0.1938094
50
34.4950568
51
40.7105546
0
ARC
8
DEFAULT_255_1_234
10
16.8066693
20
170.9209078
40
0.1872106
50
9.3763373
51
34.0833615
0
ARC
8
DEFAULT_255_1_234
10
16.7413564
20
170.9083728
40
0.2536988
50
359.7694872
51
9.7663171
0
ARC
8
DEFAULT_255_1_234
10
16.7611065
20
170.9040764
40
0.2339696
50
335.8654732
51
0.8022045
0
ARC
8
DEFAULT_255_1_234
10
16.7686109
20
170.9054197
40
0.2277108
50
307.7357725
51
334.7849066
0
ARC
8
DEFAULT_255_1_234
10
16.7285285
20
170.9504645
40
0.2878951
50
307.0241536
51
308.5578354
0
ARC
8
DEFAULT_255_1_234
10
16.7027616
20
170.9890801
40
0.3342515
50
282.9362969
51
306.5646424
0
ARC
8
DEFAULT_255_1_234
10
16.6665914
20
171.1358108
40
0.4853615
50
271.1026298
51
283.2200835
0
ARC
8
DEFAULT_255_1_234
10
16.6602157
20
171.2599418
40
0.6096052
50
269.9919117
51
271.4772449
0
ARC
8
DEFAULT_255_1_234
10
16.6575913
20
171.1521436
40
0.5018135
50
259.0723564
51
270.289833
0
ARC
8
DEFAULT_255_1_234
10
16.6363645
20
171.0404271
40
0.388099
50
245.4963068
51
259.0227342
0
ARC
8
DEFAULT_255_1_234
10
16.6085601
20
170.9822615
40
0.3236422
50
228.9684658
51
245.7044727
0
ARC
8
DEFAULT_255_1_234
10
16.5820045
20
170.9495575
40
0.2815426
50
214.4011705
51
228.6759915
0
ARC
8
DEFAULT_255_1_234
10
16.5530785
20
170.933729
40
0.2487548
50
179.9705531
51
215.1572795
0
ARC
8
DEFAULT_255_1_234
10
16.6231385
20
170.9410806
40
0.1703809
50
182.4299387
51
203.0329699
0
ARC
8
DEFAULT_255_1_234
10
16.6047043
20
170.9354396
40
0.1512226
50
203.798802
51
232.548466
0
ARC
8
DEFAULT_255_1_234
10
16.6323564
20
170.9705826
40
0.1959374
50
232.3782728
51
256.3934612
0
ARC
8
DEFAULT_255_1_234
10
16.6553926
20
171.0595842
40
0.2878639
50
256.104506
51
268.4626716
0
ARC
8
DEFAULT_255_1_234
10
16.660041
20
171.1392487
40
0.3676329
50
268.0715632
51
270.0138206
0
ARC
8
DEFAULT_255_1_234
10
16.6618935
20
171.1120083
40
0.3403971
50
269.7031147
51
278.8341955
0
ARC
8
DEFAULT_255_1_234
10
16.6801028
20
170.9989876
40
0.2259217
50
278.6728789
51
292.8232582
0
ARC
8
DEFAULT_255_1_234
10
16.7001566
20
170.9488449
40
0.171929
50
293.1452328
51
303.6655899
0
ARC
8
DEFAULT_255_1_234
10
16.7266445
20
170.9112204
40
0.1259367
50
303.1248165
51
321.742847
0
ARC
8
DEFAULT_255_1_234
10
16.7452325
20
170.8949156
40
0.1012531
50
322.4748573
51
1.1291126
0
LINE
8
DEFAULT_255_2_778
10
9.3932417
20
158.617698
11
10.7161417
21
158.617698
0
LINE
8
DEFAULT_255_2_778
10
10.7161417
20
158.617698
11
10.7161417
21
89.825998
0
LINE
8
DEFAULT_255_2_778
10
10.7161417
20
84.534398
11
10.7161417
21
15.742698
0
LINE
8
DEFAULT_255_2_778
10
10.7161417
20
15.742698
11
9.3932417
21
15.742698
0
LINE
8
DEFAULT_255_2_778
10
9.3932834
20
89.8260333
11
12.0390834
21
89.8260333
0
LINE
8
DEFAULT_255_2_778
10
12.0390834
20
89.8260333
11
12.0390834
21
84.5343333
0
LINE
8
DEFAULT_255_2_778
10
12.0390834
20
84.5343333
11
9.3932834
21
84.5343333
0
LINE
8
DEFAULT_255_2_778
10
9.3932834
20
84.5343333
11
9.3932834
21
89.8260333
0
LINE
8
DEFAULT_255_2_778
10
10.187
20
85.0635666
11
10.187
21
89.2968666
0
LINE
8
DEFAULT_255_2_778
10
9.9224167
20
88.503175
11
10.1870167
21
89.296875
0
LINE
8
DEFAULT_255_2_778
10
10.1870167
20
89.296875
11
10.4516167
21
88.503175
0
LINE
8
DEFAULT_255_2_778
10
10.4516167
20
88.503175
11
9.9224167
21
88.503175
0
LINE
8
DEFAULT_255_2_778
10
11.2453
20
89.2968666
11
11.2453
21
85.0635666
0
LINE
8
DEFAULT_255_2_778
10
10.9807167
20
85.857375
11
11.2453167
21
85.063675
0
LINE
8
DEFAULT_255_2_778
10
11.2453167
20
85.063675
11
11.5099167
21
85.857375
0
LINE
8
DEFAULT_255_2_778
10
11.5099167
20
85.857375
11
10.9807167
21
85.857375
0
LINE
8
DEFAULT_255_2_778
10
19.9765417
20
163.9093985
11
18.6536417
21
163.9093985
0
LINE
8
DEFAULT_255_2_778
10
18.6536417
20
163.9093985
11
18.6536417
21
110.9926985
0
LINE
8
DEFAULT_255_2_778
10
18.6536417
20
105.7010985
11
18.6536417
21
52.7843985
0
LINE
8
DEFAULT_255_2_778
10
18.6536417
20
52.7843985
11
19.9765417
21
52.7843985
0
LINE
8
DEFAULT_255_2_778
10
17.3307834
20
110.9927333
11
19.9765834
21
110.9927333
0
LINE
8
DEFAULT_255_2_778
10
19.9765834
20
110.9927333
11
19.9765834
21
105.7010333
0
LINE
8
DEFAULT_255_2_778
10
19.9765834
20
105.7010333
11
17.3307834
21
105.7010333
0
LINE
8
DEFAULT_255_2_778
10
17.3307834
20
105.7010333
11
17.3307834
21
110.9927333
0
LINE
8
DEFAULT_255_2_778
10
18.1245
20
106.2302666
11
18.1245
21
110.4635666
0
LINE
8
DEFAULT_255_2_778
10
17.8599167
20
109.669875
11
18.1245167
21
110.463575
0
LINE
8
DEFAULT_255_2_778
10
18.1245167
20
110.463575
11
18.3891167
21
109.669875
0
LINE
8
DEFAULT_255_2_778
10
18.3891167
20
109.669875
11
17.8599167
21
109.669875
0
LINE
8
DEFAULT_255_2_778
10
19.1828
20
110.4635666
11
19.1828
21
106.2302666
0
LINE
8
DEFAULT_255_2_778
10
18.9182167
20
107.023975
11
19.1828167
21
106.230275
0
LINE
8
DEFAULT_255_2_778
10
19.1828167
20
106.230275
11
19.4474167
21
107.023975
0
LINE
8
DEFAULT_255_2_778
10
19.4474167
20
107.023975
11
18.9182167
21
107.023975
0
LINE
8
DEFAULT_255_1_234
10
4.2121489
20
169.8515211
11
4.2121489
21
168.8081983
0
LINE
8
DEFAULT_255_1_234
10
4.2121489
20
168.8081983
11
4.7663389
21
168.8081983
0
LINE
8
DEFAULT_255_1_234
10
4.7663389
20
168.8081983
11
4.7663389
21
168.6821
0
LINE
8
DEFAULT_255_1_234
10
4.7663389
20
168.6821
11
4.0571364
21
168.6821
0
LINE
8
DEFAULT_255_1_234
10
4.0571364
20
168.6821
11
4.0571364
21
169.8515211
0
LINE
8
DEFAULT_255_1_234
10
4.0571364
20
169.8515211
11
4.2121489
21
169.8515211
0
LINE
8
DEFAULT_255_1_234
10
5.0743482
20
5.222701
11
5.0743482
21
4.7938062
0
LINE
8
DEFAULT_255_1_234
10
4.1731872
20
5.1688884
11
4.1731872
21
5.2708915
0
LINE
8
DEFAULT_255_1_234
10
5.0743482
20
5.4668659
11
4.9201389
21
5.4668659
0
LINE
8
DEFAULT_255_1_234
10
4.3281998
20
5.2749073
11
4.3281998
21
5.1793296
0
LINE
8
DEFAULT_255_1_234
10
4.920942
20
4.8347681
11
4.920942
21
5.0974059
0
LINE
8
DEFAULT_255_1_234
10
4.920942
20
5.0974059
11
4.6502725
21
5.0974059
0
LINE
8
DEFAULT_255_1_234
10
4.6502725
20
5.0974059
11
4.6502725
21
5.222701
0
LINE
8
DEFAULT_255_1_234
10
4.6502725
20
5.222701
11
5.0743482
21
5.222701
0
ARC
8
DEFAULT_255_1_234
10
4.7911989
20
4.9931396
40
0.3462765
50
295.8437914
51
324.8549609
0
ARC
8
DEFAULT_255_1_234
10
4.7495956
20
5.0684567
40
0.4322211
50
291.5695085
51
296.4549398
0
ARC
8
DEFAULT_255_1_234
10
4.6985207
20
5.2049275
40
0.5779178
50
278.6622409
51
291.3045483
0
ARC
8
DEFAULT_255_1_234
10
4.6645699
20
5.4197408
40
0.7953952
50
270.020006
51
278.7494541
0
ARC
8
DEFAULT_255_1_234
10
4.6607623
20
5.5514036
40
0.927067
50
269.9969998
51
270.2524872
0
ARC
8
DEFAULT_255_1_234
10
4.6569336
20
5.1430589
40
0.5187361
50
253.5786322
51
270.4175299
0
ARC
8
DEFAULT_255_1_234
10
4.6395992
20
5.0759236
40
0.4494451
50
238.8203306
51
253.2788235
0
ARC
8
DEFAULT_255_1_234
10
4.6376365
20
5.0708231
40
0.4440665
50
206.7883783
51
238.6962764
0
ARC
8
DEFAULT_255_1_234
10
4.7150275
20
5.1172405
40
0.5341121
50
206.1129412
51
207.4916643
0
ARC
8
DEFAULT_255_1_234
10
4.774719
20
5.1426488
40
0.5989041
50
188.6921119
51
205.7821245
0
ARC
8
DEFAULT_255_1_234
10
4.9603552
20
5.174223
40
0.7871862
50
180.3882829
51
188.9219216
0
ARC
8
DEFAULT_255_1_234
10
5.0831366
20
5.2765464
40
0.909967
50
170.2024264
51
180.3560651
0
ARC
8
DEFAULT_255_1_234
10
4.7667884
20
5.3331237
40
0.5886083
50
154.2857445
51
170.3893044
0
ARC
8
DEFAULT_255_1_234
10
4.6386087
20
5.391795
40
0.4476743
50
139.8401567
51
153.9332699
0
ARC
8
DEFAULT_255_1_234
10
4.6026823
20
5.4205577
40
0.4016697
50
98.4190291
51
139.6707122
0
ARC
8
DEFAULT_255_1_234
10
4.6406341
20
5.2360328
40
0.5898566
50
89.7659205
51
99.4415478
0
ARC
8
DEFAULT_255_1_234
10
4.647159
20
5.2425844
40
0.5833147
50
78.0551672
51
90.4042112
0
ARC
8
DEFAULT_255_1_234
10
4.68761
20
5.4244644
40
0.3970055
50
54.6380464
51
78.3339173
0
ARC
8
DEFAULT_255_1_234
10
4.7066156
20
5.4564795
40
0.3599102
50
50.031736
51
54.1558201
0
ARC
8
DEFAULT_255_1_234
10
4.6958944
20
5.4468766
40
0.3741624
50
18.1092409
51
49.7180913
0
ARC
8
DEFAULT_255_1_234
10
4.5502144
20
5.3935089
40
0.5292424
50
7.9672797
51
18.6984571
0
ARC
8
DEFAULT_255_1_234
10
4.5652622
20
5.4058504
40
0.3600838
50
9.7557294
51
27.3215714
0
ARC
8
DEFAULT_255_1_234
10
4.6780094
20
5.4621912
40
0.2340608
50
27.7361077
51
84.5257964
0
ARC
8
DEFAULT_255_1_234
10
4.6452481
20
5.297864
40
0.4011215
50
82.106034
51
90.2001166
0
ARC
8
DEFAULT_255_1_234
10
4.6402698
20
5.3486215
40
0.3503799
50
89.4150119
51
105.5823402
0
ARC
8
DEFAULT_255_1_234
10
4.6145696
20
5.4421867
40
0.2533503
50
105.6678618
51
144.2648758
0
ARC
8
DEFAULT_255_1_234
10
4.7038951
20
5.3786289
40
0.3629787
50
144.3561283
51
162.8564086
0
ARC
8
DEFAULT_255_1_234
10
4.912286
20
5.3117017
40
0.5818441
50
162.6076014
51
173.6780284
0
ARC
8
DEFAULT_255_1_234
10
5.2184004
20
5.274489
40
0.8902007
50
173.4670142
51
179.9730753
0
ARC
8
DEFAULT_255_1_234
10
5.0275675
20
5.175126
40
0.6993804
50
179.6556203
51
190.0080463
0
ARC
8
DEFAULT_255_1_234
10
4.7959504
20
5.1326375
40
0.4639066
50
189.8116607
51
206.6796816
0
ARC
8
DEFAULT_255_1_234
10
4.7114656
20
5.0932503
40
0.3707421
50
207.1031645
51
217.7074368
0
ARC
8
DEFAULT_255_1_234
10
4.6480345
20
5.0380559
40
0.2868417
50
216.7345547
51
265.6812148
0
ARC
8
DEFAULT_255_1_234
10
4.6611136
20
5.1284855
40
0.3780509
50
264.7366618
51
270.0611241
0
ARC
8
DEFAULT_255_1_234
10
4.6634399
20
5.4125111
40
0.662079
50
269.8335834
51
276.0539546
0
ARC
8
DEFAULT_255_1_234
10
4.6841404
20
5.222356
40
0.4708016
50
275.9894168
51
284.4615085
0
ARC
8
DEFAULT_255_1_234
10
4.7039411
20
5.1390663
40
0.3852094
50
284.7034461
51
286.4953897
0
ARC
8
DEFAULT_255_1_234
10
4.7446424
20
5.0079965
40
0.2479842
50
286.0770838
51
304.2625829
0
ARC
8
DEFAULT_255_1_234
10
4.7579838
20
4.9861594
40
0.2224291
50
304.5891602
51
317.1073298
0
LINE
8
DEFAULT_255_1_234
10
6.2301154
20
5.8098211
11
6.2301154
21
4.6404
0
LINE
8
DEFAULT_255_1_234
10
6.2301154
20
4.6404
11
6.0751028
21
4.6404
0
LINE
8
DEFAULT_255_1_234
10
6.0751028
20
4.6404
11
5.4863764
21
5.541561
0
LINE
8
DEFAULT_255_1_234
10
5.4863764
20
5.541561
11
5.4863764
21
4.6404
0
LINE
8
DEFAULT_255_1_234
10
5.4863764
20
4.6404
11
5.3313639
21
4.6404
0
LINE
8
DEFAULT_255_1_234
10
5.3313639
20
4.6404
11
5.3313639
21
5.8098211
0
LINE
8
DEFAULT_255_1_234
10
5.3313639
20
5.8098211
11
5.4863764
21
5.8098211
0
LINE
8
DEFAULT_255_1_234
10
5.4863764
20
5.8098211
11
6.0767092
21
4.9046442
0
LINE
8
DEFAULT_255_1_234
10
6.0767092
20
4.9046442
11
6.0767092
21
5.8098211
0
LINE
8
DEFAULT_255_1_234
10
6.0767092
20
5.8098211
11
6.2301154
21
5.8098211
0
LINE
8
DEFAULT_255_1_234
10
6.8276767
20
4.6404
11
6.5039977
21
4.6404
0
LINE
8
DEFAULT_255_1_234
10
6.5039977
20
4.6404
11
6.5039977
21
5.8098211
0
LINE
8
DEFAULT_255_1_234
10
6.5039977
20
5.8098211
11
6.8341021
21
5.8098211
0
LINE
8
DEFAULT_255_1_234
10
7.3497397
20
5.2644661
11
7.3497397
21
5.1897709
0
LINE
8
DEFAULT_255_1_234
10
6.838118
20
5.6829196
11
6.658207
21
5.6829196
0
LINE
8
DEFAULT_255_1_234
10
6.658207
20
5.6829196
11
6.658207
21
4.7664983
0
LINE
8
DEFAULT_255_1_234
10
6.658207
20
4.7664983
11
6.8204481
21
4.7664983
0
LINE
8
DEFAULT_255_1_234
10
7.1971367
20
5.1929836
11
7.1971367
21
5.2612534
0
ARC
8
DEFAULT_255_1_234
10
6.8379963
20
5.2232894
40
0.5865446
50
75.4101064
51
90.3804066
0
ARC
8
DEFAULT_255_1_234
10
6.8609477
20
5.3189492
40
0.4881916
50
60.145586
51
75.1888407
0
ARC
8
DEFAULT_255_1_234
10
6.8768252
20
5.3466199
40
0.4562893
50
26.5253612
51
60.1450928
0
ARC
8
DEFAULT_255_1_234
10
6.7648002
20
5.2872158
40
0.5830602
50
7.4030428
51
26.8320788
0
ARC
8
DEFAULT_255_1_234
10
6.6053758
20
5.2623804
40
0.7443669
50
0.1605367
51
7.7176192
0
ARC
8
DEFAULT_255_1_234
10
6.6217663
20
5.1859434
40
0.7279835
50
348.7289388
51
0.3012466
0
ARC
8
DEFAULT_255_1_234
10
6.7874093
20
5.1530386
40
0.559104
50
333.0706509
51
348.7181832
0
ARC
8
DEFAULT_255_1_234
10
6.8840851
20
5.1005319
40
0.4491417
50
299.2531685
51
333.4571258
0
ARC
8
DEFAULT_255_1_234
10
6.8479991
20
5.1690828
40
0.5265881
50
278.107187
51
299.0339503
0
ARC
8
DEFAULT_255_1_234
10
6.822407
20
5.3198216
40
0.679442
50
270.4443897
51
278.4511052
0
ARC
8
DEFAULT_255_1_234
10
6.82449
20
5.2269213
40
0.4604407
50
269.4970433
51
284.0205042
0
ARC
8
DEFAULT_255_1_234
10
6.8600201
20
5.0903978
40
0.3193797
50
283.7700273
51
318.1555492
0
ARC
8
DEFAULT_255_1_234
10
6.8262959
20
5.1156367
40
0.3613588
50
318.7415601
51
343.6873628
0
ARC
8
DEFAULT_255_1_234
10
6.6458982
20
5.1719832
40
0.5503313
50
343.3325091
51
355.8548958
0
ARC
8
DEFAULT_255_1_234
10
6.4360666
20
5.1919319
40
0.7610708
50
355.4988528
51
0.0791727
0
ARC
8
DEFAULT_255_1_234
10
6.5143289
20
5.265478
40
0.6828208
50
359.6455037
51
9.8607896
0
ARC
8
DEFAULT_255_1_234
10
6.7503987
20
5.3081099
40
0.4429406
50
9.6571907
51
26.1932807
0
ARC
8
DEFAULT_255_1_234
10
6.8431975
20
5.3512118
40
0.3406537
50
26.5777228
51
40.1532208
0
ARC
8
DEFAULT_255_1_234
10
6.8687702
20
5.3711619
40
0.308246
50
40.3840491
51
80.1431104
0
ARC
8
DEFAULT_255_1_234
10
6.836082
20
5.2262333
40
0.4566909
50
79.2152159
51
89.7445637
0
LINE
8
DEFAULT_255_1_234
10
4.9989023
20
10.7633849
11
4.8438897
21
10.7633849
0
LINE
8
DEFAULT_255_1_234
10
4.1515539
20
10.2710394
11
4.3065665
21
10.2710394
0
ARC
8
DEFAULT_255_1_234
10
4.909771
20
11.6580768
40
1.252368
50
248.9199003
51
254.1439814
0
ARC
8
DEFAULT_255_1_234
10
4.7417205
20
11.2254234
40
0.788226
50
241.633709
51
249.0064503
0
ARC
8
DEFAULT_255_1_234
10
4.58886
20
10.9453317
40
0.4691427
50
230.498225
51
241.8087113
0
ARC
8
DEFAULT_255_1_234
10
4.5104174
20
10.8453906
40
0.3421437
50
227.4064532
51
229.9881192
0
ARC
8
DEFAULT_255_1_234
10
4.4616694
20
10.7978088
40
0.2741476
50
200.6781896
51
228.1763934
0
ARC
8
DEFAULT_255_1_234
10
4.4689005
20
10.7963077
40
0.2804109
50
179.5061581
51
199.8694617
0
ARC
8
DEFAULT_255_1_234
10
4.4679757
20
10.803721
40
0.2795204
50
132.4834203
51
181.0242172
0
ARC
8
DEFAULT_255_1_234
10
4.5275339
20
10.7474704
40
0.3612768
50
129.2532479
51
133.4242687
0
ARC
8
DEFAULT_255_1_234
10
4.5421789
20
10.7254965
40
0.3875675
50
101.98776
51
128.8742646
0
ARC
8
DEFAULT_255_1_234
10
4.5820399
20
10.5533741
40
0.5642249
50
89.5906553
51
102.3169264
0
ARC
8
DEFAULT_255_1_234
10
4.5890891
20
10.5852148
40
0.5323783
50
77.2360837
51
90.3248275
0
ARC
8
DEFAULT_255_1_234
10
4.6097971
20
10.68194
40
0.4334697
50
63.837784
51
77.0809408
0
ARC
8
DEFAULT_255_1_234
10
4.6375732
20
10.7336911
40
0.3747796
50
45.9864267
51
64.1607727
0
ARC
8
DEFAULT_255_1_234
10
4.6636614
20
10.7634866
40
0.3352302
50
32.2747395
51
45.6547121
0
ARC
8
DEFAULT_255_1_234
10
4.6703054
20
10.765388
40
0.328603
50
359.6507365
51
32.6130309
0
ARC
8
DEFAULT_255_1_234
10
4.576015
20
10.765866
40
0.2678863
50
359.469343
51
14.9832209
0
ARC
8
DEFAULT_255_1_234
10
4.6465212
20
10.7847539
40
0.1948938
50
14.9781179
51
48.2004265
0
ARC
8
DEFAULT_255_1_234
10
4.6300856
20
10.7640983
40
0.2212521
50
48.5927837
51
74.1241538
0
ARC
8
DEFAULT_255_1_234
10
4.5967346
20
10.6540248
40
0.3362561
50
73.7888341
51
86.6652678
0
ARC
8
DEFAULT_255_1_234
10
4.5864911
20
10.5332881
40
0.4573953
50
86.2640471
51
90.0526343
0
ARC
8
DEFAULT_255_1_234
10
4.5836624
20
10.5728192
40
0.4178709
50
89.6697524
51
99.2309573
0
ARC
8
DEFAULT_255_1_234
10
4.5594075
20
10.7172964
40
0.2713749
50
99.069534
51
113.7658566
0
ARC
8
DEFAULT_255_1_234
10
4.5320266
20
10.7818677
40
0.2012469
50
114.0401004
51
127.9850673
0
ARC
8
DEFAULT_255_1_234
10
4.507983
20
10.811473
40
0.1631167
50
127.7287463
51
176.7105154
0
ARC
8
DEFAULT_255_1_234
10
4.5758547
20
10.8013693
40
0.2315392
50
175.1779447
51
180.0581938
0
ARC
8
DEFAULT_255_1_234
10
4.4915394
20
10.8001428
40
0.1472271
50
179.6142195
51
228.1246017
0
ARC
8
DEFAULT_255_1_234
10
4.5357063
20
10.8410308
40
0.2072299
50
226.5779593
51
230.8800004
0
ARC
8
DEFAULT_255_1_234
10
4.5828141
20
10.9035636
40
0.2854818
50
231.4635071
51
241.9260842
0
ARC
8
DEFAULT_255_1_234
10
4.7025319
20
11.12388
40
0.53622
50
241.7178533
51
248.3259551
0
ARC
8
DEFAULT_255_1_234
10
4.8410691
20
11.4671064
40
0.9063478
50
248.2007737
51
252.4528373
0
ARC
8
DEFAULT_255_1_234
10
4.9614416
20
11.8392441
40
1.2974635
50
252.3391078
51
254.3469452
0
ARC
8
DEFAULT_255_1_234
10
4.2072119
20
9.1415148
40
1.5037162
50
71.0197183
51
74.4087047
0
ARC
8
DEFAULT_255_1_234
10
4.3766804
20
9.6307111
40
0.9859993
50
66.1847285
51
71.086374
0
ARC
8
DEFAULT_255_1_234
10
4.5323116
20
9.98112
40
0.6025855
50
59.3536294
51
66.2691831
0
ARC
8
DEFAULT_255_1_234
10
4.6211769
20
10.1314609
40
0.4279449
50
49.1020879
51
59.3293958
0
ARC
8
DEFAULT_255_1_234
10
4.7030509
20
10.2247834
40
0.3038015
50
32.7919921
51
49.2505539
0
ARC
8
DEFAULT_255_1_234
10
4.7351599
20
10.2476191
40
0.264448
50
31.1181161
51
32.4005348
0
ARC
8
DEFAULT_255_1_234
10
4.7263136
20
10.2440779
40
0.2738556
50
8.1116974
51
30.7958831
0
ARC
8
DEFAULT_255_1_234
10
4.6452804
20
10.2302753
40
0.3560327
50
359.8389159
51
8.4706516
0
ARC
8
DEFAULT_255_1_234
10
4.7078596
20
10.2254137
40
0.2934776
50
337.4731098
51
0.7537279
0
ARC
8
DEFAULT_255_1_234
10
4.7257291
20
10.2234387
40
0.2762607
50
307.5917067
51
336.4315538
0
ARC
8
DEFAULT_255_1_234
10
4.6797119
20
10.2747102
40
0.3449979
50
307.6551545
51
308.4529766
0
ARC
8
DEFAULT_255_1_234
10
4.6566838
20
10.310225
40
0.3871988
50
284.3734338
51
307.1424381
0
ARC
8
DEFAULT_255_1_234
10
4.6071668
20
10.4923932
40
0.5759636
50
272.4382747
51
284.646547
0
ARC
8
DEFAULT_255_1_234
10
4.5944876
20
10.6723893
40
0.7563528
50
269.9708387
51
272.8178037
0
ARC
8
DEFAULT_255_1_234
10
4.5901916
20
10.4685716
40
0.5525489
50
248.2707594
51
270.4055579
0
ARC
8
DEFAULT_255_1_234
10
4.5847657
20
10.4495192
40
0.5328452
50
246.1383403
51
248.0542782
0
ARC
8
DEFAULT_255_1_234
10
4.5429036
20
10.3615843
40
0.4355005
50
233.1670131
51
246.4950969
0
ARC
8
DEFAULT_255_1_234
10
4.4874941
20
10.2867812
40
0.3424126
50
215.3403242
51
233.0843104
0
ARC
8
DEFAULT_255_1_234
10
4.4602372
20
10.2669549
40
0.3087104
50
179.2419209
51
215.2648451
0
ARC
8
DEFAULT_255_1_234
10
4.5369966
20
10.2683666
40
0.2304457
50
179.335461
51
199.1045811
0
ARC
8
DEFAULT_255_1_234
10
4.5037643
20
10.2596766
40
0.1962176
50
199.8828939
51
232.7063202
0
ARC
8
DEFAULT_255_1_234
10
4.5509911
20
10.3190788
40
0.2720938
50
232.3738199
51
255.5136649
0
ARC
8
DEFAULT_255_1_234
10
4.5850778
20
10.4434835
40
0.4010747
50
255.2446292
51
267.5320849
0
ARC
8
DEFAULT_255_1_234
10
4.5938401
20
10.5667702
40
0.5246356
50
267.1557994
51
270.0286766
0
ARC
8
DEFAULT_255_1_234
10
4.5966173
20
10.522395
40
0.4802668
50
269.7000017
51
278.1660162
0
ARC
8
DEFAULT_255_1_234
10
4.6222178
20
10.3493515
40
0.3053425
50
278.0231263
51
290.625471
0
ARC
8
DEFAULT_255_1_234
10
4.6569865
20
10.2566025
40
0.206291
50
290.6619762
51
307.0370976
0
ARC
8
DEFAULT_255_1_234
10
4.6870254
20
10.2197504
40
0.1587906
50
306.3943566
51
355.3030547
0
ARC
8
DEFAULT_255_1_234
10
4.6358186
20
10.2274113
40
0.2104809
50
354.3660432
51
0.0698737
0
ARC
8
DEFAULT_255_1_234
10
4.6500531
20
10.2296617
40
0.1962563
50
359.417946
51
16.1971788
0
ARC
8
DEFAULT_255_1_234
10
4.6955841
20
10.2421418
40
0.149053
50
16.4723299
51
52.6262157
0
ARC
8
DEFAULT_255_1_234
10
4.6134895
20
10.1337433
40
0.2850296
50
52.7386432
51
62.4979148
0
ARC
8
DEFAULT_255_1_234
10
4.4749972
20
9.8731283
40
0.5801521
50
62.2515216
51
68.1220564
0
ARC
8
DEFAULT_255_1_234
10
4.3029883
20
9.4503872
40
1.0365451
50
68.0062803
51
71.8053402
0
ARC
8
DEFAULT_255_1_234
10
4.1234255
20
8.9118758
40
1.6042013
50
71.7183119
51
73.9258742
0
LINE
8
DEFAULT_255_1_234
10
5.6928445
20
11.1015211
11
5.205318
21
9.8317033
0
LINE
8
DEFAULT_255_1_234
10
5.205318
20
9.8317033
11
5.0776133
21
9.8317033
0
LINE
8
DEFAULT_255_1_234
10
5.0776133
20
9.8317033
11
5.565943
21
11.1015211
0
LINE
8
DEFAULT_255_1_234
10
5.565943
20
11.1015211
11
5.6928445
21
11.1015211
0
LINE
8
DEFAULT_255_1_234
10
6.6526372
20
10.7633849
11
6.4976247
21
10.7633849
0
LINE
8
DEFAULT_255_1_234
10
5.8052888
20
10.2710394
11
5.9603014
21
10.2710394
0
ARC
8
DEFAULT_255_1_234
10
6.5635059
20
11.6580768
40
1.252368
50
248.9199003
51
254.1439814
0
ARC
8
DEFAULT_255_1_234
10
6.3954554
20
11.2254234
40
0.788226
50
241.633709
51
249.0064503
0
ARC
8
DEFAULT_255_1_234
10
6.2425949
20
10.9453317
40
0.4691427
50
230.498225
51
241.8087113
0
ARC
8
DEFAULT_255_1_234
10
6.1641523
20
10.8453906
40
0.3421437
50
227.4064532
51
229.9881192
0
ARC
8
DEFAULT_255_1_234
10
6.1154044
20
10.7978088
40
0.2741476
50
200.6781896
51
228.1763934
0
ARC
8
DEFAULT_255_1_234
10
6.1226354
20
10.7963077
40
0.2804109
50
179.5061581
51
199.8694617
0
ARC
8
DEFAULT_255_1_234
10
6.1217106
20
10.803721
40
0.2795204
50
132.4834203
51
181.0242172
0
ARC
8
DEFAULT_255_1_234
10
6.1812688
20
10.7474704
40
0.3612768
50
129.2532479
51
133.4242687
0
ARC
8
DEFAULT_255_1_234
10
6.1959138
20
10.7254965
40
0.3875675
50
101.98776
51
128.8742646
0
ARC
8
DEFAULT_255_1_234
10
6.2357748
20
10.5533741
40
0.5642249
50
89.5906553
51
102.3169264
0
ARC
8
DEFAULT_255_1_234
10
6.2428241
20
10.5852148
40
0.5323783
50
77.2360837
51
90.3248275
0
ARC
8
DEFAULT_255_1_234
10
6.263532
20
10.68194
40
0.4334697
50
63.837784
51
77.0809408
0
ARC
8
DEFAULT_255_1_234
10
6.2913081
20
10.7336911
40
0.3747796
50
45.9864267
51
64.1607727
0
ARC
8
DEFAULT_255_1_234
10
6.3173963
20
10.7634866
40
0.3352302
50
32.2747395
51
45.6547121
0
ARC
8
DEFAULT_255_1_234
10
6.3240403
20
10.765388
40
0.328603
50
359.6507365
51
32.6130309
0
ARC
8
DEFAULT_255_1_234
10
6.2297499
20
10.765866
40
0.2678863
50
359.469343
51
14.9832209
0
ARC
8
DEFAULT_255_1_234
10
6.3002561
20
10.7847539
40
0.1948938
50
14.9781179
51
48.2004265
0
ARC
8
DEFAULT_255_1_234
10
6.2838205
20
10.7640983
40
0.2212521
50
48.5927837
51
74.1241538
0
ARC
8
DEFAULT_255_1_234
10
6.2504695
20
10.6540248
40
0.3362561
50
73.7888341
51
86.6652678
0
ARC
8
DEFAULT_255_1_234
10
6.240226
20
10.5332881
40
0.4573953
50
86.2640471
51
90.0526343
0
ARC
8
DEFAULT_255_1_234
10
6.2373973
20
10.5728192
40
0.4178709
50
89.6697524
51
99.2309573
0
ARC
8
DEFAULT_255_1_234
10
6.2131424
20
10.7172964
40
0.2713749
50
99.069534
51
113.7658566
0
ARC
8
DEFAULT_255_1_234
10
6.1857615
20
10.7818677
40
0.2012469
50
114.0401004
51
127.9850673
0
ARC
8
DEFAULT_255_1_234
10
6.1617179
20
10.811473
40
0.1631167
50
127.7287463
51
176.7105154
0
ARC
8
DEFAULT_255_1_234
10
6.2295896
20
10.8013693
40
0.2315392
50
175.1779447
51
180.0581938
0
ARC
8
DEFAULT_255_1_234
10
6.1452743
20
10.8001428
40
0.1472271
50
179.6142195
51
228.1246017
0
ARC
8
DEFAULT_255_1_234
10
6.1894412
20
10.8410308
40
0.2072299
50
226.5779593
51
230.8800004
0
ARC
8
DEFAULT_255_1_234
10
6.236549
20
10.9035636
40
0.2854818
50
231.4635071
51
241.9260842
0
ARC
8
DEFAULT_255_1_234
10
6.3562668
20
11.12388
40
0.53622
50
241.7178533
51
248.3259551
0
ARC
8
DEFAULT_255_1_234
10
6.494804
20
11.4671064
40
0.9063478
50
248.2007737
51
252.4528373
0
ARC
8
DEFAULT_255_1_234
10
6.6151765
20
11.8392441
40
1.2974635
50
252.3391078
51
254.3469452
0
ARC
8
DEFAULT_255_1_234
10
5.8609468
20
9.1415148
40
1.5037162
50
71.0197183
51
74.4087047
0
ARC
8
DEFAULT_255_1_234
10
6.0304153
20
9.6307111
40
0.9859993
50
66.1847285
51
71.086374
0
ARC
8
DEFAULT_255_1_234
10
6.1860465
20
9.98112
40
0.6025855
50
59.3536294
51
66.2691831
0
ARC
8
DEFAULT_255_1_234
10
6.2749118
20
10.1314609
40
0.4279449
50
49.1020879
51
59.3293958
0
ARC
8
DEFAULT_255_1_234
10
6.3567858
20
10.2247834
40
0.3038015
50
32.7919921
51
49.2505539
0
ARC
8
DEFAULT_255_1_234
10
6.3888948
20
10.2476191
40
0.264448
50
31.1181161
51
32.4005348
0
ARC
8
DEFAULT_255_1_234
10
6.3800485
20
10.2440779
40
0.2738556
50
8.1116974
51
30.7958831
0
ARC
8
DEFAULT_255_1_234
10
6.2990153
20
10.2302753
40
0.3560327
50
359.8389159
51
8.4706516
0
ARC
8
DEFAULT_255_1_234
10
6.3615945
20
10.2254137
40
0.2934776
50
337.4731098
51
0.7537279
0
ARC
8
DEFAULT_255_1_234
10
6.379464
20
10.2234387
40
0.2762607
50
307.5917067
51
336.4315538
0
ARC
8
DEFAULT_255_1_234
10
6.3334468
20
10.2747102
40
0.3449979
50
307.6551545
51
308.4529766
0
ARC
8
DEFAULT_255_1_234
10
6.3104187
20
10.310225
40
0.3871988
50
284.3734338
51
307.1424381
0
ARC
8
DEFAULT_255_1_234
10
6.2609017
20
10.4923932
40
0.5759636
50
272.4382747
51
284.646547
0
ARC
8
DEFAULT_255_1_234
10
6.2482226
20
10.6723893
40
0.7563528
50
269.9708387
51
272.8178037
0
ARC
8
DEFAULT_255_1_234
10
6.2439265
20
10.4685716
40
0.5525489
50
248.2707594
51
270.4055579
0
ARC
8
DEFAULT_255_1_234
10
6.2385006
20
10.4495192
40
0.5328452
50
246.1383403
51
248.0542782
0
ARC
8
DEFAULT_255_1_234
10
6.1966385
20
10.3615843
40
0.4355005
50
233.1670131
51
246.4950969
0
ARC
8
DEFAULT_255_1_234
10
6.141229
20
10.2867812
40
0.3424126
50
215.3403242
51
233.0843104
0
ARC
8
DEFAULT_255_1_234
10
6.1139721
20
10.2669549
40
0.3087104
50
179.2419209
51
215.2648451
0
ARC
8
DEFAULT_255_1_234
10
6.1907315
20
10.2683666
40
0.2304457
50
179.335461
51
199.1045811
0
ARC
8
DEFAULT_255_1_234
10
6.1574992
20
10.2596766
40
0.1962176
50
199.8828939
51
232.7063202
0
ARC
8
DEFAULT_255_1_234
10
6.204726
20
10.3190788
40
0.2720938
50
232.3738199
51
255.5136649
0
ARC
8
DEFAULT_255_1_234
10
6.2388127
20
10.4434835
40
0.4010747
50
255.2446292
51
267.5320849
0
ARC
8
DEFAULT_255_1_234
10
6.247575
20
10.5667702
40
0.5246356
50
267.1557994
51
270.0286766
0
ARC
8
DEFAULT_255_1_234
10
6.2503522
20
10.522395
40
0.4802668
50
269.7000017
51
278.1660162
0
ARC
8
DEFAULT_255_1_234
10
6.2759527
20
10.3493515
40
0.3053425
50
278.0231263
51
290.625471
0
ARC
8
DEFAULT_255_1_234
10
6.3107214
20
10.2566025
40
0.206291
50
290.6619762
51
307.0370976
0
ARC
8
DEFAULT_255_1_234
10
6.3407604
20
10.2197504
40
0.1587906
50
306.3943566
51
355.3030547
0
ARC
8
DEFAULT_255_1_234
10
6.2895535
20
10.2274113
40
0.2104809
50
354.3660432
51
0.0698737
0
ARC
8
DEFAULT_255_1_234
10
6.303788
20
10.2296617
40
0.1962563
50
359.417946
51
16.1971788
0
ARC
8
DEFAULT_255_1_234
10
6.3493191
20
10.2421418
40
0.149053
50
16.4723299
51
52.6262157
0
ARC
8
DEFAULT_255_1_234
10
6.2672244
20
10.1337433
40
0.2850296
50
52.7386432
51
62.4979148
0
ARC
8
DEFAULT_255_1_234
10
6.1287321
20
9.8731283
40
0.5801521
50
62.2515216
51
68.1220564
0
ARC
8
DEFAULT_255_1_234
10
5.9567232
20
9.4503872
40
1.0365451
50
68.0062803
51
71.8053402
0
ARC
8
DEFAULT_255_1_234
10
5.7771604
20
8.9118758
40
1.6042013
50
71.7183119
51
73.9258742
0
LINE
8
DEFAULT_255_1_234
10
4.3681299
20
16.3931211
11
4.6500439
21
15.9449501
0
LINE
8
DEFAULT_255_1_234
10
4.6500439
20
15.9449501
11
4.9303516
21
16.3931211
0
LINE
8
DEFAULT_255_1_234
10
4.9303516
20
16.3931211
11
5.1118689
21
16.3931211
0
LINE
8
DEFAULT_255_1_234
10
5.1118689
20
16.3931211
11
4.7424089
21
15.8132296
0
LINE
8
DEFAULT_255_1_234
10
4.7424089
20
15.8132296
11
5.1207038
21
15.2237
0
LINE
8
DEFAULT_255_1_234
10
5.1207038
20
15.2237
11
4.9375802
21
15.2237
0
LINE
8
DEFAULT_255_1_234
10
4.9375802
20
15.2237
11
4.6500439
21
15.6799027
0
LINE
8
DEFAULT_255_1_234
10
4.6500439
20
15.6799027
11
4.3609014
21
15.2237
0
LINE
8
DEFAULT_255_1_234
10
4.3609014
20
15.2237
11
4.1785809
21
15.2237
0
LINE
8
DEFAULT_255_1_234
10
4.1785809
20
15.2237
11
4.557679
21
15.8132296
0
LINE
8
DEFAULT_255_1_234
10
4.557679
20
15.8132296
11
4.1874158
21
16.3931211
0
LINE
8
DEFAULT_255_1_234
10
4.1874158
20
16.3931211
11
4.3681299
21
16.3931211
0
LINE
8
DEFAULT_255_1_234
10
6.0274871
20
15.3449792
11
6.0274871
21
15.2237
0
LINE
8
DEFAULT_255_1_234
10
6.0274871
20
15.2237
11
5.2612592
21
15.2237
0
LINE
8
DEFAULT_255_1_234
10
5.2612592
20
15.2237
11
5.2612592
21
15.3305221
0
LINE
8
DEFAULT_255_1_234
10
5.2612592
20
15.3305221
11
5.6660588
21
15.7802995
0
LINE
8
DEFAULT_255_1_234
10
5.3873575
20
16.0485595
11
5.2387704
21
16.0485595
0
LINE
8
DEFAULT_255_1_234
10
5.7536048
20
15.6847218
11
5.440367
21
15.3449792
0
LINE
8
DEFAULT_255_1_234
10
5.440367
20
15.3449792
11
6.0274871
21
15.3449792
0
ARC
8
DEFAULT_255_1_234
10
4.3170422
20
16.9732527
40
1.8008286
50
318.5132453
51
320.7828378
0
ARC
8
DEFAULT_255_1_234
10
4.8457396
20
16.5429426
40
1.1191493
50
320.7372736
51
323.9737074
0
ARC
8
DEFAULT_255_1_234
10
5.2377252
20
16.2589361
40
0.6350923
50
323.8961724
51
328.6421089
0
ARC
8
DEFAULT_255_1_234
10
5.4423848
20
16.1327031
40
0.3946393
50
328.8299013
51
331.789948
0
ARC
8
DEFAULT_255_1_234
10
5.5421026
20
16.0812509
40
0.2824501
50
331.4255242
51
352.9364833
0
ARC
8
DEFAULT_255_1_234
10
5.5557527
20
16.0781976
40
0.2685315
50
353.2248685
51
0.0169286
0
ARC
8
DEFAULT_255_1_234
10
5.5767404
20
16.080495
40
0.2475536
50
359.4866256
51
15.9339782
0
ARC
8
DEFAULT_255_1_234
10
5.6274389
20
16.0941286
40
0.1950618
50
16.1714718
51
43.5284424
0
ARC
8
DEFAULT_255_1_234
10
5.6351698
20
16.1018573
40
0.184134
50
43.4415429
51
83.1661404
0
ARC
8
DEFAULT_255_1_234
10
5.6217616
20
16.0281771
40
0.258926
50
82.160215
51
90.1505798
0
ARC
8
DEFAULT_255_1_234
10
5.6186043
20
15.9744865
40
0.3126255
50
89.5460705
51
102.5418777
0
ARC
8
DEFAULT_255_1_234
10
5.5943129
20
16.0775665
40
0.2067346
50
102.1739365
51
129.2061916
0
ARC
8
DEFAULT_255_1_234
10
5.5864201
20
16.0900094
40
0.1921118
50
129.7279328
51
135.7542026
0
ARC
8
DEFAULT_255_1_234
10
5.5985729
20
16.0803045
40
0.2075944
50
136.175737
51
166.3674722
0
ARC
8
DEFAULT_255_1_234
10
5.6992648
20
16.0533182
40
0.3118201
50
165.9092917
51
178.8683903
0
ARC
8
DEFAULT_255_1_234
10
5.7857509
20
16.0486179
40
0.3983935
50
178.438168
51
180.0083905
0
ARC
8
DEFAULT_255_1_234
10
5.6456111
20
16.0525231
40
0.4068601
50
163.2878735
51
180.5581814
0
ARC
8
DEFAULT_255_1_234
10
5.5654373
20
16.074584
40
0.3237344
50
133.454115
51
162.9470031
0
ARC
8
DEFAULT_255_1_234
10
5.5832914
20
16.0556
40
0.349795
50
100.7869394
51
133.4384016
0
ARC
8
DEFAULT_255_1_234
10
5.6180686
20
15.9007319
40
0.5084616
50
89.6605301
51
101.3704185
0
ARC
8
DEFAULT_255_1_234
10
5.6247024
20
15.9068496
40
0.502348
50
78.2171172
51
90.4130393
0
ARC
8
DEFAULT_255_1_234
10
5.6602103
20
16.0692637
40
0.3361092
50
55.9268222
51
78.4888551
0
ARC
8
DEFAULT_255_1_234
10
5.6798543
20
16.1031324
40
0.2970617
50
47.9292255
51
55.4054003
0
ARC
8
DEFAULT_255_1_234
10
5.6900103
20
16.1134502
40
0.2825983
50
4.3347696
51
48.0560701
0
ARC
8
DEFAULT_255_1_234
10
5.5804497
20
16.0964601
40
0.393225
50
359.925209
51
5.5967654
0
ARC
8
DEFAULT_255_1_234
10
5.6233389
20
16.1020816
40
0.3503892
50
337.8914096
51
358.9967724
0
ARC
8
DEFAULT_255_1_234
10
5.3519801
20
16.2067706
40
0.6412172
50
326.9135351
51
338.3505194
0
ARC
8
DEFAULT_255_1_234
10
4.9534105
20
16.4622284
40
1.1146189
50
319.6472867
51
327.095818
0
ARC
8
DEFAULT_255_1_234
10
4.5701108
20
16.7784
40
1.6114559
50
317.2586784
51
319.9046139
0
LINE
8
DEFAULT_255_1_234
10
6.9398925
20
16.3931211
11
6.9398925
21
16.309591
0
LINE
8
DEFAULT_255_1_234
10
6.9398925
20
16.309591
11
6.4555787
21
15.2237
0
LINE
8
DEFAULT_255_1_234
10
6.4555787
20
15.2237
11
6.299763
21
15.2237
0
LINE
8
DEFAULT_255_1_234
10
6.299763
20
15.2237
11
6.7824705
21
16.2710387
0
LINE
8
DEFAULT_255_1_234
10
6.7824705
20
16.2710387
11
6.1495695
21
16.2710387
0
LINE
8
DEFAULT_255_1_234
10
6.1495695
20
16.2710387
11
6.1495695
21
16.3931211
0
LINE
8
DEFAULT_255_1_234
10
6.1495695
20
16.3931211
11
6.9398925
21
16.3931211
0
LINE
8
DEFAULT_255_1_234
10
4.3681299
20
21.6848211
11
4.6500439
21
21.2366501
0
LINE
8
DEFAULT_255_1_234
10
4.6500439
20
21.2366501
11
4.9303516
21
21.6848211
0
LINE
8
DEFAULT_255_1_234
10
4.9303516
20
21.6848211
11
5.1118689
21
21.6848211
0
LINE
8
DEFAULT_255_1_234
10
5.1118689
20
21.6848211
11
4.7424089
21
21.1049296
0
LINE
8
DEFAULT_255_1_234
10
4.7424089
20
21.1049296
11
5.1207038
21
20.5154
0
LINE
8
DEFAULT_255_1_234
10
5.1207038
20
20.5154
11
4.9375802
21
20.5154
0
LINE
8
DEFAULT_255_1_234
10
4.9375802
20
20.5154
11
4.6500439
21
20.9716027
0
LINE
8
DEFAULT_255_1_234
10
4.6500439
20
20.9716027
11
4.3609014
21
20.5154
0
LINE
8
DEFAULT_255_1_234
10
4.3609014
20
20.5154
11
4.1785809
21
20.5154
0
LINE
8
DEFAULT_255_1_234
10
4.1785809
20
20.5154
11
4.557679
21
21.1049296
0
LINE
8
DEFAULT_255_1_234
10
4.557679
20
21.1049296
11
4.1874158
21
21.6848211
0
LINE
8
DEFAULT_255_1_234
10
4.1874158
20
21.6848211
11
4.3681299
21
21.6848211
0
LINE
8
DEFAULT_255_1_234
10
6.0274871
20
20.6366792
11
6.0274871
21
20.5154
0
LINE
8
DEFAULT_255_1_234
10
6.0274871
20
20.5154
11
5.2612592
21
20.5154
0
LINE
8
DEFAULT_255_1_234
10
5.2612592
20
20.5154
11
5.2612592
21
20.6222221
0
LINE
8
DEFAULT_255_1_234
10
5.2612592
20
20.6222221
11
5.6660588
21
21.0719995
0
LINE
8
DEFAULT_255_1_234
10
5.3873575
20
21.3402595
11
5.2387704
21
21.3402595
0
LINE
8
DEFAULT_255_1_234
10
5.7536048
20
20.9764218
11
5.440367
21
20.6366792
0
LINE
8
DEFAULT_255_1_234
10
5.440367
20
20.6366792
11
6.0274871
21
20.6366792
0
ARC
8
DEFAULT_255_1_234
10
4.3170422
20
22.2649527
40
1.8008286
50
318.5132453
51
320.7828378
0
ARC
8
DEFAULT_255_1_234
10
4.8457396
20
21.8346426
40
1.1191493
50
320.7372736
51
323.9737074
0
ARC
8
DEFAULT_255_1_234
10
5.2377252
20
21.5506361
40
0.6350923
50
323.8961724
51
328.6421089
0
ARC
8
DEFAULT_255_1_234
10
5.4423848
20
21.4244031
40
0.3946393
50
328.8299013
51
331.789948
0
ARC
8
DEFAULT_255_1_234
10
5.5421026
20
21.3729509
40
0.2824501
50
331.4255242
51
352.9364833
0
ARC
8
DEFAULT_255_1_234
10
5.5557527
20
21.3698976
40
0.2685315
50
353.2248685
51
0.0169286
0
ARC
8
DEFAULT_255_1_234
10
5.5767404
20
21.372195
40
0.2475536
50
359.4866256
51
15.9339782
0
ARC
8
DEFAULT_255_1_234
10
5.6274389
20
21.3858286
40
0.1950618
50
16.1714718
51
43.5284424
0
ARC
8
DEFAULT_255_1_234
10
5.6351698
20
21.3935573
40
0.184134
50
43.4415429
51
83.1661404
0
ARC
8
DEFAULT_255_1_234
10
5.6217616
20
21.3198771
40
0.258926
50
82.160215
51
90.1505798
0
ARC
8
DEFAULT_255_1_234
10
5.6186043
20
21.2661865
40
0.3126255
50
89.5460705
51
102.5418777
0
ARC
8
DEFAULT_255_1_234
10
5.5943129
20
21.3692665
40
0.2067346
50
102.1739365
51
129.2061916
0
ARC
8
DEFAULT_255_1_234
10
5.5864201
20
21.3817094
40
0.1921118
50
129.7279328
51
135.7542026
0
ARC
8
DEFAULT_255_1_234
10
5.5985729
20
21.3720045
40
0.2075944
50
136.175737
51
166.3674722
0
ARC
8
DEFAULT_255_1_234
10
5.6992648
20
21.3450182
40
0.3118201
50
165.9092917
51
178.8683903
0
ARC
8
DEFAULT_255_1_234
10
5.7857509
20
21.3403179
40
0.3983935
50
178.438168
51
180.0083905
0
ARC
8
DEFAULT_255_1_234
10
5.6456111
20
21.3442231
40
0.4068601
50
163.2878735
51
180.5581814
0
ARC
8
DEFAULT_255_1_234
10
5.5654373
20
21.366284
40
0.3237344
50
133.454115
51
162.9470031
0
ARC
8
DEFAULT_255_1_234
10
5.5832914
20
21.3473
40
0.349795
50
100.7869394
51
133.4384016
0
ARC
8
DEFAULT_255_1_234
10
5.6180686
20
21.1924319
40
0.5084616
50
89.6605301
51
101.3704185
0
ARC
8
DEFAULT_255_1_234
10
5.6247024
20
21.1985496
40
0.502348
50
78.2171172
51
90.4130393
0
ARC
8
DEFAULT_255_1_234
10
5.6602103
20
21.3609637
40
0.3361092
50
55.9268222
51
78.4888551
0
ARC
8
DEFAULT_255_1_234
10
5.6798543
20
21.3948324
40
0.2970617
50
47.9292255
51
55.4054003
0
ARC
8
DEFAULT_255_1_234
10
5.6900103
20
21.4051502
40
0.2825983
50
4.3347696
51
48.0560701
0
ARC
8
DEFAULT_255_1_234
10
5.5804497
20
21.3881601
40
0.393225
50
359.925209
51
5.5967654
0
ARC
8
DEFAULT_255_1_234
10
5.6233389
20
21.3937816
40
0.3503892
50
337.8914096
51
358.9967724
0
ARC
8
DEFAULT_255_1_234
10
5.3519801
20
21.4984706
40
0.6412172
50
326.9135351
51
338.3505194
0
ARC
8
DEFAULT_255_1_234
10
4.9534105
20
21.7539284
40
1.1146189
50
319.6472867
51
327.095818
0
ARC
8
DEFAULT_255_1_234
10
4.5701108
20
22.0701
40
1.6114559
50
317.2586784
51
319.9046139
0
LINE
8
DEFAULT_255_1_234
10
6.7415086
20
21.6856243
11
6.7680133
21
21.6856243
0
LINE
8
DEFAULT_255_1_234
10
6.7680133
20
21.6856243
11
6.7680133
21
21.559526
0
LINE
8
DEFAULT_255_1_234
10
6.7680133
20
21.559526
11
6.7407054
21
21.559526
0
LINE
8
DEFAULT_255_1_234
10
6.193744
20
20.9603583
11
6.193744
21
21.0173836
0
LINE
8
DEFAULT_255_1_234
10
6.3431344
20
20.9981075
11
6.3431344
21
20.9434917
0
ARC
8
DEFAULT_255_1_234
10
6.7459402
20
21.0597455
40
0.4998079
50
90.6001036
51
104.514704
0
ARC
8
DEFAULT_255_1_234
10
6.7070918
20
21.2042131
40
0.3502176
50
104.2855254
51
133.862935
0
ARC
8
DEFAULT_255_1_234
10
6.7234675
20
21.193383
40
0.3693984
50
134.5302688
51
161.6210873
0
ARC
8
DEFAULT_255_1_234
10
6.8887864
20
21.1350895
40
0.5446739
50
161.2849839
51
174.2076652
0
ARC
8
DEFAULT_255_1_234
10
7.0294801
20
21.1156787
40
0.6866274
50
173.7810589
51
174.9254635
0
ARC
8
DEFAULT_255_1_234
10
6.5744633
20
20.9773839
40
0.3033419
50
95.8330959
51
138.9954921
0
ARC
8
DEFAULT_255_1_234
10
6.5967989
20
20.8495375
40
0.4328947
50
89.8753725
51
97.0544009
0
ARC
8
DEFAULT_255_1_234
10
6.6015455
20
20.9330748
40
0.3493769
50
71.6407809
51
90.6240094
0
ARC
8
DEFAULT_255_1_234
10
6.6166028
20
20.9885082
40
0.2920396
50
39.6367836
51
71.019018
0
ARC
8
DEFAULT_255_1_234
10
6.5529501
20
20.9334998
40
0.3761538
50
10.658731
51
39.9043955
0
ARC
8
DEFAULT_255_1_234
10
6.3981584
20
20.8998686
40
0.5345136
50
359.682601
51
11.132623
0
ARC
8
DEFAULT_255_1_234
10
6.3941715
20
20.892801
40
0.5385081
50
347.2486944
51
0.4369317
0
ARC
8
DEFAULT_255_1_234
10
6.5609192
20
20.8526807
40
0.3670249
50
318.1409698
51
347.6118597
0
ARC
8
DEFAULT_255_1_234
10
6.5934185
20
20.8259702
40
0.3250007
50
275.6342139
51
317.8248465
0
ARC
8
DEFAULT_255_1_234
10
6.5713296
20
20.9559219
40
0.4565864
50
269.8874292
51
276.7917694
0
ARC
8
DEFAULT_255_1_234
10
6.5658367
20
20.8533743
40
0.3540676
50
246.9140195
51
270.7437342
0
ARC
8
DEFAULT_255_1_234
10
6.5664757
20
20.8391384
40
0.3412781
50
218.1665114
51
245.878116
0
ARC
8
DEFAULT_255_1_234
10
6.6544218
20
20.9127279
40
0.455911
50
191.4115814
51
218.6077802
0
ARC
8
DEFAULT_255_1_234
10
6.8482307
20
20.9561833
40
0.6545001
50
179.6345085
51
191.7836486
0
ARC
8
DEFAULT_255_1_234
10
7.4064644
20
21.0240697
40
1.2127388
50
171.4525249
51
180.3158839
0
ARC
8
DEFAULT_255_1_234
10
6.966952
20
21.0924608
40
0.7679464
50
157.9802646
51
171.6246686
0
ARC
8
DEFAULT_255_1_234
10
6.7455541
20
21.1807421
40
0.5296008
50
141.4298019
51
157.854097
0
ARC
8
DEFAULT_255_1_234
10
6.6813861
20
21.2261381
40
0.4511509
50
102.8715806
51
140.8564722
0
ARC
8
DEFAULT_255_1_234
10
6.7461477
20
20.9821552
40
0.7034845
50
90.3778349
51
103.5869322
0
ARC
8
DEFAULT_255_1_234
10
6.5723253
20
20.921673
40
0.2370698
50
89.8751008
51
126.2071704
0
ARC
8
DEFAULT_255_1_234
10
6.5769043
20
20.9062303
40
0.2522934
50
124.9745049
51
144.895901
0
ARC
8
DEFAULT_255_1_234
10
6.5593233
20
20.920556
40
0.2296779
50
145.2974905
51
160.2660252
0
ARC
8
DEFAULT_255_1_234
10
6.8665772
20
20.9403071
40
0.5234525
50
179.6514266
51
190.2855912
0
ARC
8
DEFAULT_255_1_234
10
6.6971909
20
20.9083786
40
0.3510893
50
190.0945431
51
207.5098196
0
ARC
8
DEFAULT_255_1_234
10
6.6406179
20
20.8814623
40
0.288489
50
207.9583163
51
216.3251085
0
ARC
8
DEFAULT_255_1_234
10
6.6066287
20
20.8535105
40
0.2445587
50
215.7661442
51
232.5456785
0
ARC
8
DEFAULT_255_1_234
10
6.568327
20
20.8048482
40
0.1826382
50
232.8005391
51
270.6605633
0
ARC
8
DEFAULT_255_1_234
10
6.5728971
20
20.8412612
40
0.2190529
50
269.35537
51
288.4744281
0
ARC
8
DEFAULT_255_1_234
10
6.5821868
20
20.8063118
40
0.1829749
50
289.1833337
51
322.9683818
0
ARC
8
DEFAULT_255_1_234
10
6.521039
20
20.8545391
40
0.2608399
50
322.6007884
51
346.5182367
0
ARC
8
DEFAULT_255_1_234
10
6.4052986
20
20.8840616
40
0.3802777
50
346.2582162
51
358.7741648
0
ARC
8
DEFAULT_255_1_234
10
6.3034655
20
20.8895965
40
0.4822176
50
358.3755224
51
0.0098023
0
ARC
8
DEFAULT_255_1_234
10
6.3790842
20
20.8923657
40
0.4066078
50
359.6214041
51
11.2839074
0
ARC
8
DEFAULT_255_1_234
10
6.5067989
20
20.9190066
40
0.2761514
50
11.0482309
51
31.8146458
0
ARC
8
DEFAULT_255_1_234
10
6.5377032
20
20.9357584
40
0.2410679
50
32.3035391
51
38.082671
0
ARC
8
DEFAULT_255_1_234
10
6.5797692
20
20.9738662
40
0.1844966
50
36.825067
51
85.7415724
0
ARC
8
DEFAULT_255_1_234
10
6.5730525
20
20.9238301
40
0.2349122
50
85.0140713
51
90.0513278
0
LINE
8
DEFAULT_255_1_234
10
4.3681299
20
26.9765211
11
4.6500439
21
26.5283501
0
LINE
8
DEFAULT_255_1_234
10
4.6500439
20
26.5283501
11
4.9303516
21
26.9765211
0
LINE
8
DEFAULT_255_1_234
10
4.9303516
20
26.9765211
11
5.1118689
21
26.9765211
0
LINE
8
DEFAULT_255_1_234
10
5.1118689
20
26.9765211
11
4.7424089
21
26.3966296
0
LINE
8
DEFAULT_255_1_234
10
4.7424089
20
26.3966296
11
5.1207038
21
25.8071
0
LINE
8
DEFAULT_255_1_234
10
5.1207038
20
25.8071
11
4.9375802
21
25.8071
0
LINE
8
DEFAULT_255_1_234
10
4.9375802
20
25.8071
11
4.6500439
21
26.2633027
0
LINE
8
DEFAULT_255_1_234
10
4.6500439
20
26.2633027
11
4.3609014
21
25.8071
0
LINE
8
DEFAULT_255_1_234
10
4.3609014
20
25.8071
11
4.1785809
21
25.8071
0
LINE
8
DEFAULT_255_1_234
10
4.1785809
20
25.8071
11
4.557679
21
26.3966296
0
LINE
8
DEFAULT_255_1_234
10
4.557679
20
26.3966296
11
4.1874158
21
26.9765211
0
LINE
8
DEFAULT_255_1_234
10
4.1874158
20
26.9765211
11
4.3681299
21
26.9765211
0
LINE
8
DEFAULT_255_1_234
10
6.0274871
20
25.9283792
11
6.0274871
21
25.8071
0
LINE
8
DEFAULT_255_1_234
10
6.0274871
20
25.8071
11
5.2612592
21
25.8071
0
LINE
8
DEFAULT_255_1_234
10
5.2612592
20
25.8071
11
5.2612592
21
25.9139221
0
LINE
8
DEFAULT_255_1_234
10
5.2612592
20
25.9139221
11
5.6660588
21
26.3636995
0
LINE
8
DEFAULT_255_1_234
10
5.3873575
20
26.6319595
11
5.2387704
21
26.6319595
0
LINE
8
DEFAULT_255_1_234
10
5.7536048
20
26.2681218
11
5.440367
21
25.9283792
0
LINE
8
DEFAULT_255_1_234
10
5.440367
20
25.9283792
11
6.0274871
21
25.9283792
0
ARC
8
DEFAULT_255_1_234
10
4.3170422
20
27.5566527
40
1.8008286
50
318.5132453
51
320.7828378
0
ARC
8
DEFAULT_255_1_234
10
4.8457396
20
27.1263426
40
1.1191493
50
320.7372736
51
323.9737074
0
ARC
8
DEFAULT_255_1_234
10
5.2377252
20
26.8423361
40
0.6350923
50
323.8961724
51
328.6421089
0
ARC
8
DEFAULT_255_1_234
10
5.4423848
20
26.7161031
40
0.3946393
50
328.8299013
51
331.789948
0
ARC
8
DEFAULT_255_1_234
10
5.5421026
20
26.6646509
40
0.2824501
50
331.4255242
51
352.9364833
0
ARC
8
DEFAULT_255_1_234
10
5.5557527
20
26.6615976
40
0.2685315
50
353.2248685
51
0.0169286
0
ARC
8
DEFAULT_255_1_234
10
5.5767404
20
26.663895
40
0.2475536
50
359.4866256
51
15.9339782
0
ARC
8
DEFAULT_255_1_234
10
5.6274389
20
26.6775286
40
0.1950618
50
16.1714718
51
43.5284424
0
ARC
8
DEFAULT_255_1_234
10
5.6351698
20
26.6852573
40
0.184134
50
43.4415429
51
83.1661404
0
ARC
8
DEFAULT_255_1_234
10
5.6217616
20
26.6115771
40
0.258926
50
82.160215
51
90.1505798
0
ARC
8
DEFAULT_255_1_234
10
5.6186043
20
26.5578865
40
0.3126255
50
89.5460705
51
102.5418777
0
ARC
8
DEFAULT_255_1_234
10
5.5943129
20
26.6609665
40
0.2067346
50
102.1739365
51
129.2061916
0
ARC
8
DEFAULT_255_1_234
10
5.5864201
20
26.6734094
40
0.1921118
50
129.7279328
51
135.7542026
0
ARC
8
DEFAULT_255_1_234
10
5.5985729
20
26.6637045
40
0.2075944
50
136.175737
51
166.3674722
0
ARC
8
DEFAULT_255_1_234
10
5.6992648
20
26.6367182
40
0.3118201
50
165.9092917
51
178.8683903
0
ARC
8
DEFAULT_255_1_234
10
5.7857509
20
26.6320179
40
0.3983935
50
178.438168
51
180.0083905
0
ARC
8
DEFAULT_255_1_234
10
5.6456111
20
26.6359231
40
0.4068601
50
163.2878735
51
180.5581814
0
ARC
8
DEFAULT_255_1_234
10
5.5654373
20
26.657984
40
0.3237344
50
133.454115
51
162.9470031
0
ARC
8
DEFAULT_255_1_234
10
5.5832914
20
26.639
40
0.349795
50
100.7869394
51
133.4384016
0
ARC
8
DEFAULT_255_1_234
10
5.6180686
20
26.4841319
40
0.5084616
50
89.6605301
51
101.3704185
0
ARC
8
DEFAULT_255_1_234
10
5.6247024
20
26.4902496
40
0.502348
50
78.2171172
51
90.4130393
0
ARC
8
DEFAULT_255_1_234
10
5.6602103
20
26.6526637
40
0.3361092
50
55.9268222
51
78.4888551
0
ARC
8
DEFAULT_255_1_234
10
5.6798543
20
26.6865324
40
0.2970617
50
47.9292255
51
55.4054003
0
ARC
8
DEFAULT_255_1_234
10
5.6900103
20
26.6968502
40
0.2825983
50
4.3347696
51
48.0560701
0
ARC
8
DEFAULT_255_1_234
10
5.5804497
20
26.6798601
40
0.393225
50
359.925209
51
5.5967654
0
ARC
8
DEFAULT_255_1_234
10
5.6233389
20
26.6854816
40
0.3503892
50
337.8914096
51
358.9967724
0
ARC
8
DEFAULT_255_1_234
10
5.3519801
20
26.7901706
40
0.6412172
50
326.9135351
51
338.3505194
0
ARC
8
DEFAULT_255_1_234
10
4.9534105
20
27.0456284
40
1.1146189
50
319.6472867
51
327.095818
0
ARC
8
DEFAULT_255_1_234
10
4.5701108
20
27.3618
40
1.6114559
50
317.2586784
51
319.9046139
0
LINE
8
DEFAULT_255_1_234
10
6.3720486
20
26.3628963
11
6.2531789
21
26.3934169
0
LINE
8
DEFAULT_255_1_234
10
6.2531789
20
26.3934169
11
6.3126138
21
26.9765211
0
LINE
8
DEFAULT_255_1_234
10
6.3126138
20
26.9765211
11
6.9117814
21
26.9765211
0
LINE
8
DEFAULT_255_1_234
10
6.9117814
20
26.9765211
11
6.9117814
21
26.8391784
0
LINE
8
DEFAULT_255_1_234
10
6.9117814
20
26.8391784
11
6.4387121
21
26.8391784
0
LINE
8
DEFAULT_255_1_234
10
6.4387121
20
26.8391784
11
6.4033724
21
26.5203184
0
LINE
8
DEFAULT_255_1_234
10
6.2114139
20
26.1147156
11
6.3519693
21
26.1147156
0
LINE
8
DEFAULT_255_1_234
10
6.4114042
20
26.3950232
11
6.3720486
21
26.3628963
0
ARC
8
DEFAULT_255_1_234
10
6.5888508
20
26.202323
40
0.3681349
50
93.7182161
51
120.2538958
0
ARC
8
DEFAULT_255_1_234
10
6.5982771
20
26.1215394
40
0.449379
50
89.9660152
51
94.2496022
0
ARC
8
DEFAULT_255_1_234
10
6.6023505
20
26.1804549
40
0.390482
50
73.8043271
51
90.5585896
0
ARC
8
DEFAULT_255_1_234
10
6.6258402
20
26.2662602
40
0.3015334
50
41.3071453
51
73.5430202
0
ARC
8
DEFAULT_255_1_234
10
6.5842229
20
26.2304324
40
0.3564457
50
13.5075983
51
41.2174222
0
ARC
8
DEFAULT_255_1_234
10
6.4200433
20
26.1874486
40
0.5261351
50
1.1331335
51
13.8829381
0
ARC
8
DEFAULT_255_1_234
10
6.2788802
20
26.1798665
40
0.6674378
50
359.9919444
51
1.544251
0
ARC
8
DEFAULT_255_1_234
10
6.4065628
20
26.175728
40
0.5397702
50
347.8572367
51
0.4293338
0
ARC
8
DEFAULT_255_1_234
10
6.5815946
20
26.1360736
40
0.3603188
50
323.673004
51
348.1672506
0
ARC
8
DEFAULT_255_1_234
10
6.6110454
20
26.1181168
40
0.3259678
50
316.8171152
51
323.1492751
0
ARC
8
DEFAULT_255_1_234
10
6.6171643
20
26.114446
40
0.3189975
50
281.8396411
51
316.5457803
0
ARC
8
DEFAULT_255_1_234
10
6.5795907
20
26.2699762
40
0.4789527
50
269.5770101
51
282.4214771
0
ARC
8
DEFAULT_255_1_234
10
6.5724718
20
26.2486125
40
0.45759
50
256.2427136
51
270.4486331
0
ARC
8
DEFAULT_255_1_234
10
6.542562
20
26.1286229
40
0.3339303
50
228.9023911
51
256.3314342
0
ARC
8
DEFAULT_255_1_234
10
6.5351853
20
26.1169746
40
0.32031
50
193.753695
51
228.5271154
0
ARC
8
DEFAULT_255_1_234
10
6.6589807
20
26.15328
40
0.4492253
50
184.924711
51
194.497588
0
ARC
8
DEFAULT_255_1_234
10
6.6782374
20
26.1568591
40
0.3289787
50
187.3600538
51
198.6732863
0
ARC
8
DEFAULT_255_1_234
10
6.5732668
20
26.1204674
40
0.217884
50
198.4451669
51
217.794479
0
ARC
8
DEFAULT_255_1_234
10
6.5436843
20
26.0995085
40
0.1816698
50
218.2887171
51
228.5612368
0
ARC
8
DEFAULT_255_1_234
10
6.553463
20
26.1126963
40
0.1980329
50
228.9654866
51
258.1234728
0
ARC
8
DEFAULT_255_1_234
10
6.574034
20
26.2007833
40
0.2884748
50
257.7258293
51
270.401361
0
ARC
8
DEFAULT_255_1_234
10
6.5785226
20
26.1562821
40
0.2439788
50
269.4204404
51
286.4209037
0
ARC
8
DEFAULT_255_1_234
10
6.5933714
20
26.1023657
40
0.1880666
50
286.7251356
51
320.600362
0
ARC
8
DEFAULT_255_1_234
10
6.5550539
20
26.1334595
40
0.2374121
50
320.6712579
51
344.5441685
0
ARC
8
DEFAULT_255_1_234
10
6.4393865
20
26.1674045
40
0.3579479
50
344.2412205
51
356.7357071
0
ARC
8
DEFAULT_255_1_234
10
6.3145014
20
26.1777444
40
0.4832297
50
356.3548756
51
0.0500261
0
ARC
8
DEFAULT_255_1_234
10
6.4481523
20
26.180865
40
0.3495889
50
359.5576869
51
12.953486
0
ARC
8
DEFAULT_255_1_234
10
6.553642
20
26.2064434
40
0.2410532
50
12.6490276
51
41.6081334
0
ARC
8
DEFAULT_255_1_234
10
6.5766791
20
26.2260321
40
0.2108218
50
41.7850273
51
85.9892764
0
ARC
8
DEFAULT_255_1_234
10
6.5643528
20
26.1447462
40
0.2928454
50
84.6957577
51
90.0676183
0
ARC
8
DEFAULT_255_1_234
10
6.5620012
20
26.0778716
40
0.3597255
50
89.6804936
51
99.1614436
0
ARC
8
DEFAULT_255_1_234
10
6.5414643
20
26.2006131
40
0.235281
50
98.9830931
51
113.8908934
0
ARC
8
DEFAULT_255_1_234
10
6.5185053
20
26.2547587
40
0.176479
50
114.1950727
51
127.3641004
0
LINE
8
DEFAULT_255_1_234
10
4.4740299
20
32.2681211
11
4.7559439
21
31.8199501
0
LINE
8
DEFAULT_255_1_234
10
4.7559439
20
31.8199501
11
5.0362516
21
32.2681211
0
LINE
8
DEFAULT_255_1_234
10
5.0362516
20
32.2681211
11
5.2177689
21
32.2681211
0
LINE
8
DEFAULT_255_1_234
10
5.2177689
20
32.2681211
11
4.8483089
21
31.6882296
0
LINE
8
DEFAULT_255_1_234
10
4.8483089
20
31.6882296
11
5.2266038
21
31.0987
0
LINE
8
DEFAULT_255_1_234
10
5.2266038
20
31.0987
11
5.0434802
21
31.0987
0
LINE
8
DEFAULT_255_1_234
10
5.0434802
20
31.0987
11
4.7559439
21
31.5549027
0
LINE
8
DEFAULT_255_1_234
10
4.7559439
20
31.5549027
11
4.4668014
21
31.0987
0
LINE
8
DEFAULT_255_1_234
10
4.4668014
20
31.0987
11
4.2844809
21
31.0987
0
LINE
8
DEFAULT_255_1_234
10
4.2844809
20
31.0987
11
4.663579
21
31.6882296
0
LINE
8
DEFAULT_255_1_234
10
4.663579
20
31.6882296
11
4.2933158
21
32.2681211
0
LINE
8
DEFAULT_255_1_234
10
4.2933158
20
32.2681211
11
4.4740299
21
32.2681211
0
LINE
8
DEFAULT_255_1_234
10
6.1333871
20
31.2199792
11
6.1333871
21
31.0987
0
LINE
8
DEFAULT_255_1_234
10
6.1333871
20
31.0987
11
5.3671592
21
31.0987
0
LINE
8
DEFAULT_255_1_234
10
5.3671592
20
31.0987
11
5.3671592
21
31.2055221
0
LINE
8
DEFAULT_255_1_234
10
5.3671592
20
31.2055221
11
5.7719588
21
31.6552995
0
LINE
8
DEFAULT_255_1_234
10
5.4932575
20
31.9235595
11
5.3446704
21
31.9235595
0
LINE
8
DEFAULT_255_1_234
10
5.8595048
20
31.5597218
11
5.546267
21
31.2199792
0
LINE
8
DEFAULT_255_1_234
10
5.546267
20
31.2199792
11
6.1333871
21
31.2199792
0
ARC
8
DEFAULT_255_1_234
10
4.4229422
20
32.8482527
40
1.8008286
50
318.5132453
51
320.7828378
0
ARC
8
DEFAULT_255_1_234
10
4.9516396
20
32.4179426
40
1.1191493
50
320.7372736
51
323.9737074
0
ARC
8
DEFAULT_255_1_234
10
5.3436252
20
32.1339361
40
0.6350923
50
323.8961724
51
328.6421089
0
ARC
8
DEFAULT_255_1_234
10
5.5482848
20
32.0077031
40
0.3946393
50
328.8299013
51
331.789948
0
ARC
8
DEFAULT_255_1_234
10
5.6480026
20
31.9562509
40
0.2824501
50
331.4255242
51
352.9364833
0
ARC
8
DEFAULT_255_1_234
10
5.6616527
20
31.9531976
40
0.2685315
50
353.2248685
51
0.0169286
0
ARC
8
DEFAULT_255_1_234
10
5.6826404
20
31.955495
40
0.2475536
50
359.4866256
51
15.9339782
0
ARC
8
DEFAULT_255_1_234
10
5.7333389
20
31.9691286
40
0.1950618
50
16.1714718
51
43.5284424
0
ARC
8
DEFAULT_255_1_234
10
5.7410698
20
31.9768573
40
0.184134
50
43.4415429
51
83.1661404
0
ARC
8
DEFAULT_255_1_234
10
5.7276616
20
31.9031771
40
0.258926
50
82.160215
51
90.1505798
0
ARC
8
DEFAULT_255_1_234
10
5.7245043
20
31.8494865
40
0.3126255
50
89.5460705
51
102.5418777
0
ARC
8
DEFAULT_255_1_234
10
5.7002129
20
31.9525665
40
0.2067346
50
102.1739365
51
129.2061916
0
ARC
8
DEFAULT_255_1_234
10
5.6923201
20
31.9650094
40
0.1921118
50
129.7279328
51
135.7542026
0
ARC
8
DEFAULT_255_1_234
10
5.7044729
20
31.9553045
40
0.2075944
50
136.175737
51
166.3674722
0
ARC
8
DEFAULT_255_1_234
10
5.8051648
20
31.9283182
40
0.3118201
50
165.9092917
51
178.8683903
0
ARC
8
DEFAULT_255_1_234
10
5.8916509
20
31.9236179
40
0.3983935
50
178.438168
51
180.0083905
0
ARC
8
DEFAULT_255_1_234
10
5.7515111
20
31.9275231
40
0.4068601
50
163.2878735
51
180.5581814
0
ARC
8
DEFAULT_255_1_234
10
5.6713373
20
31.949584
40
0.3237344
50
133.454115
51
162.9470031
0
ARC
8
DEFAULT_255_1_234
10
5.6891914
20
31.9306
40
0.349795
50
100.7869394
51
133.4384016
0
ARC
8
DEFAULT_255_1_234
10
5.7239686
20
31.7757319
40
0.5084616
50
89.6605301
51
101.3704185
0
ARC
8
DEFAULT_255_1_234
10
5.7306024
20
31.7818496
40
0.502348
50
78.2171172
51
90.4130393
0
ARC
8
DEFAULT_255_1_234
10
5.7661103
20
31.9442637
40
0.3361092
50
55.9268222
51
78.4888551
0
ARC
8
DEFAULT_255_1_234
10
5.7857543
20
31.9781324
40
0.2970617
50
47.9292255
51
55.4054003
0
ARC
8
DEFAULT_255_1_234
10
5.7959103
20
31.9884502
40
0.2825983
50
4.3347696
51
48.0560701
0
ARC
8
DEFAULT_255_1_234
10
5.6863497
20
31.9714601
40
0.393225
50
359.925209
51
5.5967654
0
ARC
8
DEFAULT_255_1_234
10
5.7292389
20
31.9770816
40
0.3503892
50
337.8914096
51
358.9967724
0
ARC
8
DEFAULT_255_1_234
10
5.4578801
20
32.0817706
40
0.6412172
50
326.9135351
51
338.3505194
0
ARC
8
DEFAULT_255_1_234
10
5.0593105
20
32.3372284
40
1.1146189
50
319.6472867
51
327.095818
0
ARC
8
DEFAULT_255_1_234
10
4.6760108
20
32.6534
40
1.6114559
50
317.2586784
51
319.9046139
0
LINE
8
DEFAULT_255_1_234
10
6.9180879
20
32.2681211
11
6.9180879
21
31.491452
0
LINE
8
DEFAULT_255_1_234
10
6.9180879
20
31.491452
11
7.080329
21
31.491452
0
LINE
8
DEFAULT_255_1_234
10
7.080329
20
31.491452
11
7.080329
21
31.3701728
0
LINE
8
DEFAULT_255_1_234
10
7.080329
20
31.3701728
11
6.9180879
21
31.3701728
0
LINE
8
DEFAULT_255_1_234
10
6.9180879
20
31.3701728
11
6.9180879
21
31.0987
0
LINE
8
DEFAULT_255_1_234
10
6.9180879
20
31.0987
11
6.7686976
21
31.0987
0
LINE
8
DEFAULT_255_1_234
10
6.7686976
20
31.0987
11
6.7686976
21
31.3701728
0
LINE
8
DEFAULT_255_1_234
10
6.7686976
20
31.3701728
11
6.2361933
21
31.3701728
0
LINE
8
DEFAULT_255_1_234
10
6.2361933
20
31.3701728
11
6.2361933
21
31.4577187
0
LINE
8
DEFAULT_255_1_234
10
6.2361933
20
31.4577187
11
6.7598626
21
32.2681211
0
LINE
8
DEFAULT_255_1_234
10
6.7598626
20
32.2681211
11
6.9180879
21
32.2681211
0
LINE
8
DEFAULT_255_1_234
10
6.7510277
20
32.0327912
11
6.4048598
21
31.491452
0
LINE
8
DEFAULT_255_1_234
10
6.4048598
20
31.491452
11
6.7686976
21
31.491452
0
LINE
8
DEFAULT_255_1_234
10
6.7686976
20
31.491452
11
6.7686976
21
32.0649181
0
LINE
8
DEFAULT_255_1_234
10
6.7686976
20
32.0649181
11
6.7510277
21
32.0327912
0
LINE
8
DEFAULT_255_1_234
10
4.3681299
20
37.5598211
11
4.6500439
21
37.1116501
0
LINE
8
DEFAULT_255_1_234
10
4.6500439
20
37.1116501
11
4.9303516
21
37.5598211
0
LINE
8
DEFAULT_255_1_234
10
4.9303516
20
37.5598211
11
5.1118689
21
37.5598211
0
LINE
8
DEFAULT_255_1_234
10
5.1118689
20
37.5598211
11
4.7424089
21
36.9799296
0
LINE
8
DEFAULT_255_1_234
10
4.7424089
20
36.9799296
11
5.1207038
21
36.3904
0
LINE
8
DEFAULT_255_1_234
10
5.1207038
20
36.3904
11
4.9375802
21
36.3904
0
LINE
8
DEFAULT_255_1_234
10
4.9375802
20
36.3904
11
4.6500439
21
36.8466027
0
LINE
8
DEFAULT_255_1_234
10
4.6500439
20
36.8466027
11
4.3609014
21
36.3904
0
LINE
8
DEFAULT_255_1_234
10
4.3609014
20
36.3904
11
4.1785809
21
36.3904
0
LINE
8
DEFAULT_255_1_234
10
4.1785809
20
36.3904
11
4.557679
21
36.9799296
0
LINE
8
DEFAULT_255_1_234
10
4.557679
20
36.9799296
11
4.1874158
21
37.5598211
0
LINE
8
DEFAULT_255_1_234
10
4.1874158
20
37.5598211
11
4.3681299
21
37.5598211
0
LINE
8
DEFAULT_255_1_234
10
6.0274871
20
36.5116792
11
6.0274871
21
36.3904
0
LINE
8
DEFAULT_255_1_234
10
6.0274871
20
36.3904
11
5.2612592
21
36.3904
0
LINE
8
DEFAULT_255_1_234
10
5.2612592
20
36.3904
11
5.2612592
21
36.4972221
0
LINE
8
DEFAULT_255_1_234
10
5.2612592
20
36.4972221
11
5.6660588
21
36.9469995
0
LINE
8
DEFAULT_255_1_234
10
5.3873575
20
37.2152595
11
5.2387704
21
37.2152595
0
LINE
8
DEFAULT_255_1_234
10
5.7536048
20
36.8514218
11
5.440367
21
36.5116792
0
LINE
8
DEFAULT_255_1_234
10
5.440367
20
36.5116792
11
6.0274871
21
36.5116792
0
ARC
8
DEFAULT_255_1_234
10
4.3170422
20
38.1399527
40
1.8008286
50
318.5132453
51
320.7828378
0
ARC
8
DEFAULT_255_1_234
10
4.8457396
20
37.7096426
40
1.1191493
50
320.7372736
51
323.9737074
0
ARC
8
DEFAULT_255_1_234
10
5.2377252
20
37.4256361
40
0.6350923
50
323.8961724
51
328.6421089
0
ARC
8
DEFAULT_255_1_234
10
5.4423848
20
37.2994031
40
0.3946393
50
328.8299013
51
331.789948
0
ARC
8
DEFAULT_255_1_234
10
5.5421026
20
37.2479509
40
0.2824501
50
331.4255242
51
352.9364833
0
ARC
8
DEFAULT_255_1_234
10
5.5557527
20
37.2448976
40
0.2685315
50
353.2248685
51
0.0169286
0
ARC
8
DEFAULT_255_1_234
10
5.5767404
20
37.247195
40
0.2475536
50
359.4866256
51
15.9339782
0
ARC
8
DEFAULT_255_1_234
10
5.6274389
20
37.2608286
40
0.1950618
50
16.1714718
51
43.5284424
0
ARC
8
DEFAULT_255_1_234
10
5.6351698
20
37.2685573
40
0.184134
50
43.4415429
51
83.1661404
0
ARC
8
DEFAULT_255_1_234
10
5.6217616
20
37.1948771
40
0.258926
50
82.160215
51
90.1505798
0
ARC
8
DEFAULT_255_1_234
10
5.6186043
20
37.1411865
40
0.3126255
50
89.5460705
51
102.5418777
0
ARC
8
DEFAULT_255_1_234
10
5.5943129
20
37.2442665
40
0.2067346
50
102.1739365
51
129.2061916
0
ARC
8
DEFAULT_255_1_234
10
5.5864201
20
37.2567094
40
0.1921118
50
129.7279328
51
135.7542026
0
ARC
8
DEFAULT_255_1_234
10
5.5985729
20
37.2470045
40
0.2075944
50
136.175737
51
166.3674722
0
ARC
8
DEFAULT_255_1_234
10
5.6992648
20
37.2200182
40
0.3118201
50
165.9092917
51
178.8683903
0
ARC
8
DEFAULT_255_1_234
10
5.7857509
20
37.2153179
40
0.3983935
50
178.438168
51
180.0083905
0
ARC
8
DEFAULT_255_1_234
10
5.6456111
20
37.2192231
40
0.4068601
50
163.2878735
51
180.5581814
0
ARC
8
DEFAULT_255_1_234
10
5.5654373
20
37.241284
40
0.3237344
50
133.454115
51
162.9470031
0
ARC
8
DEFAULT_255_1_234
10
5.5832914
20
37.2223
40
0.349795
50
100.7869394
51
133.4384016
0
ARC
8
DEFAULT_255_1_234
10
5.6180686
20
37.0674319
40
0.5084616
50
89.6605301
51
101.3704185
0
ARC
8
DEFAULT_255_1_234
10
5.6247024
20
37.0735496
40
0.502348
50
78.2171172
51
90.4130393
0
ARC
8
DEFAULT_255_1_234
10
5.6602103
20
37.2359637
40
0.3361092
50
55.9268222
51
78.4888551
0
ARC
8
DEFAULT_255_1_234
10
5.6798543
20
37.2698324
40
0.2970617
50
47.9292255
51
55.4054003
0
ARC
8
DEFAULT_255_1_234
10
5.6900103
20
37.2801502
40
0.2825983
50
4.3347696
51
48.0560701
0
ARC
8
DEFAULT_255_1_234
10
5.5804497
20
37.2631601
40
0.393225
50
359.925209
51
5.5967654
0
ARC
8
DEFAULT_255_1_234
10
5.6233389
20
37.2687816
40
0.3503892
50
337.8914096
51
358.9967724
0
ARC
8
DEFAULT_255_1_234
10
5.3519801
20
37.3734706
40
0.6412172
50
326.9135351
51
338.3505194
0
ARC
8
DEFAULT_255_1_234
10
4.9534105
20
37.6289284
40
1.1146189
50
319.6472867
51
327.095818
0
ARC
8
DEFAULT_255_1_234
10
4.5701108
20
37.9451
40
1.6114559
50
317.2586784
51
319.9046139
0
LINE
8
DEFAULT_255_1_234
10
6.4009629
20
36.9261169
11
6.4009629
21
37.0473962
0
LINE
8
DEFAULT_255_1_234
10
6.4009629
20
37.0473962
11
6.5126041
21
37.0473962
0
LINE
8
DEFAULT_255_1_234
10
6.3222519
20
37.2530087
11
6.1736647
21
37.2530087
0
LINE
8
DEFAULT_255_1_234
10
6.1632234
20
36.6988188
11
6.3126138
21
36.6988188
0
LINE
8
DEFAULT_255_1_234
10
6.5126041
20
36.9261169
11
6.4009629
21
36.9261169
0
ARC
8
DEFAULT_255_1_234
10
6.5096907
20
37.3866713
40
0.3392876
50
270.4919872
51
281.8951556
0
ARC
8
DEFAULT_255_1_234
10
6.5338169
20
37.2764702
40
0.2264817
50
281.6691735
51
301.2943132
0
ARC
8
DEFAULT_255_1_234
10
6.5508379
20
37.2453304
40
0.1910381
50
301.7833094
51
311.7545298
0
ARC
8
DEFAULT_255_1_234
10
6.5599955
20
37.2351748
40
0.1773635
50
311.7323931
51
354.2802411
0
ARC
8
DEFAULT_255_1_234
10
6.487358
20
37.2476722
40
0.2509385
50
353.0937916
51
0.1181479
0
ARC
8
DEFAULT_255_1_234
10
6.4412365
20
37.2524386
40
0.2970898
50
359.1805295
51
15.0453146
0
ARC
8
DEFAULT_255_1_234
10
6.5758202
20
37.2916992
40
0.1569564
50
13.9577229
51
77.6713066
0
ARC
8
DEFAULT_255_1_234
10
6.5371731
20
37.1531949
40
0.3006298
50
76.1116566
51
90.7026153
0
ARC
8
DEFAULT_255_1_234
10
6.5312569
20
37.1805545
40
0.2732568
50
89.5324876
51
103.531937
0
ARC
8
DEFAULT_255_1_234
10
6.5112013
20
37.2604884
40
0.1908508
50
103.2931773
51
133.5619022
0
ARC
8
DEFAULT_255_1_234
10
6.5067502
20
37.2664375
40
0.1834746
50
133.8349307
51
173.5344437
0
ARC
8
DEFAULT_255_1_234
10
6.5790545
20
37.2536213
40
0.2568033
50
172.5096846
51
180.1366907
0
ARC
8
DEFAULT_255_1_234
10
6.4839439
20
37.2570622
40
0.3103056
50
155.3484492
51
180.7484736
0
ARC
8
DEFAULT_255_1_234
10
6.4790528
20
37.2541846
40
0.3070957
50
131.5744599
51
154.4798489
0
ARC
8
DEFAULT_255_1_234
10
6.5103675
20
37.222531
40
0.3515643
50
96.9875458
51
131.9690667
0
ARC
8
DEFAULT_255_1_234
10
6.5323155
20
37.0979636
40
0.4779224
50
89.8596053
51
97.7825159
0
ARC
8
DEFAULT_255_1_234
10
6.5371218
20
37.0717616
40
0.5041361
50
78.3655447
51
90.4131539
0
ARC
8
DEFAULT_255_1_234
10
6.5729136
20
37.2376887
40
0.3344039
50
56.6229102
51
78.638727
0
ARC
8
DEFAULT_255_1_234
10
6.594408
20
37.2752805
40
0.2912001
50
47.0253525
51
56.0854072
0
ARC
8
DEFAULT_255_1_234
10
6.596386
20
37.2792223
40
0.2869704
50
10.9208013
51
46.7778124
0
ARC
8
DEFAULT_255_1_234
10
6.4599926
20
37.2476857
40
0.426899
50
359.6364486
51
11.6087304
0
ARC
8
DEFAULT_255_1_234
10
6.643477
20
37.2461752
40
0.243409
50
332.3549906
51
359.7179418
0
ARC
8
DEFAULT_255_1_234
10
6.5784372
20
37.2770142
40
0.3153459
50
325.2333722
51
332.8745602
0
ARC
8
DEFAULT_255_1_234
10
6.5936995
20
37.2663828
40
0.2967456
50
292.9802137
51
325.2392345
0
ARC
8
DEFAULT_255_1_234
10
6.5662369
20
37.3197863
40
0.3566604
50
292.5402179
51
293.6924929
0
ARC
8
DEFAULT_255_1_234
10
6.6054965
20
36.6743091
40
0.3307468
50
57.6435486
51
72.8625112
0
ARC
8
DEFAULT_255_1_234
10
6.6409465
20
36.7317549
40
0.2632492
50
36.7248896
51
57.4697979
0
ARC
8
DEFAULT_255_1_234
10
6.6398098
20
36.733022
40
0.2634081
50
8.0545065
51
36.356114
0
ARC
8
DEFAULT_255_1_234
10
6.5535283
20
36.7175174
40
0.3510261
50
359.8320645
51
8.5869982
0
ARC
8
DEFAULT_255_1_234
10
6.5160059
20
36.7127101
40
0.3885653
50
343.9829931
51
0.5571613
0
ARC
8
DEFAULT_255_1_234
10
6.6046256
20
36.6884438
40
0.2966924
50
311.6359546
51
343.7651759
0
ARC
8
DEFAULT_255_1_234
10
6.5667825
20
36.7311102
40
0.3537231
50
279.7829875
51
311.6255694
0
ARC
8
DEFAULT_255_1_234
10
6.5366601
20
36.874828
40
0.5004971
50
269.7286406
51
280.3856417
0
ARC
8
DEFAULT_255_1_234
10
6.5304674
20
36.8706996
40
0.4963778
50
256.6828919
51
270.4412052
0
ARC
8
DEFAULT_255_1_234
10
6.496597
20
36.7322394
40
0.3538406
50
229.4223008
51
256.8556159
0
ARC
8
DEFAULT_255_1_234
10
6.4551363
20
36.6855736
40
0.2914296
50
181.818294
51
229.6455059
0
ARC
8
DEFAULT_255_1_234
10
6.5591319
20
36.6986496
40
0.3959084
50
179.9755256
51
183.2323064
0
ARC
8
DEFAULT_255_1_234
10
6.5419065
20
36.6966037
40
0.2293034
50
179.4465117
51
196.2869258
0
ARC
8
DEFAULT_255_1_234
10
6.4931473
20
36.6832651
40
0.1787621
50
196.5661473
51
227.705904
0
ARC
8
DEFAULT_255_1_234
10
6.5095568
20
36.7016155
40
0.2033784
50
227.7652068
51
257.8762805
0
ARC
8
DEFAULT_255_1_234
10
6.5320538
20
36.7959156
40
0.3003081
50
257.4584385
51
270.426602
0
ARC
8
DEFAULT_255_1_234
10
6.5366104
20
36.8248996
40
0.329292
50
269.5962073
51
280.8789248
0
ARC
8
DEFAULT_255_1_234
10
6.5595633
20
36.7102685
40
0.2123908
50
280.6346389
51
299.8595945
0
ARC
8
DEFAULT_255_1_234
10
6.578654
20
36.6740212
40
0.171457
50
300.3576302
51
314.5517981
0
ARC
8
DEFAULT_255_1_234
10
6.57036
20
36.6800919
40
0.1816095
50
315.0728369
51
345.0431014
0
ARC
8
DEFAULT_255_1_234
10
6.4780414
20
36.7069841
40
0.2777492
50
344.5986631
51
357.9269593
0
ARC
8
DEFAULT_255_1_234
10
6.388474
20
36.7131276
40
0.3674917
50
357.4748886
51
0.0231117
0
ARC
8
DEFAULT_255_1_234
10
6.490785
20
36.7155679
40
0.2651907
50
359.5047933
51
13.4239635
0
ARC
8
DEFAULT_255_1_234
10
6.5774493
20
36.7377478
40
0.1757509
50
12.9498199
51
48.7551375
0
ARC
8
DEFAULT_255_1_234
10
6.5592227
20
36.71284
40
0.2065134
50
49.5088623
51
72.1836453
0
ARC
8
DEFAULT_255_1_234
10
6.523438
20
36.6066291
40
0.3185836
50
71.9010081
51
84.3554254
0
ARC
8
DEFAULT_255_1_234
10
6.5073012
20
36.4705326
40
0.4556151
50
84.0193428
51
89.333121
0
LINE
8
DEFAULT_255_1_234
10
4.3681299
20
42.8515211
11
4.6500439
21
42.4033501
0
LINE
8
DEFAULT_255_1_234
10
4.6500439
20
42.4033501
11
4.9303516
21
42.8515211
0
LINE
8
DEFAULT_255_1_234
10
4.9303516
20
42.8515211
11
5.1118689
21
42.8515211
0
LINE
8
DEFAULT_255_1_234
10
5.1118689
20
42.8515211
11
4.7424089
21
42.2716296
0
LINE
8
DEFAULT_255_1_234
10
4.7424089
20
42.2716296
11
5.1207038
21
41.6821
0
LINE
8
DEFAULT_255_1_234
10
5.1207038
20
41.6821
11
4.9375802
21
41.6821
0
LINE
8
DEFAULT_255_1_234
10
4.9375802
20
41.6821
11
4.6500439
21
42.1383027
0
LINE
8
DEFAULT_255_1_234
10
4.6500439
20
42.1383027
11
4.3609014
21
41.6821
0
LINE
8
DEFAULT_255_1_234
10
4.3609014
20
41.6821
11
4.1785809
21
41.6821
0
LINE
8
DEFAULT_255_1_234
10
4.1785809
20
41.6821
11
4.557679
21
42.2716296
0
LINE
8
DEFAULT_255_1_234
10
4.557679
20
42.2716296
11
4.1874158
21
42.8515211
0
LINE
8
DEFAULT_255_1_234
10
4.1874158
20
42.8515211
11
4.3681299
21
42.8515211
0
LINE
8
DEFAULT_255_1_234
10
6.0274871
20
41.8033792
11
6.0274871
21
41.6821
0
LINE
8
DEFAULT_255_1_234
10
6.0274871
20
41.6821
11
5.2612592
21
41.6821
0
LINE
8
DEFAULT_255_1_234
10
5.2612592
20
41.6821
11
5.2612592
21
41.7889221
0
LINE
8
DEFAULT_255_1_234
10
5.2612592
20
41.7889221
11
5.6660588
21
42.2386995
0
LINE
8
DEFAULT_255_1_234
10
5.3873575
20
42.5069595
11
5.2387704
21
42.5069595
0
LINE
8
DEFAULT_255_1_234
10
5.7536048
20
42.1431218
11
5.440367
21
41.8033792
0
LINE
8
DEFAULT_255_1_234
10
5.440367
20
41.8033792
11
6.0274871
21
41.8033792
0
ARC
8
DEFAULT_255_1_234
10
4.3170422
20
43.4316527
40
1.8008286
50
318.5132453
51
320.7828378
0
ARC
8
DEFAULT_255_1_234
10
4.8457396
20
43.0013426
40
1.1191493
50
320.7372736
51
323.9737074
0
ARC
8
DEFAULT_255_1_234
10
5.2377252
20
42.7173361
40
0.6350923
50
323.8961724
51
328.6421089
0
ARC
8
DEFAULT_255_1_234
10
5.4423848
20
42.5911031
40
0.3946393
50
328.8299013
51
331.789948
0
ARC
8
DEFAULT_255_1_234
10
5.5421026
20
42.5396509
40
0.2824501
50
331.4255242
51
352.9364833
0
ARC
8
DEFAULT_255_1_234
10
5.5557527
20
42.5365976
40
0.2685315
50
353.2248685
51
0.0169286
0
ARC
8
DEFAULT_255_1_234
10
5.5767404
20
42.538895
40
0.2475536
50
359.4866256
51
15.9339782
0
ARC
8
DEFAULT_255_1_234
10
5.6274389
20
42.5525286
40
0.1950618
50
16.1714718
51
43.5284424
0
ARC
8
DEFAULT_255_1_234
10
5.6351698
20
42.5602573
40
0.184134
50
43.4415429
51
83.1661404
0
ARC
8
DEFAULT_255_1_234
10
5.6217616
20
42.4865771
40
0.258926
50
82.160215
51
90.1505798
0
ARC
8
DEFAULT_255_1_234
10
5.6186043
20
42.4328865
40
0.3126255
50
89.5460705
51
102.5418777
0
ARC
8
DEFAULT_255_1_234
10
5.5943129
20
42.5359665
40
0.2067346
50
102.1739365
51
129.2061916
0
ARC
8
DEFAULT_255_1_234
10
5.5864201
20
42.5484094
40
0.1921118
50
129.7279328
51
135.7542026
0
ARC
8
DEFAULT_255_1_234
10
5.5985729
20
42.5387045
40
0.2075944
50
136.175737
51
166.3674722
0
ARC
8
DEFAULT_255_1_234
10
5.6992648
20
42.5117182
40
0.3118201
50
165.9092917
51
178.8683903
0
ARC
8
DEFAULT_255_1_234
10
5.7857509
20
42.5070179
40
0.3983935
50
178.438168
51
180.0083905
0
ARC
8
DEFAULT_255_1_234
10
5.6456111
20
42.5109231
40
0.4068601
50
163.2878735
51
180.5581814
0
ARC
8
DEFAULT_255_1_234
10
5.5654373
20
42.532984
40
0.3237344
50
133.454115
51
162.9470031
0
ARC
8
DEFAULT_255_1_234
10
5.5832914
20
42.514
40
0.349795
50
100.7869394
51
133.4384016
0
ARC
8
DEFAULT_255_1_234
10
5.6180686
20
42.3591319
40
0.5084616
50
89.6605301
51
101.3704185
0
ARC
8
DEFAULT_255_1_234
10
5.6247024
20
42.3652496
40
0.502348
50
78.2171172
51
90.4130393
0
ARC
8
DEFAULT_255_1_234
10
5.6602103
20
42.5276637
40
0.3361092
50
55.9268222
51
78.4888551
0
ARC
8
DEFAULT_255_1_234
10
5.6798543
20
42.5615324
40
0.2970617
50
47.9292255
51
55.4054003
0
ARC
8
DEFAULT_255_1_234
10
5.6900103
20
42.5718502
40
0.2825983
50
4.3347696
51
48.0560701
0
ARC
8
DEFAULT_255_1_234
10
5.5804497
20
42.5548601
40
0.393225
50
359.925209
51
5.5967654
0
ARC
8
DEFAULT_255_1_234
10
5.6233389
20
42.5604816
40
0.3503892
50
337.8914096
51
358.9967724
0
ARC
8
DEFAULT_255_1_234
10
5.3519801
20
42.6651706
40
0.6412172
50
326.9135351
51
338.3505194
0
ARC
8
DEFAULT_255_1_234
10
4.9534105
20
42.9206284
40
1.1146189
50
319.6472867
51
327.095818
0
ARC
8
DEFAULT_255_1_234
10
4.5701108
20
43.2368
40
1.6114559
50
317.2586784
51
319.9046139
0
LINE
8
DEFAULT_255_1_234
10
6.951137
20
41.8033792
11
6.951137
21
41.6821
0
LINE
8
DEFAULT_255_1_234
10
6.951137
20
41.6821
11
6.1849091
21
41.6821
0
LINE
8
DEFAULT_255_1_234
10
6.1849091
20
41.6821
11
6.1849091
21
41.7889221
0
LINE
8
DEFAULT_255_1_234
10
6.1849091
20
41.7889221
11
6.5897087
21
42.2386995
0
LINE
8
DEFAULT_255_1_234
10
6.3110074
20
42.5069595
11
6.1624203
21
42.5069595
0
LINE
8
DEFAULT_255_1_234
10
6.6772547
20
42.1431218
11
6.3640169
21
41.8033792
0
LINE
8
DEFAULT_255_1_234
10
6.3640169
20
41.8033792
11
6.951137
21
41.8033792
0
ARC
8
DEFAULT_255_1_234
10
5.2406921
20
43.4316527
40
1.8008286
50
318.5132453
51
320.7828378
0
ARC
8
DEFAULT_255_1_234
10
5.7693895
20
43.0013426
40
1.1191493
50
320.7372736
51
323.9737074
0
ARC
8
DEFAULT_255_1_234
10
6.1613751
20
42.7173361
40
0.6350923
50
323.8961724
51
328.6421089
0
ARC
8
DEFAULT_255_1_234
10
6.3660347
20
42.5911031
40
0.3946393
50
328.8299013
51
331.789948
0
ARC
8
DEFAULT_255_1_234
10
6.4657525
20
42.5396509
40
0.2824501
50
331.4255242
51
352.9364833
0
ARC
8
DEFAULT_255_1_234
10
6.4794026
20
42.5365976
40
0.2685315
50
353.2248685
51
0.0169286
0
ARC
8
DEFAULT_255_1_234
10
6.5003903
20
42.538895
40
0.2475536
50
359.4866256
51
15.9339782
0
ARC
8
DEFAULT_255_1_234
10
6.5510888
20
42.5525286
40
0.1950618
50
16.1714718
51
43.5284424
0
ARC
8
DEFAULT_255_1_234
10
6.5588197
20
42.5602573
40
0.184134
50
43.4415429
51
83.1661404
0
ARC
8
DEFAULT_255_1_234
10
6.5454115
20
42.4865771
40
0.258926
50
82.160215
51
90.1505798
0
ARC
8
DEFAULT_255_1_234
10
6.5422542
20
42.4328865
40
0.3126255
50
89.5460705
51
102.5418777
0
ARC
8
DEFAULT_255_1_234
10
6.5179628
20
42.5359665
40
0.2067346
50
102.1739365
51
129.2061916
0
ARC
8
DEFAULT_255_1_234
10
6.51007
20
42.5484094
40
0.1921118
50
129.7279328
51
135.7542026
0
ARC
8
DEFAULT_255_1_234
10
6.5222228
20
42.5387045
40
0.2075944
50
136.175737
51
166.3674722
0
ARC
8
DEFAULT_255_1_234
10
6.6229147
20
42.5117182
40
0.3118201
50
165.9092917
51
178.8683903
0
ARC
8
DEFAULT_255_1_234
10
6.7094008
20
42.5070179
40
0.3983935
50
178.438168
51
180.0083905
0
ARC
8
DEFAULT_255_1_234
10
6.569261
20
42.5109231
40
0.4068601
50
163.2878735
51
180.5581814
0
ARC
8
DEFAULT_255_1_234
10
6.4890872
20
42.532984
40
0.3237344
50
133.454115
51
162.9470031
0
ARC
8
DEFAULT_255_1_234
10
6.5069413
20
42.514
40
0.349795
50
100.7869394
51
133.4384016
0
ARC
8
DEFAULT_255_1_234
10
6.5417185
20
42.3591319
40
0.5084616
50
89.6605301
51
101.3704185
0
ARC
8
DEFAULT_255_1_234
10
6.5483523
20
42.3652496
40
0.502348
50
78.2171172
51
90.4130393
0
ARC
8
DEFAULT_255_1_234
10
6.5838602
20
42.5276637
40
0.3361092
50
55.9268222
51
78.4888551
0
ARC
8
DEFAULT_255_1_234
10
6.6035042
20
42.5615324
40
0.2970617
50
47.9292255
51
55.4054003
0
ARC
8
DEFAULT_255_1_234
10
6.6136603
20
42.5718502
40
0.2825983
50
4.3347696
51
48.0560701
0
ARC
8
DEFAULT_255_1_234
10
6.5040996
20
42.5548601
40
0.393225
50
359.925209
51
5.5967654
0
ARC
8
DEFAULT_255_1_234
10
6.5469888
20
42.5604816
40
0.3503892
50
337.8914096
51
358.9967724
0
ARC
8
DEFAULT_255_1_234
10
6.27563
20
42.6651706
40
0.6412172
50
326.9135351
51
338.3505194
0
ARC
8
DEFAULT_255_1_234
10
5.8770604
20
42.9206284
40
1.1146189
50
319.6472867
51
327.095818
0
ARC
8
DEFAULT_255_1_234
10
5.4937607
20
43.2368
40
1.6114559
50
317.2586784
51
319.9046139
0
LINE
8
DEFAULT_255_1_234
10
4.3590299
20
48.1431211
11
4.6409439
21
47.6949501
0
LINE
8
DEFAULT_255_1_234
10
4.6409439
20
47.6949501
11
4.9212516
21
48.1431211
0
LINE
8
DEFAULT_255_1_234
10
4.9212516
20
48.1431211
11
5.1027689
21
48.1431211
0
LINE
8
DEFAULT_255_1_234
10
5.1027689
20
48.1431211
11
4.7333089
21
47.5632296
0
LINE
8
DEFAULT_255_1_234
10
4.7333089
20
47.5632296
11
5.1116038
21
46.9737
0
LINE
8
DEFAULT_255_1_234
10
5.1116038
20
46.9737
11
4.9284802
21
46.9737
0
LINE
8
DEFAULT_255_1_234
10
4.9284802
20
46.9737
11
4.6409439
21
47.4299027
0
LINE
8
DEFAULT_255_1_234
10
4.6409439
20
47.4299027
11
4.3518014
21
46.9737
0
LINE
8
DEFAULT_255_1_234
10
4.3518014
20
46.9737
11
4.1694809
21
46.9737
0
LINE
8
DEFAULT_255_1_234
10
4.1694809
20
46.9737
11
4.548579
21
47.5632296
0
LINE
8
DEFAULT_255_1_234
10
4.548579
20
47.5632296
11
4.1783158
21
48.1431211
0
LINE
8
DEFAULT_255_1_234
10
4.1783158
20
48.1431211
11
4.3590299
21
48.1431211
0
LINE
8
DEFAULT_255_1_234
10
6.0183871
20
47.0949792
11
6.0183871
21
46.9737
0
LINE
8
DEFAULT_255_1_234
10
6.0183871
20
46.9737
11
5.2521592
21
46.9737
0
LINE
8
DEFAULT_255_1_234
10
5.2521592
20
46.9737
11
5.2521592
21
47.0805221
0
LINE
8
DEFAULT_255_1_234
10
5.2521592
20
47.0805221
11
5.6569588
21
47.5302995
0
LINE
8
DEFAULT_255_1_234
10
5.3782575
20
47.7985595
11
5.2296704
21
47.7985595
0
LINE
8
DEFAULT_255_1_234
10
5.7445048
20
47.4347218
11
5.431267
21
47.0949792
0
LINE
8
DEFAULT_255_1_234
10
5.431267
20
47.0949792
11
6.0183871
21
47.0949792
0
ARC
8
DEFAULT_255_1_234
10
4.3079422
20
48.7232527
40
1.8008286
50
318.5132453
51
320.7828378
0
ARC
8
DEFAULT_255_1_234
10
4.8366396
20
48.2929426
40
1.1191493
50
320.7372736
51
323.9737074
0
ARC
8
DEFAULT_255_1_234
10
5.2286252
20
48.0089361
40
0.6350923
50
323.8961724
51
328.6421089
0
ARC
8
DEFAULT_255_1_234
10
5.4332848
20
47.8827031
40
0.3946393
50
328.8299013
51
331.789948
0
ARC
8
DEFAULT_255_1_234
10
5.5330026
20
47.8312509
40
0.2824501
50
331.4255242
51
352.9364833
0
ARC
8
DEFAULT_255_1_234
10
5.5466527
20
47.8281976
40
0.2685315
50
353.2248685
51
0.0169286
0
ARC
8
DEFAULT_255_1_234
10
5.5676404
20
47.830495
40
0.2475536
50
359.4866256
51
15.9339782
0
ARC
8
DEFAULT_255_1_234
10
5.6183389
20
47.8441286
40
0.1950618
50
16.1714718
51
43.5284424
0
ARC
8
DEFAULT_255_1_234
10
5.6260698
20
47.8518573
40
0.184134
50
43.4415429
51
83.1661404
0
ARC
8
DEFAULT_255_1_234
10
5.6126616
20
47.7781771
40
0.258926
50
82.160215
51
90.1505798
0
ARC
8
DEFAULT_255_1_234
10
5.6095043
20
47.7244865
40
0.3126255
50
89.5460705
51
102.5418777
0
ARC
8
DEFAULT_255_1_234
10
5.5852129
20
47.8275665
40
0.2067346
50
102.1739365
51
129.2061916
0
ARC
8
DEFAULT_255_1_234
10
5.5773201
20
47.8400094
40
0.1921118
50
129.7279328
51
135.7542026
0
ARC
8
DEFAULT_255_1_234
10
5.5894729
20
47.8303045
40
0.2075944
50
136.175737
51
166.3674722
0
ARC
8
DEFAULT_255_1_234
10
5.6901648
20
47.8033182
40
0.3118201
50
165.9092917
51
178.8683903
0
ARC
8
DEFAULT_255_1_234
10
5.7766509
20
47.7986179
40
0.3983935
50
178.438168
51
180.0083905
0
ARC
8
DEFAULT_255_1_234
10
5.6365111
20
47.8025231
40
0.4068601
50
163.2878735
51
180.5581814
0
ARC
8
DEFAULT_255_1_234
10
5.5563373
20
47.824584
40
0.3237344
50
133.454115
51
162.9470031
0
ARC
8
DEFAULT_255_1_234
10
5.5741914
20
47.8056
40
0.349795
50
100.7869394
51
133.4384016
0
ARC
8
DEFAULT_255_1_234
10
5.6089686
20
47.6507319
40
0.5084616
50
89.6605301
51
101.3704185
0
ARC
8
DEFAULT_255_1_234
10
5.6156024
20
47.6568496
40
0.502348
50
78.2171172
51
90.4130393
0
ARC
8
DEFAULT_255_1_234
10
5.6511103
20
47.8192637
40
0.3361092
50
55.9268222
51
78.4888551
0
ARC
8
DEFAULT_255_1_234
10
5.6707543
20
47.8531324
40
0.2970617
50
47.9292255
51
55.4054003
0
ARC
8
DEFAULT_255_1_234
10
5.6809103
20
47.8634502
40
0.2825983
50
4.3347696
51
48.0560701
0
ARC
8
DEFAULT_255_1_234
10
5.5713497
20
47.8464601
40
0.393225
50
359.925209
51
5.5967654
0
ARC
8
DEFAULT_255_1_234
10
5.6142389
20
47.8520816
40
0.3503892
50
337.8914096
51
358.9967724
0
ARC
8
DEFAULT_255_1_234
10
5.3428801
20
47.9567706
40
0.6412172
50
326.9135351
51
338.3505194
0
ARC
8
DEFAULT_255_1_234
10
4.9443105
20
48.2122284
40
1.1146189
50
319.6472867
51
327.095818
0
ARC
8
DEFAULT_255_1_234
10
4.5610108
20
48.5284
40
1.6114559
50
317.2586784
51
319.9046139
0
LINE
8
DEFAULT_255_1_234
10
6.6641388
20
48.1487433
11
6.6641388
21
46.9737
0
LINE
8
DEFAULT_255_1_234
10
6.6641388
20
46.9737
11
6.5147485
21
46.9737
0
LINE
8
DEFAULT_255_1_234
10
6.5147485
20
46.9737
11
6.5147485
21
47.9640133
0
LINE
8
DEFAULT_255_1_234
10
6.5147485
20
47.9640133
11
6.2151646
21
47.8539785
0
LINE
8
DEFAULT_255_1_234
10
6.2151646
20
47.8539785
11
6.2151646
21
47.9889117
0
LINE
8
DEFAULT_255_1_234
10
6.2151646
20
47.9889117
11
6.6408468
21
48.1487433
0
LINE
8
DEFAULT_255_1_234
10
6.6408468
20
48.1487433
11
6.6641388
21
48.1487433
0
LINE
8
DEFAULT_255_1_234
10
4.3681299
20
53.4348211
11
4.6500439
21
52.9866501
0
LINE
8
DEFAULT_255_1_234
10
4.6500439
20
52.9866501
11
4.9303516
21
53.4348211
0
LINE
8
DEFAULT_255_1_234
10
4.9303516
20
53.4348211
11
5.1118689
21
53.4348211
0
LINE
8
DEFAULT_255_1_234
10
5.1118689
20
53.4348211
11
4.7424089
21
52.8549296
0
LINE
8
DEFAULT_255_1_234
10
4.7424089
20
52.8549296
11
5.1207038
21
52.2654
0
LINE
8
DEFAULT_255_1_234
10
5.1207038
20
52.2654
11
4.9375802
21
52.2654
0
LINE
8
DEFAULT_255_1_234
10
4.9375802
20
52.2654
11
4.6500439
21
52.7216027
0
LINE
8
DEFAULT_255_1_234
10
4.6500439
20
52.7216027
11
4.3609014
21
52.2654
0
LINE
8
DEFAULT_255_1_234
10
4.3609014
20
52.2654
11
4.1785809
21
52.2654
0
LINE
8
DEFAULT_255_1_234
10
4.1785809
20
52.2654
11
4.557679
21
52.8549296
0
LINE
8
DEFAULT_255_1_234
10
4.557679
20
52.8549296
11
4.1874158
21
53.4348211
0
LINE
8
DEFAULT_255_1_234
10
4.1874158
20
53.4348211
11
4.3681299
21
53.4348211
0
LINE
8
DEFAULT_255_1_234
10
6.0274871
20
52.3866792
11
6.0274871
21
52.2654
0
LINE
8
DEFAULT_255_1_234
10
6.0274871
20
52.2654
11
5.2612592
21
52.2654
0
LINE
8
DEFAULT_255_1_234
10
5.2612592
20
52.2654
11
5.2612592
21
52.3722221
0
LINE
8
DEFAULT_255_1_234
10
5.2612592
20
52.3722221
11
5.6660588
21
52.8219995
0
LINE
8
DEFAULT_255_1_234
10
5.3873575
20
53.0902595
11
5.2387704
21
53.0902595
0
LINE
8
DEFAULT_255_1_234
10
5.7536048
20
52.7264218
11
5.440367
21
52.3866792
0
LINE
8
DEFAULT_255_1_234
10
5.440367
20
52.3866792
11
6.0274871
21
52.3866792
0
ARC
8
DEFAULT_255_1_234
10
4.3170422
20
54.0149527
40
1.8008286
50
318.5132453
51
320.7828378
0
ARC
8
DEFAULT_255_1_234
10
4.8457396
20
53.5846426
40
1.1191493
50
320.7372736
51
323.9737074
0
ARC
8
DEFAULT_255_1_234
10
5.2377252
20
53.3006361
40
0.6350923
50
323.8961724
51
328.6421089
0
ARC
8
DEFAULT_255_1_234
10
5.4423848
20
53.1744031
40
0.3946393
50
328.8299013
51
331.789948
0
ARC
8
DEFAULT_255_1_234
10
5.5421026
20
53.1229509
40
0.2824501
50
331.4255242
51
352.9364833
0
ARC
8
DEFAULT_255_1_234
10
5.5557527
20
53.1198976
40
0.2685315
50
353.2248685
51
0.0169286
0
ARC
8
DEFAULT_255_1_234
10
5.5767404
20
53.122195
40
0.2475536
50
359.4866256
51
15.9339782
0
ARC
8
DEFAULT_255_1_234
10
5.6274389
20
53.1358286
40
0.1950618
50
16.1714718
51
43.5284424
0
ARC
8
DEFAULT_255_1_234
10
5.6351698
20
53.1435573
40
0.184134
50
43.4415429
51
83.1661404
0
ARC
8
DEFAULT_255_1_234
10
5.6217616
20
53.0698771
40
0.258926
50
82.160215
51
90.1505798
0
ARC
8
DEFAULT_255_1_234
10
5.6186043
20
53.0161865
40
0.3126255
50
89.5460705
51
102.5418777
0
ARC
8
DEFAULT_255_1_234
10
5.5943129
20
53.1192665
40
0.2067346
50
102.1739365
51
129.2061916
0
ARC
8
DEFAULT_255_1_234
10
5.5864201
20
53.1317094
40
0.1921118
50
129.7279328
51
135.7542026
0
ARC
8
DEFAULT_255_1_234
10
5.5985729
20
53.1220045
40
0.2075944
50
136.175737
51
166.3674722
0
ARC
8
DEFAULT_255_1_234
10
5.6992648
20
53.0950182
40
0.3118201
50
165.9092917
51
178.8683903
0
ARC
8
DEFAULT_255_1_234
10
5.7857509
20
53.0903179
40
0.3983935
50
178.438168
51
180.0083905
0
ARC
8
DEFAULT_255_1_234
10
5.6456111
20
53.0942231
40
0.4068601
50
163.2878735
51
180.5581814
0
ARC
8
DEFAULT_255_1_234
10
5.5654373
20
53.116284
40
0.3237344
50
133.454115
51
162.9470031
0
ARC
8
DEFAULT_255_1_234
10
5.5832914
20
53.0973
40
0.349795
50
100.7869394
51
133.4384016
0
ARC
8
DEFAULT_255_1_234
10
5.6180686
20
52.9424319
40
0.5084616
50
89.6605301
51
101.3704185
0
ARC
8
DEFAULT_255_1_234
10
5.6247024
20
52.9485496
40
0.502348
50
78.2171172
51
90.4130393
0
ARC
8
DEFAULT_255_1_234
10
5.6602103
20
53.1109637
40
0.3361092
50
55.9268222
51
78.4888551
0
ARC
8
DEFAULT_255_1_234
10
5.6798543
20
53.1448324
40
0.2970617
50
47.9292255
51
55.4054003
0
ARC
8
DEFAULT_255_1_234
10
5.6900103
20
53.1551502
40
0.2825983
50
4.3347696
51
48.0560701
0
ARC
8
DEFAULT_255_1_234
10
5.5804497
20
53.1381601
40
0.393225
50
359.925209
51
5.5967654
0
ARC
8
DEFAULT_255_1_234
10
5.6233389
20
53.1437816
40
0.3503892
50
337.8914096
51
358.9967724
0
ARC
8
DEFAULT_255_1_234
10
5.3519801
20
53.2484706
40
0.6412172
50
326.9135351
51
338.3505194
0
ARC
8
DEFAULT_255_1_234
10
4.9534105
20
53.5039284
40
1.1146189
50
319.6472867
51
327.095818
0
ARC
8
DEFAULT_255_1_234
10
4.5701108
20
53.8201
40
1.6114559
50
317.2586784
51
319.9046139
0
LINE
8
DEFAULT_255_1_234
10
6.9182068
20
52.9569327
11
6.9182068
21
52.7641709
0
LINE
8
DEFAULT_255_1_234
10
6.1800901
20
52.7440916
11
6.1800901
21
52.9424755
0
LINE
8
DEFAULT_255_1_234
10
6.7696197
20
52.7240123
11
6.7696197
21
52.9673739
0
LINE
8
DEFAULT_255_1_234
10
6.3286772
20
52.9786184
11
6.3286772
21
52.7408789
0
ARC
8
DEFAULT_255_1_234
10
5.6934958
20
52.7592805
40
1.2247208
50
353.8441951
51
0.2287902
0
ARC
8
DEFAULT_255_1_234
10
6.1574462
20
52.7074806
40
0.7578929
50
344.4934747
51
353.9765454
0
ARC
8
DEFAULT_255_1_234
10
6.4567052
20
52.6223981
40
0.4467846
50
329.2803592
51
344.7472793
0
ARC
8
DEFAULT_255_1_234
10
6.5559877
20
52.5679018
40
0.3336173
50
324.9352394
51
328.6160465
0
ARC
8
DEFAULT_255_1_234
10
6.5936985
20
52.5415427
40
0.2876076
50
280.580143
51
324.9173126
0
ARC
8
DEFAULT_255_1_234
10
6.5535778
20
52.7086099
40
0.4592847
50
269.5977311
51
281.6734359
0
ARC
8
DEFAULT_255_1_234
10
6.5463684
20
52.6966173
40
0.4472986
50
256.6228859
51
270.51044
0
ARC
8
DEFAULT_255_1_234
10
6.5061661
20
52.5417877
40
0.2873874
50
215.8618325
51
257.2788573
0
ARC
8
DEFAULT_255_1_234
10
6.6082693
20
52.6102977
40
0.4102928
50
197.9693508
51
215.2623606
0
ARC
8
DEFAULT_255_1_234
10
6.8567809
20
52.6941709
40
0.6725652
50
187.8816417
51
198.2346507
0
ARC
8
DEFAULT_255_1_234
10
7.2526017
20
52.7513079
40
1.0724845
50
180.8976217
51
188.0055519
0
ARC
8
DEFAULT_255_1_234
10
7.5326205
20
52.7616777
40
1.3526448
50
180.7449369
51
181.1510016
0
ARC
8
DEFAULT_255_1_234
10
7.3748934
20
52.9473042
40
1.1948131
50
173.7675579
51
180.231553
0
ARC
8
DEFAULT_255_1_234
10
6.9231081
20
52.9983666
40
0.7401564
50
164.3058563
51
173.9002247
0
ARC
8
DEFAULT_255_1_234
10
6.631915
20
53.0822656
40
0.4371288
50
148.7922025
51
164.568378
0
ARC
8
DEFAULT_255_1_234
10
6.5367602
20
53.1353929
40
0.3282386
50
144.5883898
51
148.1176286
0
ARC
8
DEFAULT_255_1_234
10
6.50245
20
53.1593315
40
0.2864044
50
101.6440918
51
144.514236
0
ARC
8
DEFAULT_255_1_234
10
6.5449566
20
52.9904069
40
0.4604934
50
89.5284041
51
102.5819763
0
ARC
8
DEFAULT_255_1_234
10
6.5528654
20
52.9865018
40
0.464401
50
77.0437873
51
90.5081339
0
ARC
8
DEFAULT_255_1_234
10
6.5930656
20
53.1507615
40
0.2953195
50
48.2778575
51
77.4994676
0
ARC
8
DEFAULT_255_1_234
10
6.6003287
20
53.1636746
40
0.2808655
50
36.3142134
51
47.6305865
0
ARC
8
DEFAULT_255_1_234
10
6.5134594
20
53.1051515
40
0.3855453
50
18.2931786
51
35.6769206
0
ARC
8
DEFAULT_255_1_234
10
6.2591353
20
53.0178593
40
0.654423
50
8.024666
51
18.5605216
0
ARC
8
DEFAULT_255_1_234
10
5.8428273
20
52.9563792
40
1.0752407
50
1.1274072
51
8.1718305
0
ARC
8
DEFAULT_255_1_234
10
5.5192464
20
52.9436885
40
1.3990231
50
0.5424119
51
1.3863029
0
ARC
8
DEFAULT_255_1_234
10
5.7013841
20
52.9709342
40
1.0682415
50
359.8090433
51
4.9407866
0
ARC
8
DEFAULT_255_1_234
10
6.1223855
20
53.0085113
40
0.6455691
50
4.8362157
51
12.2904523
0
ARC
8
DEFAULT_255_1_234
10
6.397897
20
53.0698965
40
0.3633074
50
12.0805627
51
23.8173984
0
ARC
8
DEFAULT_255_1_234
10
6.5152676
20
53.1195919
40
0.2358723
50
24.2871213
51
31.3935614
0
ARC
8
DEFAULT_255_1_234
10
6.5677373
20
53.1539233
40
0.1732111
50
30.7407893
51
82.4657128
0
ARC
8
DEFAULT_255_1_234
10
6.5497507
20
53.0655691
40
0.263235
50
81.1060089
51
90.2184952
0
ARC
8
DEFAULT_255_1_234
10
6.5461806
20
53.0913924
40
0.2374236
50
89.3806855
51
105.6762551
0
ARC
8
DEFAULT_255_1_234
10
6.5278437
20
53.1580567
40
0.1682847
50
105.7981136
51
149.7388061
0
ARC
8
DEFAULT_255_1_234
10
6.6342515
20
53.094095
40
0.2924306
50
149.4208916
51
163.6286378
0
ARC
8
DEFAULT_255_1_234
10
6.8433403
20
53.030325
40
0.5110213
50
163.3763315
51
172.1410975
0
ARC
8
DEFAULT_255_1_234
10
7.1734122
20
52.9830518
40
0.8444586
50
172.0259487
51
178.0703232
0
ARC
8
DEFAULT_255_1_234
10
7.4764211
20
52.9686906
40
1.1477868
50
177.8631668
51
179.5044149
0
ARC
8
DEFAULT_255_1_234
10
7.3691616
20
52.7372389
40
1.0404907
50
179.7995573
51
185.2460446
0
ARC
8
DEFAULT_255_1_234
10
6.9648655
20
52.6989513
40
0.6343885
50
185.1411642
51
193.0079639
0
ARC
8
DEFAULT_255_1_234
10
6.7005128
20
52.6364641
40
0.3627568
50
192.7897626
51
205.2507664
0
ARC
8
DEFAULT_255_1_234
10
6.5958675
20
52.5897415
40
0.2481908
50
205.8005384
51
211.2537509
0
ARC
8
DEFAULT_255_1_234
10
6.5435115
20
52.554658
40
0.1852521
50
210.3789793
51
238.4008143
0
ARC
8
DEFAULT_255_1_234
10
6.5415637
20
52.5593376
40
0.1882621
50
239.6520629
51
265.9793761
0
ARC
8
DEFAULT_255_1_234
10
6.5500837
20
52.6265427
40
0.2559272
50
265.1315437
51
270.060332
0
ARC
8
DEFAULT_255_1_234
10
6.5529616
20
52.5941534
40
0.2235528
50
269.3314664
51
287.2178029
0
ARC
8
DEFAULT_255_1_234
10
6.5667468
20
52.5438279
40
0.1714108
50
287.7958004
51
329.080874
0
ARC
8
DEFAULT_255_1_234
10
6.4709925
20
52.603593
40
0.2842745
50
328.6634704
51
343.3325132
0
ARC
8
DEFAULT_255_1_234
10
6.2536945
20
52.6712863
40
0.5118644
50
343.0499468
51
351.9393422
0
ARC
8
DEFAULT_255_1_234
10
5.9070245
20
52.7223949
40
0.8622784
50
351.8069023
51
357.7959224
0
ARC
8
DEFAULT_255_1_234
10
5.5834801
20
52.7391721
40
1.1862365
50
357.5871873
51
359.2677531
0
LINE
8
DEFAULT_255_1_234
10
4.3681299
20
58.7265211
11
4.6500439
21
58.2783501
0
LINE
8
DEFAULT_255_1_234
10
4.6500439
20
58.2783501
11
4.9303516
21
58.7265211
0
LINE
8
DEFAULT_255_1_234
10
4.9303516
20
58.7265211
11
5.1118689
21
58.7265211
0
LINE
8
DEFAULT_255_1_234
10
5.1118689
20
58.7265211
11
4.7424089
21
58.1466296
0
LINE
8
DEFAULT_255_1_234
10
4.7424089
20
58.1466296
11
5.1207038
21
57.5571
0
LINE
8
DEFAULT_255_1_234
10
5.1207038
20
57.5571
11
4.9375802
21
57.5571
0
LINE
8
DEFAULT_255_1_234
10
4.9375802
20
57.5571
11
4.6500439
21
58.0133027
0
LINE
8
DEFAULT_255_1_234
10
4.6500439
20
58.0133027
11
4.3609014
21
57.5571
0
LINE
8
DEFAULT_255_1_234
10
4.3609014
20
57.5571
11
4.1785809
21
57.5571
0
LINE
8
DEFAULT_255_1_234
10
4.1785809
20
57.5571
11
4.557679
21
58.1466296
0
LINE
8
DEFAULT_255_1_234
10
4.557679
20
58.1466296
11
4.1874158
21
58.7265211
0
LINE
8
DEFAULT_255_1_234
10
4.1874158
20
58.7265211
11
4.3681299
21
58.7265211
0
LINE
8
DEFAULT_255_1_234
10
5.7495889
20
58.7321433
11
5.7495889
21
57.5571
0
LINE
8
DEFAULT_255_1_234
10
5.7495889
20
57.5571
11
5.6001986
21
57.5571
0
LINE
8
DEFAULT_255_1_234
10
5.6001986
20
57.5571
11
5.6001986
21
58.5474133
0
LINE
8
DEFAULT_255_1_234
10
5.6001986
20
58.5474133
11
5.3006147
21
58.4373785
0
LINE
8
DEFAULT_255_1_234
10
5.3006147
20
58.4373785
11
5.3006147
21
58.5723117
0
LINE
8
DEFAULT_255_1_234
10
5.3006147
20
58.5723117
11
5.7262969
21
58.7321433
0
LINE
8
DEFAULT_255_1_234
10
5.7262969
20
58.7321433
11
5.7495889
21
58.7321433
0
LINE
8
DEFAULT_255_1_234
10
6.9037497
20
58.2590739
11
6.9037497
21
58.2157025
0
LINE
8
DEFAULT_255_1_234
10
6.3616074
20
57.5562968
11
6.3326931
21
57.5562968
0
LINE
8
DEFAULT_255_1_234
10
6.3326931
20
57.5562968
11
6.3326931
21
57.6815919
0
LINE
8
DEFAULT_255_1_234
10
6.3326931
20
57.6815919
11
6.3640169
21
57.6815919
0
LINE
8
DEFAULT_255_1_234
10
6.7551625
20
58.2301597
11
6.7551625
21
58.2895945
0
ARC
8
DEFAULT_255_1_234
10
6.4757895
20
58.3047403
40
0.3635579
50
297.4037347
51
320.016758
0
ARC
8
DEFAULT_255_1_234
10
6.5047844
20
58.249024
40
0.3007486
50
270.2633101
51
297.3851877
0
ARC
8
DEFAULT_255_1_234
10
6.50138
20
58.2953904
40
0.3471448
50
269.9966443
51
270.7900392
0
ARC
8
DEFAULT_255_1_234
10
6.4988281
20
58.2952143
40
0.3469779
50
254.5999133
51
270.4180344
0
ARC
8
DEFAULT_255_1_234
10
6.484564
20
58.2387647
40
0.2887697
50
236.4717942
51
254.3541279
0
ARC
8
DEFAULT_255_1_234
10
6.5001858
20
58.2597711
40
0.3149125
50
208.4727207
51
236.2134933
0
ARC
8
DEFAULT_255_1_234
10
6.5640633
20
58.2988455
40
0.3897115
50
204.3447514
51
209.0453999
0
ARC
8
DEFAULT_255_1_234
10
6.6320209
20
58.3276656
40
0.4635101
50
183.9375985
51
204.1276318
0
ARC
8
DEFAULT_255_1_234
10
6.722846
20
58.3374482
40
0.5548037
50
179.9652252
51
184.3013875
0
ARC
8
DEFAULT_255_1_234
10
6.6988506
20
58.3407507
40
0.5308164
50
166.7585989
51
180.3201225
0
ARC
8
DEFAULT_255_1_234
10
6.614212
20
58.3591488
40
0.4442163
50
154.6955053
51
166.5679793
0
ARC
8
DEFAULT_255_1_234
10
6.528899
20
58.402121
40
0.3487299
50
136.3324195
51
155.0871442
0
ARC
8
DEFAULT_255_1_234
10
6.5008063
20
58.4261954
40
0.3117924
50
121.236733
51
135.9680508
0
ARC
8
DEFAULT_255_1_234
10
6.5148561
20
58.4001743
40
0.3413302
50
96.845628
51
120.9881519
0
ARC
8
DEFAULT_255_1_234
10
6.5294143
20
58.3066515
40
0.4359341
50
89.8870174
51
97.2802754
0
ARC
8
DEFAULT_255_1_234
10
6.5346581
20
58.3704095
40
0.3722009
50
70.6505584
51
90.6749113
0
ARC
8
DEFAULT_255_1_234
10
6.547786
20
58.4217361
40
0.3194571
50
36.7492984
51
69.8219918
0
ARC
8
DEFAULT_255_1_234
10
6.4479025
20
58.3438993
40
0.4460685
50
15.39587
51
37.0840084
0
ARC
8
DEFAULT_255_1_234
10
6.2349458
20
58.2818242
40
0.6678714
50
3.9488873
51
15.6798563
0
ARC
8
DEFAULT_255_1_234
10
5.9948086
20
58.2601964
40
0.9089418
50
359.929245
51
4.2665314
0
ARC
8
DEFAULT_255_1_234
10
5.5342523
20
58.2090513
40
1.3695135
50
352.8366322
51
0.2782669
0
ARC
8
DEFAULT_255_1_234
10
6.0630202
20
58.1403629
40
0.8363105
50
341.8359505
51
352.9884176
0
ARC
8
DEFAULT_255_1_234
10
6.3848921
20
58.03187
40
0.4966642
50
322.8578092
51
342.1527901
0
ARC
8
DEFAULT_255_1_234
10
6.4712877
20
57.9729384
40
0.3922466
50
319.334325
51
322.0998941
0
ARC
8
DEFAULT_255_1_234
10
6.4403214
20
58.0040209
40
0.4360033
50
285.9541367
51
318.8878087
0
ARC
8
DEFAULT_255_1_234
10
6.3676475
20
58.23506
40
0.678149
50
272.9281676
51
286.4922826
0
ARC
8
DEFAULT_255_1_234
10
6.3486593
20
58.4601587
40
0.9039547
50
270.8207226
51
273.4012994
0
ARC
8
DEFAULT_255_1_234
10
6.3575444
20
58.2782666
40
0.5967098
50
270.6214993
51
281.4062806
0
ARC
8
DEFAULT_255_1_234
10
6.4005425
20
58.0726833
40
0.3866861
50
281.1852553
51
299.0621114
0
ARC
8
DEFAULT_255_1_234
10
6.4378996
20
58.0005798
40
0.3055236
50
299.5067782
51
313.1200873
0
ARC
8
DEFAULT_255_1_234
10
6.4400963
20
57.9926554
40
0.2982623
50
313.8526205
51
338.5989322
0
ARC
8
DEFAULT_255_1_234
10
6.2777037
20
58.0593781
40
0.4738131
50
338.2523585
51
351.2430902
0
ARC
8
DEFAULT_255_1_234
10
6.0366333
20
58.1003447
40
0.7183203
50
350.9409515
51
357.6691871
0
ARC
8
DEFAULT_255_1_234
10
6.5256763
20
58.3005764
40
0.2294452
50
269.9447023
51
306.8248917
0
ARC
8
DEFAULT_255_1_234
10
6.5019678
20
58.3428898
40
0.2775994
50
305.5072438
51
327.0773448
0
ARC
8
DEFAULT_255_1_234
10
6.5138119
20
58.3334025
40
0.2625056
50
327.4104943
51
336.840169
0
ARC
8
DEFAULT_255_1_234
10
6.2044184
20
58.2928302
40
0.5507537
50
359.6633817
51
10.117533
0
ARC
8
DEFAULT_255_1_234
10
6.3797982
20
58.3252777
40
0.372403
50
9.9430141
51
26.7700076
0
ARC
8
DEFAULT_255_1_234
10
6.4395194
20
58.3528187
40
0.3066865
50
27.2015464
51
34.6829435
0
ARC
8
DEFAULT_255_1_234
10
6.4884674
20
58.3895977
40
0.245519
50
34.1250343
51
50.3070065
0
ARC
8
DEFAULT_255_1_234
10
6.5331354
20
58.4430385
40
0.1758693
50
50.3851167
51
90.6705993
0
ARC
8
DEFAULT_255_1_234
10
6.5284587
20
58.4125799
40
0.2063326
50
89.272901
51
111.9140407
0
ARC
8
DEFAULT_255_1_234
10
6.5265115
20
58.426644
40
0.1925887
50
112.9382311
51
142.5320782
0
ARC
8
DEFAULT_255_1_234
10
6.5811295
20
58.3822969
40
0.2629232
50
142.1021256
51
166.3835592
0
ARC
8
DEFAULT_255_1_234
10
6.69926
20
58.3517915
40
0.3849193
50
166.1100289
51
178.665427
0
ARC
8
DEFAULT_255_1_234
10
6.8040189
20
58.3459117
40
0.4897989
50
178.2632126
51
180.0111093
0
ARC
8
DEFAULT_255_1_234
10
6.723831
20
58.3430728
40
0.40962
50
179.6161962
51
191.8787166
0
ARC
8
DEFAULT_255_1_234
10
6.6018149
20
58.3160896
40
0.2846655
50
191.6191692
51
215.2972286
0
ARC
8
DEFAULT_255_1_234
10
6.582134
20
58.3045918
40
0.2619665
50
215.7320102
51
216.5355409
0
ARC
8
DEFAULT_255_1_234
10
6.5282426
20
58.2613647
40
0.1929497
50
215.7486685
51
239.9727502
0
ARC
8
DEFAULT_255_1_234
10
6.5212342
20
58.2562894
40
0.1850822
50
241.0650169
51
269.2810483
0
ARC
8
DEFAULT_255_1_234
10
6.5254257
20
58.3053371
40
0.2342059
50
268.4062526
51
270.0071348
0
LINE
8
DEFAULT_255_1_234
10
4.3681299
20
64.0181211
11
4.6500439
21
63.5699501
0
LINE
8
DEFAULT_255_1_234
10
4.6500439
20
63.5699501
11
4.9303516
21
64.0181211
0
LINE
8
DEFAULT_255_1_234
10
4.9303516
20
64.0181211
11
5.1118689
21
64.0181211
0
LINE
8
DEFAULT_255_1_234
10
5.1118689
20
64.0181211
11
4.7424089
21
63.4382296
0
LINE
8
DEFAULT_255_1_234
10
4.7424089
20
63.4382296
11
5.1207038
21
62.8487
0
LINE
8
DEFAULT_255_1_234
10
5.1207038
20
62.8487
11
4.9375802
21
62.8487
0
LINE
8
DEFAULT_255_1_234
10
4.9375802
20
62.8487
11
4.6500439
21
63.3049027
0
LINE
8
DEFAULT_255_1_234
10
4.6500439
20
63.3049027
11
4.3609014
21
62.8487
0
LINE
8
DEFAULT_255_1_234
10
4.3609014
20
62.8487
11
4.1785809
21
62.8487
0
LINE
8
DEFAULT_255_1_234
10
4.1785809
20
62.8487
11
4.557679
21
63.4382296
0
LINE
8
DEFAULT_255_1_234
10
4.557679
20
63.4382296
11
4.1874158
21
64.0181211
0
LINE
8
DEFAULT_255_1_234
10
4.1874158
20
64.0181211
11
4.3681299
21
64.0181211
0
LINE
8
DEFAULT_255_1_234
10
5.7495889
20
64.0237433
11
5.7495889
21
62.8487
0
LINE
8
DEFAULT_255_1_234
10
5.7495889
20
62.8487
11
5.6001986
21
62.8487
0
LINE
8
DEFAULT_255_1_234
10
5.6001986
20
62.8487
11
5.6001986
21
63.8390133
0
LINE
8
DEFAULT_255_1_234
10
5.6001986
20
63.8390133
11
5.3006147
21
63.7289785
0
LINE
8
DEFAULT_255_1_234
10
5.3006147
20
63.7289785
11
5.3006147
21
63.8639117
0
LINE
8
DEFAULT_255_1_234
10
5.3006147
20
63.8639117
11
5.7262969
21
64.0237433
0
LINE
8
DEFAULT_255_1_234
10
5.7262969
20
64.0237433
11
5.7495889
21
64.0237433
0
ARC
8
DEFAULT_255_1_234
10
6.6118875
20
63.7103703
40
0.2822356
50
338.8763615
51
0.5166041
0
ARC
8
DEFAULT_255_1_234
10
6.6287529
20
63.7058208
40
0.2648703
50
325.8412414
51
338.4795939
0
ARC
8
DEFAULT_255_1_234
10
6.5896897
20
63.7329042
40
0.3124019
50
296.7586019
51
325.753654
0
ARC
8
DEFAULT_255_1_234
10
6.5609005
20
63.7813789
40
0.368668
50
296.0902311
51
297.3618122
0
ARC
8
DEFAULT_255_1_234
10
6.5866463
20
63.1259041
40
0.3518806
50
47.9009248
51
67.1946869
0
ARC
8
DEFAULT_255_1_234
10
6.6062705
20
63.1505395
40
0.320451
50
35.236241
51
47.551371
0
ARC
8
DEFAULT_255_1_234
10
6.6324323
20
63.1679993
40
0.2890103
50
359.2759738
51
35.4014081
0
ARC
8
DEFAULT_255_1_234
10
6.5579354
20
63.1606826
40
0.3635026
50
343.1294516
51
0.5776525
0
ARC
8
DEFAULT_255_1_234
10
6.6303899
20
63.140733
40
0.2883832
50
310.8497458
51
342.744803
0
ARC
8
DEFAULT_255_1_234
10
6.5886012
20
63.1884294
40
0.3517954
50
281.5473923
51
310.9169905
0
ARC
8
DEFAULT_255_1_234
10
6.5529461
20
63.3437084
40
0.5110832
50
269.6192722
51
281.9789957
0
ARC
8
DEFAULT_255_1_234
10
6.5457251
20
63.3437828
40
0.5111606
50
257.4584469
51
270.4287458
0
ARC
8
DEFAULT_255_1_234
10
6.5076394
20
63.1834344
40
0.3463762
50
228.7553743
51
257.8484423
0
ARC
8
DEFAULT_255_1_234
10
6.4766592
20
63.1461442
40
0.297916
50
184.0104442
51
228.5071787
0
ARC
8
DEFAULT_255_1_234
10
6.5929536
20
63.1638512
40
0.4152734
50
179.9315461
51
185.3254504
0
ARC
8
DEFAULT_255_1_234
10
6.4753182
20
63.1675992
40
0.2976554
50
145.6795913
51
180.6259649
0
ARC
8
DEFAULT_255_1_234
10
6.4916531
20
63.1561929
40
0.3175776
50
115.5537925
51
145.6416199
0
ARC
8
DEFAULT_255_1_234
10
6.5257461
20
63.0951028
40
0.3874232
50
113.2437915
51
116.2054627
0
ARC
8
DEFAULT_255_1_234
10
6.5104674
20
63.734958
40
0.3154751
50
222.9548379
51
244.1372485
0
ARC
8
DEFAULT_255_1_234
10
6.4982749
20
63.7212834
40
0.2972382
50
213.3439227
51
222.6271327
0
ARC
8
DEFAULT_255_1_234
10
6.4790684
20
63.7082308
40
0.274019
50
180.4316517
51
213.2713999
0
ARC
8
DEFAULT_255_1_234
10
6.5365685
20
63.712911
40
0.33158
50
179.9992944
51
181.1655061
0
ARC
8
DEFAULT_255_1_234
10
6.5775102
20
63.7163561
40
0.3725376
50
164.6186108
51
180.5292368
0
ARC
8
DEFAULT_255_1_234
10
6.4876965
20
63.7405101
40
0.2795349
50
132.2454369
51
164.5092287
0
ARC
8
DEFAULT_255_1_234
10
6.5164069
20
63.7080028
40
0.3229019
50
100.7052766
51
132.1387266
0
ARC
8
DEFAULT_255_1_234
10
6.5469041
20
63.5702086
40
0.4639835
50
89.6732617
51
101.2449487
0
ARC
8
DEFAULT_255_1_234
10
6.5531239
20
63.587699
40
0.4464999
50
76.2876631
51
90.4586123
0
ARC
8
DEFAULT_255_1_234
10
6.5837471
20
63.709922
40
0.3205023
50
47.8240157
51
76.4266918
0
ARC
8
DEFAULT_255_1_234
10
6.6060021
20
63.735959
40
0.2862661
50
6.9168658
51
47.6261438
0
ARC
8
DEFAULT_255_1_234
10
6.4873424
20
63.714037
40
0.4067708
50
359.8419705
51
7.9694496
0
ARC
8
DEFAULT_255_1_234
10
6.5215321
20
63.1699925
40
0.2513121
50
359.4454068
51
16.9256425
0
ARC
8
DEFAULT_255_1_234
10
6.5684132
20
63.1829033
40
0.2027071
50
17.292259
51
45.462717
0
ARC
8
DEFAULT_255_1_234
10
6.5630068
20
63.1782434
40
0.2098212
50
45.3028762
51
83.1921472
0
ARC
8
DEFAULT_255_1_234
10
6.5486752
20
63.0980895
40
0.2911472
50
82.2614531
51
90.143954
0
ARC
8
DEFAULT_255_1_234
10
6.5455872
20
63.121395
40
0.2678513
50
89.4959189
51
104.8579811
0
ARC
8
DEFAULT_255_1_234
10
6.5279131
20
63.188389
40
0.1985654
50
104.8855873
51
135.2448349
0
ARC
8
DEFAULT_255_1_234
10
6.5328904
20
63.1839336
40
0.2052373
50
135.3398955
51
172.104394
0
ARC
8
DEFAULT_255_1_234
10
6.6135962
20
63.1684925
40
0.2873299
50
171.2651929
51
180.1859362
0
ARC
8
DEFAULT_255_1_234
10
6.5966663
20
63.1652733
40
0.2704083
50
179.515471
51
193.6466734
0
ARC
8
DEFAULT_255_1_234
10
6.5150432
20
63.1444777
40
0.1861855
50
193.3540587
51
225.8256931
0
ARC
8
DEFAULT_255_1_234
10
6.5191189
20
63.1515524
40
0.1941102
50
226.418029
51
255.8553723
0
ARC
8
DEFAULT_255_1_234
10
6.5447622
20
63.2451998
40
0.2911917
50
255.4655572
51
268.7985967
0
ARC
8
DEFAULT_255_1_234
10
6.5494814
20
63.3290491
40
0.3751331
50
268.3464808
51
270.0104874
0
ARC
8
DEFAULT_255_1_234
10
6.5518202
20
63.2606138
40
0.3067064
50
269.575914
51
282.0823146
0
ARC
8
DEFAULT_255_1_234
10
6.5743111
20
63.1611803
40
0.2047712
50
281.7522535
51
306.6056425
0
ARC
8
DEFAULT_255_1_234
10
6.5841537
20
63.1450487
40
0.1859604
50
307.1350025
51
314.0277951
0
ARC
8
DEFAULT_255_1_234
10
6.5805621
20
63.1476766
40
0.1903475
50
314.2553419
51
350.169324
0
ARC
8
DEFAULT_255_1_234
10
6.495409
20
63.1661409
40
0.2774269
50
349.4145679
51
0.2930737
0
ARC
8
DEFAULT_255_1_234
10
6.5474523
20
63.6820353
40
0.2300764
50
89.477591
51
105.729794
0
ARC
8
DEFAULT_255_1_234
10
6.5338436
20
63.7325637
40
0.1777519
50
105.922966
51
135.1662921
0
ARC
8
DEFAULT_255_1_234
10
6.5358939
20
63.7311419
40
0.1802087
50
135.3053131
51
168.9882338
0
ARC
8
DEFAULT_255_1_234
10
6.6186511
20
63.7121721
40
0.2650806
50
168.3802067
51
180.3602358
0
ARC
8
DEFAULT_255_1_234
10
6.5958091
20
63.7084041
40
0.2422425
50
179.5029707
51
194.9126783
0
ARC
8
DEFAULT_255_1_234
10
6.5372752
20
63.693011
40
0.1817188
50
194.9722181
51
224.1943972
0
ARC
8
DEFAULT_255_1_234
10
6.5344619
20
63.6907169
40
0.1781027
50
224.2961434
51
262.0157375
0
ARC
8
DEFAULT_255_1_234
10
6.5486862
20
63.7638661
40
0.2525492
50
261.1250369
51
270.1959853
0
ARC
8
DEFAULT_255_1_234
10
6.5516617
20
63.7451339
40
0.233825
50
269.4825617
51
285.0988277
0
ARC
8
DEFAULT_255_1_234
10
6.5670776
20
63.687299
40
0.1739712
50
285.1585659
51
315.9484648
0
ARC
8
DEFAULT_255_1_234
10
6.5581788
20
63.6954886
40
0.1860616
50
316.0412958
51
351.9162715
0
ARC
8
DEFAULT_255_1_234
10
6.4848743
20
63.7096245
40
0.2606517
50
351.1056823
51
0.1936567
0
ARC
8
DEFAULT_255_1_234
10
6.5111572
20
63.7126369
40
0.234377
50
359.4789506
51
16.0679113
0
ARC
8
DEFAULT_255_1_234
10
6.5587531
20
63.725481
40
0.1850875
50
16.3251951
51
44.791304
0
ARC
8
DEFAULT_255_1_234
10
6.5569812
20
63.7255339
40
0.186312
50
44.3958661
51
88.2498933
0
ARC
8
DEFAULT_255_1_234
10
6.5496366
20
63.6644154
40
0.2476868
50
86.9833827
51
90.0200148
0
LINE
8
DEFAULT_255_1_234
10
4.3681299
20
69.3098211
11
4.6500439
21
68.8616501
0
LINE
8
DEFAULT_255_1_234
10
4.6500439
20
68.8616501
11
4.9303516
21
69.3098211
0
LINE
8
DEFAULT_255_1_234
10
4.9303516
20
69.3098211
11
5.1118689
21
69.3098211
0
LINE
8
DEFAULT_255_1_234
10
5.1118689
20
69.3098211
11
4.7424089
21
68.7299296
0
LINE
8
DEFAULT_255_1_234
10
4.7424089
20
68.7299296
11
5.1207038
21
68.1404
0
LINE
8
DEFAULT_255_1_234
10
5.1207038
20
68.1404
11
4.9375802
21
68.1404
0
LINE
8
DEFAULT_255_1_234
10
4.9375802
20
68.1404
11
4.6500439
21
68.5966027
0
LINE
8
DEFAULT_255_1_234
10
4.6500439
20
68.5966027
11
4.3609014
21
68.1404
0
LINE
8
DEFAULT_255_1_234
10
4.3609014
20
68.1404
11
4.1785809
21
68.1404
0
LINE
8
DEFAULT_255_1_234
10
4.1785809
20
68.1404
11
4.557679
21
68.7299296
0
LINE
8
DEFAULT_255_1_234
10
4.557679
20
68.7299296
11
4.1874158
21
69.3098211
0
LINE
8
DEFAULT_255_1_234
10
4.1874158
20
69.3098211
11
4.3681299
21
69.3098211
0
LINE
8
DEFAULT_255_1_234
10
5.7495889
20
69.3154433
11
5.7495889
21
68.1404
0
LINE
8
DEFAULT_255_1_234
10
5.7495889
20
68.1404
11
5.6001986
21
68.1404
0
LINE
8
DEFAULT_255_1_234
10
5.6001986
20
68.1404
11
5.6001986
21
69.1307133
0
LINE
8
DEFAULT_255_1_234
10
5.6001986
20
69.1307133
11
5.3006147
21
69.0206785
0
LINE
8
DEFAULT_255_1_234
10
5.3006147
20
69.0206785
11
5.3006147
21
69.1556117
0
LINE
8
DEFAULT_255_1_234
10
5.3006147
20
69.1556117
11
5.7262969
21
69.3154433
0
LINE
8
DEFAULT_255_1_234
10
5.7262969
20
69.3154433
11
5.7495889
21
69.3154433
0
LINE
8
DEFAULT_255_1_234
10
6.9398925
20
69.3098211
11
6.9398925
21
69.226291
0
LINE
8
DEFAULT_255_1_234
10
6.9398925
20
69.226291
11
6.4555787
21
68.1404
0
LINE
8
DEFAULT_255_1_234
10
6.4555787
20
68.1404
11
6.299763
21
68.1404
0
LINE
8
DEFAULT_255_1_234
10
6.299763
20
68.1404
11
6.7824705
21
69.1877387
0
LINE
8
DEFAULT_255_1_234
10
6.7824705
20
69.1877387
11
6.1495695
21
69.1877387
0
LINE
8
DEFAULT_255_1_234
10
6.1495695
20
69.1877387
11
6.1495695
21
69.3098211
0
LINE
8
DEFAULT_255_1_234
10
6.1495695
20
69.3098211
11
6.9398925
21
69.3098211
0
LINE
8
DEFAULT_255_1_234
10
4.3681299
20
74.6015211
11
4.6500439
21
74.1533501
0
LINE
8
DEFAULT_255_1_234
10
4.6500439
20
74.1533501
11
4.9303516
21
74.6015211
0
LINE
8
DEFAULT_255_1_234
10
4.9303516
20
74.6015211
11
5.1118689
21
74.6015211
0
LINE
8
DEFAULT_255_1_234
10
5.1118689
20
74.6015211
11
4.7424089
21
74.0216296
0
LINE
8
DEFAULT_255_1_234
10
4.7424089
20
74.0216296
11
5.1207038
21
73.4321
0
LINE
8
DEFAULT_255_1_234
10
5.1207038
20
73.4321
11
4.9375802
21
73.4321
0
LINE
8
DEFAULT_255_1_234
10
4.9375802
20
73.4321
11
4.6500439
21
73.8883027
0
LINE
8
DEFAULT_255_1_234
10
4.6500439
20
73.8883027
11
4.3609014
21
73.4321
0
LINE
8
DEFAULT_255_1_234
10
4.3609014
20
73.4321
11
4.1785809
21
73.4321
0
LINE
8
DEFAULT_255_1_234
10
4.1785809
20
73.4321
11
4.557679
21
74.0216296
0
LINE
8
DEFAULT_255_1_234
10
4.557679
20
74.0216296
11
4.1874158
21
74.6015211
0
LINE
8
DEFAULT_255_1_234
10
4.1874158
20
74.6015211
11
4.3681299
21
74.6015211
0
LINE
8
DEFAULT_255_1_234
10
5.7495889
20
74.6071433
11
5.7495889
21
73.4321
0
LINE
8
DEFAULT_255_1_234
10
5.7495889
20
73.4321
11
5.6001986
21
73.4321
0
LINE
8
DEFAULT_255_1_234
10
5.6001986
20
73.4321
11
5.6001986
21
74.4224133
0
LINE
8
DEFAULT_255_1_234
10
5.6001986
20
74.4224133
11
5.3006147
21
74.3123785
0
LINE
8
DEFAULT_255_1_234
10
5.3006147
20
74.3123785
11
5.3006147
21
74.4473117
0
LINE
8
DEFAULT_255_1_234
10
5.3006147
20
74.4473117
11
5.7262969
21
74.6071433
0
LINE
8
DEFAULT_255_1_234
10
5.7262969
20
74.6071433
11
5.7495889
21
74.6071433
0
LINE
8
DEFAULT_255_1_234
10
6.7415086
20
74.6023243
11
6.7680133
21
74.6023243
0
LINE
8
DEFAULT_255_1_234
10
6.7680133
20
74.6023243
11
6.7680133
21
74.476226
0
LINE
8
DEFAULT_255_1_234
10
6.7680133
20
74.476226
11
6.7407054
21
74.476226
0
LINE
8
DEFAULT_255_1_234
10
6.193744
20
73.8770583
11
6.193744
21
73.9340836
0
LINE
8
DEFAULT_255_1_234
10
6.3431344
20
73.9148075
11
6.3431344
21
73.8601917
0
ARC
8
DEFAULT_255_1_234
10
6.7459402
20
73.9764455
40
0.4998079
50
90.6001036
51
104.514704
0
ARC
8
DEFAULT_255_1_234
10
6.7070918
20
74.1209131
40
0.3502176
50
104.2855254
51
133.862935
0
ARC
8
DEFAULT_255_1_234
10
6.7234675
20
74.110083
40
0.3693984
50
134.5302688
51
161.6210873
0
ARC
8
DEFAULT_255_1_234
10
6.8887864
20
74.0517895
40
0.5446739
50
161.2849839
51
174.2076652
0
ARC
8
DEFAULT_255_1_234
10
7.0294801
20
74.0323787
40
0.6866274
50
173.7810589
51
174.9254635
0
ARC
8
DEFAULT_255_1_234
10
6.5744633
20
73.8940839
40
0.3033419
50
95.8330959
51
138.9954921
0
ARC
8
DEFAULT_255_1_234
10
6.5967989
20
73.7662375
40
0.4328947
50
89.8753725
51
97.0544009
0
ARC
8
DEFAULT_255_1_234
10
6.6015455
20
73.8497748
40
0.3493769
50
71.6407809
51
90.6240094
0
ARC
8
DEFAULT_255_1_234
10
6.6166028
20
73.9052082
40
0.2920396
50
39.6367836
51
71.019018
0
ARC
8
DEFAULT_255_1_234
10
6.5529501
20
73.8501998
40
0.3761538
50
10.658731
51
39.9043955
0
ARC
8
DEFAULT_255_1_234
10
6.3981584
20
73.8165686
40
0.5345136
50
359.682601
51
11.132623
0
ARC
8
DEFAULT_255_1_234
10
6.3941715
20
73.809501
40
0.5385081
50
347.2486944
51
0.4369317
0
ARC
8
DEFAULT_255_1_234
10
6.5609192
20
73.7693807
40
0.3670249
50
318.1409698
51
347.6118597
0
ARC
8
DEFAULT_255_1_234
10
6.5934185
20
73.7426702
40
0.3250007
50
275.6342139
51
317.8248465
0
ARC
8
DEFAULT_255_1_234
10
6.5713296
20
73.8726219
40
0.4565864
50
269.8874292
51
276.7917694
0
ARC
8
DEFAULT_255_1_234
10
6.5658367
20
73.7700743
40
0.3540676
50
246.9140195
51
270.7437342
0
ARC
8
DEFAULT_255_1_234
10
6.5664757
20
73.7558384
40
0.3412781
50
218.1665114
51
245.878116
0
ARC
8
DEFAULT_255_1_234
10
6.6544218
20
73.8294279
40
0.455911
50
191.4115814
51
218.6077802
0
ARC
8
DEFAULT_255_1_234
10
6.8482307
20
73.8728833
40
0.6545001
50
179.6345085
51
191.7836486
0
ARC
8
DEFAULT_255_1_234
10
7.4064644
20
73.9407697
40
1.2127388
50
171.4525249
51
180.3158839
0
ARC
8
DEFAULT_255_1_234
10
6.966952
20
74.0091608
40
0.7679464
50
157.9802646
51
171.6246686
0
ARC
8
DEFAULT_255_1_234
10
6.7455541
20
74.0974421
40
0.5296008
50
141.4298019
51
157.854097
0
ARC
8
DEFAULT_255_1_234
10
6.6813861
20
74.1428381
40
0.4511509
50
102.8715806
51
140.8564722
0
ARC
8
DEFAULT_255_1_234
10
6.7461477
20
73.8988552
40
0.7034845
50
90.3778349
51
103.5869322
0
ARC
8
DEFAULT_255_1_234
10
6.5723253
20
73.838373
40
0.2370698
50
89.8751008
51
126.2071704
0
ARC
8
DEFAULT_255_1_234
10
6.5769043
20
73.8229303
40
0.2522934
50
124.9745049
51
144.895901
0
ARC
8
DEFAULT_255_1_234
10
6.5593233
20
73.837256
40
0.2296779
50
145.2974905
51
160.2660252
0
ARC
8
DEFAULT_255_1_234
10
6.8665772
20
73.8570071
40
0.5234525
50
179.6514266
51
190.2855912
0
ARC
8
DEFAULT_255_1_234
10
6.6971909
20
73.8250786
40
0.3510893
50
190.0945431
51
207.5098196
0
ARC
8
DEFAULT_255_1_234
10
6.6406179
20
73.7981623
40
0.288489
50
207.9583163
51
216.3251085
0
ARC
8
DEFAULT_255_1_234
10
6.6066287
20
73.7702105
40
0.2445587
50
215.7661442
51
232.5456785
0
ARC
8
DEFAULT_255_1_234
10
6.568327
20
73.7215482
40
0.1826382
50
232.8005391
51
270.6605633
0
ARC
8
DEFAULT_255_1_234
10
6.5728971
20
73.7579612
40
0.2190529
50
269.35537
51
288.4744281
0
ARC
8
DEFAULT_255_1_234
10
6.5821868
20
73.7230118
40
0.1829749
50
289.1833337
51
322.9683818
0
ARC
8
DEFAULT_255_1_234
10
6.521039
20
73.7712391
40
0.2608399
50
322.6007884
51
346.5182367
0
ARC
8
DEFAULT_255_1_234
10
6.4052986
20
73.8007616
40
0.3802777
50
346.2582162
51
358.7741648
0
ARC
8
DEFAULT_255_1_234
10
6.3034655
20
73.8062965
40
0.4822176
50
358.3755224
51
0.0098023
0
ARC
8
DEFAULT_255_1_234
10
6.3790842
20
73.8090657
40
0.4066078
50
359.6214041
51
11.2839074
0
ARC
8
DEFAULT_255_1_234
10
6.5067989
20
73.8357066
40
0.2761514
50
11.0482309
51
31.8146458
0
ARC
8
DEFAULT_255_1_234
10
6.5377032
20
73.8524584
40
0.2410679
50
32.3035391
51
38.082671
0
ARC
8
DEFAULT_255_1_234
10
6.5797692
20
73.8905662
40
0.1844966
50
36.825067
51
85.7415724
0
ARC
8
DEFAULT_255_1_234
10
6.5730525
20
73.8405301
40
0.2349122
50
85.0140713
51
90.0513278
0
LINE
8
DEFAULT_255_1_234
10
4.3681299
20
79.8931211
11
4.6500439
21
79.4449501
0
LINE
8
DEFAULT_255_1_234
10
4.6500439
20
79.4449501
11
4.9303516
21
79.8931211
0
LINE
8
DEFAULT_255_1_234
10
4.9303516
20
79.8931211
11
5.1118689
21
79.8931211
0
LINE
8
DEFAULT_255_1_234
10
5.1118689
20
79.8931211
11
4.7424089
21
79.3132296
0
LINE
8
DEFAULT_255_1_234
10
4.7424089
20
79.3132296
11
5.1207038
21
78.7237
0
LINE
8
DEFAULT_255_1_234
10
5.1207038
20
78.7237
11
4.9375802
21
78.7237
0
LINE
8
DEFAULT_255_1_234
10
4.9375802
20
78.7237
11
4.6500439
21
79.1799027
0
LINE
8
DEFAULT_255_1_234
10
4.6500439
20
79.1799027
11
4.3609014
21
78.7237
0
LINE
8
DEFAULT_255_1_234
10
4.3609014
20
78.7237
11
4.1785809
21
78.7237
0
LINE
8
DEFAULT_255_1_234
10
4.1785809
20
78.7237
11
4.557679
21
79.3132296
0
LINE
8
DEFAULT_255_1_234
10
4.557679
20
79.3132296
11
4.1874158
21
79.8931211
0
LINE
8
DEFAULT_255_1_234
10
4.1874158
20
79.8931211
11
4.3681299
21
79.8931211
0
LINE
8
DEFAULT_255_1_234
10
5.7495889
20
79.8987433
11
5.7495889
21
78.7237
0
LINE
8
DEFAULT_255_1_234
10
5.7495889
20
78.7237
11
5.6001986
21
78.7237
0
LINE
8
DEFAULT_255_1_234
10
5.6001986
20
78.7237
11
5.6001986
21
79.7140133
0
LINE
8
DEFAULT_255_1_234
10
5.6001986
20
79.7140133
11
5.3006147
21
79.6039785
0
LINE
8
DEFAULT_255_1_234
10
5.3006147
20
79.6039785
11
5.3006147
21
79.7389117
0
LINE
8
DEFAULT_255_1_234
10
5.3006147
20
79.7389117
11
5.7262969
21
79.8987433
0
LINE
8
DEFAULT_255_1_234
10
5.7262969
20
79.8987433
11
5.7495889
21
79.8987433
0
LINE
8
DEFAULT_255_1_234
10
6.3720486
20
79.2794963
11
6.2531789
21
79.3100169
0
LINE
8
DEFAULT_255_1_234
10
6.2531789
20
79.3100169
11
6.3126138
21
79.8931211
0
LINE
8
DEFAULT_255_1_234
10
6.3126138
20
79.8931211
11
6.9117814
21
79.8931211
0
LINE
8
DEFAULT_255_1_234
10
6.9117814
20
79.8931211
11
6.9117814
21
79.7557784
0
LINE
8
DEFAULT_255_1_234
10
6.9117814
20
79.7557784
11
6.4387121
21
79.7557784
0
LINE
8
DEFAULT_255_1_234
10
6.4387121
20
79.7557784
11
6.4033724
21
79.4369184
0
LINE
8
DEFAULT_255_1_234
10
6.2114139
20
79.0313156
11
6.3519693
21
79.0313156
0
LINE
8
DEFAULT_255_1_234
10
6.4114042
20
79.3116232
11
6.3720486
21
79.2794963
0
ARC
8
DEFAULT_255_1_234
10
6.5888508
20
79.118923
40
0.3681349
50
93.7182161
51
120.2538958
0
ARC
8
DEFAULT_255_1_234
10
6.5982771
20
79.0381394
40
0.449379
50
89.9660152
51
94.2496022
0
ARC
8
DEFAULT_255_1_234
10
6.6023505
20
79.0970549
40
0.390482
50
73.8043271
51
90.5585896
0
ARC
8
DEFAULT_255_1_234
10
6.6258402
20
79.1828602
40
0.3015334
50
41.3071453
51
73.5430202
0
ARC
8
DEFAULT_255_1_234
10
6.5842229
20
79.1470324
40
0.3564457
50
13.5075983
51
41.2174222
0
ARC
8
DEFAULT_255_1_234
10
6.4200433
20
79.1040486
40
0.5261351
50
1.1331335
51
13.8829381
0
ARC
8
DEFAULT_255_1_234
10
6.2788802
20
79.0964665
40
0.6674378
50
359.9919444
51
1.544251
0
ARC
8
DEFAULT_255_1_234
10
6.4065628
20
79.092328
40
0.5397702
50
347.8572367
51
0.4293338
0
ARC
8
DEFAULT_255_1_234
10
6.5815946
20
79.0526736
40
0.3603188
50
323.673004
51
348.1672506
0
ARC
8
DEFAULT_255_1_234
10
6.6110454
20
79.0347168
40
0.3259678
50
316.8171152
51
323.1492751
0
ARC
8
DEFAULT_255_1_234
10
6.6171643
20
79.031046
40
0.3189975
50
281.8396411
51
316.5457803
0
ARC
8
DEFAULT_255_1_234
10
6.5795907
20
79.1865762
40
0.4789527
50
269.5770101
51
282.4214771
0
ARC
8
DEFAULT_255_1_234
10
6.5724718
20
79.1652125
40
0.45759
50
256.2427136
51
270.4486331
0
ARC
8
DEFAULT_255_1_234
10
6.542562
20
79.0452229
40
0.3339303
50
228.9023911
51
256.3314342
0
ARC
8
DEFAULT_255_1_234
10
6.5351853
20
79.0335746
40
0.32031
50
193.753695
51
228.5271154
0
ARC
8
DEFAULT_255_1_234
10
6.6589807
20
79.06988
40
0.4492253
50
184.924711
51
194.497588
0
ARC
8
DEFAULT_255_1_234
10
6.6782374
20
79.0734591
40
0.3289787
50
187.3600538
51
198.6732863
0
ARC
8
DEFAULT_255_1_234
10
6.5732668
20
79.0370674
40
0.217884
50
198.4451669
51
217.794479
0
ARC
8
DEFAULT_255_1_234
10
6.5436843
20
79.0161085
40
0.1816698
50
218.2887171
51
228.5612368
0
ARC
8
DEFAULT_255_1_234
10
6.553463
20
79.0292963
40
0.1980329
50
228.9654866
51
258.1234728
0
ARC
8
DEFAULT_255_1_234
10
6.574034
20
79.1173833
40
0.2884748
50
257.7258293
51
270.401361
0
ARC
8
DEFAULT_255_1_234
10
6.5785226
20
79.0728821
40
0.2439788
50
269.4204404
51
286.4209037
0
ARC
8
DEFAULT_255_1_234
10
6.5933714
20
79.0189657
40
0.1880666
50
286.7251356
51
320.600362
0
ARC
8
DEFAULT_255_1_234
10
6.5550539
20
79.0500595
40
0.2374121
50
320.6712579
51
344.5441685
0
ARC
8
DEFAULT_255_1_234
10
6.4393865
20
79.0840045
40
0.3579479
50
344.2412205
51
356.7357071
0
ARC
8
DEFAULT_255_1_234
10
6.3145014
20
79.0943444
40
0.4832297
50
356.3548756
51
0.0500261
0
ARC
8
DEFAULT_255_1_234
10
6.4481523
20
79.097465
40
0.3495889
50
359.5576869
51
12.953486
0
ARC
8
DEFAULT_255_1_234
10
6.553642
20
79.1230434
40
0.2410532
50
12.6490276
51
41.6081334
0
ARC
8
DEFAULT_255_1_234
10
6.5766791
20
79.1426321
40
0.2108218
50
41.7850273
51
85.9892764
0
ARC
8
DEFAULT_255_1_234
10
6.5643528
20
79.0613462
40
0.2928454
50
84.6957577
51
90.0676183
0
ARC
8
DEFAULT_255_1_234
10
6.5620012
20
78.9944716
40
0.3597255
50
89.6804936
51
99.1614436
0
ARC
8
DEFAULT_255_1_234
10
6.5414643
20
79.1172131
40
0.235281
50
98.9830931
51
113.8908934
0
ARC
8
DEFAULT_255_1_234
10
6.5185053
20
79.1713587
40
0.176479
50
114.1950727
51
127.3641004
0
LINE
8
DEFAULT_255_1_234
10
4.4740299
20
85.1848211
11
4.7559439
21
84.7366501
0
LINE
8
DEFAULT_255_1_234
10
4.7559439
20
84.7366501
11
5.0362516
21
85.1848211
0
LINE
8
DEFAULT_255_1_234
10
5.0362516
20
85.1848211
11
5.2177689
21
85.1848211
0
LINE
8
DEFAULT_255_1_234
10
5.2177689
20
85.1848211
11
4.8483089
21
84.6049296
0
LINE
8
DEFAULT_255_1_234
10
4.8483089
20
84.6049296
11
5.2266038
21
84.0154
0
LINE
8
DEFAULT_255_1_234
10
5.2266038
20
84.0154
11
5.0434802
21
84.0154
0
LINE
8
DEFAULT_255_1_234
10
5.0434802
20
84.0154
11
4.7559439
21
84.4716027
0
LINE
8
DEFAULT_255_1_234
10
4.7559439
20
84.4716027
11
4.4668014
21
84.0154
0
LINE
8
DEFAULT_255_1_234
10
4.4668014
20
84.0154
11
4.2844809
21
84.0154
0
LINE
8
DEFAULT_255_1_234
10
4.2844809
20
84.0154
11
4.663579
21
84.6049296
0
LINE
8
DEFAULT_255_1_234
10
4.663579
20
84.6049296
11
4.2933158
21
85.1848211
0
LINE
8
DEFAULT_255_1_234
10
4.2933158
20
85.1848211
11
4.4740299
21
85.1848211
0
LINE
8
DEFAULT_255_1_234
10
5.8554889
20
85.1904433
11
5.8554889
21
84.0154
0
LINE
8
DEFAULT_255_1_234
10
5.8554889
20
84.0154
11
5.7060986
21
84.0154
0
LINE
8
DEFAULT_255_1_234
10
5.7060986
20
84.0154
11
5.7060986
21
85.0057133
0
LINE
8
DEFAULT_255_1_234
10
5.7060986
20
85.0057133
11
5.4065147
21
84.8956785
0
LINE
8
DEFAULT_255_1_234
10
5.4065147
20
84.8956785
11
5.4065147
21
85.0306117
0
LINE
8
DEFAULT_255_1_234
10
5.4065147
20
85.0306117
11
5.8321969
21
85.1904433
0
LINE
8
DEFAULT_255_1_234
10
5.8321969
20
85.1904433
11
5.8554889
21
85.1904433
0
LINE
8
DEFAULT_255_1_234
10
6.9180879
20
85.1848211
11
6.9180879
21
84.408152
0
LINE
8
DEFAULT_255_1_234
10
6.9180879
20
84.408152
11
7.080329
21
84.408152
0
LINE
8
DEFAULT_255_1_234
10
7.080329
20
84.408152
11
7.080329
21
84.2868728
0
LINE
8
DEFAULT_255_1_234
10
7.080329
20
84.2868728
11
6.9180879
21
84.2868728
0
LINE
8
DEFAULT_255_1_234
10
6.9180879
20
84.2868728
11
6.9180879
21
84.0154
0
LINE
8
DEFAULT_255_1_234
10
6.9180879
20
84.0154
11
6.7686976
21
84.0154
0
LINE
8
DEFAULT_255_1_234
10
6.7686976
20
84.0154
11
6.7686976
21
84.2868728
0
LINE
8
DEFAULT_255_1_234
10
6.7686976
20
84.2868728
11
6.2361933
21
84.2868728
0
LINE
8
DEFAULT_255_1_234
10
6.2361933
20
84.2868728
11
6.2361933
21
84.3744187
0
LINE
8
DEFAULT_255_1_234
10
6.2361933
20
84.3744187
11
6.7598626
21
85.1848211
0
LINE
8
DEFAULT_255_1_234
10
6.7598626
20
85.1848211
11
6.9180879
21
85.1848211
0
LINE
8
DEFAULT_255_1_234
10
6.7510277
20
84.9494912
11
6.4048598
21
84.408152
0
LINE
8
DEFAULT_255_1_234
10
6.4048598
20
84.408152
11
6.7686976
21
84.408152
0
LINE
8
DEFAULT_255_1_234
10
6.7686976
20
84.408152
11
6.7686976
21
84.9816181
0
LINE
8
DEFAULT_255_1_234
10
6.7686976
20
84.9816181
11
6.7510277
21
84.9494912
0
LINE
8
DEFAULT_255_1_234
10
4.3681299
20
90.4765211
11
4.6500439
21
90.0283501
0
LINE
8
DEFAULT_255_1_234
10
4.6500439
20
90.0283501
11
4.9303516
21
90.4765211
0
LINE
8
DEFAULT_255_1_234
10
4.9303516
20
90.4765211
11
5.1118689
21
90.4765211
0
LINE
8
DEFAULT_255_1_234
10
5.1118689
20
90.4765211
11
4.7424089
21
89.8966296
0
LINE
8
DEFAULT_255_1_234
10
4.7424089
20
89.8966296
11
5.1207038
21
89.3071
0
LINE
8
DEFAULT_255_1_234
10
5.1207038
20
89.3071
11
4.9375802
21
89.3071
0
LINE
8
DEFAULT_255_1_234
10
4.9375802
20
89.3071
11
4.6500439
21
89.7633027
0
LINE
8
DEFAULT_255_1_234
10
4.6500439
20
89.7633027
11
4.3609014
21
89.3071
0
LINE
8
DEFAULT_255_1_234
10
4.3609014
20
89.3071
11
4.1785809
21
89.3071
0
LINE
8
DEFAULT_255_1_234
10
4.1785809
20
89.3071
11
4.557679
21
89.8966296
0
LINE
8
DEFAULT_255_1_234
10
4.557679
20
89.8966296
11
4.1874158
21
90.4765211
0
LINE
8
DEFAULT_255_1_234
10
4.1874158
20
90.4765211
11
4.3681299
21
90.4765211
0
LINE
8
DEFAULT_255_1_234
10
5.7495889
20
90.4821433
11
5.7495889
21
89.3071
0
LINE
8
DEFAULT_255_1_234
10
5.7495889
20
89.3071
11
5.6001986
21
89.3071
0
LINE
8
DEFAULT_255_1_234
10
5.6001986
20
89.3071
11
5.6001986
21
90.2974133
0
LINE
8
DEFAULT_255_1_234
10
5.6001986
20
90.2974133
11
5.3006147
21
90.1873785
0
LINE
8
DEFAULT_255_1_234
10
5.3006147
20
90.1873785
11
5.3006147
21
90.3223117
0
LINE
8
DEFAULT_255_1_234
10
5.3006147
20
90.3223117
11
5.7262969
21
90.4821433
0
LINE
8
DEFAULT_255_1_234
10
5.7262969
20
90.4821433
11
5.7495889
21
90.4821433
0
LINE
8
DEFAULT_255_1_234
10
6.4009629
20
89.8428169
11
6.4009629
21
89.9640962
0
LINE
8
DEFAULT_255_1_234
10
6.4009629
20
89.9640962
11
6.5126041
21
89.9640962
0
LINE
8
DEFAULT_255_1_234
10
6.3222519
20
90.1697087
11
6.1736647
21
90.1697087
0
LINE
8
DEFAULT_255_1_234
10
6.1632234
20
89.6155187
11
6.3126138
21
89.6155187
0
LINE
8
DEFAULT_255_1_234
10
6.5126041
20
89.8428169
11
6.4009629
21
89.8428169
0
ARC
8
DEFAULT_255_1_234
10
6.5096907
20
90.3033713
40
0.3392876
50
270.4919872
51
281.8951556
0
ARC
8
DEFAULT_255_1_234
10
6.5338169
20
90.1931702
40
0.2264817
50
281.6691735
51
301.2943132
0
ARC
8
DEFAULT_255_1_234
10
6.5508379
20
90.1620304
40
0.1910381
50
301.7833094
51
311.7545298
0
ARC
8
DEFAULT_255_1_234
10
6.5599955
20
90.1518748
40
0.1773635
50
311.7323931
51
354.2802411
0
ARC
8
DEFAULT_255_1_234
10
6.487358
20
90.1643722
40
0.2509385
50
353.0937916
51
0.1181479
0
ARC
8
DEFAULT_255_1_234
10
6.4412365
20
90.1691386
40
0.2970898
50
359.1805295
51
15.0453146
0
ARC
8
DEFAULT_255_1_234
10
6.5758202
20
90.2083992
40
0.1569564
50
13.9577229
51
77.6713066
0
ARC
8
DEFAULT_255_1_234
10
6.5371731
20
90.0698949
40
0.3006298
50
76.1116566
51
90.7026153
0
ARC
8
DEFAULT_255_1_234
10
6.5312569
20
90.0972545
40
0.2732568
50
89.5324876
51
103.531937
0
ARC
8
DEFAULT_255_1_234
10
6.5112013
20
90.1771884
40
0.1908508
50
103.2931773
51
133.5619022
0
ARC
8
DEFAULT_255_1_234
10
6.5067502
20
90.1831375
40
0.1834746
50
133.8349307
51
173.5344437
0
ARC
8
DEFAULT_255_1_234
10
6.5790545
20
90.1703213
40
0.2568033
50
172.5096846
51
180.1366907
0
ARC
8
DEFAULT_255_1_234
10
6.4839439
20
90.1737622
40
0.3103056
50
155.3484492
51
180.7484736
0
ARC
8
DEFAULT_255_1_234
10
6.4790528
20
90.1708846
40
0.3070957
50
131.5744599
51
154.4798489
0
ARC
8
DEFAULT_255_1_234
10
6.5103675
20
90.139231
40
0.3515643
50
96.9875458
51
131.9690667
0
ARC
8
DEFAULT_255_1_234
10
6.5323155
20
90.0146636
40
0.4779224
50
89.8596053
51
97.7825159
0
ARC
8
DEFAULT_255_1_234
10
6.5371218
20
89.9884616
40
0.5041361
50
78.3655447
51
90.4131539
0
ARC
8
DEFAULT_255_1_234
10
6.5729136
20
90.1543887
40
0.3344039
50
56.6229102
51
78.638727
0
ARC
8
DEFAULT_255_1_234
10
6.594408
20
90.1919805
40
0.2912001
50
47.0253525
51
56.0854072
0
ARC
8
DEFAULT_255_1_234
10
6.596386
20
90.1959223
40
0.2869704
50
10.9208013
51
46.7778124
0
ARC
8
DEFAULT_255_1_234
10
6.4599926
20
90.1643857
40
0.426899
50
359.6364486
51
11.6087304
0
ARC
8
DEFAULT_255_1_234
10
6.643477
20
90.1628752
40
0.243409
50
332.3549906
51
359.7179418
0
ARC
8
DEFAULT_255_1_234
10
6.5784372
20
90.1937142
40
0.3153459
50
325.2333722
51
332.8745602
0
ARC
8
DEFAULT_255_1_234
10
6.5936995
20
90.1830828
40
0.2967456
50
292.9802137
51
325.2392345
0
ARC
8
DEFAULT_255_1_234
10
6.5662369
20
90.2364863
40
0.3566604
50
292.5402179
51
293.6924929
0
ARC
8
DEFAULT_255_1_234
10
6.6054965
20
89.5910091
40
0.3307468
50
57.6435486
51
72.8625112
0
ARC
8
DEFAULT_255_1_234
10
6.6409465
20
89.6484549
40
0.2632492
50
36.7248896
51
57.4697979
0
ARC
8
DEFAULT_255_1_234
10
6.6398098
20
89.649722
40
0.2634081
50
8.0545065
51
36.356114
0
ARC
8
DEFAULT_255_1_234
10
6.5535283
20
89.6342174
40
0.3510261
50
359.8320645
51
8.5869982
0
ARC
8
DEFAULT_255_1_234
10
6.5160059
20
89.6294101
40
0.3885653
50
343.9829931
51
0.5571613
0
ARC
8
DEFAULT_255_1_234
10
6.6046256
20
89.6051438
40
0.2966924
50
311.6359546
51
343.7651759
0
ARC
8
DEFAULT_255_1_234
10
6.5667825
20
89.6478102
40
0.3537231
50
279.7829875
51
311.6255694
0
ARC
8
DEFAULT_255_1_234
10
6.5366601
20
89.791528
40
0.5004971
50
269.7286406
51
280.3856417
0
ARC
8
DEFAULT_255_1_234
10
6.5304674
20
89.7873996
40
0.4963778
50
256.6828919
51
270.4412052
0
ARC
8
DEFAULT_255_1_234
10
6.496597
20
89.6489394
40
0.3538406
50
229.4223008
51
256.8556159
0
ARC
8
DEFAULT_255_1_234
10
6.4551363
20
89.6022736
40
0.2914296
50
181.818294
51
229.6455059
0
ARC
8
DEFAULT_255_1_234
10
6.5591319
20
89.6153496
40
0.3959084
50
179.9755256
51
183.2323064
0
ARC
8
DEFAULT_255_1_234
10
6.5419065
20
89.6133037
40
0.2293034
50
179.4465117
51
196.2869258
0
ARC
8
DEFAULT_255_1_234
10
6.4931473
20
89.5999651
40
0.1787621
50
196.5661473
51
227.705904
0
ARC
8
DEFAULT_255_1_234
10
6.5095568
20
89.6183155
40
0.2033784
50
227.7652068
51
257.8762805
0
ARC
8
DEFAULT_255_1_234
10
6.5320538
20
89.7126156
40
0.3003081
50
257.4584385
51
270.426602
0
ARC
8
DEFAULT_255_1_234
10
6.5366104
20
89.7415996
40
0.329292
50
269.5962073
51
280.8789248
0
ARC
8
DEFAULT_255_1_234
10
6.5595633
20
89.6269685
40
0.2123908
50
280.6346389
51
299.8595945
0
ARC
8
DEFAULT_255_1_234
10
6.578654
20
89.5907212
40
0.171457
50
300.3576302
51
314.5517981
0
ARC
8
DEFAULT_255_1_234
10
6.57036
20
89.5967919
40
0.1816095
50
315.0728369
51
345.0431014
0
ARC
8
DEFAULT_255_1_234
10
6.4780414
20
89.6236841
40
0.2777492
50
344.5986631
51
357.9269593
0
ARC
8
DEFAULT_255_1_234
10
6.388474
20
89.6298276
40
0.3674917
50
357.4748886
51
0.0231117
0
ARC
8
DEFAULT_255_1_234
10
6.490785
20
89.6322679
40
0.2651907
50
359.5047933
51
13.4239635
0
ARC
8
DEFAULT_255_1_234
10
6.5774493
20
89.6544478
40
0.1757509
50
12.9498199
51
48.7551375
0
ARC
8
DEFAULT_255_1_234
10
6.5592227
20
89.62954
40
0.2065134
50
49.5088623
51
72.1836453
0
ARC
8
DEFAULT_255_1_234
10
6.523438
20
89.5233291
40
0.3185836
50
71.9010081
51
84.3554254
0
ARC
8
DEFAULT_255_1_234
10
6.5073012
20
89.3872326
40
0.4556151
50
84.0193428
51
89.333121
0
LINE
8
DEFAULT_255_1_234
10
4.3681299
20
95.7681211
11
4.6500439
21
95.3199501
0
LINE
8
DEFAULT_255_1_234
10
4.6500439
20
95.3199501
11
4.9303516
21
95.7681211
0
LINE
8
DEFAULT_255_1_234
10
4.9303516
20
95.7681211
11
5.1118689
21
95.7681211
0
LINE
8
DEFAULT_255_1_234
10
5.1118689
20
95.7681211
11
4.7424089
21
95.1882296
0
LINE
8
DEFAULT_255_1_234
10
4.7424089
20
95.1882296
11
5.1207038
21
94.5987
0
LINE
8
DEFAULT_255_1_234
10
5.1207038
20
94.5987
11
4.9375802
21
94.5987
0
LINE
8
DEFAULT_255_1_234
10
4.9375802
20
94.5987
11
4.6500439
21
95.0549027
0
LINE
8
DEFAULT_255_1_234
10
4.6500439
20
95.0549027
11
4.3609014
21
94.5987
0
LINE
8
DEFAULT_255_1_234
10
4.3609014
20
94.5987
11
4.1785809
21
94.5987
0
LINE
8
DEFAULT_255_1_234
10
4.1785809
20
94.5987
11
4.557679
21
95.1882296
0
LINE
8
DEFAULT_255_1_234
10
4.557679
20
95.1882296
11
4.1874158
21
95.7681211
0
LINE
8
DEFAULT_255_1_234
10
4.1874158
20
95.7681211
11
4.3681299
21
95.7681211
0
LINE
8
DEFAULT_255_1_234
10
5.7495889
20
95.7737433
11
5.7495889
21
94.5987
0
LINE
8
DEFAULT_255_1_234
10
5.7495889
20
94.5987
11
5.6001986
21
94.5987
0
LINE
8
DEFAULT_255_1_234
10
5.6001986
20
94.5987
11
5.6001986
21
95.5890133
0
LINE
8
DEFAULT_255_1_234
10
5.6001986
20
95.5890133
11
5.3006147
21
95.4789785
0
LINE
8
DEFAULT_255_1_234
10
5.3006147
20
95.4789785
11
5.3006147
21
95.6139117
0
LINE
8
DEFAULT_255_1_234
10
5.3006147
20
95.6139117
11
5.7262969
21
95.7737433
0
LINE
8
DEFAULT_255_1_234
10
5.7262969
20
95.7737433
11
5.7495889
21
95.7737433
0
LINE
8
DEFAULT_255_1_234
10
6.951137
20
94.7199792
11
6.951137
21
94.5987
0
LINE
8
DEFAULT_255_1_234
10
6.951137
20
94.5987
11
6.1849091
21
94.5987
0
LINE
8
DEFAULT_255_1_234
10
6.1849091
20
94.5987
11
6.1849091
21
94.7055221
0
LINE
8
DEFAULT_255_1_234
10
6.1849091
20
94.7055221
11
6.5897087
21
95.1552995
0
LINE
8
DEFAULT_255_1_234
10
6.3110074
20
95.4235595
11
6.1624203
21
95.4235595
0
LINE
8
DEFAULT_255_1_234
10
6.6772547
20
95.0597218
11
6.3640169
21
94.7199792
0
LINE
8
DEFAULT_255_1_234
10
6.3640169
20
94.7199792
11
6.951137
21
94.7199792
0
ARC
8
DEFAULT_255_1_234
10
5.2406921
20
96.3482527
40
1.8008286
50
318.5132453
51
320.7828378
0
ARC
8
DEFAULT_255_1_234
10
5.7693895
20
95.9179426
40
1.1191493
50
320.7372736
51
323.9737074
0
ARC
8
DEFAULT_255_1_234
10
6.1613751
20
95.6339361
40
0.6350923
50
323.8961724
51
328.6421089
0
ARC
8
DEFAULT_255_1_234
10
6.3660347
20
95.5077031
40
0.3946393
50
328.8299013
51
331.789948
0
ARC
8
DEFAULT_255_1_234
10
6.4657525
20
95.4562509
40
0.2824501
50
331.4255242
51
352.9364833
0
ARC
8
DEFAULT_255_1_234
10
6.4794026
20
95.4531976
40
0.2685315
50
353.2248685
51
0.0169286
0
ARC
8
DEFAULT_255_1_234
10
6.5003903
20
95.455495
40
0.2475536
50
359.4866256
51
15.9339782
0
ARC
8
DEFAULT_255_1_234
10
6.5510888
20
95.4691286
40
0.1950618
50
16.1714718
51
43.5284424
0
ARC
8
DEFAULT_255_1_234
10
6.5588197
20
95.4768573
40
0.184134
50
43.4415429
51
83.1661404
0
ARC
8
DEFAULT_255_1_234
10
6.5454115
20
95.4031771
40
0.258926
50
82.160215
51
90.1505798
0
ARC
8
DEFAULT_255_1_234
10
6.5422542
20
95.3494865
40
0.3126255
50
89.5460705
51
102.5418777
0
ARC
8
DEFAULT_255_1_234
10
6.5179628
20
95.4525665
40
0.2067346
50
102.1739365
51
129.2061916
0
ARC
8
DEFAULT_255_1_234
10
6.51007
20
95.4650094
40
0.1921118
50
129.7279328
51
135.7542026
0
ARC
8
DEFAULT_255_1_234
10
6.5222228
20
95.4553045
40
0.2075944
50
136.175737
51
166.3674722
0
ARC
8
DEFAULT_255_1_234
10
6.6229147
20
95.4283182
40
0.3118201
50
165.9092917
51
178.8683903
0
ARC
8
DEFAULT_255_1_234
10
6.7094008
20
95.4236179
40
0.3983935
50
178.438168
51
180.0083905
0
ARC
8
DEFAULT_255_1_234
10
6.569261
20
95.4275231
40
0.4068601
50
163.2878735
51
180.5581814
0
ARC
8
DEFAULT_255_1_234
10
6.4890872
20
95.449584
40
0.3237344
50
133.454115
51
162.9470031
0
ARC
8
DEFAULT_255_1_234
10
6.5069413
20
95.4306
40
0.349795
50
100.7869394
51
133.4384016
0
ARC
8
DEFAULT_255_1_234
10
6.5417185
20
95.2757319
40
0.5084616
50
89.6605301
51
101.3704185
0
ARC
8
DEFAULT_255_1_234
10
6.5483523
20
95.2818496
40
0.502348
50
78.2171172
51
90.4130393
0
ARC
8
DEFAULT_255_1_234
10
6.5838602
20
95.4442637
40
0.3361092
50
55.9268222
51
78.4888551
0
ARC
8
DEFAULT_255_1_234
10
6.6035042
20
95.4781324
40
0.2970617
50
47.9292255
51
55.4054003
0
ARC
8
DEFAULT_255_1_234
10
6.6136603
20
95.4884502
40
0.2825983
50
4.3347696
51
48.0560701
0
ARC
8
DEFAULT_255_1_234
10
6.5040996
20
95.4714601
40
0.393225
50
359.925209
51
5.5967654
0
ARC
8
DEFAULT_255_1_234
10
6.5469888
20
95.4770816
40
0.3503892
50
337.8914096
51
358.9967724
0
ARC
8
DEFAULT_255_1_234
10
6.27563
20
95.5817706
40
0.6412172
50
326.9135351
51
338.3505194
0
ARC
8
DEFAULT_255_1_234
10
5.8770604
20
95.8372284
40
1.1146189
50
319.6472867
51
327.095818
0
ARC
8
DEFAULT_255_1_234
10
5.4937607
20
96.1534
40
1.6114559
50
317.2586784
51
319.9046139
0
LINE
8
DEFAULT_255_1_234
10
4.3590299
20
101.0598211
11
4.6409439
21
100.6116501
0
LINE
8
DEFAULT_255_1_234
10
4.6409439
20
100.6116501
11
4.9212516
21
101.0598211
0
LINE
8
DEFAULT_255_1_234
10
4.9212516
20
101.0598211
11
5.1027689
21
101.0598211
0
LINE
8
DEFAULT_255_1_234
10
5.1027689
20
101.0598211
11
4.7333089
21
100.4799296
0
LINE
8
DEFAULT_255_1_234
10
4.7333089
20
100.4799296
11
5.1116038
21
99.8904
0
LINE
8
DEFAULT_255_1_234
10
5.1116038
20
99.8904
11
4.9284802
21
99.8904
0
LINE
8
DEFAULT_255_1_234
10
4.9284802
20
99.8904
11
4.6409439
21
100.3466027
0
LINE
8
DEFAULT_255_1_234
10
4.6409439
20
100.3466027
11
4.3518014
21
99.8904
0
LINE
8
DEFAULT_255_1_234
10
4.3518014
20
99.8904
11
4.1694809
21
99.8904
0
LINE
8
DEFAULT_255_1_234
10
4.1694809
20
99.8904
11
4.548579
21
100.4799296
0
LINE
8
DEFAULT_255_1_234
10
4.548579
20
100.4799296
11
4.1783158
21
101.0598211
0
LINE
8
DEFAULT_255_1_234
10
4.1783158
20
101.0598211
11
4.3590299
21
101.0598211
0
LINE
8
DEFAULT_255_1_234
10
5.7404889
20
101.0654433
11
5.7404889
21
99.8904
0
LINE
8
DEFAULT_255_1_234
10
5.7404889
20
99.8904
11
5.5910986
21
99.8904
0
LINE
8
DEFAULT_255_1_234
10
5.5910986
20
99.8904
11
5.5910986
21
100.8807133
0
LINE
8
DEFAULT_255_1_234
10
5.5910986
20
100.8807133
11
5.2915147
21
100.7706785
0
LINE
8
DEFAULT_255_1_234
10
5.2915147
20
100.7706785
11
5.2915147
21
100.9056117
0
LINE
8
DEFAULT_255_1_234
10
5.2915147
20
100.9056117
11
5.7171969
21
101.0654433
0
LINE
8
DEFAULT_255_1_234
10
5.7171969
20
101.0654433
11
5.7404889
21
101.0654433
0
LINE
8
DEFAULT_255_1_234
10
6.6641388
20
101.0654433
11
6.6641388
21
99.8904
0
LINE
8
DEFAULT_255_1_234
10
6.6641388
20
99.8904
11
6.5147485
21
99.8904
0
LINE
8
DEFAULT_255_1_234
10
6.5147485
20
99.8904
11
6.5147485
21
100.8807133
0
LINE
8
DEFAULT_255_1_234
10
6.5147485
20
100.8807133
11
6.2151646
21
100.7706785
0
LINE
8
DEFAULT_255_1_234
10
6.2151646
20
100.7706785
11
6.2151646
21
100.9056117
0
LINE
8
DEFAULT_255_1_234
10
6.2151646
20
100.9056117
11
6.6408468
21
101.0654433
0
LINE
8
DEFAULT_255_1_234
10
6.6408468
20
101.0654433
11
6.6641388
21
101.0654433
0
LINE
8
DEFAULT_255_1_234
10
4.3681299
20
106.3515211
11
4.6500439
21
105.9033501
0
LINE
8
DEFAULT_255_1_234
10
4.6500439
20
105.9033501
11
4.9303516
21
106.3515211
0
LINE
8
DEFAULT_255_1_234
10
4.9303516
20
106.3515211
11
5.1118689
21
106.3515211
0
LINE
8
DEFAULT_255_1_234
10
5.1118689
20
106.3515211
11
4.7424089
21
105.7716296
0
LINE
8
DEFAULT_255_1_234
10
4.7424089
20
105.7716296
11
5.1207038
21
105.1821
0
LINE
8
DEFAULT_255_1_234
10
5.1207038
20
105.1821
11
4.9375802
21
105.1821
0
LINE
8
DEFAULT_255_1_234
10
4.9375802
20
105.1821
11
4.6500439
21
105.6383027
0
LINE
8
DEFAULT_255_1_234
10
4.6500439
20
105.6383027
11
4.3609014
21
105.1821
0
LINE
8
DEFAULT_255_1_234
10
4.3609014
20
105.1821
11
4.1785809
21
105.1821
0
LINE
8
DEFAULT_255_1_234
10
4.1785809
20
105.1821
11
4.557679
21
105.7716296
0
LINE
8
DEFAULT_255_1_234
10
4.557679
20
105.7716296
11
4.1874158
21
106.3515211
0
LINE
8
DEFAULT_255_1_234
10
4.1874158
20
106.3515211
11
4.3681299
21
106.3515211
0
LINE
8
DEFAULT_255_1_234
10
5.7495889
20
106.3571433
11
5.7495889
21
105.1821
0
LINE
8
DEFAULT_255_1_234
10
5.7495889
20
105.1821
11
5.6001986
21
105.1821
0
LINE
8
DEFAULT_255_1_234
10
5.6001986
20
105.1821
11
5.6001986
21
106.1724133
0
LINE
8
DEFAULT_255_1_234
10
5.6001986
20
106.1724133
11
5.3006147
21
106.0623785
0
LINE
8
DEFAULT_255_1_234
10
5.3006147
20
106.0623785
11
5.3006147
21
106.1973117
0
LINE
8
DEFAULT_255_1_234
10
5.3006147
20
106.1973117
11
5.7262969
21
106.3571433
0
LINE
8
DEFAULT_255_1_234
10
5.7262969
20
106.3571433
11
5.7495889
21
106.3571433
0
LINE
8
DEFAULT_255_1_234
10
6.9182068
20
105.8736327
11
6.9182068
21
105.6808709
0
LINE
8
DEFAULT_255_1_234
10
6.1800901
20
105.6607916
11
6.1800901
21
105.8591755
0
LINE
8
DEFAULT_255_1_234
10
6.7696197
20
105.6407123
11
6.7696197
21
105.8840739
0
LINE
8
DEFAULT_255_1_234
10
6.3286772
20
105.8953184
11
6.3286772
21
105.6575789
0
ARC
8
DEFAULT_255_1_234
10
5.6934958
20
105.6759805
40
1.2247208
50
353.8441951
51
0.2287902
0
ARC
8
DEFAULT_255_1_234
10
6.1574462
20
105.6241806
40
0.7578929
50
344.4934747
51
353.9765454
0
ARC
8
DEFAULT_255_1_234
10
6.4567052
20
105.5390981
40
0.4467846
50
329.2803592
51
344.7472793
0
ARC
8
DEFAULT_255_1_234
10
6.5559877
20
105.4846018
40
0.3336173
50
324.9352394
51
328.6160465
0
ARC
8
DEFAULT_255_1_234
10
6.5936985
20
105.4582427
40
0.2876076
50
280.580143
51
324.9173126
0
ARC
8
DEFAULT_255_1_234
10
6.5535778
20
105.6253099
40
0.4592847
50
269.5977311
51
281.6734359
0
ARC
8
DEFAULT_255_1_234
10
6.5463684
20
105.6133173
40
0.4472986
50
256.6228859
51
270.51044
0
ARC
8
DEFAULT_255_1_234
10
6.5061661
20
105.4584877
40
0.2873874
50
215.8618325
51
257.2788573
0
ARC
8
DEFAULT_255_1_234
10
6.6082693
20
105.5269977
40
0.4102928
50
197.9693508
51
215.2623606
0
ARC
8
DEFAULT_255_1_234
10
6.8567809
20
105.6108709
40
0.6725652
50
187.8816417
51
198.2346507
0
ARC
8
DEFAULT_255_1_234
10
7.2526017
20
105.6680079
40
1.0724845
50
180.8976217
51
188.0055519
0
ARC
8
DEFAULT_255_1_234
10
7.5326205
20
105.6783777
40
1.3526448
50
180.7449369
51
181.1510016
0
ARC
8
DEFAULT_255_1_234
10
7.3748934
20
105.8640042
40
1.1948131
50
173.7675579
51
180.231553
0
ARC
8
DEFAULT_255_1_234
10
6.9231081
20
105.9150666
40
0.7401564
50
164.3058563
51
173.9002247
0
ARC
8
DEFAULT_255_1_234
10
6.631915
20
105.9989656
40
0.4371288
50
148.7922025
51
164.568378
0
ARC
8
DEFAULT_255_1_234
10
6.5367602
20
106.0520929
40
0.3282386
50
144.5883898
51
148.1176286
0
ARC
8
DEFAULT_255_1_234
10
6.50245
20
106.0760315
40
0.2864044
50
101.6440918
51
144.514236
0
ARC
8
DEFAULT_255_1_234
10
6.5449566
20
105.9071069
40
0.4604934
50
89.5284041
51
102.5819763
0
ARC
8
DEFAULT_255_1_234
10
6.5528654
20
105.9032018
40
0.464401
50
77.0437873
51
90.5081339
0
ARC
8
DEFAULT_255_1_234
10
6.5930656
20
106.0674615
40
0.2953195
50
48.2778575
51
77.4994676
0
ARC
8
DEFAULT_255_1_234
10
6.6003287
20
106.0803746
40
0.2808655
50
36.3142134
51
47.6305865
0
ARC
8
DEFAULT_255_1_234
10
6.5134594
20
106.0218515
40
0.3855453
50
18.2931786
51
35.6769206
0
ARC
8
DEFAULT_255_1_234
10
6.2591353
20
105.9345593
40
0.654423
50
8.024666
51
18.5605216
0
ARC
8
DEFAULT_255_1_234
10
5.8428273
20
105.8730792
40
1.0752407
50
1.1274072
51
8.1718305
0
ARC
8
DEFAULT_255_1_234
10
5.5192464
20
105.8603885
40
1.3990231
50
0.5424119
51
1.3863029
0
ARC
8
DEFAULT_255_1_234
10
5.7013841
20
105.8876342
40
1.0682415
50
359.8090433
51
4.9407866
0
ARC
8
DEFAULT_255_1_234
10
6.1223855
20
105.9252113
40
0.6455691
50
4.8362157
51
12.2904523
0
ARC
8
DEFAULT_255_1_234
10
6.397897
20
105.9865965
40
0.3633074
50
12.0805627
51
23.8173984
0
ARC
8
DEFAULT_255_1_234
10
6.5152676
20
106.0362919
40
0.2358723
50
24.2871213
51
31.3935614
0
ARC
8
DEFAULT_255_1_234
10
6.5677373
20
106.0706233
40
0.1732111
50
30.7407893
51
82.4657128
0
ARC
8
DEFAULT_255_1_234
10
6.5497507
20
105.9822691
40
0.263235
50
81.1060089
51
90.2184952
0
ARC
8
DEFAULT_255_1_234
10
6.5461806
20
106.0080924
40
0.2374236
50
89.3806855
51
105.6762551
0
ARC
8
DEFAULT_255_1_234
10
6.5278437
20
106.0747567
40
0.1682847
50
105.7981136
51
149.7388061
0
ARC
8
DEFAULT_255_1_234
10
6.6342515
20
106.010795
40
0.2924306
50
149.4208916
51
163.6286378
0
ARC
8
DEFAULT_255_1_234
10
6.8433403
20
105.947025
40
0.5110213
50
163.3763315
51
172.1410975
0
ARC
8
DEFAULT_255_1_234
10
7.1734122
20
105.8997518
40
0.8444586
50
172.0259487
51
178.0703232
0
ARC
8
DEFAULT_255_1_234
10
7.4764211
20
105.8853906
40
1.1477868
50
177.8631668
51
179.5044149
0
ARC
8
DEFAULT_255_1_234
10
7.3691616
20
105.6539389
40
1.0404907
50
179.7995573
51
185.2460446
0
ARC
8
DEFAULT_255_1_234
10
6.9648655
20
105.6156513
40
0.6343885
50
185.1411642
51
193.0079639
0
ARC
8
DEFAULT_255_1_234
10
6.7005128
20
105.5531641
40
0.3627568
50
192.7897626
51
205.2507664
0
ARC
8
DEFAULT_255_1_234
10
6.5958675
20
105.5064415
40
0.2481908
50
205.8005384
51
211.2537509
0
ARC
8
DEFAULT_255_1_234
10
6.5435115
20
105.471358
40
0.1852521
50
210.3789793
51
238.4008143
0
ARC
8
DEFAULT_255_1_234
10
6.5415637
20
105.4760376
40
0.1882621
50
239.6520629
51
265.9793761
0
ARC
8
DEFAULT_255_1_234
10
6.5500837
20
105.5432427
40
0.2559272
50
265.1315437
51
270.060332
0
ARC
8
DEFAULT_255_1_234
10
6.5529616
20
105.5108534
40
0.2235528
50
269.3314664
51
287.2178029
0
ARC
8
DEFAULT_255_1_234
10
6.5667468
20
105.4605279
40
0.1714108
50
287.7958004
51
329.080874
0
ARC
8
DEFAULT_255_1_234
10
6.4709925
20
105.520293
40
0.2842745
50
328.6634704
51
343.3325132
0
ARC
8
DEFAULT_255_1_234
10
6.2536945
20
105.5879863
40
0.5118644
50
343.0499468
51
351.9393422
0
ARC
8
DEFAULT_255_1_234
10
5.9070245
20
105.6390949
40
0.8622784
50
351.8069023
51
357.7959224
0
ARC
8
DEFAULT_255_1_234
10
5.5834801
20
105.6558721
40
1.1862365
50
357.5871873
51
359.2677531
0
LINE
8
DEFAULT_255_1_234
10
4.3084299
20
111.6431211
11
4.5903439
21
111.1949501
0
LINE
8
DEFAULT_255_1_234
10
4.5903439
20
111.1949501
11
4.8706516
21
111.6431211
0
LINE
8
DEFAULT_255_1_234
10
4.8706516
20
111.6431211
11
5.0521689
21
111.6431211
0
LINE
8
DEFAULT_255_1_234
10
5.0521689
20
111.6431211
11
4.6827089
21
111.0632296
0
LINE
8
DEFAULT_255_1_234
10
4.6827089
20
111.0632296
11
5.0610038
21
110.4737
0
LINE
8
DEFAULT_255_1_234
10
5.0610038
20
110.4737
11
4.8778802
21
110.4737
0
LINE
8
DEFAULT_255_1_234
10
4.8778802
20
110.4737
11
4.5903439
21
110.9299027
0
LINE
8
DEFAULT_255_1_234
10
4.5903439
20
110.9299027
11
4.3012014
21
110.4737
0
LINE
8
DEFAULT_255_1_234
10
4.3012014
20
110.4737
11
4.1188809
21
110.4737
0
LINE
8
DEFAULT_255_1_234
10
4.1188809
20
110.4737
11
4.497979
21
111.0632296
0
LINE
8
DEFAULT_255_1_234
10
4.497979
20
111.0632296
11
4.1277158
21
111.6431211
0
LINE
8
DEFAULT_255_1_234
10
4.1277158
20
111.6431211
11
4.3084299
21
111.6431211
0
LINE
8
DEFAULT_255_1_234
10
5.9203998
20
111.1756739
11
5.9203998
21
111.1323025
0
LINE
8
DEFAULT_255_1_234
10
5.3782575
20
110.4728968
11
5.3493432
21
110.4728968
0
LINE
8
DEFAULT_255_1_234
10
5.3493432
20
110.4728968
11
5.3493432
21
110.5981919
0
LINE
8
DEFAULT_255_1_234
10
5.3493432
20
110.5981919
11
5.380667
21
110.5981919
0
LINE
8
DEFAULT_255_1_234
10
5.7718126
20
111.1467597
11
5.7718126
21
111.2061945
0
ARC
8
DEFAULT_255_1_234
10
5.4924396
20
111.2213403
40
0.3635579
50
297.4037347
51
320.016758
0
ARC
8
DEFAULT_255_1_234
10
5.5214345
20
111.165624
40
0.3007486
50
270.2633101
51
297.3851877
0
ARC
8
DEFAULT_255_1_234
10
5.51803
20
111.2119904
40
0.3471448
50
269.9966443
51
270.7900392
0
ARC
8
DEFAULT_255_1_234
10
5.5154782
20
111.2118143
40
0.3469779
50
254.5999133
51
270.4180344
0
ARC
8
DEFAULT_255_1_234
10
5.5012141
20
111.1553647
40
0.2887697
50
236.4717942
51
254.3541279
0
ARC
8
DEFAULT_255_1_234
10
5.5168359
20
111.1763711
40
0.3149125
50
208.4727207
51
236.2134933
0
ARC
8
DEFAULT_255_1_234
10
5.5807134
20
111.2154455
40
0.3897115
50
204.3447514
51
209.0453999
0
ARC
8
DEFAULT_255_1_234
10
5.648671
20
111.2442656
40
0.4635101
50
183.9375985
51
204.1276318
0
ARC
8
DEFAULT_255_1_234
10
5.7394961
20
111.2540482
40
0.5548037
50
179.9652252
51
184.3013875
0
ARC
8
DEFAULT_255_1_234
10
5.7155007
20
111.2573507
40
0.5308164
50
166.7585989
51
180.3201225
0
ARC
8
DEFAULT_255_1_234
10
5.6308621
20
111.2757488
40
0.4442163
50
154.6955053
51
166.5679793
0
ARC
8
DEFAULT_255_1_234
10
5.5455491
20
111.318721
40
0.3487299
50
136.3324195
51
155.0871442
0
ARC
8
DEFAULT_255_1_234
10
5.5174564
20
111.3427954
40
0.3117924
50
121.236733
51
135.9680508
0
ARC
8
DEFAULT_255_1_234
10
5.5315062
20
111.3167743
40
0.3413302
50
96.845628
51
120.9881519
0
ARC
8
DEFAULT_255_1_234
10
5.5460643
20
111.2232515
40
0.4359341
50
89.8870174
51
97.2802754
0
ARC
8
DEFAULT_255_1_234
10
5.5513082
20
111.2870095
40
0.3722009
50
70.6505584
51
90.6749113
0
ARC
8
DEFAULT_255_1_234
10
5.5644361
20
111.3383361
40
0.3194571
50
36.7492984
51
69.8219918
0
ARC
8
DEFAULT_255_1_234
10
5.4645525
20
111.2604993
40
0.4460685
50
15.39587
51
37.0840084
0
ARC
8
DEFAULT_255_1_234
10
5.2515959
20
111.1984242
40
0.6678714
50
3.9488873
51
15.6798563
0
ARC
8
DEFAULT_255_1_234
10
5.0114587
20
111.1767964
40
0.9089418
50
359.929245
51
4.2665314
0
ARC
8
DEFAULT_255_1_234
10
4.5509024
20
111.1256513
40
1.3695135
50
352.8366322
51
0.2782669
0
ARC
8
DEFAULT_255_1_234
10
5.0796703
20
111.0569629
40
0.8363105
50
341.8359505
51
352.9884176
0
ARC
8
DEFAULT_255_1_234
10
5.4015422
20
110.94847
40
0.4966642
50
322.8578092
51
342.1527901
0
ARC
8
DEFAULT_255_1_234
10
5.4879378
20
110.8895384
40
0.3922466
50
319.334325
51
322.0998941
0
ARC
8
DEFAULT_255_1_234
10
5.4569715
20
110.9206209
40
0.4360033
50
285.9541367
51
318.8878087
0
ARC
8
DEFAULT_255_1_234
10
5.3842976
20
111.15166
40
0.678149
50
272.9281676
51
286.4922826
0
ARC
8
DEFAULT_255_1_234
10
5.3653094
20
111.3767587
40
0.9039547
50
270.8207226
51
273.4012994
0
ARC
8
DEFAULT_255_1_234
10
5.3741945
20
111.1948666
40
0.5967098
50
270.6214993
51
281.4062806
0
ARC
8
DEFAULT_255_1_234
10
5.4171925
20
110.9892833
40
0.3866861
50
281.1852553
51
299.0621114
0
ARC
8
DEFAULT_255_1_234
10
5.4545497
20
110.9171798
40
0.3055236
50
299.5067782
51
313.1200873
0
ARC
8
DEFAULT_255_1_234
10
5.4567464
20
110.9092554
40
0.2982623
50
313.8526205
51
338.5989322
0
ARC
8
DEFAULT_255_1_234
10
5.2943538
20
110.9759781
40
0.4738131
50
338.2523585
51
351.2430902
0
ARC
8
DEFAULT_255_1_234
10
5.0532834
20
111.0169447
40
0.7183203
50
350.9409515
51
357.6691871
0
ARC
8
DEFAULT_255_1_234
10
5.5423264
20
111.2171764
40
0.2294452
50
269.9447023
51
306.8248917
0
ARC
8
DEFAULT_255_1_234
10
5.5186179
20
111.2594898
40
0.2775994
50
305.5072438
51
327.0773448
0
ARC
8
DEFAULT_255_1_234
10
5.530462
20
111.2500025
40
0.2625056
50
327.4104943
51
336.840169
0
ARC
8
DEFAULT_255_1_234
10
5.2210685
20
111.2094302
40
0.5507537
50
359.6633817
51
10.117533
0
ARC
8
DEFAULT_255_1_234
10
5.3964483
20
111.2418777
40
0.372403
50
9.9430141
51
26.7700076
0
ARC
8
DEFAULT_255_1_234
10
5.4561695
20
111.2694187
40
0.3066865
50
27.2015464
51
34.6829435
0
ARC
8
DEFAULT_255_1_234
10
5.5051175
20
111.3061977
40
0.245519
50
34.1250343
51
50.3070065
0
ARC
8
DEFAULT_255_1_234
10
5.5497855
20
111.3596385
40
0.1758693
50
50.3851167
51
90.6705993
0
ARC
8
DEFAULT_255_1_234
10
5.5451088
20
111.3291799
40
0.2063326
50
89.272901
51
111.9140407
0
ARC
8
DEFAULT_255_1_234
10
5.5431616
20
111.343244
40
0.1925887
50
112.9382311
51
142.5320782
0
ARC
8
DEFAULT_255_1_234
10
5.5977796
20
111.2988969
40
0.2629232
50
142.1021256
51
166.3835592
0
ARC
8
DEFAULT_255_1_234
10
5.7159101
20
111.2683915
40
0.3849193
50
166.1100289
51
178.665427
0
ARC
8
DEFAULT_255_1_234
10
5.820669
20
111.2625117
40
0.4897989
50
178.2632126
51
180.0111093
0
ARC
8
DEFAULT_255_1_234
10
5.7404811
20
111.2596728
40
0.40962
50
179.6161962
51
191.8787166
0
ARC
8
DEFAULT_255_1_234
10
5.618465
20
111.2326896
40
0.2846655
50
191.6191692
51
215.2972286
0
ARC
8
DEFAULT_255_1_234
10
5.5987841
20
111.2211918
40
0.2619665
50
215.7320102
51
216.5355409
0
ARC
8
DEFAULT_255_1_234
10
5.5448927
20
111.1779647
40
0.1929497
50
215.7486685
51
239.9727502
0
ARC
8
DEFAULT_255_1_234
10
5.5378843
20
111.1728894
40
0.1850822
50
241.0650169
51
269.2810483
0
ARC
8
DEFAULT_255_1_234
10
5.5420758
20
111.2219371
40
0.2342059
50
268.4062526
51
270.0071348
0
LINE
8
DEFAULT_255_1_234
10
4.3084299
20
116.9348211
11
4.5903439
21
116.4866501
0
LINE
8
DEFAULT_255_1_234
10
4.5903439
20
116.4866501
11
4.8706516
21
116.9348211
0
LINE
8
DEFAULT_255_1_234
10
4.8706516
20
116.9348211
11
5.0521689
21
116.9348211
0
LINE
8
DEFAULT_255_1_234
10
5.0521689
20
116.9348211
11
4.6827089
21
116.3549296
0
LINE
8
DEFAULT_255_1_234
10
4.6827089
20
116.3549296
11
5.0610038
21
115.7654
0
LINE
8
DEFAULT_255_1_234
10
5.0610038
20
115.7654
11
4.8778802
21
115.7654
0
LINE
8
DEFAULT_255_1_234
10
4.8778802
20
115.7654
11
4.5903439
21
116.2216027
0
LINE
8
DEFAULT_255_1_234
10
4.5903439
20
116.2216027
11
4.3012014
21
115.7654
0
LINE
8
DEFAULT_255_1_234
10
4.3012014
20
115.7654
11
4.1188809
21
115.7654
0
LINE
8
DEFAULT_255_1_234
10
4.1188809
20
115.7654
11
4.497979
21
116.3549296
0
LINE
8
DEFAULT_255_1_234
10
4.497979
20
116.3549296
11
4.1277158
21
116.9348211
0
LINE
8
DEFAULT_255_1_234
10
4.1277158
20
116.9348211
11
4.3084299
21
116.9348211
0
ARC
8
DEFAULT_255_1_234
10
5.6285376
20
116.6270703
40
0.2822356
50
338.8763615
51
0.5166041
0
ARC
8
DEFAULT_255_1_234
10
5.645403
20
116.6225208
40
0.2648703
50
325.8412414
51
338.4795939
0
ARC
8
DEFAULT_255_1_234
10
5.6063398
20
116.6496042
40
0.3124019
50
296.7586019
51
325.753654
0
ARC
8
DEFAULT_255_1_234
10
5.5775506
20
116.6980789
40
0.368668
50
296.0902311
51
297.3618122
0
ARC
8
DEFAULT_255_1_234
10
5.6032964
20
116.0426041
40
0.3518806
50
47.9009248
51
67.1946869
0
ARC
8
DEFAULT_255_1_234
10
5.6229206
20
116.0672395
40
0.320451
50
35.236241
51
47.551371
0
ARC
8
DEFAULT_255_1_234
10
5.6490824
20
116.0846993
40
0.2890103
50
359.2759738
51
35.4014081
0
ARC
8
DEFAULT_255_1_234
10
5.5745855
20
116.0773826
40
0.3635026
50
343.1294516
51
0.5776525
0
ARC
8
DEFAULT_255_1_234
10
5.64704
20
116.057433
40
0.2883832
50
310.8497458
51
342.744803
0
ARC
8
DEFAULT_255_1_234
10
5.6052513
20
116.1051294
40
0.3517954
50
281.5473923
51
310.9169905
0
ARC
8
DEFAULT_255_1_234
10
5.5695962
20
116.2604084
40
0.5110832
50
269.6192722
51
281.9789957
0
ARC
8
DEFAULT_255_1_234
10
5.5623752
20
116.2604828
40
0.5111606
50
257.4584469
51
270.4287458
0
ARC
8
DEFAULT_255_1_234
10
5.5242895
20
116.1001344
40
0.3463762
50
228.7553743
51
257.8484423
0
ARC
8
DEFAULT_255_1_234
10
5.4933093
20
116.0628442
40
0.297916
50
184.0104442
51
228.5071787
0
ARC
8
DEFAULT_255_1_234
10
5.6096037
20
116.0805512
40
0.4152734
50
179.9315461
51
185.3254504
0
ARC
8
DEFAULT_255_1_234
10
5.4919683
20
116.0842992
40
0.2976554
50
145.6795913
51
180.6259649
0
ARC
8
DEFAULT_255_1_234
10
5.5083032
20
116.0728929
40
0.3175776
50
115.5537925
51
145.6416199
0
ARC
8
DEFAULT_255_1_234
10
5.5423962
20
116.0118028
40
0.3874232
50
113.2437915
51
116.2054627
0
ARC
8
DEFAULT_255_1_234
10
5.5271175
20
116.651658
40
0.3154751
50
222.9548379
51
244.1372485
0
ARC
8
DEFAULT_255_1_234
10
5.514925
20
116.6379834
40
0.2972382
50
213.3439227
51
222.6271327
0
ARC
8
DEFAULT_255_1_234
10
5.4957184
20
116.6249308
40
0.274019
50
180.4316517
51
213.2713999
0
ARC
8
DEFAULT_255_1_234
10
5.5532186
20
116.629611
40
0.33158
50
179.9992944
51
181.1655061
0
ARC
8
DEFAULT_255_1_234
10
5.5941603
20
116.6330561
40
0.3725376
50
164.6186108
51
180.5292368
0
ARC
8
DEFAULT_255_1_234
10
5.5043466
20
116.6572101
40
0.2795349
50
132.2454369
51
164.5092287
0
ARC
8
DEFAULT_255_1_234
10
5.533057
20
116.6247028
40
0.3229019
50
100.7052766
51
132.1387266
0
ARC
8
DEFAULT_255_1_234
10
5.5635542
20
116.4869086
40
0.4639835
50
89.6732617
51
101.2449487
0
ARC
8
DEFAULT_255_1_234
10
5.569774
20
116.504399
40
0.4464999
50
76.2876631
51
90.4586123
0
ARC
8
DEFAULT_255_1_234
10
5.6003972
20
116.626622
40
0.3205023
50
47.8240157
51
76.4266918
0
ARC
8
DEFAULT_255_1_234
10
5.6226522
20
116.652659
40
0.2862661
50
6.9168658
51
47.6261438
0
ARC
8
DEFAULT_255_1_234
10
5.5039925
20
116.630737
40
0.4067708
50
359.8419705
51
7.9694496
0
ARC
8
DEFAULT_255_1_234
10
5.5381822
20
116.0866925
40
0.2513121
50
359.4454068
51
16.9256425
0
ARC
8
DEFAULT_255_1_234
10
5.5850633
20
116.0996033
40
0.2027071
50
17.292259
51
45.462717
0
ARC
8
DEFAULT_255_1_234
10
5.5796569
20
116.0949434
40
0.2098212
50
45.3028762
51
83.1921472
0
ARC
8
DEFAULT_255_1_234
10
5.5653253
20
116.0147895
40
0.2911472
50
82.2614531
51
90.143954
0
ARC
8
DEFAULT_255_1_234
10
5.5622373
20
116.038095
40
0.2678513
50
89.4959189
51
104.8579811
0
ARC
8
DEFAULT_255_1_234
10
5.5445632
20
116.105089
40
0.1985654
50
104.8855873
51
135.2448349
0
ARC
8
DEFAULT_255_1_234
10
5.5495405
20
116.1006336
40
0.2052373
50
135.3398955
51
172.104394
0
ARC
8
DEFAULT_255_1_234
10
5.6302463
20
116.0851925
40
0.2873299
50
171.2651929
51
180.1859362
0
ARC
8
DEFAULT_255_1_234
10
5.6133164
20
116.0819733
40
0.2704083
50
179.515471
51
193.6466734
0
ARC
8
DEFAULT_255_1_234
10
5.5316933
20
116.0611777
40
0.1861855
50
193.3540587
51
225.8256931
0
ARC
8
DEFAULT_255_1_234
10
5.535769
20
116.0682524
40
0.1941102
50
226.418029
51
255.8553723
0
ARC
8
DEFAULT_255_1_234
10
5.5614123
20
116.1618998
40
0.2911917
50
255.4655572
51
268.7985967
0
ARC
8
DEFAULT_255_1_234
10
5.5661315
20
116.2457491
40
0.3751331
50
268.3464808
51
270.0104874
0
ARC
8
DEFAULT_255_1_234
10
5.5684703
20
116.1773138
40
0.3067064
50
269.575914
51
282.0823146
0
ARC
8
DEFAULT_255_1_234
10
5.5909612
20
116.0778803
40
0.2047712
50
281.7522535
51
306.6056425
0
ARC
8
DEFAULT_255_1_234
10
5.6008038
20
116.0617487
40
0.1859604
50
307.1350025
51
314.0277951
0
ARC
8
DEFAULT_255_1_234
10
5.5972122
20
116.0643766
40
0.1903475
50
314.2553419
51
350.169324
0
ARC
8
DEFAULT_255_1_234
10
5.5120591
20
116.0828409
40
0.2774269
50
349.4145679
51
0.2930737
0
ARC
8
DEFAULT_255_1_234
10
5.5641024
20
116.5987353
40
0.2300764
50
89.477591
51
105.729794
0
ARC
8
DEFAULT_255_1_234
10
5.5504937
20
116.6492637
40
0.1777519
50
105.922966
51
135.1662921
0
ARC
8
DEFAULT_255_1_234
10
5.552544
20
116.6478419
40
0.1802087
50
135.3053131
51
168.9882338
0
ARC
8
DEFAULT_255_1_234
10
5.6353012
20
116.6288721
40
0.2650806
50
168.3802067
51
180.3602358
0
ARC
8
DEFAULT_255_1_234
10
5.6124592
20
116.6251041
40
0.2422425
50
179.5029707
51
194.9126783
0
ARC
8
DEFAULT_255_1_234
10
5.5539253
20
116.609711
40
0.1817188
50
194.9722181
51
224.1943972
0
ARC
8
DEFAULT_255_1_234
10
5.551112
20
116.6074169
40
0.1781027
50
224.2961434
51
262.0157375
0
ARC
8
DEFAULT_255_1_234
10
5.5653363
20
116.6805661
40
0.2525492
50
261.1250369
51
270.1959853
0
ARC
8
DEFAULT_255_1_234
10
5.5683118
20
116.6618339
40
0.233825
50
269.4825617
51
285.0988277
0
ARC
8
DEFAULT_255_1_234
10
5.5837277
20
116.603999
40
0.1739712
50
285.1585659
51
315.9484648
0
ARC
8
DEFAULT_255_1_234
10
5.5748289
20
116.6121886
40
0.1860616
50
316.0412958
51
351.9162715
0
ARC
8
DEFAULT_255_1_234
10
5.5015244
20
116.6263245
40
0.2606517
50
351.1056823
51
0.1936567
0
ARC
8
DEFAULT_255_1_234
10
5.5278073
20
116.6293369
40
0.234377
50
359.4789506
51
16.0679113
0
ARC
8
DEFAULT_255_1_234
10
5.5754032
20
116.642181
40
0.1850875
50
16.3251951
51
44.791304
0
ARC
8
DEFAULT_255_1_234
10
5.5736313
20
116.6422339
40
0.186312
50
44.3958661
51
88.2498933
0
ARC
8
DEFAULT_255_1_234
10
5.5662867
20
116.5811154
40
0.2476868
50
86.9833827
51
90.0200148
0
LINE
8
DEFAULT_255_1_234
10
4.3084299
20
122.2265211
11
4.5903439
21
121.7783501
0
LINE
8
DEFAULT_255_1_234
10
4.5903439
20
121.7783501
11
4.8706516
21
122.2265211
0
LINE
8
DEFAULT_255_1_234
10
4.8706516
20
122.2265211
11
5.0521689
21
122.2265211
0
LINE
8
DEFAULT_255_1_234
10
5.0521689
20
122.2265211
11
4.6827089
21
121.6466296
0
LINE
8
DEFAULT_255_1_234
10
4.6827089
20
121.6466296
11
5.0610038
21
121.0571
0
LINE
8
DEFAULT_255_1_234
10
5.0610038
20
121.0571
11
4.8778802
21
121.0571
0
LINE
8
DEFAULT_255_1_234
10
4.8778802
20
121.0571
11
4.5903439
21
121.5133027
0
LINE
8
DEFAULT_255_1_234
10
4.5903439
20
121.5133027
11
4.3012014
21
121.0571
0
LINE
8
DEFAULT_255_1_234
10
4.3012014
20
121.0571
11
4.1188809
21
121.0571
0
LINE
8
DEFAULT_255_1_234
10
4.1188809
20
121.0571
11
4.497979
21
121.6466296
0
LINE
8
DEFAULT_255_1_234
10
4.497979
20
121.6466296
11
4.1277158
21
122.2265211
0
LINE
8
DEFAULT_255_1_234
10
4.1277158
20
122.2265211
11
4.3084299
21
122.2265211
0
LINE
8
DEFAULT_255_1_234
10
5.9565426
20
122.2265211
11
5.9565426
21
122.142991
0
LINE
8
DEFAULT_255_1_234
10
5.9565426
20
122.142991
11
5.4722288
21
121.0571
0
LINE
8
DEFAULT_255_1_234
10
5.4722288
20
121.0571
11
5.3164131
21
121.0571
0
LINE
8
DEFAULT_255_1_234
10
5.3164131
20
121.0571
11
5.7991206
21
122.1044387
0
LINE
8
DEFAULT_255_1_234
10
5.7991206
20
122.1044387
11
5.1662196
21
122.1044387
0
LINE
8
DEFAULT_255_1_234
10
5.1662196
20
122.1044387
11
5.1662196
21
122.2265211
0
LINE
8
DEFAULT_255_1_234
10
5.1662196
20
122.2265211
11
5.9565426
21
122.2265211
0
LINE
8
DEFAULT_255_1_234
10
4.3084299
20
127.5181211
11
4.5903439
21
127.0699501
0
LINE
8
DEFAULT_255_1_234
10
4.5903439
20
127.0699501
11
4.8706516
21
127.5181211
0
LINE
8
DEFAULT_255_1_234
10
4.8706516
20
127.5181211
11
5.0521689
21
127.5181211
0
LINE
8
DEFAULT_255_1_234
10
5.0521689
20
127.5181211
11
4.6827089
21
126.9382296
0
LINE
8
DEFAULT_255_1_234
10
4.6827089
20
126.9382296
11
5.0610038
21
126.3487
0
LINE
8
DEFAULT_255_1_234
10
5.0610038
20
126.3487
11
4.8778802
21
126.3487
0
LINE
8
DEFAULT_255_1_234
10
4.8778802
20
126.3487
11
4.5903439
21
126.8049027
0
LINE
8
DEFAULT_255_1_234
10
4.5903439
20
126.8049027
11
4.3012014
21
126.3487
0
LINE
8
DEFAULT_255_1_234
10
4.3012014
20
126.3487
11
4.1188809
21
126.3487
0
LINE
8
DEFAULT_255_1_234
10
4.1188809
20
126.3487
11
4.497979
21
126.9382296
0
LINE
8
DEFAULT_255_1_234
10
4.497979
20
126.9382296
11
4.1277158
21
127.5181211
0
LINE
8
DEFAULT_255_1_234
10
4.1277158
20
127.5181211
11
4.3084299
21
127.5181211
0
LINE
8
DEFAULT_255_1_234
10
5.7581587
20
127.5189243
11
5.7846634
21
127.5189243
0
LINE
8
DEFAULT_255_1_234
10
5.7846634
20
127.5189243
11
5.7846634
21
127.392826
0
LINE
8
DEFAULT_255_1_234
10
5.7846634
20
127.392826
11
5.7573555
21
127.392826
0
LINE
8
DEFAULT_255_1_234
10
5.2103941
20
126.7936583
11
5.2103941
21
126.8506836
0
LINE
8
DEFAULT_255_1_234
10
5.3597845
20
126.8314075
11
5.3597845
21
126.7767917
0
ARC
8
DEFAULT_255_1_234
10
5.7625903
20
126.8930455
40
0.4998079
50
90.6001036
51
104.514704
0
ARC
8
DEFAULT_255_1_234
10
5.7237419
20
127.0375131
40
0.3502176
50
104.2855254
51
133.862935
0
ARC
8
DEFAULT_255_1_234
10
5.7401176
20
127.026683
40
0.3693984
50
134.5302688
51
161.6210873
0
ARC
8
DEFAULT_255_1_234
10
5.9054365
20
126.9683895
40
0.5446739
50
161.2849839
51
174.2076652
0
ARC
8
DEFAULT_255_1_234
10
6.0461302
20
126.9489787
40
0.6866274
50
173.7810589
51
174.9254635
0
ARC
8
DEFAULT_255_1_234
10
5.5911134
20
126.8106839
40
0.3033419
50
95.8330959
51
138.9954921
0
ARC
8
DEFAULT_255_1_234
10
5.613449
20
126.6828375
40
0.4328947
50
89.8753725
51
97.0544009
0
ARC
8
DEFAULT_255_1_234
10
5.6181956
20
126.7663748
40
0.3493769
50
71.6407809
51
90.6240094
0
ARC
8
DEFAULT_255_1_234
10
5.6332529
20
126.8218082
40
0.2920396
50
39.6367836
51
71.019018
0
ARC
8
DEFAULT_255_1_234
10
5.5696002
20
126.7667998
40
0.3761538
50
10.658731
51
39.9043955
0
ARC
8
DEFAULT_255_1_234
10
5.4148085
20
126.7331686
40
0.5345136
50
359.682601
51
11.132623
0
ARC
8
DEFAULT_255_1_234
10
5.4108216
20
126.726101
40
0.5385081
50
347.2486944
51
0.4369317
0
ARC
8
DEFAULT_255_1_234
10
5.5775693
20
126.6859807
40
0.3670249
50
318.1409698
51
347.6118597
0
ARC
8
DEFAULT_255_1_234
10
5.6100686
20
126.6592702
40
0.3250007
50
275.6342139
51
317.8248465
0
ARC
8
DEFAULT_255_1_234
10
5.5879797
20
126.7892219
40
0.4565864
50
269.8874292
51
276.7917694
0
ARC
8
DEFAULT_255_1_234
10
5.5824868
20
126.6866743
40
0.3540676
50
246.9140195
51
270.7437342
0
ARC
8
DEFAULT_255_1_234
10
5.5831258
20
126.6724384
40
0.3412781
50
218.1665114
51
245.878116
0
ARC
8
DEFAULT_255_1_234
10
5.6710719
20
126.7460279
40
0.455911
50
191.4115814
51
218.6077802
0
ARC
8
DEFAULT_255_1_234
10
5.8648808
20
126.7894833
40
0.6545001
50
179.6345085
51
191.7836486
0
ARC
8
DEFAULT_255_1_234
10
6.4231145
20
126.8573697
40
1.2127388
50
171.4525249
51
180.3158839
0
ARC
8
DEFAULT_255_1_234
10
5.9836021
20
126.9257608
40
0.7679464
50
157.9802646
51
171.6246686
0
ARC
8
DEFAULT_255_1_234
10
5.7622042
20
127.0140421
40
0.5296008
50
141.4298019
51
157.854097
0
ARC
8
DEFAULT_255_1_234
10
5.6980362
20
127.0594381
40
0.4511509
50
102.8715806
51
140.8564722
0
ARC
8
DEFAULT_255_1_234
10
5.7627978
20
126.8154552
40
0.7034845
50
90.3778349
51
103.5869322
0
ARC
8
DEFAULT_255_1_234
10
5.5889754
20
126.754973
40
0.2370698
50
89.8751008
51
126.2071704
0
ARC
8
DEFAULT_255_1_234
10
5.5935544
20
126.7395303
40
0.2522934
50
124.9745049
51
144.895901
0
ARC
8
DEFAULT_255_1_234
10
5.5759734
20
126.753856
40
0.2296779
50
145.2974905
51
160.2660252
0
ARC
8
DEFAULT_255_1_234
10
5.8832273
20
126.7736071
40
0.5234525
50
179.6514266
51
190.2855912
0
ARC
8
DEFAULT_255_1_234
10
5.713841
20
126.7416786
40
0.3510893
50
190.0945431
51
207.5098196
0
ARC
8
DEFAULT_255_1_234
10
5.657268
20
126.7147623
40
0.288489
50
207.9583163
51
216.3251085
0
ARC
8
DEFAULT_255_1_234
10
5.6232788
20
126.6868105
40
0.2445587
50
215.7661442
51
232.5456785
0
ARC
8
DEFAULT_255_1_234
10
5.5849771
20
126.6381482
40
0.1826382
50
232.8005391
51
270.6605633
0
ARC
8
DEFAULT_255_1_234
10
5.5895472
20
126.6745612
40
0.2190529
50
269.35537
51
288.4744281
0
ARC
8
DEFAULT_255_1_234
10
5.5988369
20
126.6396118
40
0.1829749
50
289.1833337
51
322.9683818
0
ARC
8
DEFAULT_255_1_234
10
5.5376891
20
126.6878391
40
0.2608399
50
322.6007884
51
346.5182367
0
ARC
8
DEFAULT_255_1_234
10
5.4219487
20
126.7173616
40
0.3802777
50
346.2582162
51
358.7741648
0
ARC
8
DEFAULT_255_1_234
10
5.3201156
20
126.7228965
40
0.4822176
50
358.3755224
51
0.0098023
0
ARC
8
DEFAULT_255_1_234
10
5.3957343
20
126.7256657
40
0.4066078
50
359.6214041
51
11.2839074
0
ARC
8
DEFAULT_255_1_234
10
5.523449
20
126.7523066
40
0.2761514
50
11.0482309
51
31.8146458
0
ARC
8
DEFAULT_255_1_234
10
5.5543533
20
126.7690584
40
0.2410679
50
32.3035391
51
38.082671
0
ARC
8
DEFAULT_255_1_234
10
5.5964193
20
126.8071662
40
0.1844966
50
36.825067
51
85.7415724
0
ARC
8
DEFAULT_255_1_234
10
5.5897026
20
126.7571301
40
0.2349122
50
85.0140713
51
90.0513278
0
LINE
8
DEFAULT_255_1_234
10
4.3084299
20
132.8098211
11
4.5903439
21
132.3616501
0
LINE
8
DEFAULT_255_1_234
10
4.5903439
20
132.3616501
11
4.8706516
21
132.8098211
0
LINE
8
DEFAULT_255_1_234
10
4.8706516
20
132.8098211
11
5.0521689
21
132.8098211
0
LINE
8
DEFAULT_255_1_234
10
5.0521689
20
132.8098211
11
4.6827089
21
132.2299296
0
LINE
8
DEFAULT_255_1_234
10
4.6827089
20
132.2299296
11
5.0610038
21
131.6404
0
LINE
8
DEFAULT_255_1_234
10
5.0610038
20
131.6404
11
4.8778802
21
131.6404
0
LINE
8
DEFAULT_255_1_234
10
4.8778802
20
131.6404
11
4.5903439
21
132.0966027
0
LINE
8
DEFAULT_255_1_234
10
4.5903439
20
132.0966027
11
4.3012014
21
131.6404
0
LINE
8
DEFAULT_255_1_234
10
4.3012014
20
131.6404
11
4.1188809
21
131.6404
0
LINE
8
DEFAULT_255_1_234
10
4.1188809
20
131.6404
11
4.497979
21
132.2299296
0
LINE
8
DEFAULT_255_1_234
10
4.497979
20
132.2299296
11
4.1277158
21
132.8098211
0
LINE
8
DEFAULT_255_1_234
10
4.1277158
20
132.8098211
11
4.3084299
21
132.8098211
0
LINE
8
DEFAULT_255_1_234
10
5.3886987
20
132.1961963
11
5.269829
21
132.2267169
0
LINE
8
DEFAULT_255_1_234
10
5.269829
20
132.2267169
11
5.3292639
21
132.8098211
0
LINE
8
DEFAULT_255_1_234
10
5.3292639
20
132.8098211
11
5.9284315
21
132.8098211
0
LINE
8
DEFAULT_255_1_234
10
5.9284315
20
132.8098211
11
5.9284315
21
132.6724784
0
LINE
8
DEFAULT_255_1_234
10
5.9284315
20
132.6724784
11
5.4553622
21
132.6724784
0
LINE
8
DEFAULT_255_1_234
10
5.4553622
20
132.6724784
11
5.4200225
21
132.3536184
0
LINE
8
DEFAULT_255_1_234
10
5.228064
20
131.9480156
11
5.3686194
21
131.9480156
0
LINE
8
DEFAULT_255_1_234
10
5.4280542
20
132.2283232
11
5.3886987
21
132.1961963
0
ARC
8
DEFAULT_255_1_234
10
5.6055009
20
132.035623
40
0.3681349
50
93.7182161
51
120.2538958
0
ARC
8
DEFAULT_255_1_234
10
5.6149272
20
131.9548394
40
0.449379
50
89.9660152
51
94.2496022
0
ARC
8
DEFAULT_255_1_234
10
5.6190006
20
132.0137549
40
0.390482
50
73.8043271
51
90.5585896
0
ARC
8
DEFAULT_255_1_234
10
5.6424903
20
132.0995602
40
0.3015334
50
41.3071453
51
73.5430202
0
ARC
8
DEFAULT_255_1_234
10
5.600873
20
132.0637324
40
0.3564457
50
13.5075983
51
41.2174222
0
ARC
8
DEFAULT_255_1_234
10
5.4366934
20
132.0207486
40
0.5261351
50
1.1331335
51
13.8829381
0
ARC
8
DEFAULT_255_1_234
10
5.2955303
20
132.0131665
40
0.6674378
50
359.9919444
51
1.544251
0
ARC
8
DEFAULT_255_1_234
10
5.4232129
20
132.009028
40
0.5397702
50
347.8572367
51
0.4293338
0
ARC
8
DEFAULT_255_1_234
10
5.5982447
20
131.9693736
40
0.3603188
50
323.673004
51
348.1672506
0
ARC
8
DEFAULT_255_1_234
10
5.6276955
20
131.9514168
40
0.3259678
50
316.8171152
51
323.1492751
0
ARC
8
DEFAULT_255_1_234
10
5.6338144
20
131.947746
40
0.3189975
50
281.8396411
51
316.5457803
0
ARC
8
DEFAULT_255_1_234
10
5.5962408
20
132.1032762
40
0.4789527
50
269.5770101
51
282.4214771
0
ARC
8
DEFAULT_255_1_234
10
5.5891219
20
132.0819125
40
0.45759
50
256.2427136
51
270.4486331
0
ARC
8
DEFAULT_255_1_234
10
5.5592121
20
131.9619229
40
0.3339303
50
228.9023911
51
256.3314342
0
ARC
8
DEFAULT_255_1_234
10
5.5518354
20
131.9502746
40
0.32031
50
193.753695
51
228.5271154
0
ARC
8
DEFAULT_255_1_234
10
5.6756308
20
131.98658
40
0.4492253
50
184.924711
51
194.497588
0
ARC
8
DEFAULT_255_1_234
10
5.6948875
20
131.9901591
40
0.3289787
50
187.3600538
51
198.6732863
0
ARC
8
DEFAULT_255_1_234
10
5.5899169
20
131.9537674
40
0.217884
50
198.4451669
51
217.794479
0
ARC
8
DEFAULT_255_1_234
10
5.5603344
20
131.9328085
40
0.1816698
50
218.2887171
51
228.5612368
0
ARC
8
DEFAULT_255_1_234
10
5.5701131
20
131.9459963
40
0.1980329
50
228.9654866
51
258.1234728
0
ARC
8
DEFAULT_255_1_234
10
5.5906841
20
132.0340833
40
0.2884748
50
257.7258293
51
270.401361
0
ARC
8
DEFAULT_255_1_234
10
5.5951727
20
131.9895821
40
0.2439788
50
269.4204404
51
286.4209037
0
ARC
8
DEFAULT_255_1_234
10
5.6100215
20
131.9356657
40
0.1880666
50
286.7251356
51
320.600362
0
ARC
8
DEFAULT_255_1_234
10
5.571704
20
131.9667595
40
0.2374121
50
320.6712579
51
344.5441685
0
ARC
8
DEFAULT_255_1_234
10
5.4560366
20
132.0007045
40
0.3579479
50
344.2412205
51
356.7357071
0
ARC
8
DEFAULT_255_1_234
10
5.3311515
20
132.0110444
40
0.4832297
50
356.3548756
51
0.0500261
0
ARC
8
DEFAULT_255_1_234
10
5.4648024
20
132.014165
40
0.3495889
50
359.5576869
51
12.953486
0
ARC
8
DEFAULT_255_1_234
10
5.5702921
20
132.0397434
40
0.2410532
50
12.6490276
51
41.6081334
0
ARC
8
DEFAULT_255_1_234
10
5.5933292
20
132.0593321
40
0.2108218
50
41.7850273
51
85.9892764
0
ARC
8
DEFAULT_255_1_234
10
5.5810029
20
131.9780462
40
0.2928454
50
84.6957577
51
90.0676183
0
ARC
8
DEFAULT_255_1_234
10
5.5786513
20
131.9111716
40
0.3597255
50
89.6804936
51
99.1614436
0
ARC
8
DEFAULT_255_1_234
10
5.5581144
20
132.0339131
40
0.235281
50
98.9830931
51
113.8908934
0
ARC
8
DEFAULT_255_1_234
10
5.5351554
20
132.0880587
40
0.176479
50
114.1950727
51
127.3641004
0
LINE
8
DEFAULT_255_1_234
10
4.4142299
20
138.1015211
11
4.6961439
21
137.6533501
0
LINE
8
DEFAULT_255_1_234
10
4.6961439
20
137.6533501
11
4.9764516
21
138.1015211
0
LINE
8
DEFAULT_255_1_234
10
4.9764516
20
138.1015211
11
5.1579689
21
138.1015211
0
LINE
8
DEFAULT_255_1_234
10
5.1579689
20
138.1015211
11
4.7885089
21
137.5216296
0
LINE
8
DEFAULT_255_1_234
10
4.7885089
20
137.5216296
11
5.1668038
21
136.9321
0
LINE
8
DEFAULT_255_1_234
10
5.1668038
20
136.9321
11
4.9836802
21
136.9321
0
LINE
8
DEFAULT_255_1_234
10
4.9836802
20
136.9321
11
4.6961439
21
137.3883027
0
LINE
8
DEFAULT_255_1_234
10
4.6961439
20
137.3883027
11
4.4070014
21
136.9321
0
LINE
8
DEFAULT_255_1_234
10
4.4070014
20
136.9321
11
4.2246809
21
136.9321
0
LINE
8
DEFAULT_255_1_234
10
4.2246809
20
136.9321
11
4.603779
21
137.5216296
0
LINE
8
DEFAULT_255_1_234
10
4.603779
20
137.5216296
11
4.2335158
21
138.1015211
0
LINE
8
DEFAULT_255_1_234
10
4.2335158
20
138.1015211
11
4.4142299
21
138.1015211
0
LINE
8
DEFAULT_255_1_234
10
5.934638
20
138.1015211
11
5.934638
21
137.324852
0
LINE
8
DEFAULT_255_1_234
10
5.934638
20
137.324852
11
6.0968791
21
137.324852
0
LINE
8
DEFAULT_255_1_234
10
6.0968791
20
137.324852
11
6.0968791
21
137.2035728
0
LINE
8
DEFAULT_255_1_234
10
6.0968791
20
137.2035728
11
5.934638
21
137.2035728
0
LINE
8
DEFAULT_255_1_234
10
5.934638
20
137.2035728
11
5.934638
21
136.9321
0
LINE
8
DEFAULT_255_1_234
10
5.934638
20
136.9321
11
5.7852477
21
136.9321
0
LINE
8
DEFAULT_255_1_234
10
5.7852477
20
136.9321
11
5.7852477
21
137.2035728
0
LINE
8
DEFAULT_255_1_234
10
5.7852477
20
137.2035728
11
5.2527434
21
137.2035728
0
LINE
8
DEFAULT_255_1_234
10
5.2527434
20
137.2035728
11
5.2527434
21
137.2911187
0
LINE
8
DEFAULT_255_1_234
10
5.2527434
20
137.2911187
11
5.7764127
21
138.1015211
0
LINE
8
DEFAULT_255_1_234
10
5.7764127
20
138.1015211
11
5.934638
21
138.1015211
0
LINE
8
DEFAULT_255_1_234
10
5.7675778
20
137.8661912
11
5.4214099
21
137.324852
0
LINE
8
DEFAULT_255_1_234
10
5.4214099
20
137.324852
11
5.7852477
21
137.324852
0
LINE
8
DEFAULT_255_1_234
10
5.7852477
20
137.324852
11
5.7852477
21
137.8983181
0
LINE
8
DEFAULT_255_1_234
10
5.7852477
20
137.8983181
11
5.7675778
21
137.8661912
0
LINE
8
DEFAULT_255_1_234
10
4.3084299
20
143.3931211
11
4.5903439
21
142.9449501
0
LINE
8
DEFAULT_255_1_234
10
4.5903439
20
142.9449501
11
4.8706516
21
143.3931211
0
LINE
8
DEFAULT_255_1_234
10
4.8706516
20
143.3931211
11
5.0521689
21
143.3931211
0
LINE
8
DEFAULT_255_1_234
10
5.0521689
20
143.3931211
11
4.6827089
21
142.8132296
0
LINE
8
DEFAULT_255_1_234
10
4.6827089
20
142.8132296
11
5.0610038
21
142.2237
0
LINE
8
DEFAULT_255_1_234
10
5.0610038
20
142.2237
11
4.8778802
21
142.2237
0
LINE
8
DEFAULT_255_1_234
10
4.8778802
20
142.2237
11
4.5903439
21
142.6799027
0
LINE
8
DEFAULT_255_1_234
10
4.5903439
20
142.6799027
11
4.3012014
21
142.2237
0
LINE
8
DEFAULT_255_1_234
10
4.3012014
20
142.2237
11
4.1188809
21
142.2237
0
LINE
8
DEFAULT_255_1_234
10
4.1188809
20
142.2237
11
4.497979
21
142.8132296
0
LINE
8
DEFAULT_255_1_234
10
4.497979
20
142.8132296
11
4.1277158
21
143.3931211
0
LINE
8
DEFAULT_255_1_234
10
4.1277158
20
143.3931211
11
4.3084299
21
143.3931211
0
LINE
8
DEFAULT_255_1_234
10
5.417613
20
142.7594169
11
5.417613
21
142.8806962
0
LINE
8
DEFAULT_255_1_234
10
5.417613
20
142.8806962
11
5.5292542
21
142.8806962
0
LINE
8
DEFAULT_255_1_234
10
5.338902
20
143.0863087
11
5.1903148
21
143.0863087
0
LINE
8
DEFAULT_255_1_234
10
5.1798735
20
142.5321188
11
5.3292639
21
142.5321188
0
LINE
8
DEFAULT_255_1_234
10
5.5292542
20
142.7594169
11
5.417613
21
142.7594169
0
ARC
8
DEFAULT_255_1_234
10
5.5263408
20
143.2199713
40
0.3392876
50
270.4919872
51
281.8951556
0
ARC
8
DEFAULT_255_1_234
10
5.550467
20
143.1097702
40
0.2264817
50
281.6691735
51
301.2943132
0
ARC
8
DEFAULT_255_1_234
10
5.567488
20
143.0786304
40
0.1910381
50
301.7833094
51
311.7545298
0
ARC
8
DEFAULT_255_1_234
10
5.5766456
20
143.0684748
40
0.1773635
50
311.7323931
51
354.2802411
0
ARC
8
DEFAULT_255_1_234
10
5.5040081
20
143.0809722
40
0.2509385
50
353.0937916
51
0.1181479
0
ARC
8
DEFAULT_255_1_234
10
5.4578866
20
143.0857386
40
0.2970898
50
359.1805295
51
15.0453146
0
ARC
8
DEFAULT_255_1_234
10
5.5924703
20
143.1249992
40
0.1569564
50
13.9577229
51
77.6713066
0
ARC
8
DEFAULT_255_1_234
10
5.5538232
20
142.9864949
40
0.3006298
50
76.1116566
51
90.7026153
0
ARC
8
DEFAULT_255_1_234
10
5.547907
20
143.0138545
40
0.2732568
50
89.5324876
51
103.531937
0
ARC
8
DEFAULT_255_1_234
10
5.5278514
20
143.0937884
40
0.1908508
50
103.2931773
51
133.5619022
0
ARC
8
DEFAULT_255_1_234
10
5.5234003
20
143.0997375
40
0.1834746
50
133.8349307
51
173.5344437
0
ARC
8
DEFAULT_255_1_234
10
5.5957046
20
143.0869213
40
0.2568033
50
172.5096846
51
180.1366907
0
ARC
8
DEFAULT_255_1_234
10
5.500594
20
143.0903622
40
0.3103056
50
155.3484492
51
180.7484736
0
ARC
8
DEFAULT_255_1_234
10
5.4957029
20
143.0874846
40
0.3070957
50
131.5744599
51
154.4798489
0
ARC
8
DEFAULT_255_1_234
10
5.5270176
20
143.055831
40
0.3515643
50
96.9875458
51
131.9690667
0
ARC
8
DEFAULT_255_1_234
10
5.5489656
20
142.9312636
40
0.4779224
50
89.8596053
51
97.7825159
0
ARC
8
DEFAULT_255_1_234
10
5.5537719
20
142.9050616
40
0.5041361
50
78.3655447
51
90.4131539
0
ARC
8
DEFAULT_255_1_234
10
5.5895637
20
143.0709887
40
0.3344039
50
56.6229102
51
78.638727
0
ARC
8
DEFAULT_255_1_234
10
5.6110581
20
143.1085805
40
0.2912001
50
47.0253525
51
56.0854072
0
ARC
8
DEFAULT_255_1_234
10
5.6130361
20
143.1125223
40
0.2869704
50
10.9208013
51
46.7778124
0
ARC
8
DEFAULT_255_1_234
10
5.4766427
20
143.0809857
40
0.426899
50
359.6364486
51
11.6087304
0
ARC
8
DEFAULT_255_1_234
10
5.6601271
20
143.0794752
40
0.243409
50
332.3549906
51
359.7179418
0
ARC
8
DEFAULT_255_1_234
10
5.5950873
20
143.1103142
40
0.3153459
50
325.2333722
51
332.8745602
0
ARC
8
DEFAULT_255_1_234
10
5.6103496
20
143.0996828
40
0.2967456
50
292.9802137
51
325.2392345
0
ARC
8
DEFAULT_255_1_234
10
5.582887
20
143.1530863
40
0.3566604
50
292.5402179
51
293.6924929
0
ARC
8
DEFAULT_255_1_234
10
5.6221466
20
142.5076091
40
0.3307468
50
57.6435486
51
72.8625112
0
ARC
8
DEFAULT_255_1_234
10
5.6575966
20
142.5650549
40
0.2632492
50
36.7248896
51
57.4697979
0
ARC
8
DEFAULT_255_1_234
10
5.6564598
20
142.566322
40
0.2634081
50
8.0545065
51
36.356114
0
ARC
8
DEFAULT_255_1_234
10
5.5701784
20
142.5508174
40
0.3510261
50
359.8320645
51
8.5869982
0
ARC
8
DEFAULT_255_1_234
10
5.532656
20
142.5460101
40
0.3885653
50
343.9829931
51
0.5571613
0
ARC
8
DEFAULT_255_1_234
10
5.6212757
20
142.5217438
40
0.2966924
50
311.6359546
51
343.7651759
0
ARC
8
DEFAULT_255_1_234
10
5.5834326
20
142.5644102
40
0.3537231
50
279.7829875
51
311.6255694
0
ARC
8
DEFAULT_255_1_234
10
5.5533102
20
142.708128
40
0.5004971
50
269.7286406
51
280.3856417
0
ARC
8
DEFAULT_255_1_234
10
5.5471175
20
142.7039996
40
0.4963778
50
256.6828919
51
270.4412052
0
ARC
8
DEFAULT_255_1_234
10
5.5132471
20
142.5655394
40
0.3538406
50
229.4223008
51
256.8556159
0
ARC
8
DEFAULT_255_1_234
10
5.4717864
20
142.5188736
40
0.2914296
50
181.818294
51
229.6455059
0
ARC
8
DEFAULT_255_1_234
10
5.575782
20
142.5319496
40
0.3959084
50
179.9755256
51
183.2323064
0
ARC
8
DEFAULT_255_1_234
10
5.5585566
20
142.5299037
40
0.2293034
50
179.4465117
51
196.2869258
0
ARC
8
DEFAULT_255_1_234
10
5.5097974
20
142.5165651
40
0.1787621
50
196.5661473
51
227.705904
0
ARC
8
DEFAULT_255_1_234
10
5.5262069
20
142.5349155
40
0.2033784
50
227.7652068
51
257.8762805
0
ARC
8
DEFAULT_255_1_234
10
5.5487039
20
142.6292156
40
0.3003081
50
257.4584385
51
270.426602
0
ARC
8
DEFAULT_255_1_234
10
5.5532605
20
142.6581996
40
0.329292
50
269.5962073
51
280.8789248
0
ARC
8
DEFAULT_255_1_234
10
5.5762134
20
142.5435685
40
0.2123908
50
280.6346389
51
299.8595945
0
ARC
8
DEFAULT_255_1_234
10
5.595304
20
142.5073212
40
0.171457
50
300.3576302
51
314.5517981
0
ARC
8
DEFAULT_255_1_234
10
5.5870101
20
142.5133919
40
0.1816095
50
315.0728369
51
345.0431014
0
ARC
8
DEFAULT_255_1_234
10
5.4946915
20
142.5402841
40
0.2777492
50
344.5986631
51
357.9269593
0
ARC
8
DEFAULT_255_1_234
10
5.4051241
20
142.5464276
40
0.3674917
50
357.4748886
51
0.0231117
0
ARC
8
DEFAULT_255_1_234
10
5.5074351
20
142.5488679
40
0.2651907
50
359.5047933
51
13.4239635
0
ARC
8
DEFAULT_255_1_234
10
5.5940994
20
142.5710478
40
0.1757509
50
12.9498199
51
48.7551375
0
ARC
8
DEFAULT_255_1_234
10
5.5758728
20
142.54614
40
0.2065134
50
49.5088623
51
72.1836453
0
ARC
8
DEFAULT_255_1_234
10
5.5400881
20
142.4399291
40
0.3185836
50
71.9010081
51
84.3554254
0
ARC
8
DEFAULT_255_1_234
10
5.5239513
20
142.3038326
40
0.4556151
50
84.0193428
51
89.333121
0
LINE
8
DEFAULT_255_1_234
10
4.3084299
20
148.6848211
11
4.5903439
21
148.2366501
0
LINE
8
DEFAULT_255_1_234
10
4.5903439
20
148.2366501
11
4.8706516
21
148.6848211
0
LINE
8
DEFAULT_255_1_234
10
4.8706516
20
148.6848211
11
5.0521689
21
148.6848211
0
LINE
8
DEFAULT_255_1_234
10
5.0521689
20
148.6848211
11
4.6827089
21
148.1049296
0
LINE
8
DEFAULT_255_1_234
10
4.6827089
20
148.1049296
11
5.0610038
21
147.5154
0
LINE
8
DEFAULT_255_1_234
10
5.0610038
20
147.5154
11
4.8778802
21
147.5154
0
LINE
8
DEFAULT_255_1_234
10
4.8778802
20
147.5154
11
4.5903439
21
147.9716027
0
LINE
8
DEFAULT_255_1_234
10
4.5903439
20
147.9716027
11
4.3012014
21
147.5154
0
LINE
8
DEFAULT_255_1_234
10
4.3012014
20
147.5154
11
4.1188809
21
147.5154
0
LINE
8
DEFAULT_255_1_234
10
4.1188809
20
147.5154
11
4.497979
21
148.1049296
0
LINE
8
DEFAULT_255_1_234
10
4.497979
20
148.1049296
11
4.1277158
21
148.6848211
0
LINE
8
DEFAULT_255_1_234
10
4.1277158
20
148.6848211
11
4.3084299
21
148.6848211
0
LINE
8
DEFAULT_255_1_234
10
5.9677871
20
147.6366792
11
5.9677871
21
147.5154
0
LINE
8
DEFAULT_255_1_234
10
5.9677871
20
147.5154
11
5.2015592
21
147.5154
0
LINE
8
DEFAULT_255_1_234
10
5.2015592
20
147.5154
11
5.2015592
21
147.6222221
0
LINE
8
DEFAULT_255_1_234
10
5.2015592
20
147.6222221
11
5.6063588
21
148.0719995
0
LINE
8
DEFAULT_255_1_234
10
5.3276575
20
148.3402595
11
5.1790704
21
148.3402595
0
LINE
8
DEFAULT_255_1_234
10
5.6939048
20
147.9764218
11
5.380667
21
147.6366792
0
LINE
8
DEFAULT_255_1_234
10
5.380667
20
147.6366792
11
5.9677871
21
147.6366792
0
ARC
8
DEFAULT_255_1_234
10
4.2573422
20
149.2649527
40
1.8008286
50
318.5132453
51
320.7828378
0
ARC
8
DEFAULT_255_1_234
10
4.7860396
20
148.8346426
40
1.1191493
50
320.7372736
51
323.9737074
0
ARC
8
DEFAULT_255_1_234
10
5.1780252
20
148.5506361
40
0.6350923
50
323.8961724
51
328.6421089
0
ARC
8
DEFAULT_255_1_234
10
5.3826848
20
148.4244031
40
0.3946393
50
328.8299013
51
331.789948
0
ARC
8
DEFAULT_255_1_234
10
5.4824026
20
148.3729509
40
0.2824501
50
331.4255242
51
352.9364833
0
ARC
8
DEFAULT_255_1_234
10
5.4960527
20
148.3698976
40
0.2685315
50
353.2248685
51
0.0169286
0
ARC
8
DEFAULT_255_1_234
10
5.5170404
20
148.372195
40
0.2475536
50
359.4866256
51
15.9339782
0
ARC
8
DEFAULT_255_1_234
10
5.5677389
20
148.3858286
40
0.1950618
50
16.1714718
51
43.5284424
0
ARC
8
DEFAULT_255_1_234
10
5.5754698
20
148.3935573
40
0.184134
50
43.4415429
51
83.1661404
0
ARC
8
DEFAULT_255_1_234
10
5.5620616
20
148.3198771
40
0.258926
50
82.160215
51
90.1505798
0
ARC
8
DEFAULT_255_1_234
10
5.5589043
20
148.2661865
40
0.3126255
50
89.5460705
51
102.5418777
0
ARC
8
DEFAULT_255_1_234
10
5.5346129
20
148.3692665
40
0.2067346
50
102.1739365
51
129.2061916
0
ARC
8
DEFAULT_255_1_234
10
5.5267201
20
148.3817094
40
0.1921118
50
129.7279328
51
135.7542026
0
ARC
8
DEFAULT_255_1_234
10
5.5388729
20
148.3720045
40
0.2075944
50
136.175737
51
166.3674722
0
ARC
8
DEFAULT_255_1_234
10
5.6395648
20
148.3450182
40
0.3118201
50
165.9092917
51
178.8683903
0
ARC
8
DEFAULT_255_1_234
10
5.7260509
20
148.3403179
40
0.3983935
50
178.438168
51
180.0083905
0
ARC
8
DEFAULT_255_1_234
10
5.5859111
20
148.3442231
40
0.4068601
50
163.2878735
51
180.5581814
0
ARC
8
DEFAULT_255_1_234
10
5.5057373
20
148.366284
40
0.3237344
50
133.454115
51
162.9470031
0
ARC
8
DEFAULT_255_1_234
10
5.5235914
20
148.3473
40
0.349795
50
100.7869394
51
133.4384016
0
ARC
8
DEFAULT_255_1_234
10
5.5583686
20
148.1924319
40
0.5084616
50
89.6605301
51
101.3704185
0
ARC
8
DEFAULT_255_1_234
10
5.5650024
20
148.1985496
40
0.502348
50
78.2171172
51
90.4130393
0
ARC
8
DEFAULT_255_1_234
10
5.6005103
20
148.3609637
40
0.3361092
50
55.9268222
51
78.4888551
0
ARC
8
DEFAULT_255_1_234
10
5.6201543
20
148.3948324
40
0.2970617
50
47.9292255
51
55.4054003
0
ARC
8
DEFAULT_255_1_234
10
5.6303103
20
148.4051502
40
0.2825983
50
4.3347696
51
48.0560701
0
ARC
8
DEFAULT_255_1_234
10
5.5207497
20
148.3881601
40
0.393225
50
359.925209
51
5.5967654
0
ARC
8
DEFAULT_255_1_234
10
5.5636389
20
148.3937816
40
0.3503892
50
337.8914096
51
358.9967724
0
ARC
8
DEFAULT_255_1_234
10
5.2922801
20
148.4984706
40
0.6412172
50
326.9135351
51
338.3505194
0
ARC
8
DEFAULT_255_1_234
10
4.8937105
20
148.7539284
40
1.1146189
50
319.6472867
51
327.095818
0
ARC
8
DEFAULT_255_1_234
10
4.5104108
20
149.0701
40
1.6114559
50
317.2586784
51
319.9046139
0
LINE
8
DEFAULT_255_1_234
10
4.3000299
20
153.9765211
11
4.5819439
21
153.5283501
0
LINE
8
DEFAULT_255_1_234
10
4.5819439
20
153.5283501
11
4.8622516
21
153.9765211
0
LINE
8
DEFAULT_255_1_234
10
4.8622516
20
153.9765211
11
5.0437689
21
153.9765211
0
LINE
8
DEFAULT_255_1_234
10
5.0437689
20
153.9765211
11
4.6743089
21
153.3966296
0
LINE
8
DEFAULT_255_1_234
10
4.6743089
20
153.3966296
11
5.0526038
21
152.8071
0
LINE
8
DEFAULT_255_1_234
10
5.0526038
20
152.8071
11
4.8694802
21
152.8071
0
LINE
8
DEFAULT_255_1_234
10
4.8694802
20
152.8071
11
4.5819439
21
153.2633027
0
LINE
8
DEFAULT_255_1_234
10
4.5819439
20
153.2633027
11
4.2928014
21
152.8071
0
LINE
8
DEFAULT_255_1_234
10
4.2928014
20
152.8071
11
4.1104809
21
152.8071
0
LINE
8
DEFAULT_255_1_234
10
4.1104809
20
152.8071
11
4.489579
21
153.3966296
0
LINE
8
DEFAULT_255_1_234
10
4.489579
20
153.3966296
11
4.1193158
21
153.9765211
0
LINE
8
DEFAULT_255_1_234
10
4.1193158
20
153.9765211
11
4.3000299
21
153.9765211
0
LINE
8
DEFAULT_255_1_234
10
5.6814889
20
153.9821433
11
5.6814889
21
152.8071
0
LINE
8
DEFAULT_255_1_234
10
5.6814889
20
152.8071
11
5.5320986
21
152.8071
0
LINE
8
DEFAULT_255_1_234
10
5.5320986
20
152.8071
11
5.5320986
21
153.7974133
0
LINE
8
DEFAULT_255_1_234
10
5.5320986
20
153.7974133
11
5.2325147
21
153.6873785
0
LINE
8
DEFAULT_255_1_234
10
5.2325147
20
153.6873785
11
5.2325147
21
153.8223117
0
LINE
8
DEFAULT_255_1_234
10
5.2325147
20
153.8223117
11
5.6581969
21
153.9821433
0
LINE
8
DEFAULT_255_1_234
10
5.6581969
20
153.9821433
11
5.6814889
21
153.9821433
0
LINE
8
DEFAULT_255_1_234
10
4.3084299
20
159.2681211
11
4.5903439
21
158.8199501
0
LINE
8
DEFAULT_255_1_234
10
4.5903439
20
158.8199501
11
4.8706516
21
159.2681211
0
LINE
8
DEFAULT_255_1_234
10
4.8706516
20
159.2681211
11
5.0521689
21
159.2681211
0
LINE
8
DEFAULT_255_1_234
10
5.0521689
20
159.2681211
11
4.6827089
21
158.6882296
0
LINE
8
DEFAULT_255_1_234
10
4.6827089
20
158.6882296
11
5.0610038
21
158.0987
0
LINE
8
DEFAULT_255_1_234
10
5.0610038
20
158.0987
11
4.8778802
21
158.0987
0
LINE
8
DEFAULT_255_1_234
10
4.8778802
20
158.0987
11
4.5903439
21
158.5549027
0
LINE
8
DEFAULT_255_1_234
10
4.5903439
20
158.5549027
11
4.3012014
21
158.0987
0
LINE
8
DEFAULT_255_1_234
10
4.3012014
20
158.0987
11
4.1188809
21
158.0987
0
LINE
8
DEFAULT_255_1_234
10
4.1188809
20
158.0987
11
4.497979
21
158.6882296
0
LINE
8
DEFAULT_255_1_234
10
4.497979
20
158.6882296
11
4.1277158
21
159.2681211
0
LINE
8
DEFAULT_255_1_234
10
4.1277158
20
159.2681211
11
4.3084299
21
159.2681211
0
LINE
8
DEFAULT_255_1_234
10
5.9348569
20
158.7902327
11
5.9348569
21
158.5974709
0
LINE
8
DEFAULT_255_1_234
10
5.1967402
20
158.5773916
11
5.1967402
21
158.7757755
0
LINE
8
DEFAULT_255_1_234
10
5.7862698
20
158.5573123
11
5.7862698
21
158.8006739
0
LINE
8
DEFAULT_255_1_234
10
5.3453273
20
158.8119184
11
5.3453273
21
158.5741789
0
ARC
8
DEFAULT_255_1_234
10
4.7101459
20
158.5925805
40
1.2247208
50
353.8441951
51
0.2287902
0
ARC
8
DEFAULT_255_1_234
10
5.1740963
20
158.5407806
40
0.7578929
50
344.4934747
51
353.9765454
0
ARC
8
DEFAULT_255_1_234
10
5.4733553
20
158.4556981
40
0.4467846
50
329.2803592
51
344.7472793
0
ARC
8
DEFAULT_255_1_234
10
5.5726378
20
158.4012018
40
0.3336173
50
324.9352394
51
328.6160465
0
ARC
8
DEFAULT_255_1_234
10
5.6103486
20
158.3748427
40
0.2876076
50
280.580143
51
324.9173126
0
ARC
8
DEFAULT_255_1_234
10
5.5702279
20
158.5419099
40
0.4592847
50
269.5977311
51
281.6734359
0
ARC
8
DEFAULT_255_1_234
10
5.5630185
20
158.5299173
40
0.4472986
50
256.6228859
51
270.51044
0
ARC
8
DEFAULT_255_1_234
10
5.5228162
20
158.3750877
40
0.2873874
50
215.8618325
51
257.2788573
0
ARC
8
DEFAULT_255_1_234
10
5.6249194
20
158.4435977
40
0.4102928
50
197.9693508
51
215.2623606
0
ARC
8
DEFAULT_255_1_234
10
5.873431
20
158.5274709
40
0.6725652
50
187.8816417
51
198.2346507
0
ARC
8
DEFAULT_255_1_234
10
6.2692518
20
158.5846079
40
1.0724845
50
180.8976217
51
188.0055519
0
ARC
8
DEFAULT_255_1_234
10
6.5492706
20
158.5949777
40
1.3526448
50
180.7449369
51
181.1510016
0
ARC
8
DEFAULT_255_1_234
10
6.3915435
20
158.7806042
40
1.1948131
50
173.7675579
51
180.231553
0
ARC
8
DEFAULT_255_1_234
10
5.9397582
20
158.8316666
40
0.7401564
50
164.3058563
51
173.9002247
0
ARC
8
DEFAULT_255_1_234
10
5.648565
20
158.9155656
40
0.4371288
50
148.7922025
51
164.568378
0
ARC
8
DEFAULT_255_1_234
10
5.5534103
20
158.9686929
40
0.3282386
50
144.5883898
51
148.1176286
0
ARC
8
DEFAULT_255_1_234
10
5.5191001
20
158.9926315
40
0.2864044
50
101.6440918
51
144.514236
0
ARC
8
DEFAULT_255_1_234
10
5.5616067
20
158.8237069
40
0.4604934
50
89.5284041
51
102.5819763
0
ARC
8
DEFAULT_255_1_234
10
5.5695155
20
158.8198018
40
0.464401
50
77.0437873
51
90.5081339
0
ARC
8
DEFAULT_255_1_234
10
5.6097157
20
158.9840615
40
0.2953195
50
48.2778575
51
77.4994676
0
ARC
8
DEFAULT_255_1_234
10
5.6169788
20
158.9969746
40
0.2808655
50
36.3142134
51
47.6305865
0
ARC
8
DEFAULT_255_1_234
10
5.5301095
20
158.9384515
40
0.3855453
50
18.2931786
51
35.6769206
0
ARC
8
DEFAULT_255_1_234
10
5.2757854
20
158.8511593
40
0.654423
50
8.024666
51
18.5605216
0
ARC
8
DEFAULT_255_1_234
10
4.8594774
20
158.7896792
40
1.0752407
50
1.1274072
51
8.1718305
0
ARC
8
DEFAULT_255_1_234
10
4.5358964
20
158.7769885
40
1.3990231
50
0.5424119
51
1.3863029
0
ARC
8
DEFAULT_255_1_234
10
4.7180342
20
158.8042342
40
1.0682415
50
359.8090433
51
4.9407866
0
ARC
8
DEFAULT_255_1_234
10
5.1390356
20
158.8418113
40
0.6455691
50
4.8362157
51
12.2904523
0
ARC
8
DEFAULT_255_1_234
10
5.4145471
20
158.9031965
40
0.3633074
50
12.0805627
51
23.8173984
0
ARC
8
DEFAULT_255_1_234
10
5.5319176
20
158.9528919
40
0.2358723
50
24.2871213
51
31.3935614
0
ARC
8
DEFAULT_255_1_234
10
5.5843874
20
158.9872233
40
0.1732111
50
30.7407893
51
82.4657128
0
ARC
8
DEFAULT_255_1_234
10
5.5664008
20
158.8988691
40
0.263235
50
81.1060089
51
90.2184952
0
ARC
8
DEFAULT_255_1_234
10
5.5628307
20
158.9246924
40
0.2374236
50
89.3806855
51
105.6762551
0
ARC
8
DEFAULT_255_1_234
10
5.5444938
20
158.9913567
40
0.1682847
50
105.7981136
51
149.7388061
0
ARC
8
DEFAULT_255_1_234
10
5.6509016
20
158.927395
40
0.2924306
50
149.4208916
51
163.6286378
0
ARC
8
DEFAULT_255_1_234
10
5.8599904
20
158.863625
40
0.5110213
50
163.3763315
51
172.1410975
0
ARC
8
DEFAULT_255_1_234
10
6.1900623
20
158.8163518
40
0.8444586
50
172.0259487
51
178.0703232
0
ARC
8
DEFAULT_255_1_234
10
6.4930712
20
158.8019906
40
1.1477868
50
177.8631668
51
179.5044149
0
ARC
8
DEFAULT_255_1_234
10
6.3858117
20
158.5705389
40
1.0404907
50
179.7995573
51
185.2460446
0
ARC
8
DEFAULT_255_1_234
10
5.9815156
20
158.5322513
40
0.6343885
50
185.1411642
51
193.0079639
0
ARC
8
DEFAULT_255_1_234
10
5.7171629
20
158.4697641
40
0.3627568
50
192.7897626
51
205.2507664
0
ARC
8
DEFAULT_255_1_234
10
5.6125176
20
158.4230415
40
0.2481908
50
205.8005384
51
211.2537509
0
ARC
8
DEFAULT_255_1_234
10
5.5601616
20
158.387958
40
0.1852521
50
210.3789793
51
238.4008143
0
ARC
8
DEFAULT_255_1_234
10
5.5582138
20
158.3926376
40
0.1882621
50
239.6520629
51
265.9793761
0
ARC
8
DEFAULT_255_1_234
10
5.5667338
20
158.4598427
40
0.2559272
50
265.1315437
51
270.060332
0
ARC
8
DEFAULT_255_1_234
10
5.5696117
20
158.4274534
40
0.2235528
50
269.3314664
51
287.2178029
0
ARC
8
DEFAULT_255_1_234
10
5.5833969
20
158.3771279
40
0.1714108
50
287.7958004
51
329.080874
0
ARC
8
DEFAULT_255_1_234
10
5.4876426
20
158.436893
40
0.2842745
50
328.6634704
51
343.3325132
0
ARC
8
DEFAULT_255_1_234
10
5.2703446
20
158.5045863
40
0.5118644
50
343.0499468
51
351.9393422
0
ARC
8
DEFAULT_255_1_234
10
4.9236746
20
158.5556949
40
0.8622784
50
351.8069023
51
357.7959224
0
ARC
8
DEFAULT_255_1_234
10
4.6001302
20
158.5724721
40
1.1862365
50
357.5871873
51
359.2677531
0
LINE
8
DEFAULT_255_1_234
10
4.9447879
20
164.5598211
11
4.9447879
21
163.3904
0
LINE
8
DEFAULT_255_1_234
10
4.9447879
20
163.3904
11
4.7897753
21
163.3904
0
LINE
8
DEFAULT_255_1_234
10
4.7897753
20
163.3904
11
4.2010489
21
164.291561
0
LINE
8
DEFAULT_255_1_234
10
4.2010489
20
164.291561
11
4.2010489
21
163.3904
0
LINE
8
DEFAULT_255_1_234
10
4.2010489
20
163.3904
11
4.0460364
21
163.3904
0
LINE
8
DEFAULT_255_1_234
10
4.0460364
20
163.3904
11
4.0460364
21
164.5598211
0
LINE
8
DEFAULT_255_1_234
10
4.0460364
20
164.5598211
11
4.2010489
21
164.5598211
0
LINE
8
DEFAULT_255_1_234
10
4.2010489
20
164.5598211
11
4.7913817
21
163.6546442
0
LINE
8
DEFAULT_255_1_234
10
4.7913817
20
163.6546442
11
4.7913817
21
164.5598211
0
LINE
8
DEFAULT_255_1_234
10
4.7913817
20
164.5598211
11
4.9447879
21
164.5598211
0
LINE
8
DEFAULT_255_1_234
10
22.1784119
20
168.8033792
11
22.1784119
21
168.6821
0
LINE
8
DEFAULT_255_1_234
10
22.1784119
20
168.6821
11
21.412184
21
168.6821
0
LINE
8
DEFAULT_255_1_234
10
21.412184
20
168.6821
11
21.412184
21
168.7889221
0
LINE
8
DEFAULT_255_1_234
10
21.412184
20
168.7889221
11
21.8169836
21
169.2386995
0
LINE
8
DEFAULT_255_1_234
10
21.5382823
20
169.5069595
11
21.3896952
21
169.5069595
0
LINE
8
DEFAULT_255_1_234
10
21.9045296
20
169.1431218
11
21.5912918
21
168.8033792
0
LINE
8
DEFAULT_255_1_234
10
21.5912918
20
168.8033792
11
22.1784119
21
168.8033792
0
ARC
8
DEFAULT_255_1_234
10
20.467967
20
170.4316527
40
1.8008286
50
318.5132453
51
320.7828378
0
ARC
8
DEFAULT_255_1_234
10
20.9966644
20
170.0013426
40
1.1191493
50
320.7372736
51
323.9737074
0
ARC
8
DEFAULT_255_1_234
10
21.3886501
20
169.7173361
40
0.6350923
50
323.8961724
51
328.6421089
0
ARC
8
DEFAULT_255_1_234
10
21.5933096
20
169.5911031
40
0.3946393
50
328.8299013
51
331.789948
0
ARC
8
DEFAULT_255_1_234
10
21.6930274
20
169.5396509
40
0.2824501
50
331.4255242
51
352.9364833
0
ARC
8
DEFAULT_255_1_234
10
21.7066775
20
169.5365976
40
0.2685315
50
353.2248685
51
0.0169286
0
ARC
8
DEFAULT_255_1_234
10
21.7276652
20
169.538895
40
0.2475536
50
359.4866256
51
15.9339782
0
ARC
8
DEFAULT_255_1_234
10
21.7783637
20
169.5525286
40
0.1950618
50
16.1714718
51
43.5284424
0
ARC
8
DEFAULT_255_1_234
10
21.7860946
20
169.5602573
40
0.184134
50
43.4415429
51
83.1661404
0
ARC
8
DEFAULT_255_1_234
10
21.7726864
20
169.4865771
40
0.258926
50
82.160215
51
90.1505798
0
ARC
8
DEFAULT_255_1_234
10
21.7695291
20
169.4328865
40
0.3126255
50
89.5460705
51
102.5418777
0
ARC
8
DEFAULT_255_1_234
10
21.7452377
20
169.5359665
40
0.2067346
50
102.1739365
51
129.2061916
0
ARC
8
DEFAULT_255_1_234
10
21.7373449
20
169.5484094
40
0.1921118
50
129.7279328
51
135.7542026
0
ARC
8
DEFAULT_255_1_234
10
21.7494977
20
169.5387045
40
0.2075944
50
136.175737
51
166.3674722
0
ARC
8
DEFAULT_255_1_234
10
21.8501896
20
169.5117182
40
0.3118201
50
165.9092917
51
178.8683903
0
ARC
8
DEFAULT_255_1_234
10
21.9366757
20
169.5070179
40
0.3983935
50
178.438168
51
180.0083905
0
ARC
8
DEFAULT_255_1_234
10
21.7965359
20
169.5109231
40
0.4068601
50
163.2878735
51
180.5581814
0
ARC
8
DEFAULT_255_1_234
10
21.7163621
20
169.532984
40
0.3237344
50
133.454115
51
162.9470031
0
ARC
8
DEFAULT_255_1_234
10
21.7342162
20
169.514
40
0.349795
50
100.7869394
51
133.4384016
0
ARC
8
DEFAULT_255_1_234
10
21.7689934
20
169.3591319
40
0.5084616
50
89.6605301
51
101.3704185
0
ARC
8
DEFAULT_255_1_234
10
21.7756273
20
169.3652496
40
0.502348
50
78.2171172
51
90.4130393
0
ARC
8
DEFAULT_255_1_234
10
21.8111351
20
169.5276637
40
0.3361092
50
55.9268222
51
78.4888551
0
ARC
8
DEFAULT_255_1_234
10
21.8307791
20
169.5615324
40
0.2970617
50
47.9292255
51
55.4054003
0
ARC
8
DEFAULT_255_1_234
10
21.8409352
20
169.5718502
40
0.2825983
50
4.3347696
51
48.0560701
0
ARC
8
DEFAULT_255_1_234
10
21.7313745
20
169.5548601
40
0.393225
50
359.925209
51
5.5967654
0
ARC
8
DEFAULT_255_1_234
10
21.7742637
20
169.5604816
40
0.3503892
50
337.8914096
51
358.9967724
0
ARC
8
DEFAULT_255_1_234
10
21.5029049
20
169.6651706
40
0.6412172
50
326.9135351
51
338.3505194
0
ARC
8
DEFAULT_255_1_234
10
21.1043353
20
169.9206284
40
1.1146189
50
319.6472867
51
327.095818
0
ARC
8
DEFAULT_255_1_234
10
20.7210356
20
170.2368
40
1.6114559
50
317.2586784
51
319.9046139
0
LINE
8
DEFAULT_255_1_234
10
22.9631127
20
169.8515211
11
22.9631127
21
169.074852
0
LINE
8
DEFAULT_255_1_234
10
22.9631127
20
169.074852
11
23.1253538
21
169.074852
0
LINE
8
DEFAULT_255_1_234
10
23.1253538
20
169.074852
11
23.1253538
21
168.9535728
0
LINE
8
DEFAULT_255_1_234
10
23.1253538
20
168.9535728
11
22.9631127
21
168.9535728
0
LINE
8
DEFAULT_255_1_234
10
22.9631127
20
168.9535728
11
22.9631127
21
168.6821
0
LINE
8
DEFAULT_255_1_234
10
22.9631127
20
168.6821
11
22.8137224
21
168.6821
0
LINE
8
DEFAULT_255_1_234
10
22.8137224
20
168.6821
11
22.8137224
21
168.9535728
0
LINE
8
DEFAULT_255_1_234
10
22.8137224
20
168.9535728
11
22.2812181
21
168.9535728
0
LINE
8
DEFAULT_255_1_234
10
22.2812181
20
168.9535728
11
22.2812181
21
169.0411187
0
LINE
8
DEFAULT_255_1_234
10
22.2812181
20
169.0411187
11
22.8048875
21
169.8515211
0
LINE
8
DEFAULT_255_1_234
10
22.8048875
20
169.8515211
11
22.9631127
21
169.8515211
0
LINE
8
DEFAULT_255_1_234
10
22.7960525
20
169.6161912
11
22.4498846
21
169.074852
0
LINE
8
DEFAULT_255_1_234
10
22.4498846
20
169.074852
11
22.8137224
21
169.074852
0
LINE
8
DEFAULT_255_1_234
10
22.8137224
20
169.074852
11
22.8137224
21
169.6483181
0
LINE
8
DEFAULT_255_1_234
10
22.8137224
20
169.6483181
11
22.7960525
21
169.6161912
0
LINE
8
DEFAULT_255_1_234
10
24.161448
20
169.264401
11
24.161448
21
168.8355062
0
LINE
8
DEFAULT_255_1_234
10
23.260287
20
169.2105884
11
23.260287
21
169.3125915
0
LINE
8
DEFAULT_255_1_234
10
24.161448
20
169.5085659
11
24.0072387
21
169.5085659
0
LINE
8
DEFAULT_255_1_234
10
23.4152996
20
169.3166073
11
23.4152996
21
169.2210296
0
LINE
8
DEFAULT_255_1_234
10
24.0080418
20
168.8764681
11
24.0080418
21
169.1391059
0
LINE
8
DEFAULT_255_1_234
10
24.0080418
20
169.1391059
11
23.7373723
21
169.1391059
0
LINE
8
DEFAULT_255_1_234
10
23.7373723
20
169.1391059
11
23.7373723
21
169.264401
0
LINE
8
DEFAULT_255_1_234
10
23.7373723
20
169.264401
11
24.161448
21
169.264401
0
ARC
8
DEFAULT_255_1_234
10
23.8782987
20
169.0348396
40
0.3462765
50
295.8437914
51
324.8549609
0
ARC
8
DEFAULT_255_1_234
10
23.8366954
20
169.1101567
40
0.4322211
50
291.5695085
51
296.4549398
0
ARC
8
DEFAULT_255_1_234
10
23.7856205
20
169.2466275
40
0.5779178
50
278.6622409
51
291.3045483
0
ARC
8
DEFAULT_255_1_234
10
23.7516697
20
169.4614408
40
0.7953952
50
270.020006
51
278.7494541
0
ARC
8
DEFAULT_255_1_234
10
23.7478621
20
169.5931036
40
0.927067
50
269.9969998
51
270.2524872
0
ARC
8
DEFAULT_255_1_234
10
23.7440334
20
169.1847589
40
0.5187361
50
253.5786322
51
270.4175299
0
ARC
8
DEFAULT_255_1_234
10
23.726699
20
169.1176236
40
0.4494451
50
238.8203306
51
253.2788235
0
ARC
8
DEFAULT_255_1_234
10
23.7247363
20
169.1125231
40
0.4440665
50
206.7883783
51
238.6962764
0
ARC
8
DEFAULT_255_1_234
10
23.8021273
20
169.1589405
40
0.5341121
50
206.1129412
51
207.4916643
0
ARC
8
DEFAULT_255_1_234
10
23.8618188
20
169.1843488
40
0.5989041
50
188.6921119
51
205.7821245
0
ARC
8
DEFAULT_255_1_234
10
24.047455
20
169.215923
40
0.7871862
50
180.3882829
51
188.9219216
0
ARC
8
DEFAULT_255_1_234
10
24.1702364
20
169.3182464
40
0.909967
50
170.2024264
51
180.3560651
0
ARC
8
DEFAULT_255_1_234
10
23.8538882
20
169.3748237
40
0.5886083
50
154.2857445
51
170.3893044
0
ARC
8
DEFAULT_255_1_234
10
23.7257085
20
169.433495
40
0.4476743
50
139.8401567
51
153.9332699
0
ARC
8
DEFAULT_255_1_234
10
23.6897821
20
169.4622577
40
0.4016697
50
98.4190291
51
139.6707122
0
ARC
8
DEFAULT_255_1_234
10
23.7277339
20
169.2777328
40
0.5898566
50
89.7659205
51
99.4415478
0
ARC
8
DEFAULT_255_1_234
10
23.7342588
20
169.2842844
40
0.5833147
50
78.0551672
51
90.4042112
0
ARC
8
DEFAULT_255_1_234
10
23.7747098
20
169.4661644
40
0.3970055
50
54.6380464
51
78.3339173
0
ARC
8
DEFAULT_255_1_234
10
23.7937154
20
169.4981795
40
0.3599102
50
50.031736
51
54.1558201
0
ARC
8
DEFAULT_255_1_234
10
23.7829942
20
169.4885766
40
0.3741624
50
18.1092409
51
49.7180913
0
ARC
8
DEFAULT_255_1_234
10
23.6373142
20
169.4352089
40
0.5292424
50
7.9672797
51
18.6984571
0
ARC
8
DEFAULT_255_1_234
10
23.652362
20
169.4475504
40
0.3600838
50
9.7557294
51
27.3215714
0
ARC
8
DEFAULT_255_1_234
10
23.7651092
20
169.5038912
40
0.2340608
50
27.7361077
51
84.5257964
0
ARC
8
DEFAULT_255_1_234
10
23.7323479
20
169.339564
40
0.4011215
50
82.106034
51
90.2001166
0
ARC
8
DEFAULT_255_1_234
10
23.7273696
20
169.3903215
40
0.3503799
50
89.4150119
51
105.5823402
0
ARC
8
DEFAULT_255_1_234
10
23.7016694
20
169.4838867
40
0.2533503
50
105.6678618
51
144.2648758
0
ARC
8
DEFAULT_255_1_234
10
23.7909949
20
169.4203289
40
0.3629787
50
144.3561283
51
162.8564086
0
ARC
8
DEFAULT_255_1_234
10
23.9993858
20
169.3534017
40
0.5818441
50
162.6076014
51
173.6780284
0
ARC
8
DEFAULT_255_1_234
10
24.3055002
20
169.316189
40
0.8902007
50
173.4670142
51
179.9730753
0
ARC
8
DEFAULT_255_1_234
10
24.1146673
20
169.216826
40
0.6993804
50
179.6556203
51
190.0080463
0
ARC
8
DEFAULT_255_1_234
10
23.8830502
20
169.1743375
40
0.4639066
50
189.8116607
51
206.6796816
0
ARC
8
DEFAULT_255_1_234
10
23.7985654
20
169.1349503
40
0.3707421
50
207.1031645
51
217.7074368
0
ARC
8
DEFAULT_255_1_234
10
23.7351343
20
169.0797559
40
0.2868417
50
216.7345547
51
265.6812148
0
ARC
8
DEFAULT_255_1_234
10
23.7482134
20
169.1701855
40
0.3780509
50
264.7366618
51
270.0611241
0
ARC
8
DEFAULT_255_1_234
10
23.7505397
20
169.4542111
40
0.662079
50
269.8335834
51
276.0539546
0
ARC
8
DEFAULT_255_1_234
10
23.7712402
20
169.264056
40
0.4708016
50
275.9894168
51
284.4615085
0
ARC
8
DEFAULT_255_1_234
10
23.7910409
20
169.1807663
40
0.3852094
50
284.7034461
51
286.4953897
0
ARC
8
DEFAULT_255_1_234
10
23.8317422
20
169.0496965
40
0.2479842
50
286.0770838
51
304.2625829
0
ARC
8
DEFAULT_255_1_234
10
23.8450836
20
169.0278594
40
0.2224291
50
304.5891602
51
317.1073298
0
LINE
8
DEFAULT_255_1_234
10
23.1643817
20
47.6652327
11
23.1643817
21
47.4724709
0
LINE
8
DEFAULT_255_1_234
10
22.426265
20
47.4523916
11
22.426265
21
47.6507755
0
LINE
8
DEFAULT_255_1_234
10
23.0157946
20
47.4323123
11
23.0157946
21
47.6756739
0
LINE
8
DEFAULT_255_1_234
10
22.5748521
20
47.6869184
11
22.5748521
21
47.4491789
0
ARC
8
DEFAULT_255_1_234
10
21.9396707
20
47.4675805
40
1.2247208
50
353.8441951
51
0.2287902
0
ARC
8
DEFAULT_255_1_234
10
22.4036211
20
47.4157806
40
0.7578929
50
344.4934747
51
353.9765454
0
ARC
8
DEFAULT_255_1_234
10
22.7028801
20
47.3306981
40
0.4467846
50
329.2803592
51
344.7472793
0
ARC
8
DEFAULT_255_1_234
10
22.8021626
20
47.2762018
40
0.3336173
50
324.9352394
51
328.6160465
0
ARC
8
DEFAULT_255_1_234
10
22.8398734
20
47.2498427
40
0.2876076
50
280.580143
51
324.9173126
0
ARC
8
DEFAULT_255_1_234
10
22.7997527
20
47.4169099
40
0.4592847
50
269.5977311
51
281.6734359
0
ARC
8
DEFAULT_255_1_234
10
22.7925433
20
47.4049173
40
0.4472986
50
256.6228859
51
270.51044
0
ARC
8
DEFAULT_255_1_234
10
22.752341
20
47.2500877
40
0.2873874
50
215.8618325
51
257.2788573
0
ARC
8
DEFAULT_255_1_234
10
22.8544442
20
47.3185977
40
0.4102928
50
197.9693508
51
215.2623606
0
ARC
8
DEFAULT_255_1_234
10
23.1029558
20
47.4024709
40
0.6725652
50
187.8816417
51
198.2346507
0
ARC
8
DEFAULT_255_1_234
10
23.4987766
20
47.4596079
40
1.0724845
50
180.8976217
51
188.0055519
0
ARC
8
DEFAULT_255_1_234
10
23.7787954
20
47.4699777
40
1.3526448
50
180.7449369
51
181.1510016
0
ARC
8
DEFAULT_255_1_234
10
23.6210683
20
47.6556042
40
1.1948131
50
173.7675579
51
180.231553
0
ARC
8
DEFAULT_255_1_234
10
23.169283
20
47.7066666
40
0.7401564
50
164.3058563
51
173.9002247
0
ARC
8
DEFAULT_255_1_234
10
22.8780899
20
47.7905656
40
0.4371288
50
148.7922025
51
164.568378
0
ARC
8
DEFAULT_255_1_234
10
22.7829351
20
47.8436929
40
0.3282386
50
144.5883898
51
148.1176286
0
ARC
8
DEFAULT_255_1_234
10
22.7486249
20
47.8676315
40
0.2864044
50
101.6440918
51
144.514236
0
ARC
8
DEFAULT_255_1_234
10
22.7911315
20
47.6987069
40
0.4604934
50
89.5284041
51
102.5819763
0
ARC
8
DEFAULT_255_1_234
10
22.7990403
20
47.6948018
40
0.464401
50
77.0437873
51
90.5081339
0
ARC
8
DEFAULT_255_1_234
10
22.8392405
20
47.8590615
40
0.2953195
50
48.2778575
51
77.4994676
0
ARC
8
DEFAULT_255_1_234
10
22.8465036
20
47.8719746
40
0.2808655
50
36.3142134
51
47.6305865
0
ARC
8
DEFAULT_255_1_234
10
22.7596343
20
47.8134515
40
0.3855453
50
18.2931786
51
35.6769206
0
ARC
8
DEFAULT_255_1_234
10
22.5053102
20
47.7261593
40
0.654423
50
8.024666
51
18.5605216
0
ARC
8
DEFAULT_255_1_234
10
22.0890022
20
47.6646792
40
1.0752407
50
1.1274072
51
8.1718305
0
ARC
8
DEFAULT_255_1_234
10
21.7654213
20
47.6519885
40
1.3990231
50
0.5424119
51
1.3863029
0
ARC
8
DEFAULT_255_1_234
10
21.947559
20
47.6792342
40
1.0682415
50
359.8090433
51
4.9407866
0
ARC
8
DEFAULT_255_1_234
10
22.3685604
20
47.7168113
40
0.6455691
50
4.8362157
51
12.2904523
0
ARC
8
DEFAULT_255_1_234
10
22.6440719
20
47.7781965
40
0.3633074
50
12.0805627
51
23.8173984
0
ARC
8
DEFAULT_255_1_234
10
22.7614425
20
47.8278919
40
0.2358723
50
24.2871213
51
31.3935614
0
ARC
8
DEFAULT_255_1_234
10
22.8139122
20
47.8622233
40
0.1732111
50
30.7407893
51
82.4657128
0
ARC
8
DEFAULT_255_1_234
10
22.7959256
20
47.7738691
40
0.263235
50
81.1060089
51
90.2184952
0
ARC
8
DEFAULT_255_1_234
10
22.7923555
20
47.7996924
40
0.2374236
50
89.3806855
51
105.6762551
0
ARC
8
DEFAULT_255_1_234
10
22.7740186
20
47.8663567
40
0.1682847
50
105.7981136
51
149.7388061
0
ARC
8
DEFAULT_255_1_234
10
22.8804264
20
47.802395
40
0.2924306
50
149.4208916
51
163.6286378
0
ARC
8
DEFAULT_255_1_234
10
23.0895152
20
47.738625
40
0.5110213
50
163.3763315
51
172.1410975
0
ARC
8
DEFAULT_255_1_234
10
23.4195871
20
47.6913518
40
0.8444586
50
172.0259487
51
178.0703232
0
ARC
8
DEFAULT_255_1_234
10
23.722596
20
47.6769906
40
1.1477868
50
177.8631668
51
179.5044149
0
ARC
8
DEFAULT_255_1_234
10
23.6153365
20
47.4455389
40
1.0404907
50
179.7995573
51
185.2460446
0
ARC
8
DEFAULT_255_1_234
10
23.2110404
20
47.4072513
40
0.6343885
50
185.1411642
51
193.0079639
0
ARC
8
DEFAULT_255_1_234
10
22.9466877
20
47.3447641
40
0.3627568
50
192.7897626
51
205.2507664
0
ARC
8
DEFAULT_255_1_234
10
22.8420424
20
47.2980415
40
0.2481908
50
205.8005384
51
211.2537509
0
ARC
8
DEFAULT_255_1_234
10
22.7896864
20
47.262958
40
0.1852521
50
210.3789793
51
238.4008143
0
ARC
8
DEFAULT_255_1_234
10
22.7877386
20
47.2676376
40
0.1882621
50
239.6520629
51
265.9793761
0
ARC
8
DEFAULT_255_1_234
10
22.7962586
20
47.3348427
40
0.2559272
50
265.1315437
51
270.060332
0
ARC
8
DEFAULT_255_1_234
10
22.7991365
20
47.3024534
40
0.2235528
50
269.3314664
51
287.2178029
0
ARC
8
DEFAULT_255_1_234
10
22.8129217
20
47.2521279
40
0.1714108
50
287.7958004
51
329.080874
0
ARC
8
DEFAULT_255_1_234
10
22.7171674
20
47.311893
40
0.2842745
50
328.6634704
51
343.3325132
0
ARC
8
DEFAULT_255_1_234
10
22.4998694
20
47.3795863
40
0.5118644
50
343.0499468
51
351.9393422
0
ARC
8
DEFAULT_255_1_234
10
22.1531994
20
47.4306949
40
0.8622784
50
351.8069023
51
357.7959224
0
ARC
8
DEFAULT_255_1_234
10
21.829655
20
47.4474721
40
1.1862365
50
357.5871873
51
359.2677531
0
LINE
8
DEFAULT_255_1_234
10
23.4479021
20
48.1431211
11
23.7804161
21
47.1785093
0
LINE
8
DEFAULT_255_1_234
10
23.7804161
20
47.1785093
11
24.1145364
21
48.1431211
0
LINE
8
DEFAULT_255_1_234
10
24.1145364
20
48.1431211
11
24.2832029
21
48.1431211
0
LINE
8
DEFAULT_255_1_234
10
24.2832029
20
48.1431211
11
23.849489
21
46.9737
0
LINE
8
DEFAULT_255_1_234
10
23.849489
20
46.9737
11
23.7129495
21
46.9737
0
LINE
8
DEFAULT_255_1_234
10
23.7129495
20
46.9737
11
23.2800388
21
48.1431211
0
LINE
8
DEFAULT_255_1_234
10
23.2800388
20
48.1431211
11
23.4479021
21
48.1431211
0
LINE
8
DEFAULT_255_1_234
10
21.5337458
20
53.4348211
11
21.8373456
21
52.847701
0
LINE
8
DEFAULT_255_1_234
10
21.8373456
20
52.847701
11
22.1425516
21
53.4348211
0
LINE
8
DEFAULT_255_1_234
10
22.1425516
20
53.4348211
11
22.3176435
21
53.4348211
0
LINE
8
DEFAULT_255_1_234
10
22.3176435
20
53.4348211
11
21.9144502
21
52.7015234
0
LINE
8
DEFAULT_255_1_234
10
21.9144502
20
52.7015234
11
21.9144502
21
52.2654
0
LINE
8
DEFAULT_255_1_234
10
21.9144502
20
52.2654
11
21.7602409
21
52.2654
0
LINE
8
DEFAULT_255_1_234
10
21.7602409
20
52.2654
11
21.7602409
21
52.7015234
0
LINE
8
DEFAULT_255_1_234
10
21.7602409
20
52.7015234
11
21.3570476
21
53.4348211
0
LINE
8
DEFAULT_255_1_234
10
21.3570476
20
53.4348211
11
21.5337458
21
53.4348211
0
LINE
8
DEFAULT_255_1_234
10
22.9184175
20
53.4404433
11
22.9184175
21
52.2654
0
LINE
8
DEFAULT_255_1_234
10
22.9184175
20
52.2654
11
22.7690272
21
52.2654
0
LINE
8
DEFAULT_255_1_234
10
22.7690272
20
52.2654
11
22.7690272
21
53.2557133
0
LINE
8
DEFAULT_255_1_234
10
22.7690272
20
53.2557133
11
22.4694434
21
53.1456785
0
LINE
8
DEFAULT_255_1_234
10
22.4694434
20
53.1456785
11
22.4694434
21
53.2806117
0
LINE
8
DEFAULT_255_1_234
10
22.4694434
20
53.2806117
11
22.8951255
21
53.4404433
0
LINE
8
DEFAULT_255_1_234
10
22.8951255
20
53.4404433
11
22.9184175
21
53.4404433
0
LINE
8
DEFAULT_255_1_234
10
24.1087211
20
53.4348211
11
24.1087211
21
53.351291
0
LINE
8
DEFAULT_255_1_234
10
24.1087211
20
53.351291
11
23.6244073
21
52.2654
0
LINE
8
DEFAULT_255_1_234
10
23.6244073
20
52.2654
11
23.4685916
21
52.2654
0
LINE
8
DEFAULT_255_1_234
10
23.4685916
20
52.2654
11
23.9512991
21
53.3127387
0
LINE
8
DEFAULT_255_1_234
10
23.9512991
20
53.3127387
11
23.3183981
21
53.3127387
0
LINE
8
DEFAULT_255_1_234
10
23.3183981
20
53.3127387
11
23.3183981
21
53.4348211
0
LINE
8
DEFAULT_255_1_234
10
23.3183981
20
53.4348211
11
24.1087211
21
53.4348211
0
LINE
8
DEFAULT_255_1_234
10
21.5337458
20
58.7265211
11
21.8373456
21
58.139401
0
LINE
8
DEFAULT_255_1_234
10
21.8373456
20
58.139401
11
22.1425516
21
58.7265211
0
LINE
8
DEFAULT_255_1_234
10
22.1425516
20
58.7265211
11
22.3176435
21
58.7265211
0
LINE
8
DEFAULT_255_1_234
10
22.3176435
20
58.7265211
11
21.9144502
21
57.9932234
0
LINE
8
DEFAULT_255_1_234
10
21.9144502
20
57.9932234
11
21.9144502
21
57.5571
0
LINE
8
DEFAULT_255_1_234
10
21.9144502
20
57.5571
11
21.7602409
21
57.5571
0
LINE
8
DEFAULT_255_1_234
10
21.7602409
20
57.5571
11
21.7602409
21
57.9932234
0
LINE
8
DEFAULT_255_1_234
10
21.7602409
20
57.9932234
11
21.3570476
21
58.7265211
0
LINE
8
DEFAULT_255_1_234
10
21.3570476
20
58.7265211
11
21.5337458
21
58.7265211
0
LINE
8
DEFAULT_255_1_234
10
22.9184175
20
58.7321433
11
22.9184175
21
57.5571
0
LINE
8
DEFAULT_255_1_234
10
22.9184175
20
57.5571
11
22.7690272
21
57.5571
0
LINE
8
DEFAULT_255_1_234
10
22.7690272
20
57.5571
11
22.7690272
21
58.5474133
0
LINE
8
DEFAULT_255_1_234
10
22.7690272
20
58.5474133
11
22.4694434
21
58.4373785
0
LINE
8
DEFAULT_255_1_234
10
22.4694434
20
58.4373785
11
22.4694434
21
58.5723117
0
LINE
8
DEFAULT_255_1_234
10
22.4694434
20
58.5723117
11
22.8951255
21
58.7321433
0
LINE
8
DEFAULT_255_1_234
10
22.8951255
20
58.7321433
11
22.9184175
21
58.7321433
0
LINE
8
DEFAULT_255_1_234
10
23.9103372
20
58.7273243
11
23.9368419
21
58.7273243
0
LINE
8
DEFAULT_255_1_234
10
23.9368419
20
58.7273243
11
23.9368419
21
58.601226
0
LINE
8
DEFAULT_255_1_234
10
23.9368419
20
58.601226
11
23.909534
21
58.601226
0
LINE
8
DEFAULT_255_1_234
10
23.3625727
20
58.0020583
11
23.3625727
21
58.0590836
0
LINE
8
DEFAULT_255_1_234
10
23.511963
20
58.0398075
11
23.511963
21
57.9851917
0
ARC
8
DEFAULT_255_1_234
10
23.9147688
20
58.1014455
40
0.4998079
50
90.6001036
51
104.514704
0
ARC
8
DEFAULT_255_1_234
10
23.8759204
20
58.2459131
40
0.3502176
50
104.2855254
51
133.862935
0
ARC
8
DEFAULT_255_1_234
10
23.8922961
20
58.235083
40
0.3693984
50
134.5302688
51
161.6210873
0
ARC
8
DEFAULT_255_1_234
10
24.057615
20
58.1767895
40
0.5446739
50
161.2849839
51
174.2076652
0
ARC
8
DEFAULT_255_1_234
10
24.1983087
20
58.1573787
40
0.6866274
50
173.7810589
51
174.9254635
0
ARC
8
DEFAULT_255_1_234
10
23.7432919
20
58.0190839
40
0.3033419
50
95.8330959
51
138.9954921
0
ARC
8
DEFAULT_255_1_234
10
23.7656275
20
57.8912375
40
0.4328947
50
89.8753725
51
97.0544009
0
ARC
8
DEFAULT_255_1_234
10
23.7703741
20
57.9747748
40
0.3493769
50
71.6407809
51
90.6240094
0
ARC
8
DEFAULT_255_1_234
10
23.7854314
20
58.0302082
40
0.2920396
50
39.6367836
51
71.019018
0
ARC
8
DEFAULT_255_1_234
10
23.7217787
20
57.9751998
40
0.3761538
50
10.658731
51
39.9043955
0
ARC
8
DEFAULT_255_1_234
10
23.566987
20
57.9415686
40
0.5345136
50
359.682601
51
11.132623
0
ARC
8
DEFAULT_255_1_234
10
23.5630001
20
57.934501
40
0.5385081
50
347.2486944
51
0.4369317
0
ARC
8
DEFAULT_255_1_234
10
23.7297478
20
57.8943807
40
0.3670249
50
318.1409698
51
347.6118597
0
ARC
8
DEFAULT_255_1_234
10
23.7622471
20
57.8676702
40
0.3250007
50
275.6342139
51
317.8248465
0
ARC
8
DEFAULT_255_1_234
10
23.7401583
20
57.9976219
40
0.4565864
50
269.8874292
51
276.7917694
0
ARC
8
DEFAULT_255_1_234
10
23.7346653
20
57.8950743
40
0.3540676
50
246.9140195
51
270.7437342
0
ARC
8
DEFAULT_255_1_234
10
23.7353043
20
57.8808384
40
0.3412781
50
218.1665114
51
245.878116
0
ARC
8
DEFAULT_255_1_234
10
23.8232504
20
57.9544279
40
0.455911
50
191.4115814
51
218.6077802
0
ARC
8
DEFAULT_255_1_234
10
24.0170593
20
57.9978833
40
0.6545001
50
179.6345085
51
191.7836486
0
ARC
8
DEFAULT_255_1_234
10
24.575293
20
58.0657697
40
1.2127388
50
171.4525249
51
180.3158839
0
ARC
8
DEFAULT_255_1_234
10
24.1357806
20
58.1341608
40
0.7679464
50
157.9802646
51
171.6246686
0
ARC
8
DEFAULT_255_1_234
10
23.9143827
20
58.2224421
40
0.5296008
50
141.4298019
51
157.854097
0
ARC
8
DEFAULT_255_1_234
10
23.8502148
20
58.2678381
40
0.4511509
50
102.8715806
51
140.8564722
0
ARC
8
DEFAULT_255_1_234
10
23.9149763
20
58.0238552
40
0.7034845
50
90.3778349
51
103.5869322
0
ARC
8
DEFAULT_255_1_234
10
23.7411539
20
57.963373
40
0.2370698
50
89.8751008
51
126.2071704
0
ARC
8
DEFAULT_255_1_234
10
23.7457329
20
57.9479303
40
0.2522934
50
124.9745049
51
144.895901
0
ARC
8
DEFAULT_255_1_234
10
23.728152
20
57.962256
40
0.2296779
50
145.2974905
51
160.2660252
0
ARC
8
DEFAULT_255_1_234
10
24.0354058
20
57.9820071
40
0.5234525
50
179.6514266
51
190.2855912
0
ARC
8
DEFAULT_255_1_234
10
23.8660196
20
57.9500786
40
0.3510893
50
190.0945431
51
207.5098196
0
ARC
8
DEFAULT_255_1_234
10
23.8094465
20
57.9231623
40
0.288489
50
207.9583163
51
216.3251085
0
ARC
8
DEFAULT_255_1_234
10
23.7754573
20
57.8952105
40
0.2445587
50
215.7661442
51
232.5456785
0
ARC
8
DEFAULT_255_1_234
10
23.7371556
20
57.8465482
40
0.1826382
50
232.8005391
51
270.6605633
0
ARC
8
DEFAULT_255_1_234
10
23.7417257
20
57.8829612
40
0.2190529
50
269.35537
51
288.4744281
0
ARC
8
DEFAULT_255_1_234
10
23.7510154
20
57.8480118
40
0.1829749
50
289.1833337
51
322.9683818
0
ARC
8
DEFAULT_255_1_234
10
23.6898676
20
57.8962391
40
0.2608399
50
322.6007884
51
346.5182367
0
ARC
8
DEFAULT_255_1_234
10
23.5741272
20
57.9257616
40
0.3802777
50
346.2582162
51
358.7741648
0
ARC
8
DEFAULT_255_1_234
10
23.4722941
20
57.9312965
40
0.4822176
50
358.3755224
51
0.0098023
0
ARC
8
DEFAULT_255_1_234
10
23.5479128
20
57.9340657
40
0.4066078
50
359.6214041
51
11.2839074
0
ARC
8
DEFAULT_255_1_234
10
23.6756275
20
57.9607066
40
0.2761514
50
11.0482309
51
31.8146458
0
ARC
8
DEFAULT_255_1_234
10
23.7065318
20
57.9774584
40
0.2410679
50
32.3035391
51
38.082671
0
ARC
8
DEFAULT_255_1_234
10
23.7485978
20
58.0155662
40
0.1844966
50
36.825067
51
85.7415724
0
ARC
8
DEFAULT_255_1_234
10
23.7418811
20
57.9655301
40
0.2349122
50
85.0140713
51
90.0513278
0
LINE
8
DEFAULT_255_1_234
10
21.5337458
20
64.0181211
11
21.8373456
21
63.431001
0
LINE
8
DEFAULT_255_1_234
10
21.8373456
20
63.431001
11
22.1425516
21
64.0181211
0
LINE
8
DEFAULT_255_1_234
10
22.1425516
20
64.0181211
11
22.3176435
21
64.0181211
0
LINE
8
DEFAULT_255_1_234
10
22.3176435
20
64.0181211
11
21.9144502
21
63.2848234
0
LINE
8
DEFAULT_255_1_234
10
21.9144502
20
63.2848234
11
21.9144502
21
62.8487
0
LINE
8
DEFAULT_255_1_234
10
21.9144502
20
62.8487
11
21.7602409
21
62.8487
0
LINE
8
DEFAULT_255_1_234
10
21.7602409
20
62.8487
11
21.7602409
21
63.2848234
0
LINE
8
DEFAULT_255_1_234
10
21.7602409
20
63.2848234
11
21.3570476
21
64.0181211
0
LINE
8
DEFAULT_255_1_234
10
21.3570476
20
64.0181211
11
21.5337458
21
64.0181211
0
LINE
8
DEFAULT_255_1_234
10
22.9184175
20
64.0237433
11
22.9184175
21
62.8487
0
LINE
8
DEFAULT_255_1_234
10
22.9184175
20
62.8487
11
22.7690272
21
62.8487
0
LINE
8
DEFAULT_255_1_234
10
22.7690272
20
62.8487
11
22.7690272
21
63.8390133
0
LINE
8
DEFAULT_255_1_234
10
22.7690272
20
63.8390133
11
22.4694434
21
63.7289785
0
LINE
8
DEFAULT_255_1_234
10
22.4694434
20
63.7289785
11
22.4694434
21
63.8639117
0
LINE
8
DEFAULT_255_1_234
10
22.4694434
20
63.8639117
11
22.8951255
21
64.0237433
0
LINE
8
DEFAULT_255_1_234
10
22.8951255
20
64.0237433
11
22.9184175
21
64.0237433
0
LINE
8
DEFAULT_255_1_234
10
23.5408772
20
63.4044963
11
23.4220075
21
63.4350169
0
LINE
8
DEFAULT_255_1_234
10
23.4220075
20
63.4350169
11
23.4814424
21
64.0181211
0
LINE
8
DEFAULT_255_1_234
10
23.4814424
20
64.0181211
11
24.0806101
21
64.0181211
0
LINE
8
DEFAULT_255_1_234
10
24.0806101
20
64.0181211
11
24.0806101
21
63.8807784
0
LINE
8
DEFAULT_255_1_234
10
24.0806101
20
63.8807784
11
23.6075407
21
63.8807784
0
LINE
8
DEFAULT_255_1_234
10
23.6075407
20
63.8807784
11
23.572201
21
63.5619184
0
LINE
8
DEFAULT_255_1_234
10
23.3802425
20
63.1563156
11
23.5207979
21
63.1563156
0
LINE
8
DEFAULT_255_1_234
10
23.5802328
20
63.4366232
11
23.5408772
21
63.4044963
0
ARC
8
DEFAULT_255_1_234
10
23.7576794
20
63.243923
40
0.3681349
50
93.7182161
51
120.2538958
0
ARC
8
DEFAULT_255_1_234
10
23.7671057
20
63.1631394
40
0.449379
50
89.9660152
51
94.2496022
0
ARC
8
DEFAULT_255_1_234
10
23.7711791
20
63.2220549
40
0.390482
50
73.8043271
51
90.5585896
0
ARC
8
DEFAULT_255_1_234
10
23.7946688
20
63.3078602
40
0.3015334
50
41.3071453
51
73.5430202
0
ARC
8
DEFAULT_255_1_234
10
23.7530515
20
63.2720324
40
0.3564457
50
13.5075983
51
41.2174222
0
ARC
8
DEFAULT_255_1_234
10
23.5888719
20
63.2290486
40
0.5261351
50
1.1331335
51
13.8829381
0
ARC
8
DEFAULT_255_1_234
10
23.4477088
20
63.2214665
40
0.6674378
50
359.9919444
51
1.544251
0
ARC
8
DEFAULT_255_1_234
10
23.5753914
20
63.217328
40
0.5397702
50
347.8572367
51
0.4293338
0
ARC
8
DEFAULT_255_1_234
10
23.7504232
20
63.1776736
40
0.3603188
50
323.673004
51
348.1672506
0
ARC
8
DEFAULT_255_1_234
10
23.779874
20
63.1597168
40
0.3259678
50
316.8171152
51
323.1492751
0
ARC
8
DEFAULT_255_1_234
10
23.7859929
20
63.156046
40
0.3189975
50
281.8396411
51
316.5457803
0
ARC
8
DEFAULT_255_1_234
10
23.7484193
20
63.3115762
40
0.4789527
50
269.5770101
51
282.4214771
0
ARC
8
DEFAULT_255_1_234
10
23.7413004
20
63.2902125
40
0.45759
50
256.2427136
51
270.4486331
0
ARC
8
DEFAULT_255_1_234
10
23.7113907
20
63.1702229
40
0.3339303
50
228.9023911
51
256.3314342
0
ARC
8
DEFAULT_255_1_234
10
23.7040139
20
63.1585746
40
0.32031
50
193.753695
51
228.5271154
0
ARC
8
DEFAULT_255_1_234
10
23.8278093
20
63.19488
40
0.4492253
50
184.924711
51
194.497588
0
ARC
8
DEFAULT_255_1_234
10
23.847066
20
63.1984591
40
0.3289787
50
187.3600538
51
198.6732863
0
ARC
8
DEFAULT_255_1_234
10
23.7420954
20
63.1620674
40
0.217884
50
198.4451669
51
217.794479
0
ARC
8
DEFAULT_255_1_234
10
23.7125129
20
63.1411085
40
0.1816698
50
218.2887171
51
228.5612368
0
ARC
8
DEFAULT_255_1_234
10
23.7222916
20
63.1542963
40
0.1980329
50
228.9654866
51
258.1234728
0
ARC
8
DEFAULT_255_1_234
10
23.7428626
20
63.2423833
40
0.2884748
50
257.7258293
51
270.401361
0
ARC
8
DEFAULT_255_1_234
10
23.7473513
20
63.1978821
40
0.2439788
50
269.4204404
51
286.4209037
0
ARC
8
DEFAULT_255_1_234
10
23.7622
20
63.1439657
40
0.1880666
50
286.7251356
51
320.600362
0
ARC
8
DEFAULT_255_1_234
10
23.7238825
20
63.1750595
40
0.2374121
50
320.6712579
51
344.5441685
0
ARC
8
DEFAULT_255_1_234
10
23.6082151
20
63.2090045
40
0.3579479
50
344.2412205
51
356.7357071
0
ARC
8
DEFAULT_255_1_234
10
23.48333
20
63.2193444
40
0.4832297
50
356.3548756
51
0.0500261
0
ARC
8
DEFAULT_255_1_234
10
23.6169809
20
63.222465
40
0.3495889
50
359.5576869
51
12.953486
0
ARC
8
DEFAULT_255_1_234
10
23.7224706
20
63.2480434
40
0.2410532
50
12.6490276
51
41.6081334
0
ARC
8
DEFAULT_255_1_234
10
23.7455077
20
63.2676321
40
0.2108218
50
41.7850273
51
85.9892764
0
ARC
8
DEFAULT_255_1_234
10
23.7331814
20
63.1863462
40
0.2928454
50
84.6957577
51
90.0676183
0
ARC
8
DEFAULT_255_1_234
10
23.7308298
20
63.1194716
40
0.3597255
50
89.6804936
51
99.1614436
0
ARC
8
DEFAULT_255_1_234
10
23.7102929
20
63.2422131
40
0.235281
50
98.9830931
51
113.8908934
0
ARC
8
DEFAULT_255_1_234
10
23.6873339
20
63.2963587
40
0.176479
50
114.1950727
51
127.3641004
0
LINE
8
DEFAULT_255_1_234
10
21.4279458
20
69.3098211
11
21.7315456
21
68.722701
0
LINE
8
DEFAULT_255_1_234
10
21.7315456
20
68.722701
11
22.0367516
21
69.3098211
0
LINE
8
DEFAULT_255_1_234
10
22.0367516
20
69.3098211
11
22.2118435
21
69.3098211
0
LINE
8
DEFAULT_255_1_234
10
22.2118435
20
69.3098211
11
21.8086502
21
68.5765234
0
LINE
8
DEFAULT_255_1_234
10
21.8086502
20
68.5765234
11
21.8086502
21
68.1404
0
LINE
8
DEFAULT_255_1_234
10
21.8086502
20
68.1404
11
21.6544409
21
68.1404
0
LINE
8
DEFAULT_255_1_234
10
21.6544409
20
68.1404
11
21.6544409
21
68.5765234
0
LINE
8
DEFAULT_255_1_234
10
21.6544409
20
68.5765234
11
21.2512476
21
69.3098211
0
LINE
8
DEFAULT_255_1_234
10
21.2512476
20
69.3098211
11
21.4279458
21
69.3098211
0
LINE
8
DEFAULT_255_1_234
10
22.8126175
20
69.3154433
11
22.8126175
21
68.1404
0
LINE
8
DEFAULT_255_1_234
10
22.8126175
20
68.1404
11
22.6632272
21
68.1404
0
LINE
8
DEFAULT_255_1_234
10
22.6632272
20
68.1404
11
22.6632272
21
69.1307133
0
LINE
8
DEFAULT_255_1_234
10
22.6632272
20
69.1307133
11
22.3636434
21
69.0206785
0
LINE
8
DEFAULT_255_1_234
10
22.3636434
20
69.0206785
11
22.3636434
21
69.1556117
0
LINE
8
DEFAULT_255_1_234
10
22.3636434
20
69.1556117
11
22.7893255
21
69.3154433
0
LINE
8
DEFAULT_255_1_234
10
22.7893255
20
69.3154433
11
22.8126175
21
69.3154433
0
LINE
8
DEFAULT_255_1_234
10
23.8752165
20
69.3098211
11
23.8752165
21
68.533152
0
LINE
8
DEFAULT_255_1_234
10
23.8752165
20
68.533152
11
24.0374576
21
68.533152
0
LINE
8
DEFAULT_255_1_234
10
24.0374576
20
68.533152
11
24.0374576
21
68.4118728
0
LINE
8
DEFAULT_255_1_234
10
24.0374576
20
68.4118728
11
23.8752165
21
68.4118728
0
LINE
8
DEFAULT_255_1_234
10
23.8752165
20
68.4118728
11
23.8752165
21
68.1404
0
LINE
8
DEFAULT_255_1_234
10
23.8752165
20
68.1404
11
23.7258262
21
68.1404
0
LINE
8
DEFAULT_255_1_234
10
23.7258262
20
68.1404
11
23.7258262
21
68.4118728
0
LINE
8
DEFAULT_255_1_234
10
23.7258262
20
68.4118728
11
23.1933219
21
68.4118728
0
LINE
8
DEFAULT_255_1_234
10
23.1933219
20
68.4118728
11
23.1933219
21
68.4994187
0
LINE
8
DEFAULT_255_1_234
10
23.1933219
20
68.4994187
11
23.7169913
21
69.3098211
0
LINE
8
DEFAULT_255_1_234
10
23.7169913
20
69.3098211
11
23.8752165
21
69.3098211
0
LINE
8
DEFAULT_255_1_234
10
23.7081563
20
69.0744912
11
23.3619884
21
68.533152
0
LINE
8
DEFAULT_255_1_234
10
23.3619884
20
68.533152
11
23.7258262
21
68.533152
0
LINE
8
DEFAULT_255_1_234
10
23.7258262
20
68.533152
11
23.7258262
21
69.1066181
0
LINE
8
DEFAULT_255_1_234
10
23.7258262
20
69.1066181
11
23.7081563
21
69.0744912
0
LINE
8
DEFAULT_255_1_234
10
21.5337458
20
74.6015211
11
21.8373456
21
74.014401
0
LINE
8
DEFAULT_255_1_234
10
21.8373456
20
74.014401
11
22.1425516
21
74.6015211
0
LINE
8
DEFAULT_255_1_234
10
22.1425516
20
74.6015211
11
22.3176435
21
74.6015211
0
LINE
8
DEFAULT_255_1_234
10
22.3176435
20
74.6015211
11
21.9144502
21
73.8682234
0
LINE
8
DEFAULT_255_1_234
10
21.9144502
20
73.8682234
11
21.9144502
21
73.4321
0
LINE
8
DEFAULT_255_1_234
10
21.9144502
20
73.4321
11
21.7602409
21
73.4321
0
LINE
8
DEFAULT_255_1_234
10
21.7602409
20
73.4321
11
21.7602409
21
73.8682234
0
LINE
8
DEFAULT_255_1_234
10
21.7602409
20
73.8682234
11
21.3570476
21
74.6015211
0
LINE
8
DEFAULT_255_1_234
10
21.3570476
20
74.6015211
11
21.5337458
21
74.6015211
0
LINE
8
DEFAULT_255_1_234
10
22.9184175
20
74.6071433
11
22.9184175
21
73.4321
0
LINE
8
DEFAULT_255_1_234
10
22.9184175
20
73.4321
11
22.7690272
21
73.4321
0
LINE
8
DEFAULT_255_1_234
10
22.7690272
20
73.4321
11
22.7690272
21
74.4224133
0
LINE
8
DEFAULT_255_1_234
10
22.7690272
20
74.4224133
11
22.4694434
21
74.3123785
0
LINE
8
DEFAULT_255_1_234
10
22.4694434
20
74.3123785
11
22.4694434
21
74.4473117
0
LINE
8
DEFAULT_255_1_234
10
22.4694434
20
74.4473117
11
22.8951255
21
74.6071433
0
LINE
8
DEFAULT_255_1_234
10
22.8951255
20
74.6071433
11
22.9184175
21
74.6071433
0
LINE
8
DEFAULT_255_1_234
10
23.5697915
20
73.9678169
11
23.5697915
21
74.0890962
0
LINE
8
DEFAULT_255_1_234
10
23.5697915
20
74.0890962
11
23.6814327
21
74.0890962
0
LINE
8
DEFAULT_255_1_234
10
23.4910805
20
74.2947087
11
23.3424933
21
74.2947087
0
LINE
8
DEFAULT_255_1_234
10
23.3320521
20
73.7405187
11
23.4814424
21
73.7405187
0
LINE
8
DEFAULT_255_1_234
10
23.6814327
20
73.9678169
11
23.5697915
21
73.9678169
0
ARC
8
DEFAULT_255_1_234
10
23.6785193
20
74.4283713
40
0.3392876
50
270.4919872
51
281.8951556
0
ARC
8
DEFAULT_255_1_234
10
23.7026455
20
74.3181702
40
0.2264817
50
281.6691735
51
301.2943132
0
ARC
8
DEFAULT_255_1_234
10
23.7196665
20
74.2870304
40
0.1910381
50
301.7833094
51
311.7545298
0
ARC
8
DEFAULT_255_1_234
10
23.7288241
20
74.2768748
40
0.1773635
50
311.7323931
51
354.2802411
0
ARC
8
DEFAULT_255_1_234
10
23.6561866
20
74.2893722
40
0.2509385
50
353.0937916
51
0.1181479
0
ARC
8
DEFAULT_255_1_234
10
23.6100651
20
74.2941386
40
0.2970898
50
359.1805295
51
15.0453146
0
ARC
8
DEFAULT_255_1_234
10
23.7446488
20
74.3333992
40
0.1569564
50
13.9577229
51
77.6713066
0
ARC
8
DEFAULT_255_1_234
10
23.7060017
20
74.1948949
40
0.3006298
50
76.1116566
51
90.7026153
0
ARC
8
DEFAULT_255_1_234
10
23.7000855
20
74.2222545
40
0.2732568
50
89.5324876
51
103.531937
0
ARC
8
DEFAULT_255_1_234
10
23.68003
20
74.3021884
40
0.1908508
50
103.2931773
51
133.5619022
0
ARC
8
DEFAULT_255_1_234
10
23.6755788
20
74.3081375
40
0.1834746
50
133.8349307
51
173.5344437
0
ARC
8
DEFAULT_255_1_234
10
23.7478831
20
74.2953213
40
0.2568033
50
172.5096846
51
180.1366907
0
ARC
8
DEFAULT_255_1_234
10
23.6527725
20
74.2987622
40
0.3103056
50
155.3484492
51
180.7484736
0
ARC
8
DEFAULT_255_1_234
10
23.6478814
20
74.2958846
40
0.3070957
50
131.5744599
51
154.4798489
0
ARC
8
DEFAULT_255_1_234
10
23.6791961
20
74.264231
40
0.3515643
50
96.9875458
51
131.9690667
0
ARC
8
DEFAULT_255_1_234
10
23.7011441
20
74.1396636
40
0.4779224
50
89.8596053
51
97.7825159
0
ARC
8
DEFAULT_255_1_234
10
23.7059504
20
74.1134616
40
0.5041361
50
78.3655447
51
90.4131539
0
ARC
8
DEFAULT_255_1_234
10
23.7417422
20
74.2793887
40
0.3344039
50
56.6229102
51
78.638727
0
ARC
8
DEFAULT_255_1_234
10
23.7632366
20
74.3169805
40
0.2912001
50
47.0253525
51
56.0854072
0
ARC
8
DEFAULT_255_1_234
10
23.7652146
20
74.3209223
40
0.2869704
50
10.9208013
51
46.7778124
0
ARC
8
DEFAULT_255_1_234
10
23.6288212
20
74.2893857
40
0.426899
50
359.6364486
51
11.6087304
0
ARC
8
DEFAULT_255_1_234
10
23.8123057
20
74.2878752
40
0.243409
50
332.3549906
51
359.7179418
0
ARC
8
DEFAULT_255_1_234
10
23.7472658
20
74.3187142
40
0.3153459
50
325.2333722
51
332.8745602
0
ARC
8
DEFAULT_255_1_234
10
23.7625282
20
74.3080828
40
0.2967456
50
292.9802137
51
325.2392345
0
ARC
8
DEFAULT_255_1_234
10
23.7350656
20
74.3614863
40
0.3566604
50
292.5402179
51
293.6924929
0
ARC
8
DEFAULT_255_1_234
10
23.7743251
20
73.7160091
40
0.3307468
50
57.6435486
51
72.8625112
0
ARC
8
DEFAULT_255_1_234
10
23.8097751
20
73.7734549
40
0.2632492
50
36.7248896
51
57.4697979
0
ARC
8
DEFAULT_255_1_234
10
23.8086384
20
73.774722
40
0.2634081
50
8.0545065
51
36.356114
0
ARC
8
DEFAULT_255_1_234
10
23.7223569
20
73.7592174
40
0.3510261
50
359.8320645
51
8.5869982
0
ARC
8
DEFAULT_255_1_234
10
23.6848345
20
73.7544101
40
0.3885653
50
343.9829931
51
0.5571613
0
ARC
8
DEFAULT_255_1_234
10
23.7734542
20
73.7301438
40
0.2966924
50
311.6359546
51
343.7651759
0
ARC
8
DEFAULT_255_1_234
10
23.7356112
20
73.7728102
40
0.3537231
50
279.7829875
51
311.6255694
0
ARC
8
DEFAULT_255_1_234
10
23.7054888
20
73.916528
40
0.5004971
50
269.7286406
51
280.3856417
0
ARC
8
DEFAULT_255_1_234
10
23.699296
20
73.9123996
40
0.4963778
50
256.6828919
51
270.4412052
0
ARC
8
DEFAULT_255_1_234
10
23.6654256
20
73.7739394
40
0.3538406
50
229.4223008
51
256.8556159
0
ARC
8
DEFAULT_255_1_234
10
23.6239649
20
73.7272736
40
0.2914296
50
181.818294
51
229.6455059
0
ARC
8
DEFAULT_255_1_234
10
23.7279605
20
73.7403496
40
0.3959084
50
179.9755256
51
183.2323064
0
ARC
8
DEFAULT_255_1_234
10
23.7107351
20
73.7383037
40
0.2293034
50
179.4465117
51
196.2869258
0
ARC
8
DEFAULT_255_1_234
10
23.6619759
20
73.7249651
40
0.1787621
50
196.5661473
51
227.705904
0
ARC
8
DEFAULT_255_1_234
10
23.6783854
20
73.7433155
40
0.2033784
50
227.7652068
51
257.8762805
0
ARC
8
DEFAULT_255_1_234
10
23.7008824
20
73.8376156
40
0.3003081
50
257.4584385
51
270.426602
0
ARC
8
DEFAULT_255_1_234
10
23.705439
20
73.8665996
40
0.329292
50
269.5962073
51
280.8789248
0
ARC
8
DEFAULT_255_1_234
10
23.7283919
20
73.7519685
40
0.2123908
50
280.6346389
51
299.8595945
0
ARC
8
DEFAULT_255_1_234
10
23.7474826
20
73.7157212
40
0.171457
50
300.3576302
51
314.5517981
0
ARC
8
DEFAULT_255_1_234
10
23.7391886
20
73.7217919
40
0.1816095
50
315.0728369
51
345.0431014
0
ARC
8
DEFAULT_255_1_234
10
23.64687
20
73.7486841
40
0.2777492
50
344.5986631
51
357.9269593
0
ARC
8
DEFAULT_255_1_234
10
23.5573027
20
73.7548276
40
0.3674917
50
357.4748886
51
0.0231117
0
ARC
8
DEFAULT_255_1_234
10
23.6596136
20
73.7572679
40
0.2651907
50
359.5047933
51
13.4239635
0
ARC
8
DEFAULT_255_1_234
10
23.746278
20
73.7794478
40
0.1757509
50
12.9498199
51
48.7551375
0
ARC
8
DEFAULT_255_1_234
10
23.7280513
20
73.75454
40
0.2065134
50
49.5088623
51
72.1836453
0
ARC
8
DEFAULT_255_1_234
10
23.6922666
20
73.6483291
40
0.3185836
50
71.9010081
51
84.3554254
0
ARC
8
DEFAULT_255_1_234
10
23.6761298
20
73.5122326
40
0.4556151
50
84.0193428
51
89.333121
0
LINE
8
DEFAULT_255_1_234
10
21.5337458
20
79.8931211
11
21.8373456
21
79.306001
0
LINE
8
DEFAULT_255_1_234
10
21.8373456
20
79.306001
11
22.1425516
21
79.8931211
0
LINE
8
DEFAULT_255_1_234
10
22.1425516
20
79.8931211
11
22.3176435
21
79.8931211
0
LINE
8
DEFAULT_255_1_234
10
22.3176435
20
79.8931211
11
21.9144502
21
79.1598234
0
LINE
8
DEFAULT_255_1_234
10
21.9144502
20
79.1598234
11
21.9144502
21
78.7237
0
LINE
8
DEFAULT_255_1_234
10
21.9144502
20
78.7237
11
21.7602409
21
78.7237
0
LINE
8
DEFAULT_255_1_234
10
21.7602409
20
78.7237
11
21.7602409
21
79.1598234
0
LINE
8
DEFAULT_255_1_234
10
21.7602409
20
79.1598234
11
21.3570476
21
79.8931211
0
LINE
8
DEFAULT_255_1_234
10
21.3570476
20
79.8931211
11
21.5337458
21
79.8931211
0
LINE
8
DEFAULT_255_1_234
10
22.9184175
20
79.8987433
11
22.9184175
21
78.7237
0
LINE
8
DEFAULT_255_1_234
10
22.9184175
20
78.7237
11
22.7690272
21
78.7237
0
LINE
8
DEFAULT_255_1_234
10
22.7690272
20
78.7237
11
22.7690272
21
79.7140133
0
LINE
8
DEFAULT_255_1_234
10
22.7690272
20
79.7140133
11
22.4694434
21
79.6039785
0
LINE
8
DEFAULT_255_1_234
10
22.4694434
20
79.6039785
11
22.4694434
21
79.7389117
0
LINE
8
DEFAULT_255_1_234
10
22.4694434
20
79.7389117
11
22.8951255
21
79.8987433
0
LINE
8
DEFAULT_255_1_234
10
22.8951255
20
79.8987433
11
22.9184175
21
79.8987433
0
LINE
8
DEFAULT_255_1_234
10
24.1199656
20
78.8449792
11
24.1199656
21
78.7237
0
LINE
8
DEFAULT_255_1_234
10
24.1199656
20
78.7237
11
23.3537377
21
78.7237
0
LINE
8
DEFAULT_255_1_234
10
23.3537377
20
78.7237
11
23.3537377
21
78.8305221
0
LINE
8
DEFAULT_255_1_234
10
23.3537377
20
78.8305221
11
23.7585374
21
79.2802995
0
LINE
8
DEFAULT_255_1_234
10
23.479836
20
79.5485595
11
23.3312489
21
79.5485595
0
LINE
8
DEFAULT_255_1_234
10
23.8460833
20
79.1847218
11
23.5328455
21
78.8449792
0
LINE
8
DEFAULT_255_1_234
10
23.5328455
20
78.8449792
11
24.1199656
21
78.8449792
0
ARC
8
DEFAULT_255_1_234
10
22.4095207
20
80.4732527
40
1.8008286
50
318.5132453
51
320.7828378
0
ARC
8
DEFAULT_255_1_234
10
22.9382181
20
80.0429426
40
1.1191493
50
320.7372736
51
323.9737074
0
ARC
8
DEFAULT_255_1_234
10
23.3302038
20
79.7589361
40
0.6350923
50
323.8961724
51
328.6421089
0
ARC
8
DEFAULT_255_1_234
10
23.5348633
20
79.6327031
40
0.3946393
50
328.8299013
51
331.789948
0
ARC
8
DEFAULT_255_1_234
10
23.6345812
20
79.5812509
40
0.2824501
50
331.4255242
51
352.9364833
0
ARC
8
DEFAULT_255_1_234
10
23.6482312
20
79.5781976
40
0.2685315
50
353.2248685
51
0.0169286
0
ARC
8
DEFAULT_255_1_234
10
23.6692189
20
79.580495
40
0.2475536
50
359.4866256
51
15.9339782
0
ARC
8
DEFAULT_255_1_234
10
23.7199174
20
79.5941286
40
0.1950618
50
16.1714718
51
43.5284424
0
ARC
8
DEFAULT_255_1_234
10
23.7276483
20
79.6018573
40
0.184134
50
43.4415429
51
83.1661404
0
ARC
8
DEFAULT_255_1_234
10
23.7142401
20
79.5281771
40
0.258926
50
82.160215
51
90.1505798
0
ARC
8
DEFAULT_255_1_234
10
23.7110828
20
79.4744865
40
0.3126255
50
89.5460705
51
102.5418777
0
ARC
8
DEFAULT_255_1_234
10
23.6867915
20
79.5775665
40
0.2067346
50
102.1739365
51
129.2061916
0
ARC
8
DEFAULT_255_1_234
10
23.6788986
20
79.5900094
40
0.1921118
50
129.7279328
51
135.7542026
0
ARC
8
DEFAULT_255_1_234
10
23.6910514
20
79.5803045
40
0.2075944
50
136.175737
51
166.3674722
0
ARC
8
DEFAULT_255_1_234
10
23.7917433
20
79.5533182
40
0.3118201
50
165.9092917
51
178.8683903
0
ARC
8
DEFAULT_255_1_234
10
23.8782295
20
79.5486179
40
0.3983935
50
178.438168
51
180.0083905
0
ARC
8
DEFAULT_255_1_234
10
23.7380897
20
79.5525231
40
0.4068601
50
163.2878735
51
180.5581814
0
ARC
8
DEFAULT_255_1_234
10
23.6579158
20
79.574584
40
0.3237344
50
133.454115
51
162.9470031
0
ARC
8
DEFAULT_255_1_234
10
23.6757699
20
79.5556
40
0.349795
50
100.7869394
51
133.4384016
0
ARC
8
DEFAULT_255_1_234
10
23.7105471
20
79.4007319
40
0.5084616
50
89.6605301
51
101.3704185
0
ARC
8
DEFAULT_255_1_234
10
23.717181
20
79.4068496
40
0.502348
50
78.2171172
51
90.4130393
0
ARC
8
DEFAULT_255_1_234
10
23.7526888
20
79.5692637
40
0.3361092
50
55.9268222
51
78.4888551
0
ARC
8
DEFAULT_255_1_234
10
23.7723328
20
79.6031324
40
0.2970617
50
47.9292255
51
55.4054003
0
ARC
8
DEFAULT_255_1_234
10
23.7824889
20
79.6134502
40
0.2825983
50
4.3347696
51
48.0560701
0
ARC
8
DEFAULT_255_1_234
10
23.6729282
20
79.5964601
40
0.393225
50
359.925209
51
5.5967654
0
ARC
8
DEFAULT_255_1_234
10
23.7158174
20
79.6020816
40
0.3503892
50
337.8914096
51
358.9967724
0
ARC
8
DEFAULT_255_1_234
10
23.4444586
20
79.7067706
40
0.6412172
50
326.9135351
51
338.3505194
0
ARC
8
DEFAULT_255_1_234
10
23.045889
20
79.9622284
40
1.1146189
50
319.6472867
51
327.095818
0
ARC
8
DEFAULT_255_1_234
10
22.6625893
20
80.2784
40
1.6114559
50
317.2586784
51
319.9046139
0
LINE
8
DEFAULT_255_1_234
10
21.5416458
20
85.1848211
11
21.8452456
21
84.597701
0
LINE
8
DEFAULT_255_1_234
10
21.8452456
20
84.597701
11
22.1504516
21
85.1848211
0
LINE
8
DEFAULT_255_1_234
10
22.1504516
20
85.1848211
11
22.3255435
21
85.1848211
0
LINE
8
DEFAULT_255_1_234
10
22.3255435
20
85.1848211
11
21.9223502
21
84.4515234
0
LINE
8
DEFAULT_255_1_234
10
21.9223502
20
84.4515234
11
21.9223502
21
84.0154
0
LINE
8
DEFAULT_255_1_234
10
21.9223502
20
84.0154
11
21.7681409
21
84.0154
0
LINE
8
DEFAULT_255_1_234
10
21.7681409
20
84.0154
11
21.7681409
21
84.4515234
0
LINE
8
DEFAULT_255_1_234
10
21.7681409
20
84.4515234
11
21.3649476
21
85.1848211
0
LINE
8
DEFAULT_255_1_234
10
21.3649476
20
85.1848211
11
21.5416458
21
85.1848211
0
LINE
8
DEFAULT_255_1_234
10
22.9263175
20
85.1904433
11
22.9263175
21
84.0154
0
LINE
8
DEFAULT_255_1_234
10
22.9263175
20
84.0154
11
22.7769272
21
84.0154
0
LINE
8
DEFAULT_255_1_234
10
22.7769272
20
84.0154
11
22.7769272
21
85.0057133
0
LINE
8
DEFAULT_255_1_234
10
22.7769272
20
85.0057133
11
22.4773434
21
84.8956785
0
LINE
8
DEFAULT_255_1_234
10
22.4773434
20
84.8956785
11
22.4773434
21
85.0306117
0
LINE
8
DEFAULT_255_1_234
10
22.4773434
20
85.0306117
11
22.9030255
21
85.1904433
0
LINE
8
DEFAULT_255_1_234
10
22.9030255
20
85.1904433
11
22.9263175
21
85.1904433
0
LINE
8
DEFAULT_255_1_234
10
23.8499674
20
85.1904433
11
23.8499674
21
84.0154
0
LINE
8
DEFAULT_255_1_234
10
23.8499674
20
84.0154
11
23.7005771
21
84.0154
0
LINE
8
DEFAULT_255_1_234
10
23.7005771
20
84.0154
11
23.7005771
21
85.0057133
0
LINE
8
DEFAULT_255_1_234
10
23.7005771
20
85.0057133
11
23.4009933
21
84.8956785
0
LINE
8
DEFAULT_255_1_234
10
23.4009933
20
84.8956785
11
23.4009933
21
85.0306117
0
LINE
8
DEFAULT_255_1_234
10
23.4009933
20
85.0306117
11
23.8266754
21
85.1904433
0
LINE
8
DEFAULT_255_1_234
10
23.8266754
20
85.1904433
11
23.8499674
21
85.1904433
0
LINE
8
DEFAULT_255_1_234
10
21.5337458
20
90.4765211
11
21.8373456
21
89.889401
0
LINE
8
DEFAULT_255_1_234
10
21.8373456
20
89.889401
11
22.1425516
21
90.4765211
0
LINE
8
DEFAULT_255_1_234
10
22.1425516
20
90.4765211
11
22.3176435
21
90.4765211
0
LINE
8
DEFAULT_255_1_234
10
22.3176435
20
90.4765211
11
21.9144502
21
89.7432234
0
LINE
8
DEFAULT_255_1_234
10
21.9144502
20
89.7432234
11
21.9144502
21
89.3071
0
LINE
8
DEFAULT_255_1_234
10
21.9144502
20
89.3071
11
21.7602409
21
89.3071
0
LINE
8
DEFAULT_255_1_234
10
21.7602409
20
89.3071
11
21.7602409
21
89.7432234
0
LINE
8
DEFAULT_255_1_234
10
21.7602409
20
89.7432234
11
21.3570476
21
90.4765211
0
LINE
8
DEFAULT_255_1_234
10
21.3570476
20
90.4765211
11
21.5337458
21
90.4765211
0
LINE
8
DEFAULT_255_1_234
10
22.9184175
20
90.4821433
11
22.9184175
21
89.3071
0
LINE
8
DEFAULT_255_1_234
10
22.9184175
20
89.3071
11
22.7690272
21
89.3071
0
LINE
8
DEFAULT_255_1_234
10
22.7690272
20
89.3071
11
22.7690272
21
90.2974133
0
LINE
8
DEFAULT_255_1_234
10
22.7690272
20
90.2974133
11
22.4694434
21
90.1873785
0
LINE
8
DEFAULT_255_1_234
10
22.4694434
20
90.1873785
11
22.4694434
21
90.3223117
0
LINE
8
DEFAULT_255_1_234
10
22.4694434
20
90.3223117
11
22.8951255
21
90.4821433
0
LINE
8
DEFAULT_255_1_234
10
22.8951255
20
90.4821433
11
22.9184175
21
90.4821433
0
LINE
8
DEFAULT_255_1_234
10
24.0870354
20
89.9986327
11
24.0870354
21
89.8058709
0
LINE
8
DEFAULT_255_1_234
10
23.3489187
20
89.7857916
11
23.3489187
21
89.9841755
0
LINE
8
DEFAULT_255_1_234
10
23.9384483
20
89.7657123
11
23.9384483
21
90.0090739
0
LINE
8
DEFAULT_255_1_234
10
23.4975059
20
90.0203184
11
23.4975059
21
89.7825789
0
ARC
8
DEFAULT_255_1_234
10
22.8623244
20
89.8009805
40
1.2247208
50
353.8441951
51
0.2287902
0
ARC
8
DEFAULT_255_1_234
10
23.3262748
20
89.7491806
40
0.7578929
50
344.4934747
51
353.9765454
0
ARC
8
DEFAULT_255_1_234
10
23.6255338
20
89.6640981
40
0.4467846
50
329.2803592
51
344.7472793
0
ARC
8
DEFAULT_255_1_234
10
23.7248163
20
89.6096018
40
0.3336173
50
324.9352394
51
328.6160465
0
ARC
8
DEFAULT_255_1_234
10
23.7625272
20
89.5832427
40
0.2876076
50
280.580143
51
324.9173126
0
ARC
8
DEFAULT_255_1_234
10
23.7224064
20
89.7503099
40
0.4592847
50
269.5977311
51
281.6734359
0
ARC
8
DEFAULT_255_1_234
10
23.715197
20
89.7383173
40
0.4472986
50
256.6228859
51
270.51044
0
ARC
8
DEFAULT_255_1_234
10
23.6749948
20
89.5834877
40
0.2873874
50
215.8618325
51
257.2788573
0
ARC
8
DEFAULT_255_1_234
10
23.7770979
20
89.6519977
40
0.4102928
50
197.9693508
51
215.2623606
0
ARC
8
DEFAULT_255_1_234
10
24.0256095
20
89.7358709
40
0.6725652
50
187.8816417
51
198.2346507
0
ARC
8
DEFAULT_255_1_234
10
24.4214303
20
89.7930079
40
1.0724845
50
180.8976217
51
188.0055519
0
ARC
8
DEFAULT_255_1_234
10
24.7014491
20
89.8033777
40
1.3526448
50
180.7449369
51
181.1510016
0
ARC
8
DEFAULT_255_1_234
10
24.543722
20
89.9890042
40
1.1948131
50
173.7675579
51
180.231553
0
ARC
8
DEFAULT_255_1_234
10
24.0919367
20
90.0400666
40
0.7401564
50
164.3058563
51
173.9002247
0
ARC
8
DEFAULT_255_1_234
10
23.8007436
20
90.1239656
40
0.4371288
50
148.7922025
51
164.568378
0
ARC
8
DEFAULT_255_1_234
10
23.7055888
20
90.1770929
40
0.3282386
50
144.5883898
51
148.1176286
0
ARC
8
DEFAULT_255_1_234
10
23.6712786
20
90.2010315
40
0.2864044
50
101.6440918
51
144.514236
0
ARC
8
DEFAULT_255_1_234
10
23.7137853
20
90.0321069
40
0.4604934
50
89.5284041
51
102.5819763
0
ARC
8
DEFAULT_255_1_234
10
23.721694
20
90.0282018
40
0.464401
50
77.0437873
51
90.5081339
0
ARC
8
DEFAULT_255_1_234
10
23.7618942
20
90.1924615
40
0.2953195
50
48.2778575
51
77.4994676
0
ARC
8
DEFAULT_255_1_234
10
23.7691573
20
90.2053746
40
0.2808655
50
36.3142134
51
47.6305865
0
ARC
8
DEFAULT_255_1_234
10
23.682288
20
90.1468515
40
0.3855453
50
18.2931786
51
35.6769206
0
ARC
8
DEFAULT_255_1_234
10
23.4279639
20
90.0595593
40
0.654423
50
8.024666
51
18.5605216
0
ARC
8
DEFAULT_255_1_234
10
23.0116559
20
89.9980792
40
1.0752407
50
1.1274072
51
8.1718305
0
ARC
8
DEFAULT_255_1_234
10
22.688075
20
89.9853885
40
1.3990231
50
0.5424119
51
1.3863029
0
ARC
8
DEFAULT_255_1_234
10
22.8702128
20
90.0126342
40
1.0682415
50
359.8090433
51
4.9407866
0
ARC
8
DEFAULT_255_1_234
10
23.2912142
20
90.0502113
40
0.6455691
50
4.8362157
51
12.2904523
0
ARC
8
DEFAULT_255_1_234
10
23.5667256
20
90.1115965
40
0.3633074
50
12.0805627
51
23.8173984
0
ARC
8
DEFAULT_255_1_234
10
23.6840962
20
90.1612919
40
0.2358723
50
24.2871213
51
31.3935614
0
ARC
8
DEFAULT_255_1_234
10
23.7365659
20
90.1956233
40
0.1732111
50
30.7407893
51
82.4657128
0
ARC
8
DEFAULT_255_1_234
10
23.7185793
20
90.1072691
40
0.263235
50
81.1060089
51
90.2184952
0
ARC
8
DEFAULT_255_1_234
10
23.7150092
20
90.1330924
40
0.2374236
50
89.3806855
51
105.6762551
0
ARC
8
DEFAULT_255_1_234
10
23.6966723
20
90.1997567
40
0.1682847
50
105.7981136
51
149.7388061
0
ARC
8
DEFAULT_255_1_234
10
23.8030801
20
90.135795
40
0.2924306
50
149.4208916
51
163.6286378
0
ARC
8
DEFAULT_255_1_234
10
24.0121689
20
90.072025
40
0.5110213
50
163.3763315
51
172.1410975
0
ARC
8
DEFAULT_255_1_234
10
24.3422408
20
90.0247518
40
0.8444586
50
172.0259487
51
178.0703232
0
ARC
8
DEFAULT_255_1_234
10
24.6452498
20
90.0103906
40
1.1477868
50
177.8631668
51
179.5044149
0
ARC
8
DEFAULT_255_1_234
10
24.5379902
20
89.7789389
40
1.0404907
50
179.7995573
51
185.2460446
0
ARC
8
DEFAULT_255_1_234
10
24.1336941
20
89.7406513
40
0.6343885
50
185.1411642
51
193.0079639
0
ARC
8
DEFAULT_255_1_234
10
23.8693414
20
89.6781641
40
0.3627568
50
192.7897626
51
205.2507664
0
ARC
8
DEFAULT_255_1_234
10
23.7646961
20
89.6314415
40
0.2481908
50
205.8005384
51
211.2537509
0
ARC
8
DEFAULT_255_1_234
10
23.7123401
20
89.596358
40
0.1852521
50
210.3789793
51
238.4008143
0
ARC
8
DEFAULT_255_1_234
10
23.7103923
20
89.6010376
40
0.1882621
50
239.6520629
51
265.9793761
0
ARC
8
DEFAULT_255_1_234
10
23.7189123
20
89.6682427
40
0.2559272
50
265.1315437
51
270.060332
0
ARC
8
DEFAULT_255_1_234
10
23.7217902
20
89.6358534
40
0.2235528
50
269.3314664
51
287.2178029
0
ARC
8
DEFAULT_255_1_234
10
23.7355754
20
89.5855279
40
0.1714108
50
287.7958004
51
329.080874
0
ARC
8
DEFAULT_255_1_234
10
23.6398211
20
89.645293
40
0.2842745
50
328.6634704
51
343.3325132
0
ARC
8
DEFAULT_255_1_234
10
23.4225231
20
89.7129863
40
0.5118644
50
343.0499468
51
351.9393422
0
ARC
8
DEFAULT_255_1_234
10
23.0758531
20
89.7640949
40
0.8622784
50
351.8069023
51
357.7959224
0
ARC
8
DEFAULT_255_1_234
10
22.7523087
20
89.7808721
40
1.1862365
50
357.5871873
51
359.2677531
0
LINE
8
DEFAULT_255_1_234
10
22.5167458
20
95.7681211
11
22.8203456
21
95.181001
0
LINE
8
DEFAULT_255_1_234
10
22.8203456
20
95.181001
11
23.1255516
21
95.7681211
0
LINE
8
DEFAULT_255_1_234
10
23.1255516
20
95.7681211
11
23.3006435
21
95.7681211
0
LINE
8
DEFAULT_255_1_234
10
23.3006435
20
95.7681211
11
22.8974502
21
95.0348234
0
LINE
8
DEFAULT_255_1_234
10
22.8974502
20
95.0348234
11
22.8974502
21
94.5987
0
LINE
8
DEFAULT_255_1_234
10
22.8974502
20
94.5987
11
22.7432409
21
94.5987
0
LINE
8
DEFAULT_255_1_234
10
22.7432409
20
94.5987
11
22.7432409
21
95.0348234
0
LINE
8
DEFAULT_255_1_234
10
22.7432409
20
95.0348234
11
22.3400476
21
95.7681211
0
LINE
8
DEFAULT_255_1_234
10
22.3400476
20
95.7681211
11
22.5167458
21
95.7681211
0
LINE
8
DEFAULT_255_1_234
10
24.1680712
20
95.7681211
11
24.1680712
21
95.684591
0
LINE
8
DEFAULT_255_1_234
10
24.1680712
20
95.684591
11
23.6837574
21
94.5987
0
LINE
8
DEFAULT_255_1_234
10
23.6837574
20
94.5987
11
23.5279417
21
94.5987
0
LINE
8
DEFAULT_255_1_234
10
23.5279417
20
94.5987
11
24.0106492
21
95.6460387
0
LINE
8
DEFAULT_255_1_234
10
24.0106492
20
95.6460387
11
23.3777482
21
95.6460387
0
LINE
8
DEFAULT_255_1_234
10
23.3777482
20
95.6460387
11
23.3777482
21
95.7681211
0
LINE
8
DEFAULT_255_1_234
10
23.3777482
20
95.7681211
11
24.1680712
21
95.7681211
0
LINE
8
DEFAULT_255_1_234
10
22.5167458
20
101.0598211
11
22.8203456
21
100.472701
0
LINE
8
DEFAULT_255_1_234
10
22.8203456
20
100.472701
11
23.1255516
21
101.0598211
0
LINE
8
DEFAULT_255_1_234
10
23.1255516
20
101.0598211
11
23.3006435
21
101.0598211
0
LINE
8
DEFAULT_255_1_234
10
23.3006435
20
101.0598211
11
22.8974502
21
100.3265234
0
LINE
8
DEFAULT_255_1_234
10
22.8974502
20
100.3265234
11
22.8974502
21
99.8904
0
LINE
8
DEFAULT_255_1_234
10
22.8974502
20
99.8904
11
22.7432409
21
99.8904
0
LINE
8
DEFAULT_255_1_234
10
22.7432409
20
99.8904
11
22.7432409
21
100.3265234
0
LINE
8
DEFAULT_255_1_234
10
22.7432409
20
100.3265234
11
22.3400476
21
101.0598211
0
LINE
8
DEFAULT_255_1_234
10
22.3400476
20
101.0598211
11
22.5167458
21
101.0598211
0
LINE
8
DEFAULT_255_1_234
10
23.9696873
20
101.0606243
11
23.996192
21
101.0606243
0
LINE
8
DEFAULT_255_1_234
10
23.996192
20
101.0606243
11
23.996192
21
100.934526
0
LINE
8
DEFAULT_255_1_234
10
23.996192
20
100.934526
11
23.9688841
21
100.934526
0
LINE
8
DEFAULT_255_1_234
10
23.4219228
20
100.3353583
11
23.4219228
21
100.3923836
0
LINE
8
DEFAULT_255_1_234
10
23.5713131
20
100.3731075
11
23.5713131
21
100.3184917
0
ARC
8
DEFAULT_255_1_234
10
23.9741189
20
100.4347455
40
0.4998079
50
90.6001036
51
104.514704
0
ARC
8
DEFAULT_255_1_234
10
23.9352705
20
100.5792131
40
0.3502176
50
104.2855254
51
133.862935
0
ARC
8
DEFAULT_255_1_234
10
23.9516462
20
100.568383
40
0.3693984
50
134.5302688
51
161.6210873
0
ARC
8
DEFAULT_255_1_234
10
24.1169651
20
100.5100895
40
0.5446739
50
161.2849839
51
174.2076652
0
ARC
8
DEFAULT_255_1_234
10
24.2576588
20
100.4906787
40
0.6866274
50
173.7810589
51
174.9254635
0
ARC
8
DEFAULT_255_1_234
10
23.802642
20
100.3523839
40
0.3033419
50
95.8330959
51
138.9954921
0
ARC
8
DEFAULT_255_1_234
10
23.8249776
20
100.2245375
40
0.4328947
50
89.8753725
51
97.0544009
0
ARC
8
DEFAULT_255_1_234
10
23.8297242
20
100.3080748
40
0.3493769
50
71.6407809
51
90.6240094
0
ARC
8
DEFAULT_255_1_234
10
23.8447815
20
100.3635082
40
0.2920396
50
39.6367836
51
71.019018
0
ARC
8
DEFAULT_255_1_234
10
23.7811288
20
100.3084998
40
0.3761538
50
10.658731
51
39.9043955
0
ARC
8
DEFAULT_255_1_234
10
23.6263371
20
100.2748686
40
0.5345136
50
359.682601
51
11.132623
0
ARC
8
DEFAULT_255_1_234
10
23.6223502
20
100.267801
40
0.5385081
50
347.2486944
51
0.4369317
0
ARC
8
DEFAULT_255_1_234
10
23.7890979
20
100.2276807
40
0.3670249
50
318.1409698
51
347.6118597
0
ARC
8
DEFAULT_255_1_234
10
23.8215972
20
100.2009702
40
0.3250007
50
275.6342139
51
317.8248465
0
ARC
8
DEFAULT_255_1_234
10
23.7995083
20
100.3309219
40
0.4565864
50
269.8874292
51
276.7917694
0
ARC
8
DEFAULT_255_1_234
10
23.7940154
20
100.2283743
40
0.3540676
50
246.9140195
51
270.7437342
0
ARC
8
DEFAULT_255_1_234
10
23.7946544
20
100.2141384
40
0.3412781
50
218.1665114
51
245.878116
0
ARC
8
DEFAULT_255_1_234
10
23.8826005
20
100.2877279
40
0.455911
50
191.4115814
51
218.6077802
0
ARC
8
DEFAULT_255_1_234
10
24.0764094
20
100.3311833
40
0.6545001
50
179.6345085
51
191.7836486
0
ARC
8
DEFAULT_255_1_234
10
24.6346431
20
100.3990697
40
1.2127388
50
171.4525249
51
180.3158839
0
ARC
8
DEFAULT_255_1_234
10
24.1951307
20
100.4674608
40
0.7679464
50
157.9802646
51
171.6246686
0
ARC
8
DEFAULT_255_1_234
10
23.9737328
20
100.5557421
40
0.5296008
50
141.4298019
51
157.854097
0
ARC
8
DEFAULT_255_1_234
10
23.9095649
20
100.6011381
40
0.4511509
50
102.8715806
51
140.8564722
0
ARC
8
DEFAULT_255_1_234
10
23.9743264
20
100.3571552
40
0.7034845
50
90.3778349
51
103.5869322
0
ARC
8
DEFAULT_255_1_234
10
23.800504
20
100.296673
40
0.2370698
50
89.8751008
51
126.2071704
0
ARC
8
DEFAULT_255_1_234
10
23.805083
20
100.2812303
40
0.2522934
50
124.9745049
51
144.895901
0
ARC
8
DEFAULT_255_1_234
10
23.7875021
20
100.295556
40
0.2296779
50
145.2974905
51
160.2660252
0
ARC
8
DEFAULT_255_1_234
10
24.0947559
20
100.3153071
40
0.5234525
50
179.6514266
51
190.2855912
0
ARC
8
DEFAULT_255_1_234
10
23.9253697
20
100.2833786
40
0.3510893
50
190.0945431
51
207.5098196
0
ARC
8
DEFAULT_255_1_234
10
23.8687966
20
100.2564623
40
0.288489
50
207.9583163
51
216.3251085
0
ARC
8
DEFAULT_255_1_234
10
23.8348074
20
100.2285105
40
0.2445587
50
215.7661442
51
232.5456785
0
ARC
8
DEFAULT_255_1_234
10
23.7965057
20
100.1798482
40
0.1826382
50
232.8005391
51
270.6605633
0
ARC
8
DEFAULT_255_1_234
10
23.8010758
20
100.2162612
40
0.2190529
50
269.35537
51
288.4744281
0
ARC
8
DEFAULT_255_1_234
10
23.8103655
20
100.1813118
40
0.1829749
50
289.1833337
51
322.9683818
0
ARC
8
DEFAULT_255_1_234
10
23.7492177
20
100.2295391
40
0.2608399
50
322.6007884
51
346.5182367
0
ARC
8
DEFAULT_255_1_234
10
23.6334773
20
100.2590616
40
0.3802777
50
346.2582162
51
358.7741648
0
ARC
8
DEFAULT_255_1_234
10
23.5316442
20
100.2645965
40
0.4822176
50
358.3755224
51
0.0098023
0
ARC
8
DEFAULT_255_1_234
10
23.6072629
20
100.2673657
40
0.4066078
50
359.6214041
51
11.2839074
0
ARC
8
DEFAULT_255_1_234
10
23.7349776
20
100.2940066
40
0.2761514
50
11.0482309
51
31.8146458
0
ARC
8
DEFAULT_255_1_234
10
23.7658819
20
100.3107584
40
0.2410679
50
32.3035391
51
38.082671
0
ARC
8
DEFAULT_255_1_234
10
23.8079479
20
100.3488662
40
0.1844966
50
36.825067
51
85.7415724
0
ARC
8
DEFAULT_255_1_234
10
23.8012312
20
100.2988301
40
0.2349122
50
85.0140713
51
90.0513278
0
LINE
8
DEFAULT_255_1_234
10
22.5167458
20
106.3515211
11
22.8203456
21
105.764401
0
LINE
8
DEFAULT_255_1_234
10
22.8203456
20
105.764401
11
23.1255516
21
106.3515211
0
LINE
8
DEFAULT_255_1_234
10
23.1255516
20
106.3515211
11
23.3006435
21
106.3515211
0
LINE
8
DEFAULT_255_1_234
10
23.3006435
20
106.3515211
11
22.8974502
21
105.6182234
0
LINE
8
DEFAULT_255_1_234
10
22.8974502
20
105.6182234
11
22.8974502
21
105.1821
0
LINE
8
DEFAULT_255_1_234
10
22.8974502
20
105.1821
11
22.7432409
21
105.1821
0
LINE
8
DEFAULT_255_1_234
10
22.7432409
20
105.1821
11
22.7432409
21
105.6182234
0
LINE
8
DEFAULT_255_1_234
10
22.7432409
20
105.6182234
11
22.3400476
21
106.3515211
0
LINE
8
DEFAULT_255_1_234
10
22.3400476
20
106.3515211
11
22.5167458
21
106.3515211
0
LINE
8
DEFAULT_255_1_234
10
23.6002273
20
105.7378963
11
23.4813576
21
105.7684169
0
LINE
8
DEFAULT_255_1_234
10
23.4813576
20
105.7684169
11
23.5407925
21
106.3515211
0
LINE
8
DEFAULT_255_1_234
10
23.5407925
20
106.3515211
11
24.1399602
21
106.3515211
0
LINE
8
DEFAULT_255_1_234
10
24.1399602
20
106.3515211
11
24.1399602
21
106.2141784
0
LINE
8
DEFAULT_255_1_234
10
24.1399602
20
106.2141784
11
23.6668908
21
106.2141784
0
LINE
8
DEFAULT_255_1_234
10
23.6668908
20
106.2141784
11
23.6315511
21
105.8953184
0
LINE
8
DEFAULT_255_1_234
10
23.4395926
20
105.4897156
11
23.580148
21
105.4897156
0
LINE
8
DEFAULT_255_1_234
10
23.6395829
20
105.7700232
11
23.6002273
21
105.7378963
0
ARC
8
DEFAULT_255_1_234
10
23.8170295
20
105.577323
40
0.3681349
50
93.7182161
51
120.2538958
0
ARC
8
DEFAULT_255_1_234
10
23.8264558
20
105.4965394
40
0.449379
50
89.9660152
51
94.2496022
0
ARC
8
DEFAULT_255_1_234
10
23.8305292
20
105.5554549
40
0.390482
50
73.8043271
51
90.5585896
0
ARC
8
DEFAULT_255_1_234
10
23.8540189
20
105.6412602
40
0.3015334
50
41.3071453
51
73.5430202
0
ARC
8
DEFAULT_255_1_234
10
23.8124016
20
105.6054324
40
0.3564457
50
13.5075983
51
41.2174222
0
ARC
8
DEFAULT_255_1_234
10
23.648222
20
105.5624486
40
0.5261351
50
1.1331335
51
13.8829381
0
ARC
8
DEFAULT_255_1_234
10
23.5070589
20
105.5548665
40
0.6674378
50
359.9919444
51
1.544251
0
ARC
8
DEFAULT_255_1_234
10
23.6347415
20
105.550728
40
0.5397702
50
347.8572367
51
0.4293338
0
ARC
8
DEFAULT_255_1_234
10
23.8097733
20
105.5110736
40
0.3603188
50
323.673004
51
348.1672506
0
ARC
8
DEFAULT_255_1_234
10
23.8392241
20
105.4931168
40
0.3259678
50
316.8171152
51
323.1492751
0
ARC
8
DEFAULT_255_1_234
10
23.845343
20
105.489446
40
0.3189975
50
281.8396411
51
316.5457803
0
ARC
8
DEFAULT_255_1_234
10
23.8077694
20
105.6449762
40
0.4789527
50
269.5770101
51
282.4214771
0
ARC
8
DEFAULT_255_1_234
10
23.8006505
20
105.6236125
40
0.45759
50
256.2427136
51
270.4486331
0
ARC
8
DEFAULT_255_1_234
10
23.7707408
20
105.5036229
40
0.3339303
50
228.9023911
51
256.3314342
0
ARC
8
DEFAULT_255_1_234
10
23.763364
20
105.4919746
40
0.32031
50
193.753695
51
228.5271154
0
ARC
8
DEFAULT_255_1_234
10
23.8871594
20
105.52828
40
0.4492253
50
184.924711
51
194.497588
0
ARC
8
DEFAULT_255_1_234
10
23.9064161
20
105.5318591
40
0.3289787
50
187.3600538
51
198.6732863
0
ARC
8
DEFAULT_255_1_234
10
23.8014455
20
105.4954674
40
0.217884
50
198.4451669
51
217.794479
0
ARC
8
DEFAULT_255_1_234
10
23.771863
20
105.4745085
40
0.1816698
50
218.2887171
51
228.5612368
0
ARC
8
DEFAULT_255_1_234
10
23.7816417
20
105.4876963
40
0.1980329
50
228.9654866
51
258.1234728
0
ARC
8
DEFAULT_255_1_234
10
23.8022127
20
105.5757833
40
0.2884748
50
257.7258293
51
270.401361
0
ARC
8
DEFAULT_255_1_234
10
23.8067014
20
105.5312821
40
0.2439788
50
269.4204404
51
286.4209037
0
ARC
8
DEFAULT_255_1_234
10
23.8215501
20
105.4773657
40
0.1880666
50
286.7251356
51
320.600362
0
ARC
8
DEFAULT_255_1_234
10
23.7832326
20
105.5084595
40
0.2374121
50
320.6712579
51
344.5441685
0
ARC
8
DEFAULT_255_1_234
10
23.6675652
20
105.5424045
40
0.3579479
50
344.2412205
51
356.7357071
0
ARC
8
DEFAULT_255_1_234
10
23.5426801
20
105.5527444
40
0.4832297
50
356.3548756
51
0.0500261
0
ARC
8
DEFAULT_255_1_234
10
23.676331
20
105.555865
40
0.3495889
50
359.5576869
51
12.953486
0
ARC
8
DEFAULT_255_1_234
10
23.7818207
20
105.5814434
40
0.2410532
50
12.6490276
51
41.6081334
0
ARC
8
DEFAULT_255_1_234
10
23.8048578
20
105.6010321
40
0.2108218
50
41.7850273
51
85.9892764
0
ARC
8
DEFAULT_255_1_234
10
23.7925315
20
105.5197462
40
0.2928454
50
84.6957577
51
90.0676183
0
ARC
8
DEFAULT_255_1_234
10
23.7901799
20
105.4528716
40
0.3597255
50
89.6804936
51
99.1614436
0
ARC
8
DEFAULT_255_1_234
10
23.769643
20
105.5756131
40
0.235281
50
98.9830931
51
113.8908934
0
ARC
8
DEFAULT_255_1_234
10
23.746684
20
105.6297587
40
0.176479
50
114.1950727
51
127.3641004
0
LINE
8
DEFAULT_255_1_234
10
22.4109458
20
111.6431211
11
22.7145456
21
111.056001
0
LINE
8
DEFAULT_255_1_234
10
22.7145456
20
111.056001
11
23.0197516
21
111.6431211
0
LINE
8
DEFAULT_255_1_234
10
23.0197516
20
111.6431211
11
23.1948435
21
111.6431211
0
LINE
8
DEFAULT_255_1_234
10
23.1948435
20
111.6431211
11
22.7916502
21
110.9098234
0
LINE
8
DEFAULT_255_1_234
10
22.7916502
20
110.9098234
11
22.7916502
21
110.4737
0
LINE
8
DEFAULT_255_1_234
10
22.7916502
20
110.4737
11
22.6374409
21
110.4737
0
LINE
8
DEFAULT_255_1_234
10
22.6374409
20
110.4737
11
22.6374409
21
110.9098234
0
LINE
8
DEFAULT_255_1_234
10
22.6374409
20
110.9098234
11
22.2342476
21
111.6431211
0
LINE
8
DEFAULT_255_1_234
10
22.2342476
20
111.6431211
11
22.4109458
21
111.6431211
0
LINE
8
DEFAULT_255_1_234
10
23.9345666
20
111.6431211
11
23.9345666
21
110.866452
0
LINE
8
DEFAULT_255_1_234
10
23.9345666
20
110.866452
11
24.0968077
21
110.866452
0
LINE
8
DEFAULT_255_1_234
10
24.0968077
20
110.866452
11
24.0968077
21
110.7451728
0
LINE
8
DEFAULT_255_1_234
10
24.0968077
20
110.7451728
11
23.9345666
21
110.7451728
0
LINE
8
DEFAULT_255_1_234
10
23.9345666
20
110.7451728
11
23.9345666
21
110.4737
0
LINE
8
DEFAULT_255_1_234
10
23.9345666
20
110.4737
11
23.7851763
21
110.4737
0
LINE
8
DEFAULT_255_1_234
10
23.7851763
20
110.4737
11
23.7851763
21
110.7451728
0
LINE
8
DEFAULT_255_1_234
10
23.7851763
20
110.7451728
11
23.252672
21
110.7451728
0
LINE
8
DEFAULT_255_1_234
10
23.252672
20
110.7451728
11
23.252672
21
110.8327187
0
LINE
8
DEFAULT_255_1_234
10
23.252672
20
110.8327187
11
23.7763414
21
111.6431211
0
LINE
8
DEFAULT_255_1_234
10
23.7763414
20
111.6431211
11
23.9345666
21
111.6431211
0
LINE
8
DEFAULT_255_1_234
10
23.7675064
20
111.4077912
11
23.4213385
21
110.866452
0
LINE
8
DEFAULT_255_1_234
10
23.4213385
20
110.866452
11
23.7851763
21
110.866452
0
LINE
8
DEFAULT_255_1_234
10
23.7851763
20
110.866452
11
23.7851763
21
111.4399181
0
LINE
8
DEFAULT_255_1_234
10
23.7851763
20
111.4399181
11
23.7675064
21
111.4077912
0
LINE
8
DEFAULT_255_1_234
10
22.5167458
20
116.9348211
11
22.8203456
21
116.347701
0
LINE
8
DEFAULT_255_1_234
10
22.8203456
20
116.347701
11
23.1255516
21
116.9348211
0
LINE
8
DEFAULT_255_1_234
10
23.1255516
20
116.9348211
11
23.3006435
21
116.9348211
0
LINE
8
DEFAULT_255_1_234
10
23.3006435
20
116.9348211
11
22.8974502
21
116.2015234
0
LINE
8
DEFAULT_255_1_234
10
22.8974502
20
116.2015234
11
22.8974502
21
115.7654
0
LINE
8
DEFAULT_255_1_234
10
22.8974502
20
115.7654
11
22.7432409
21
115.7654
0
LINE
8
DEFAULT_255_1_234
10
22.7432409
20
115.7654
11
22.7432409
21
116.2015234
0
LINE
8
DEFAULT_255_1_234
10
22.7432409
20
116.2015234
11
22.3400476
21
116.9348211
0
LINE
8
DEFAULT_255_1_234
10
22.3400476
20
116.9348211
11
22.5167458
21
116.9348211
0
LINE
8
DEFAULT_255_1_234
10
23.6291416
20
116.3011169
11
23.6291416
21
116.4223962
0
LINE
8
DEFAULT_255_1_234
10
23.6291416
20
116.4223962
11
23.7407828
21
116.4223962
0
LINE
8
DEFAULT_255_1_234
10
23.5504306
20
116.6280087
11
23.4018434
21
116.6280087
0
LINE
8
DEFAULT_255_1_234
10
23.3914021
20
116.0738188
11
23.5407925
21
116.0738188
0
LINE
8
DEFAULT_255_1_234
10
23.7407828
20
116.3011169
11
23.6291416
21
116.3011169
0
ARC
8
DEFAULT_255_1_234
10
23.7378694
20
116.7616713
40
0.3392876
50
270.4919872
51
281.8951556
0
ARC
8
DEFAULT_255_1_234
10
23.7619956
20
116.6514702
40
0.2264817
50
281.6691735
51
301.2943132
0
ARC
8
DEFAULT_255_1_234
10
23.7790166
20
116.6203304
40
0.1910381
50
301.7833094
51
311.7545298
0
ARC
8
DEFAULT_255_1_234
10
23.7881742
20
116.6101748
40
0.1773635
50
311.7323931
51
354.2802411
0
ARC
8
DEFAULT_255_1_234
10
23.7155367
20
116.6226722
40
0.2509385
50
353.0937916
51
0.1181479
0
ARC
8
DEFAULT_255_1_234
10
23.6694152
20
116.6274386
40
0.2970898
50
359.1805295
51
15.0453146
0
ARC
8
DEFAULT_255_1_234
10
23.8039989
20
116.6666992
40
0.1569564
50
13.9577229
51
77.6713066
0
ARC
8
DEFAULT_255_1_234
10
23.7653518
20
116.5281949
40
0.3006298
50
76.1116566
51
90.7026153
0
ARC
8
DEFAULT_255_1_234
10
23.7594356
20
116.5555545
40
0.2732568
50
89.5324876
51
103.531937
0
ARC
8
DEFAULT_255_1_234
10
23.7393801
20
116.6354884
40
0.1908508
50
103.2931773
51
133.5619022
0
ARC
8
DEFAULT_255_1_234
10
23.7349289
20
116.6414375
40
0.1834746
50
133.8349307
51
173.5344437
0
ARC
8
DEFAULT_255_1_234
10
23.8072332
20
116.6286213
40
0.2568033
50
172.5096846
51
180.1366907
0
ARC
8
DEFAULT_255_1_234
10
23.7121226
20
116.6320622
40
0.3103056
50
155.3484492
51
180.7484736
0
ARC
8
DEFAULT_255_1_234
10
23.7072315
20
116.6291846
40
0.3070957
50
131.5744599
51
154.4798489
0
ARC
8
DEFAULT_255_1_234
10
23.7385462
20
116.597531
40
0.3515643
50
96.9875458
51
131.9690667
0
ARC
8
DEFAULT_255_1_234
10
23.7604942
20
116.4729636
40
0.4779224
50
89.8596053
51
97.7825159
0
ARC
8
DEFAULT_255_1_234
10
23.7653005
20
116.4467616
40
0.5041361
50
78.3655447
51
90.4131539
0
ARC
8
DEFAULT_255_1_234
10
23.8010923
20
116.6126887
40
0.3344039
50
56.6229102
51
78.638727
0
ARC
8
DEFAULT_255_1_234
10
23.8225867
20
116.6502805
40
0.2912001
50
47.0253525
51
56.0854072
0
ARC
8
DEFAULT_255_1_234
10
23.8245647
20
116.6542223
40
0.2869704
50
10.9208013
51
46.7778124
0
ARC
8
DEFAULT_255_1_234
10
23.6881713
20
116.6226857
40
0.426899
50
359.6364486
51
11.6087304
0
ARC
8
DEFAULT_255_1_234
10
23.8716557
20
116.6211752
40
0.243409
50
332.3549906
51
359.7179418
0
ARC
8
DEFAULT_255_1_234
10
23.8066159
20
116.6520142
40
0.3153459
50
325.2333722
51
332.8745602
0
ARC
8
DEFAULT_255_1_234
10
23.8218783
20
116.6413828
40
0.2967456
50
292.9802137
51
325.2392345
0
ARC
8
DEFAULT_255_1_234
10
23.7944157
20
116.6947863
40
0.3566604
50
292.5402179
51
293.6924929
0
ARC
8
DEFAULT_255_1_234
10
23.8336752
20
116.0493091
40
0.3307468
50
57.6435486
51
72.8625112
0
ARC
8
DEFAULT_255_1_234
10
23.8691252
20
116.1067549
40
0.2632492
50
36.7248896
51
57.4697979
0
ARC
8
DEFAULT_255_1_234
10
23.8679885
20
116.108022
40
0.2634081
50
8.0545065
51
36.356114
0
ARC
8
DEFAULT_255_1_234
10
23.781707
20
116.0925174
40
0.3510261
50
359.8320645
51
8.5869982
0
ARC
8
DEFAULT_255_1_234
10
23.7441846
20
116.0877101
40
0.3885653
50
343.9829931
51
0.5571613
0
ARC
8
DEFAULT_255_1_234
10
23.8328043
20
116.0634438
40
0.2966924
50
311.6359546
51
343.7651759
0
ARC
8
DEFAULT_255_1_234
10
23.7949613
20
116.1061102
40
0.3537231
50
279.7829875
51
311.6255694
0
ARC
8
DEFAULT_255_1_234
10
23.7648389
20
116.249828
40
0.5004971
50
269.7286406
51
280.3856417
0
ARC
8
DEFAULT_255_1_234
10
23.7586461
20
116.2456996
40
0.4963778
50
256.6828919
51
270.4412052
0
ARC
8
DEFAULT_255_1_234
10
23.7247757
20
116.1072394
40
0.3538406
50
229.4223008
51
256.8556159
0
ARC
8
DEFAULT_255_1_234
10
23.683315
20
116.0605736
40
0.2914296
50
181.818294
51
229.6455059
0
ARC
8
DEFAULT_255_1_234
10
23.7873106
20
116.0736496
40
0.3959084
50
179.9755256
51
183.2323064
0
ARC
8
DEFAULT_255_1_234
10
23.7700852
20
116.0716037
40
0.2293034
50
179.4465117
51
196.2869258
0
ARC
8
DEFAULT_255_1_234
10
23.721326
20
116.0582651
40
0.1787621
50
196.5661473
51
227.705904
0
ARC
8
DEFAULT_255_1_234
10
23.7377355
20
116.0766155
40
0.2033784
50
227.7652068
51
257.8762805
0
ARC
8
DEFAULT_255_1_234
10
23.7602325
20
116.1709156
40
0.3003081
50
257.4584385
51
270.426602
0
ARC
8
DEFAULT_255_1_234
10
23.7647891
20
116.1998996
40
0.329292
50
269.5962073
51
280.8789248
0
ARC
8
DEFAULT_255_1_234
10
23.787742
20
116.0852685
40
0.2123908
50
280.6346389
51
299.8595945
0
ARC
8
DEFAULT_255_1_234
10
23.8068327
20
116.0490212
40
0.171457
50
300.3576302
51
314.5517981
0
ARC
8
DEFAULT_255_1_234
10
23.7985387
20
116.0550919
40
0.1816095
50
315.0728369
51
345.0431014
0
ARC
8
DEFAULT_255_1_234
10
23.7062201
20
116.0819841
40
0.2777492
50
344.5986631
51
357.9269593
0
ARC
8
DEFAULT_255_1_234
10
23.6166528
20
116.0881276
40
0.3674917
50
357.4748886
51
0.0231117
0
ARC
8
DEFAULT_255_1_234
10
23.7189637
20
116.0905679
40
0.2651907
50
359.5047933
51
13.4239635
0
ARC
8
DEFAULT_255_1_234
10
23.8056281
20
116.1127478
40
0.1757509
50
12.9498199
51
48.7551375
0
ARC
8
DEFAULT_255_1_234
10
23.7874014
20
116.08784
40
0.2065134
50
49.5088623
51
72.1836453
0
ARC
8
DEFAULT_255_1_234
10
23.7516167
20
115.9816291
40
0.3185836
50
71.9010081
51
84.3554254
0
ARC
8
DEFAULT_255_1_234
10
23.7354799
20
115.8455326
40
0.4556151
50
84.0193428
51
89.333121
0
LINE
8
DEFAULT_255_1_234
10
22.5167458
20
122.2265211
11
22.8203456
21
121.639401
0
LINE
8
DEFAULT_255_1_234
10
22.8203456
20
121.639401
11
23.1255516
21
122.2265211
0
LINE
8
DEFAULT_255_1_234
10
23.1255516
20
122.2265211
11
23.3006435
21
122.2265211
0
LINE
8
DEFAULT_255_1_234
10
23.3006435
20
122.2265211
11
22.8974502
21
121.4932234
0
LINE
8
DEFAULT_255_1_234
10
22.8974502
20
121.4932234
11
22.8974502
21
121.0571
0
LINE
8
DEFAULT_255_1_234
10
22.8974502
20
121.0571
11
22.7432409
21
121.0571
0
LINE
8
DEFAULT_255_1_234
10
22.7432409
20
121.0571
11
22.7432409
21
121.4932234
0
LINE
8
DEFAULT_255_1_234
10
22.7432409
20
121.4932234
11
22.3400476
21
122.2265211
0
LINE
8
DEFAULT_255_1_234
10
22.3400476
20
122.2265211
11
22.5167458
21
122.2265211
0
LINE
8
DEFAULT_255_1_234
10
24.1793157
20
121.1783792
11
24.1793157
21
121.0571
0
LINE
8
DEFAULT_255_1_234
10
24.1793157
20
121.0571
11
23.4130878
21
121.0571
0
LINE
8
DEFAULT_255_1_234
10
23.4130878
20
121.0571
11
23.4130878
21
121.1639221
0
LINE
8
DEFAULT_255_1_234
10
23.4130878
20
121.1639221
11
23.8178875
21
121.6136995
0
LINE
8
DEFAULT_255_1_234
10
23.5391861
20
121.8819595
11
23.390599
21
121.8819595
0
LINE
8
DEFAULT_255_1_234
10
23.9054334
20
121.5181218
11
23.5921956
21
121.1783792
0
LINE
8
DEFAULT_255_1_234
10
23.5921956
20
121.1783792
11
24.1793157
21
121.1783792
0
ARC
8
DEFAULT_255_1_234
10
22.4688708
20
122.8066527
40
1.8008286
50
318.5132453
51
320.7828378
0
ARC
8
DEFAULT_255_1_234
10
22.9975682
20
122.3763426
40
1.1191493
50
320.7372736
51
323.9737074
0
ARC
8
DEFAULT_255_1_234
10
23.3895539
20
122.0923361
40
0.6350923
50
323.8961724
51
328.6421089
0
ARC
8
DEFAULT_255_1_234
10
23.5942134
20
121.9661031
40
0.3946393
50
328.8299013
51
331.789948
0
ARC
8
DEFAULT_255_1_234
10
23.6939313
20
121.9146509
40
0.2824501
50
331.4255242
51
352.9364833
0
ARC
8
DEFAULT_255_1_234
10
23.7075813
20
121.9115976
40
0.2685315
50
353.2248685
51
0.0169286
0
ARC
8
DEFAULT_255_1_234
10
23.728569
20
121.913895
40
0.2475536
50
359.4866256
51
15.9339782
0
ARC
8
DEFAULT_255_1_234
10
23.7792675
20
121.9275286
40
0.1950618
50
16.1714718
51
43.5284424
0
ARC
8
DEFAULT_255_1_234
10
23.7869984
20
121.9352573
40
0.184134
50
43.4415429
51
83.1661404
0
ARC
8
DEFAULT_255_1_234
10
23.7735902
20
121.8615771
40
0.258926
50
82.160215
51
90.1505798
0
ARC
8
DEFAULT_255_1_234
10
23.7704329
20
121.8078865
40
0.3126255
50
89.5460705
51
102.5418777
0
ARC
8
DEFAULT_255_1_234
10
23.7461416
20
121.9109665
40
0.2067346
50
102.1739365
51
129.2061916
0
ARC
8
DEFAULT_255_1_234
10
23.7382487
20
121.9234094
40
0.1921118
50
129.7279328
51
135.7542026
0
ARC
8
DEFAULT_255_1_234
10
23.7504015
20
121.9137045
40
0.2075944
50
136.175737
51
166.3674722
0
ARC
8
DEFAULT_255_1_234
10
23.8510934
20
121.8867182
40
0.3118201
50
165.9092917
51
178.8683903
0
ARC
8
DEFAULT_255_1_234
10
23.9375795
20
121.8820179
40
0.3983935
50
178.438168
51
180.0083905
0
ARC
8
DEFAULT_255_1_234
10
23.7974398
20
121.8859231
40
0.4068601
50
163.2878735
51
180.5581814
0
ARC
8
DEFAULT_255_1_234
10
23.7172659
20
121.907984
40
0.3237344
50
133.454115
51
162.9470031
0
ARC
8
DEFAULT_255_1_234
10
23.73512
20
121.889
40
0.349795
50
100.7869394
51
133.4384016
0
ARC
8
DEFAULT_255_1_234
10
23.7698972
20
121.7341319
40
0.5084616
50
89.6605301
51
101.3704185
0
ARC
8
DEFAULT_255_1_234
10
23.7765311
20
121.7402496
40
0.502348
50
78.2171172
51
90.4130393
0
ARC
8
DEFAULT_255_1_234
10
23.8120389
20
121.9026637
40
0.3361092
50
55.9268222
51
78.4888551
0
ARC
8
DEFAULT_255_1_234
10
23.8316829
20
121.9365324
40
0.2970617
50
47.9292255
51
55.4054003
0
ARC
8
DEFAULT_255_1_234
10
23.841839
20
121.9468502
40
0.2825983
50
4.3347696
51
48.0560701
0
ARC
8
DEFAULT_255_1_234
10
23.7322783
20
121.9298601
40
0.393225
50
359.925209
51
5.5967654
0
ARC
8
DEFAULT_255_1_234
10
23.7751675
20
121.9354816
40
0.3503892
50
337.8914096
51
358.9967724
0
ARC
8
DEFAULT_255_1_234
10
23.5038087
20
122.0401706
40
0.6412172
50
326.9135351
51
338.3505194
0
ARC
8
DEFAULT_255_1_234
10
23.1052391
20
122.2956284
40
1.1146189
50
319.6472867
51
327.095818
0
ARC
8
DEFAULT_255_1_234
10
22.7219394
20
122.6118
40
1.6114559
50
317.2586784
51
319.9046139
0
LINE
8
DEFAULT_255_1_234
10
22.5255458
20
127.5181211
11
22.8291456
21
126.931001
0
LINE
8
DEFAULT_255_1_234
10
22.8291456
20
126.931001
11
23.1343516
21
127.5181211
0
LINE
8
DEFAULT_255_1_234
10
23.1343516
20
127.5181211
11
23.3094435
21
127.5181211
0
LINE
8
DEFAULT_255_1_234
10
23.3094435
20
127.5181211
11
22.9062502
21
126.7848234
0
LINE
8
DEFAULT_255_1_234
10
22.9062502
20
126.7848234
11
22.9062502
21
126.3487
0
LINE
8
DEFAULT_255_1_234
10
22.9062502
20
126.3487
11
22.7520409
21
126.3487
0
LINE
8
DEFAULT_255_1_234
10
22.7520409
20
126.3487
11
22.7520409
21
126.7848234
0
LINE
8
DEFAULT_255_1_234
10
22.7520409
20
126.7848234
11
22.3488476
21
127.5181211
0
LINE
8
DEFAULT_255_1_234
10
22.3488476
20
127.5181211
11
22.5255458
21
127.5181211
0
LINE
8
DEFAULT_255_1_234
10
23.9102175
20
127.5237433
11
23.9102175
21
126.3487
0
LINE
8
DEFAULT_255_1_234
10
23.9102175
20
126.3487
11
23.7608272
21
126.3487
0
LINE
8
DEFAULT_255_1_234
10
23.7608272
20
126.3487
11
23.7608272
21
127.3390133
0
LINE
8
DEFAULT_255_1_234
10
23.7608272
20
127.3390133
11
23.4612434
21
127.2289785
0
LINE
8
DEFAULT_255_1_234
10
23.4612434
20
127.2289785
11
23.4612434
21
127.3639117
0
LINE
8
DEFAULT_255_1_234
10
23.4612434
20
127.3639117
11
23.8869255
21
127.5237433
0
LINE
8
DEFAULT_255_1_234
10
23.8869255
20
127.5237433
11
23.9102175
21
127.5237433
0
LINE
8
DEFAULT_255_1_234
10
22.5167458
20
132.8098211
11
22.8203456
21
132.222701
0
LINE
8
DEFAULT_255_1_234
10
22.8203456
20
132.222701
11
23.1255516
21
132.8098211
0
LINE
8
DEFAULT_255_1_234
10
23.1255516
20
132.8098211
11
23.3006435
21
132.8098211
0
LINE
8
DEFAULT_255_1_234
10
23.3006435
20
132.8098211
11
22.8974502
21
132.0765234
0
LINE
8
DEFAULT_255_1_234
10
22.8974502
20
132.0765234
11
22.8974502
21
131.6404
0
LINE
8
DEFAULT_255_1_234
10
22.8974502
20
131.6404
11
22.7432409
21
131.6404
0
LINE
8
DEFAULT_255_1_234
10
22.7432409
20
131.6404
11
22.7432409
21
132.0765234
0
LINE
8
DEFAULT_255_1_234
10
22.7432409
20
132.0765234
11
22.3400476
21
132.8098211
0
LINE
8
DEFAULT_255_1_234
10
22.3400476
20
132.8098211
11
22.5167458
21
132.8098211
0
LINE
8
DEFAULT_255_1_234
10
24.1463855
20
132.3319327
11
24.1463855
21
132.1391709
0
LINE
8
DEFAULT_255_1_234
10
23.4082688
20
132.1190916
11
23.4082688
21
132.3174755
0
LINE
8
DEFAULT_255_1_234
10
23.9977984
20
132.0990123
11
23.9977984
21
132.3423739
0
LINE
8
DEFAULT_255_1_234
10
23.556856
20
132.3536184
11
23.556856
21
132.1158789
0
ARC
8
DEFAULT_255_1_234
10
22.9216745
20
132.1342805
40
1.2247208
50
353.8441951
51
0.2287902
0
ARC
8
DEFAULT_255_1_234
10
23.3856249
20
132.0824806
40
0.7578929
50
344.4934747
51
353.9765454
0
ARC
8
DEFAULT_255_1_234
10
23.6848839
20
131.9973981
40
0.4467846
50
329.2803592
51
344.7472793
0
ARC
8
DEFAULT_255_1_234
10
23.7841664
20
131.9429018
40
0.3336173
50
324.9352394
51
328.6160465
0
ARC
8
DEFAULT_255_1_234
10
23.8218773
20
131.9165427
40
0.2876076
50
280.580143
51
324.9173126
0
ARC
8
DEFAULT_255_1_234
10
23.7817565
20
132.0836099
40
0.4592847
50
269.5977311
51
281.6734359
0
ARC
8
DEFAULT_255_1_234
10
23.7745471
20
132.0716173
40
0.4472986
50
256.6228859
51
270.51044
0
ARC
8
DEFAULT_255_1_234
10
23.7343449
20
131.9167877
40
0.2873874
50
215.8618325
51
257.2788573
0
ARC
8
DEFAULT_255_1_234
10
23.836448
20
131.9852977
40
0.4102928
50
197.9693508
51
215.2623606
0
ARC
8
DEFAULT_255_1_234
10
24.0849596
20
132.0691709
40
0.6725652
50
187.8816417
51
198.2346507
0
ARC
8
DEFAULT_255_1_234
10
24.4807804
20
132.1263079
40
1.0724845
50
180.8976217
51
188.0055519
0
ARC
8
DEFAULT_255_1_234
10
24.7607992
20
132.1366777
40
1.3526448
50
180.7449369
51
181.1510016
0
ARC
8
DEFAULT_255_1_234
10
24.6030721
20
132.3223042
40
1.1948131
50
173.7675579
51
180.231553
0
ARC
8
DEFAULT_255_1_234
10
24.1512868
20
132.3733666
40
0.7401564
50
164.3058563
51
173.9002247
0
ARC
8
DEFAULT_255_1_234
10
23.8600937
20
132.4572656
40
0.4371288
50
148.7922025
51
164.568378
0
ARC
8
DEFAULT_255_1_234
10
23.7649389
20
132.5103929
40
0.3282386
50
144.5883898
51
148.1176286
0
ARC
8
DEFAULT_255_1_234
10
23.7306287
20
132.5343315
40
0.2864044
50
101.6440918
51
144.514236
0
ARC
8
DEFAULT_255_1_234
10
23.7731354
20
132.3654069
40
0.4604934
50
89.5284041
51
102.5819763
0
ARC
8
DEFAULT_255_1_234
10
23.7810441
20
132.3615018
40
0.464401
50
77.0437873
51
90.5081339
0
ARC
8
DEFAULT_255_1_234
10
23.8212443
20
132.5257615
40
0.2953195
50
48.2778575
51
77.4994676
0
ARC
8
DEFAULT_255_1_234
10
23.8285074
20
132.5386746
40
0.2808655
50
36.3142134
51
47.6305865
0
ARC
8
DEFAULT_255_1_234
10
23.7416381
20
132.4801515
40
0.3855453
50
18.2931786
51
35.6769206
0
ARC
8
DEFAULT_255_1_234
10
23.487314
20
132.3928593
40
0.654423
50
8.024666
51
18.5605216
0
ARC
8
DEFAULT_255_1_234
10
23.071006
20
132.3313792
40
1.0752407
50
1.1274072
51
8.1718305
0
ARC
8
DEFAULT_255_1_234
10
22.7474251
20
132.3186885
40
1.3990231
50
0.5424119
51
1.3863029
0
ARC
8
DEFAULT_255_1_234
10
22.9295629
20
132.3459342
40
1.0682415
50
359.8090433
51
4.9407866
0
ARC
8
DEFAULT_255_1_234
10
23.3505643
20
132.3835113
40
0.6455691
50
4.8362157
51
12.2904523
0
ARC
8
DEFAULT_255_1_234
10
23.6260757
20
132.4448965
40
0.3633074
50
12.0805627
51
23.8173984
0
ARC
8
DEFAULT_255_1_234
10
23.7434463
20
132.4945919
40
0.2358723
50
24.2871213
51
31.3935614
0
ARC
8
DEFAULT_255_1_234
10
23.795916
20
132.5289233
40
0.1732111
50
30.7407893
51
82.4657128
0
ARC
8
DEFAULT_255_1_234
10
23.7779294
20
132.4405691
40
0.263235
50
81.1060089
51
90.2184952
0
ARC
8
DEFAULT_255_1_234
10
23.7743593
20
132.4663924
40
0.2374236
50
89.3806855
51
105.6762551
0
ARC
8
DEFAULT_255_1_234
10
23.7560224
20
132.5330567
40
0.1682847
50
105.7981136
51
149.7388061
0
ARC
8
DEFAULT_255_1_234
10
23.8624302
20
132.469095
40
0.2924306
50
149.4208916
51
163.6286378
0
ARC
8
DEFAULT_255_1_234
10
24.071519
20
132.405325
40
0.5110213
50
163.3763315
51
172.1410975
0
ARC
8
DEFAULT_255_1_234
10
24.4015909
20
132.3580518
40
0.8444586
50
172.0259487
51
178.0703232
0
ARC
8
DEFAULT_255_1_234
10
24.7045999
20
132.3436906
40
1.1477868
50
177.8631668
51
179.5044149
0
ARC
8
DEFAULT_255_1_234
10
24.5973403
20
132.1122389
40
1.0404907
50
179.7995573
51
185.2460446
0
ARC
8
DEFAULT_255_1_234
10
24.1930442
20
132.0739513
40
0.6343885
50
185.1411642
51
193.0079639
0
ARC
8
DEFAULT_255_1_234
10
23.9286915
20
132.0114641
40
0.3627568
50
192.7897626
51
205.2507664
0
ARC
8
DEFAULT_255_1_234
10
23.8240462
20
131.9647415
40
0.2481908
50
205.8005384
51
211.2537509
0
ARC
8
DEFAULT_255_1_234
10
23.7716902
20
131.929658
40
0.1852521
50
210.3789793
51
238.4008143
0
ARC
8
DEFAULT_255_1_234
10
23.7697424
20
131.9343376
40
0.1882621
50
239.6520629
51
265.9793761
0
ARC
8
DEFAULT_255_1_234
10
23.7782624
20
132.0015427
40
0.2559272
50
265.1315437
51
270.060332
0
ARC
8
DEFAULT_255_1_234
10
23.7811403
20
131.9691534
40
0.2235528
50
269.3314664
51
287.2178029
0
ARC
8
DEFAULT_255_1_234
10
23.7949255
20
131.9188279
40
0.1714108
50
287.7958004
51
329.080874
0
ARC
8
DEFAULT_255_1_234
10
23.6991712
20
131.978593
40
0.2842745
50
328.6634704
51
343.3325132
0
ARC
8
DEFAULT_255_1_234
10
23.4818732
20
132.0462863
40
0.5118644
50
343.0499468
51
351.9393422
0
ARC
8
DEFAULT_255_1_234
10
23.1352032
20
132.0973949
40
0.8622784
50
351.8069023
51
357.7959224
0
ARC
8
DEFAULT_255_1_234
10
22.8116588
20
132.1141721
40
1.1862365
50
357.5871873
51
359.2677531
0
LINE
8
DEFAULT_255_1_234
10
21.9179265
20
137.9007276
11
21.9179265
21
137.5593788
0
LINE
8
DEFAULT_255_1_234
10
21.9179265
20
137.5593788
11
22.244015
21
137.5593788
0
LINE
8
DEFAULT_255_1_234
10
22.244015
20
137.5593788
11
22.244015
21
137.4188233
0
LINE
8
DEFAULT_255_1_234
10
22.244015
20
137.4188233
11
21.9179265
21
137.4188233
0
LINE
8
DEFAULT_255_1_234
10
21.9179265
20
137.4188233
11
21.9179265
21
137.0493634
0
LINE
8
DEFAULT_255_1_234
10
21.9179265
20
137.0493634
11
21.7685361
21
137.0493634
0
LINE
8
DEFAULT_255_1_234
10
21.7685361
20
137.0493634
11
21.7685361
21
137.4188233
0
LINE
8
DEFAULT_255_1_234
10
21.7685361
20
137.4188233
11
21.4424476
21
137.4188233
0
LINE
8
DEFAULT_255_1_234
10
21.4424476
20
137.4188233
11
21.4424476
21
137.5593788
0
LINE
8
DEFAULT_255_1_234
10
21.4424476
20
137.5593788
11
21.7685361
21
137.5593788
0
LINE
8
DEFAULT_255_1_234
10
21.7685361
20
137.5593788
11
21.7685361
21
137.9007276
0
LINE
8
DEFAULT_255_1_234
10
21.7685361
20
137.9007276
11
21.9179265
21
137.9007276
0
LINE
8
DEFAULT_255_1_234
10
22.502637
20
138.1015211
11
22.835151
21
137.1369093
0
LINE
8
DEFAULT_255_1_234
10
22.835151
20
137.1369093
11
23.1692713
21
138.1015211
0
LINE
8
DEFAULT_255_1_234
10
23.1692713
20
138.1015211
11
23.3379378
21
138.1015211
0
LINE
8
DEFAULT_255_1_234
10
23.3379378
20
138.1015211
11
22.9042239
21
136.9321
0
LINE
8
DEFAULT_255_1_234
10
22.9042239
20
136.9321
11
22.7676844
21
136.9321
0
LINE
8
DEFAULT_255_1_234
10
22.7676844
20
136.9321
11
22.3347737
21
138.1015211
0
LINE
8
DEFAULT_255_1_234
10
22.3347737
20
138.1015211
11
22.502637
21
138.1015211
0
LINE
8
DEFAULT_255_1_234
10
23.6431438
20
137.4878963
11
23.5242741
21
137.5184169
0
LINE
8
DEFAULT_255_1_234
10
23.5242741
20
137.5184169
11
23.583709
21
138.1015211
0
LINE
8
DEFAULT_255_1_234
10
23.583709
20
138.1015211
11
24.1828767
21
138.1015211
0
LINE
8
DEFAULT_255_1_234
10
24.1828767
20
138.1015211
11
24.1828767
21
137.9641784
0
LINE
8
DEFAULT_255_1_234
10
24.1828767
20
137.9641784
11
23.7098073
21
137.9641784
0
LINE
8
DEFAULT_255_1_234
10
23.7098073
20
137.9641784
11
23.6744676
21
137.6453184
0
LINE
8
DEFAULT_255_1_234
10
23.4825091
20
137.2397156
11
23.6230645
21
137.2397156
0
LINE
8
DEFAULT_255_1_234
10
23.6824994
20
137.5200232
11
23.6431438
21
137.4878963
0
ARC
8
DEFAULT_255_1_234
10
23.859946
20
137.327323
40
0.3681349
50
93.7182161
51
120.2538958
0
ARC
8
DEFAULT_255_1_234
10
23.8693723
20
137.2465394
40
0.449379
50
89.9660152
51
94.2496022
0
ARC
8
DEFAULT_255_1_234
10
23.8734457
20
137.3054549
40
0.390482
50
73.8043271
51
90.5585896
0
ARC
8
DEFAULT_255_1_234
10
23.8969354
20
137.3912602
40
0.3015334
50
41.3071453
51
73.5430202
0
ARC
8
DEFAULT_255_1_234
10
23.8553181
20
137.3554324
40
0.3564457
50
13.5075983
51
41.2174222
0
ARC
8
DEFAULT_255_1_234
10
23.6911385
20
137.3124486
40
0.5261351
50
1.1331335
51
13.8829381
0
ARC
8
DEFAULT_255_1_234
10
23.5499754
20
137.3048665
40
0.6674378
50
359.9919444
51
1.544251
0
ARC
8
DEFAULT_255_1_234
10
23.677658
20
137.300728
40
0.5397702
50
347.8572367
51
0.4293338
0
ARC
8
DEFAULT_255_1_234
10
23.8526898
20
137.2610736
40
0.3603188
50
323.673004
51
348.1672506
0
ARC
8
DEFAULT_255_1_234
10
23.8821406
20
137.2431168
40
0.3259678
50
316.8171152
51
323.1492751
0
ARC
8
DEFAULT_255_1_234
10
23.8882595
20
137.239446
40
0.3189975
50
281.8396411
51
316.5457803
0
ARC
8
DEFAULT_255_1_234
10
23.8506859
20
137.3949762
40
0.4789527
50
269.5770101
51
282.4214771
0
ARC
8
DEFAULT_255_1_234
10
23.8435671
20
137.3736125
40
0.45759
50
256.2427136
51
270.4486331
0
ARC
8
DEFAULT_255_1_234
10
23.8136573
20
137.2536229
40
0.3339303
50
228.9023911
51
256.3314342
0
ARC
8
DEFAULT_255_1_234
10
23.8062805
20
137.2419746
40
0.32031
50
193.753695
51
228.5271154
0
ARC
8
DEFAULT_255_1_234
10
23.9300759
20
137.27828
40
0.4492253
50
184.924711
51
194.497588
0
ARC
8
DEFAULT_255_1_234
10
23.9493326
20
137.2818591
40
0.3289787
50
187.3600538
51
198.6732863
0
ARC
8
DEFAULT_255_1_234
10
23.844362
20
137.2454674
40
0.217884
50
198.4451669
51
217.794479
0
ARC
8
DEFAULT_255_1_234
10
23.8147795
20
137.2245085
40
0.1816698
50
218.2887171
51
228.5612368
0
ARC
8
DEFAULT_255_1_234
10
23.8245582
20
137.2376963
40
0.1980329
50
228.9654866
51
258.1234728
0
ARC
8
DEFAULT_255_1_234
10
23.8451292
20
137.3257833
40
0.2884748
50
257.7258293
51
270.401361
0
ARC
8
DEFAULT_255_1_234
10
23.8496179
20
137.2812821
40
0.2439788
50
269.4204404
51
286.4209037
0
ARC
8
DEFAULT_255_1_234
10
23.8644666
20
137.2273657
40
0.1880666
50
286.7251356
51
320.600362
0
ARC
8
DEFAULT_255_1_234
10
23.8261491
20
137.2584595
40
0.2374121
50
320.6712579
51
344.5441685
0
ARC
8
DEFAULT_255_1_234
10
23.7104817
20
137.2924045
40
0.3579479
50
344.2412205
51
356.7357071
0
ARC
8
DEFAULT_255_1_234
10
23.5855966
20
137.3027444
40
0.4832297
50
356.3548756
51
0.0500261
0
ARC
8
DEFAULT_255_1_234
10
23.7192475
20
137.305865
40
0.3495889
50
359.5576869
51
12.953486
0
ARC
8
DEFAULT_255_1_234
10
23.8247372
20
137.3314434
40
0.2410532
50
12.6490276
51
41.6081334
0
ARC
8
DEFAULT_255_1_234
10
23.8477743
20
137.3510321
40
0.2108218
50
41.7850273
51
85.9892764
0
ARC
8
DEFAULT_255_1_234
10
23.835448
20
137.2697462
40
0.2928454
50
84.6957577
51
90.0676183
0
ARC
8
DEFAULT_255_1_234
10
23.8330964
20
137.2028716
40
0.3597255
50
89.6804936
51
99.1614436
0
ARC
8
DEFAULT_255_1_234
10
23.8125595
20
137.3256131
40
0.235281
50
98.9830931
51
113.8908934
0
ARC
8
DEFAULT_255_1_234
10
23.7896005
20
137.3797587
40
0.176479
50
114.1950727
51
127.3641004
0
LINE
8
DEFAULT_255_1_234
10
21.8120265
20
143.1923276
11
21.8120265
21
142.8509788
0
LINE
8
DEFAULT_255_1_234
10
21.8120265
20
142.8509788
11
22.138115
21
142.8509788
0
LINE
8
DEFAULT_255_1_234
10
22.138115
20
142.8509788
11
22.138115
21
142.7104233
0
LINE
8
DEFAULT_255_1_234
10
22.138115
20
142.7104233
11
21.8120265
21
142.7104233
0
LINE
8
DEFAULT_255_1_234
10
21.8120265
20
142.7104233
11
21.8120265
21
142.3409634
0
LINE
8
DEFAULT_255_1_234
10
21.8120265
20
142.3409634
11
21.6626361
21
142.3409634
0
LINE
8
DEFAULT_255_1_234
10
21.6626361
20
142.3409634
11
21.6626361
21
142.7104233
0
LINE
8
DEFAULT_255_1_234
10
21.6626361
20
142.7104233
11
21.3365476
21
142.7104233
0
LINE
8
DEFAULT_255_1_234
10
21.3365476
20
142.7104233
11
21.3365476
21
142.8509788
0
LINE
8
DEFAULT_255_1_234
10
21.3365476
20
142.8509788
11
21.6626361
21
142.8509788
0
LINE
8
DEFAULT_255_1_234
10
21.6626361
20
142.8509788
11
21.6626361
21
143.1923276
0
LINE
8
DEFAULT_255_1_234
10
21.6626361
20
143.1923276
11
21.8120265
21
143.1923276
0
LINE
8
DEFAULT_255_1_234
10
22.396737
20
143.3931211
11
22.729251
21
142.4285093
0
LINE
8
DEFAULT_255_1_234
10
22.729251
20
142.4285093
11
23.0633713
21
143.3931211
0
LINE
8
DEFAULT_255_1_234
10
23.0633713
20
143.3931211
11
23.2320378
21
143.3931211
0
LINE
8
DEFAULT_255_1_234
10
23.2320378
20
143.3931211
11
22.7983239
21
142.2237
0
LINE
8
DEFAULT_255_1_234
10
22.7983239
20
142.2237
11
22.6617844
21
142.2237
0
LINE
8
DEFAULT_255_1_234
10
22.6617844
20
142.2237
11
22.2288737
21
143.3931211
0
LINE
8
DEFAULT_255_1_234
10
22.2288737
20
143.3931211
11
22.396737
21
143.3931211
0
LINE
8
DEFAULT_255_1_234
10
23.9773831
20
143.3931211
11
23.9773831
21
142.616452
0
LINE
8
DEFAULT_255_1_234
10
23.9773831
20
142.616452
11
24.1396242
21
142.616452
0
LINE
8
DEFAULT_255_1_234
10
24.1396242
20
142.616452
11
24.1396242
21
142.4951728
0
LINE
8
DEFAULT_255_1_234
10
24.1396242
20
142.4951728
11
23.9773831
21
142.4951728
0
LINE
8
DEFAULT_255_1_234
10
23.9773831
20
142.4951728
11
23.9773831
21
142.2237
0
LINE
8
DEFAULT_255_1_234
10
23.9773831
20
142.2237
11
23.8279928
21
142.2237
0
LINE
8
DEFAULT_255_1_234
10
23.8279928
20
142.2237
11
23.8279928
21
142.4951728
0
LINE
8
DEFAULT_255_1_234
10
23.8279928
20
142.4951728
11
23.2954885
21
142.4951728
0
LINE
8
DEFAULT_255_1_234
10
23.2954885
20
142.4951728
11
23.2954885
21
142.5827187
0
LINE
8
DEFAULT_255_1_234
10
23.2954885
20
142.5827187
11
23.8191579
21
143.3931211
0
LINE
8
DEFAULT_255_1_234
10
23.8191579
20
143.3931211
11
23.9773831
21
143.3931211
0
LINE
8
DEFAULT_255_1_234
10
23.8103229
20
143.1577912
11
23.464155
21
142.616452
0
LINE
8
DEFAULT_255_1_234
10
23.464155
20
142.616452
11
23.8279928
21
142.616452
0
LINE
8
DEFAULT_255_1_234
10
23.8279928
20
142.616452
11
23.8279928
21
143.1899181
0
LINE
8
DEFAULT_255_1_234
10
23.8279928
20
143.1899181
11
23.8103229
21
143.1577912
0
LINE
8
DEFAULT_255_1_234
10
21.9179265
20
148.4840276
11
21.9179265
21
148.1426788
0
LINE
8
DEFAULT_255_1_234
10
21.9179265
20
148.1426788
11
22.244015
21
148.1426788
0
LINE
8
DEFAULT_255_1_234
10
22.244015
20
148.1426788
11
22.244015
21
148.0021233
0
LINE
8
DEFAULT_255_1_234
10
22.244015
20
148.0021233
11
21.9179265
21
148.0021233
0
LINE
8
DEFAULT_255_1_234
10
21.9179265
20
148.0021233
11
21.9179265
21
147.6326634
0
LINE
8
DEFAULT_255_1_234
10
21.9179265
20
147.6326634
11
21.7685361
21
147.6326634
0
LINE
8
DEFAULT_255_1_234
10
21.7685361
20
147.6326634
11
21.7685361
21
148.0021233
0
LINE
8
DEFAULT_255_1_234
10
21.7685361
20
148.0021233
11
21.4424476
21
148.0021233
0
LINE
8
DEFAULT_255_1_234
10
21.4424476
20
148.0021233
11
21.4424476
21
148.1426788
0
LINE
8
DEFAULT_255_1_234
10
21.4424476
20
148.1426788
11
21.7685361
21
148.1426788
0
LINE
8
DEFAULT_255_1_234
10
21.7685361
20
148.1426788
11
21.7685361
21
148.4840276
0
LINE
8
DEFAULT_255_1_234
10
21.7685361
20
148.4840276
11
21.9179265
21
148.4840276
0
LINE
8
DEFAULT_255_1_234
10
22.502637
20
148.6848211
11
22.835151
21
147.7202093
0
LINE
8
DEFAULT_255_1_234
10
22.835151
20
147.7202093
11
23.1692713
21
148.6848211
0
LINE
8
DEFAULT_255_1_234
10
23.1692713
20
148.6848211
11
23.3379378
21
148.6848211
0
LINE
8
DEFAULT_255_1_234
10
23.3379378
20
148.6848211
11
22.9042239
21
147.5154
0
LINE
8
DEFAULT_255_1_234
10
22.9042239
20
147.5154
11
22.7676844
21
147.5154
0
LINE
8
DEFAULT_255_1_234
10
22.7676844
20
147.5154
11
22.3347737
21
148.6848211
0
LINE
8
DEFAULT_255_1_234
10
22.3347737
20
148.6848211
11
22.502637
21
148.6848211
0
LINE
8
DEFAULT_255_1_234
10
23.6720581
20
148.0511169
11
23.6720581
21
148.1723962
0
LINE
8
DEFAULT_255_1_234
10
23.6720581
20
148.1723962
11
23.7836993
21
148.1723962
0
LINE
8
DEFAULT_255_1_234
10
23.5933471
20
148.3780087
11
23.4447599
21
148.3780087
0
LINE
8
DEFAULT_255_1_234
10
23.4343187
20
147.8238188
11
23.583709
21
147.8238188
0
LINE
8
DEFAULT_255_1_234
10
23.7836993
20
148.0511169
11
23.6720581
21
148.0511169
0
ARC
8
DEFAULT_255_1_234
10
23.7807859
20
148.5116713
40
0.3392876
50
270.4919872
51
281.8951556
0
ARC
8
DEFAULT_255_1_234
10
23.8049121
20
148.4014702
40
0.2264817
50
281.6691735
51
301.2943132
0
ARC
8
DEFAULT_255_1_234
10
23.8219331
20
148.3703304
40
0.1910381
50
301.7833094
51
311.7545298
0
ARC
8
DEFAULT_255_1_234
10
23.8310907
20
148.3601748
40
0.1773635
50
311.7323931
51
354.2802411
0
ARC
8
DEFAULT_255_1_234
10
23.7584532
20
148.3726722
40
0.2509385
50
353.0937916
51
0.1181479
0
ARC
8
DEFAULT_255_1_234
10
23.7123317
20
148.3774386
40
0.2970898
50
359.1805295
51
15.0453146
0
ARC
8
DEFAULT_255_1_234
10
23.8469154
20
148.4166992
40
0.1569564
50
13.9577229
51
77.6713066
0
ARC
8
DEFAULT_255_1_234
10
23.8082683
20
148.2781949
40
0.3006298
50
76.1116566
51
90.7026153
0
ARC
8
DEFAULT_255_1_234
10
23.8023521
20
148.3055545
40
0.2732568
50
89.5324876
51
103.531937
0
ARC
8
DEFAULT_255_1_234
10
23.7822966
20
148.3854884
40
0.1908508
50
103.2931773
51
133.5619022
0
ARC
8
DEFAULT_255_1_234
10
23.7778454
20
148.3914375
40
0.1834746
50
133.8349307
51
173.5344437
0
ARC
8
DEFAULT_255_1_234
10
23.8501497
20
148.3786213
40
0.2568033
50
172.5096846
51
180.1366907
0
ARC
8
DEFAULT_255_1_234
10
23.7550391
20
148.3820622
40
0.3103056
50
155.3484492
51
180.7484736
0
ARC
8
DEFAULT_255_1_234
10
23.750148
20
148.3791846
40
0.3070957
50
131.5744599
51
154.4798489
0
ARC
8
DEFAULT_255_1_234
10
23.7814627
20
148.347531
40
0.3515643
50
96.9875458
51
131.9690667
0
ARC
8
DEFAULT_255_1_234
10
23.8034107
20
148.2229636
40
0.4779224
50
89.8596053
51
97.7825159
0
ARC
8
DEFAULT_255_1_234
10
23.808217
20
148.1967616
40
0.5041361
50
78.3655447
51
90.4131539
0
ARC
8
DEFAULT_255_1_234
10
23.8440088
20
148.3626887
40
0.3344039
50
56.6229102
51
78.638727
0
ARC
8
DEFAULT_255_1_234
10
23.8655032
20
148.4002805
40
0.2912001
50
47.0253525
51
56.0854072
0
ARC
8
DEFAULT_255_1_234
10
23.8674812
20
148.4042223
40
0.2869704
50
10.9208013
51
46.7778124
0
ARC
8
DEFAULT_255_1_234
10
23.7310878
20
148.3726857
40
0.426899
50
359.6364486
51
11.6087304
0
ARC
8
DEFAULT_255_1_234
10
23.9145723
20
148.3711752
40
0.243409
50
332.3549906
51
359.7179418
0
ARC
8
DEFAULT_255_1_234
10
23.8495324
20
148.4020142
40
0.3153459
50
325.2333722
51
332.8745602
0
ARC
8
DEFAULT_255_1_234
10
23.8647948
20
148.3913828
40
0.2967456
50
292.9802137
51
325.2392345
0
ARC
8
DEFAULT_255_1_234
10
23.8373322
20
148.4447863
40
0.3566604
50
292.5402179
51
293.6924929
0
ARC
8
DEFAULT_255_1_234
10
23.8765917
20
147.7993091
40
0.3307468
50
57.6435486
51
72.8625112
0
ARC
8
DEFAULT_255_1_234
10
23.9120417
20
147.8567549
40
0.2632492
50
36.7248896
51
57.4697979
0
ARC
8
DEFAULT_255_1_234
10
23.910905
20
147.858022
40
0.2634081
50
8.0545065
51
36.356114
0
ARC
8
DEFAULT_255_1_234
10
23.8246235
20
147.8425174
40
0.3510261
50
359.8320645
51
8.5869982
0
ARC
8
DEFAULT_255_1_234
10
23.7871011
20
147.8377101
40
0.3885653
50
343.9829931
51
0.5571613
0
ARC
8
DEFAULT_255_1_234
10
23.8757209
20
147.8134438
40
0.2966924
50
311.6359546
51
343.7651759
0
ARC
8
DEFAULT_255_1_234
10
23.8378778
20
147.8561102
40
0.3537231
50
279.7829875
51
311.6255694
0
ARC
8
DEFAULT_255_1_234
10
23.8077554
20
147.999828
40
0.5004971
50
269.7286406
51
280.3856417
0
ARC
8
DEFAULT_255_1_234
10
23.8015626
20
147.9956996
40
0.4963778
50
256.6828919
51
270.4412052
0
ARC
8
DEFAULT_255_1_234
10
23.7676922
20
147.8572394
40
0.3538406
50
229.4223008
51
256.8556159
0
ARC
8
DEFAULT_255_1_234
10
23.7262315
20
147.8105736
40
0.2914296
50
181.818294
51
229.6455059
0
ARC
8
DEFAULT_255_1_234
10
23.8302271
20
147.8236496
40
0.3959084
50
179.9755256
51
183.2323064
0
ARC
8
DEFAULT_255_1_234
10
23.8130017
20
147.8216037
40
0.2293034
50
179.4465117
51
196.2869258
0
ARC
8
DEFAULT_255_1_234
10
23.7642425
20
147.8082651
40
0.1787621
50
196.5661473
51
227.705904
0
ARC
8
DEFAULT_255_1_234
10
23.780652
20
147.8266155
40
0.2033784
50
227.7652068
51
257.8762805
0
ARC
8
DEFAULT_255_1_234
10
23.803149
20
147.9209156
40
0.3003081
50
257.4584385
51
270.426602
0
ARC
8
DEFAULT_255_1_234
10
23.8077056
20
147.9498996
40
0.329292
50
269.5962073
51
280.8789248
0
ARC
8
DEFAULT_255_1_234
10
23.8306585
20
147.8352685
40
0.2123908
50
280.6346389
51
299.8595945
0
ARC
8
DEFAULT_255_1_234
10
23.8497492
20
147.7990212
40
0.171457
50
300.3576302
51
314.5517981
0
ARC
8
DEFAULT_255_1_234
10
23.8414552
20
147.8050919
40
0.1816095
50
315.0728369
51
345.0431014
0
ARC
8
DEFAULT_255_1_234
10
23.7491366
20
147.8319841
40
0.2777492
50
344.5986631
51
357.9269593
0
ARC
8
DEFAULT_255_1_234
10
23.6595693
20
147.8381276
40
0.3674917
50
357.4748886
51
0.0231117
0
ARC
8
DEFAULT_255_1_234
10
23.7618802
20
147.8405679
40
0.2651907
50
359.5047933
51
13.4239635
0
ARC
8
DEFAULT_255_1_234
10
23.8485446
20
147.8627478
40
0.1757509
50
12.9498199
51
48.7551375
0
ARC
8
DEFAULT_255_1_234
10
23.830318
20
147.83784
40
0.2065134
50
49.5088623
51
72.1836453
0
ARC
8
DEFAULT_255_1_234
10
23.7945332
20
147.7316291
40
0.3185836
50
71.9010081
51
84.3554254
0
ARC
8
DEFAULT_255_1_234
10
23.7783964
20
147.5955326
40
0.4556151
50
84.0193428
51
89.333121
0
LINE
8
DEFAULT_255_1_234
10
21.9179265
20
153.7757276
11
21.9179265
21
153.4343788
0
LINE
8
DEFAULT_255_1_234
10
21.9179265
20
153.4343788
11
22.244015
21
153.4343788
0
LINE
8
DEFAULT_255_1_234
10
22.244015
20
153.4343788
11
22.244015
21
153.2938233
0
LINE
8
DEFAULT_255_1_234
10
22.244015
20
153.2938233
11
21.9179265
21
153.2938233
0
LINE
8
DEFAULT_255_1_234
10
21.9179265
20
153.2938233
11
21.9179265
21
152.9243634
0
LINE
8
DEFAULT_255_1_234
10
21.9179265
20
152.9243634
11
21.7685361
21
152.9243634
0
LINE
8
DEFAULT_255_1_234
10
21.7685361
20
152.9243634
11
21.7685361
21
153.2938233
0
LINE
8
DEFAULT_255_1_234
10
21.7685361
20
153.2938233
11
21.4424476
21
153.2938233
0
LINE
8
DEFAULT_255_1_234
10
21.4424476
20
153.2938233
11
21.4424476
21
153.4343788
0
LINE
8
DEFAULT_255_1_234
10
21.4424476
20
153.4343788
11
21.7685361
21
153.4343788
0
LINE
8
DEFAULT_255_1_234
10
21.7685361
20
153.4343788
11
21.7685361
21
153.7757276
0
LINE
8
DEFAULT_255_1_234
10
21.7685361
20
153.7757276
11
21.9179265
21
153.7757276
0
LINE
8
DEFAULT_255_1_234
10
22.502637
20
153.9765211
11
22.835151
21
153.0119093
0
LINE
8
DEFAULT_255_1_234
10
22.835151
20
153.0119093
11
23.1692713
21
153.9765211
0
LINE
8
DEFAULT_255_1_234
10
23.1692713
20
153.9765211
11
23.3379378
21
153.9765211
0
LINE
8
DEFAULT_255_1_234
10
23.3379378
20
153.9765211
11
22.9042239
21
152.8071
0
LINE
8
DEFAULT_255_1_234
10
22.9042239
20
152.8071
11
22.7676844
21
152.8071
0
LINE
8
DEFAULT_255_1_234
10
22.7676844
20
152.8071
11
22.3347737
21
153.9765211
0
LINE
8
DEFAULT_255_1_234
10
22.3347737
20
153.9765211
11
22.502637
21
153.9765211
0
LINE
8
DEFAULT_255_1_234
10
24.2222322
20
152.9283792
11
24.2222322
21
152.8071
0
LINE
8
DEFAULT_255_1_234
10
24.2222322
20
152.8071
11
23.4560043
21
152.8071
0
LINE
8
DEFAULT_255_1_234
10
23.4560043
20
152.8071
11
23.4560043
21
152.9139221
0
LINE
8
DEFAULT_255_1_234
10
23.4560043
20
152.9139221
11
23.860804
21
153.3636995
0
LINE
8
DEFAULT_255_1_234
10
23.5821026
20
153.6319595
11
23.4335155
21
153.6319595
0
LINE
8
DEFAULT_255_1_234
10
23.9483499
20
153.2681218
11
23.6351121
21
152.9283792
0
LINE
8
DEFAULT_255_1_234
10
23.6351121
20
152.9283792
11
24.2222322
21
152.9283792
0
ARC
8
DEFAULT_255_1_234
10
22.5117873
20
154.5566527
40
1.8008286
50
318.5132453
51
320.7828378
0
ARC
8
DEFAULT_255_1_234
10
23.0404847
20
154.1263426
40
1.1191493
50
320.7372736
51
323.9737074
0
ARC
8
DEFAULT_255_1_234
10
23.4324704
20
153.8423361
40
0.6350923
50
323.8961724
51
328.6421089
0
ARC
8
DEFAULT_255_1_234
10
23.6371299
20
153.7161031
40
0.3946393
50
328.8299013
51
331.789948
0
ARC
8
DEFAULT_255_1_234
10
23.7368478
20
153.6646509
40
0.2824501
50
331.4255242
51
352.9364833
0
ARC
8
DEFAULT_255_1_234
10
23.7504978
20
153.6615976
40
0.2685315
50
353.2248685
51
0.0169286
0
ARC
8
DEFAULT_255_1_234
10
23.7714855
20
153.663895
40
0.2475536
50
359.4866256
51
15.9339782
0
ARC
8
DEFAULT_255_1_234
10
23.822184
20
153.6775286
40
0.1950618
50
16.1714718
51
43.5284424
0
ARC
8
DEFAULT_255_1_234
10
23.8299149
20
153.6852573
40
0.184134
50
43.4415429
51
83.1661404
0
ARC
8
DEFAULT_255_1_234
10
23.8165067
20
153.6115771
40
0.258926
50
82.160215
51
90.1505798
0
ARC
8
DEFAULT_255_1_234
10
23.8133495
20
153.5578865
40
0.3126255
50
89.5460705
51
102.5418777
0
ARC
8
DEFAULT_255_1_234
10
23.7890581
20
153.6609665
40
0.2067346
50
102.1739365
51
129.2061916
0
ARC
8
DEFAULT_255_1_234
10
23.7811652
20
153.6734094
40
0.1921118
50
129.7279328
51
135.7542026
0
ARC
8
DEFAULT_255_1_234
10
23.793318
20
153.6637045
40
0.2075944
50
136.175737
51
166.3674722
0
ARC
8
DEFAULT_255_1_234
10
23.8940099
20
153.6367182
40
0.3118201
50
165.9092917
51
178.8683903
0
ARC
8
DEFAULT_255_1_234
10
23.9804961
20
153.6320179
40
0.3983935
50
178.438168
51
180.0083905
0
ARC
8
DEFAULT_255_1_234
10
23.8403563
20
153.6359231
40
0.4068601
50
163.2878735
51
180.5581814
0
ARC
8
DEFAULT_255_1_234
10
23.7601824
20
153.657984
40
0.3237344
50
133.454115
51
162.9470031
0
ARC
8
DEFAULT_255_1_234
10
23.7780365
20
153.639
40
0.349795
50
100.7869394
51
133.4384016
0
ARC
8
DEFAULT_255_1_234
10
23.8128137
20
153.4841319
40
0.5084616
50
89.6605301
51
101.3704185
0
ARC
8
DEFAULT_255_1_234
10
23.8194476
20
153.4902496
40
0.502348
50
78.2171172
51
90.4130393
0
ARC
8
DEFAULT_255_1_234
10
23.8549554
20
153.6526637
40
0.3361092
50
55.9268222
51
78.4888551
0
ARC
8
DEFAULT_255_1_234
10
23.8745994
20
153.6865324
40
0.2970617
50
47.9292255
51
55.4054003
0
ARC
8
DEFAULT_255_1_234
10
23.8847555
20
153.6968502
40
0.2825983
50
4.3347696
51
48.0560701
0
ARC
8
DEFAULT_255_1_234
10
23.7751948
20
153.6798601
40
0.393225
50
359.925209
51
5.5967654
0
ARC
8
DEFAULT_255_1_234
10
23.818084
20
153.6854816
40
0.3503892
50
337.8914096
51
358.9967724
0
ARC
8
DEFAULT_255_1_234
10
23.5467252
20
153.7901706
40
0.6412172
50
326.9135351
51
338.3505194
0
ARC
8
DEFAULT_255_1_234
10
23.1481556
20
154.0456284
40
1.1146189
50
319.6472867
51
327.095818
0
ARC
8
DEFAULT_255_1_234
10
22.7648559
20
154.3618
40
1.6114559
50
317.2586784
51
319.9046139
0
LINE
8
DEFAULT_255_1_234
10
21.9257265
20
159.0673276
11
21.9257265
21
158.7259788
0
LINE
8
DEFAULT_255_1_234
10
21.9257265
20
158.7259788
11
22.251815
21
158.7259788
0
LINE
8
DEFAULT_255_1_234
10
22.251815
20
158.7259788
11
22.251815
21
158.5854233
0
LINE
8
DEFAULT_255_1_234
10
22.251815
20
158.5854233
11
21.9257265
21
158.5854233
0
LINE
8
DEFAULT_255_1_234
10
21.9257265
20
158.5854233
11
21.9257265
21
158.2159634
0
LINE
8
DEFAULT_255_1_234
10
21.9257265
20
158.2159634
11
21.7763361
21
158.2159634
0
LINE
8
DEFAULT_255_1_234
10
21.7763361
20
158.2159634
11
21.7763361
21
158.5854233
0
LINE
8
DEFAULT_255_1_234
10
21.7763361
20
158.5854233
11
21.4502476
21
158.5854233
0
LINE
8
DEFAULT_255_1_234
10
21.4502476
20
158.5854233
11
21.4502476
21
158.7259788
0
LINE
8
DEFAULT_255_1_234
10
21.4502476
20
158.7259788
11
21.7763361
21
158.7259788
0
LINE
8
DEFAULT_255_1_234
10
21.7763361
20
158.7259788
11
21.7763361
21
159.0673276
0
LINE
8
DEFAULT_255_1_234
10
21.7763361
20
159.0673276
11
21.9257265
21
159.0673276
0
LINE
8
DEFAULT_255_1_234
10
22.510437
20
159.2681211
11
22.842951
21
158.3035093
0
LINE
8
DEFAULT_255_1_234
10
22.842951
20
158.3035093
11
23.1770713
21
159.2681211
0
LINE
8
DEFAULT_255_1_234
10
23.1770713
20
159.2681211
11
23.3457378
21
159.2681211
0
LINE
8
DEFAULT_255_1_234
10
23.3457378
20
159.2681211
11
22.9120239
21
158.0987
0
LINE
8
DEFAULT_255_1_234
10
22.9120239
20
158.0987
11
22.7754844
21
158.0987
0
LINE
8
DEFAULT_255_1_234
10
22.7754844
20
158.0987
11
22.3425737
21
159.2681211
0
LINE
8
DEFAULT_255_1_234
10
22.3425737
20
159.2681211
11
22.510437
21
159.2681211
0
LINE
8
DEFAULT_255_1_234
10
23.952134
20
159.2737433
11
23.952134
21
158.0987
0
LINE
8
DEFAULT_255_1_234
10
23.952134
20
158.0987
11
23.8027437
21
158.0987
0
LINE
8
DEFAULT_255_1_234
10
23.8027437
20
158.0987
11
23.8027437
21
159.0890133
0
LINE
8
DEFAULT_255_1_234
10
23.8027437
20
159.0890133
11
23.5031599
21
158.9789785
0
LINE
8
DEFAULT_255_1_234
10
23.5031599
20
158.9789785
11
23.5031599
21
159.1139117
0
LINE
8
DEFAULT_255_1_234
10
23.5031599
20
159.1139117
11
23.928842
21
159.2737433
0
LINE
8
DEFAULT_255_1_234
10
23.928842
20
159.2737433
11
23.952134
21
159.2737433
0
LINE
8
DEFAULT_255_1_234
10
21.9179265
20
164.3590276
11
21.9179265
21
164.0176788
0
LINE
8
DEFAULT_255_1_234
10
21.9179265
20
164.0176788
11
22.244015
21
164.0176788
0
LINE
8
DEFAULT_255_1_234
10
22.244015
20
164.0176788
11
22.244015
21
163.8771233
0
LINE
8
DEFAULT_255_1_234
10
22.244015
20
163.8771233
11
21.9179265
21
163.8771233
0
LINE
8
DEFAULT_255_1_234
10
21.9179265
20
163.8771233
11
21.9179265
21
163.5076634
0
LINE
8
DEFAULT_255_1_234
10
21.9179265
20
163.5076634
11
21.7685361
21
163.5076634
0
LINE
8
DEFAULT_255_1_234
10
21.7685361
20
163.5076634
11
21.7685361
21
163.8771233
0
LINE
8
DEFAULT_255_1_234
10
21.7685361
20
163.8771233
11
21.4424476
21
163.8771233
0
LINE
8
DEFAULT_255_1_234
10
21.4424476
20
163.8771233
11
21.4424476
21
164.0176788
0
LINE
8
DEFAULT_255_1_234
10
21.4424476
20
164.0176788
11
21.7685361
21
164.0176788
0
LINE
8
DEFAULT_255_1_234
10
21.7685361
20
164.0176788
11
21.7685361
21
164.3590276
0
LINE
8
DEFAULT_255_1_234
10
21.7685361
20
164.3590276
11
21.9179265
21
164.3590276
0
LINE
8
DEFAULT_255_1_234
10
22.502637
20
164.5598211
11
22.835151
21
163.5952093
0
LINE
8
DEFAULT_255_1_234
10
22.835151
20
163.5952093
11
23.1692713
21
164.5598211
0
LINE
8
DEFAULT_255_1_234
10
23.1692713
20
164.5598211
11
23.3379378
21
164.5598211
0
LINE
8
DEFAULT_255_1_234
10
23.3379378
20
164.5598211
11
22.9042239
21
163.3904
0
LINE
8
DEFAULT_255_1_234
10
22.9042239
20
163.3904
11
22.7676844
21
163.3904
0
LINE
8
DEFAULT_255_1_234
10
22.7676844
20
163.3904
11
22.3347737
21
164.5598211
0
LINE
8
DEFAULT_255_1_234
10
22.3347737
20
164.5598211
11
22.502637
21
164.5598211
0
LINE
8
DEFAULT_255_1_234
10
24.1893021
20
164.0819327
11
24.1893021
21
163.8891709
0
LINE
8
DEFAULT_255_1_234
10
23.4511853
20
163.8690916
11
23.4511853
21
164.0674755
0
LINE
8
DEFAULT_255_1_234
10
24.0407149
20
163.8490123
11
24.0407149
21
164.0923739
0
LINE
8
DEFAULT_255_1_234
10
23.5997725
20
164.1036184
11
23.5997725
21
163.8658789
0
ARC
8
DEFAULT_255_1_234
10
22.964591
20
163.8842805
40
1.2247208
50
353.8441951
51
0.2287902
0
ARC
8
DEFAULT_255_1_234
10
23.4285414
20
163.8324806
40
0.7578929
50
344.4934747
51
353.9765454
0
ARC
8
DEFAULT_255_1_234
10
23.7278004
20
163.7473981
40
0.4467846
50
329.2803592
51
344.7472793
0
ARC
8
DEFAULT_255_1_234
10
23.8270829
20
163.6929018
40
0.3336173
50
324.9352394
51
328.6160465
0
ARC
8
DEFAULT_255_1_234
10
23.8647938
20
163.6665427
40
0.2876076
50
280.580143
51
324.9173126
0
ARC
8
DEFAULT_255_1_234
10
23.824673
20
163.8336099
40
0.4592847
50
269.5977311
51
281.6734359
0
ARC
8
DEFAULT_255_1_234
10
23.8174636
20
163.8216173
40
0.4472986
50
256.6228859
51
270.51044
0
ARC
8
DEFAULT_255_1_234
10
23.7772614
20
163.6667877
40
0.2873874
50
215.8618325
51
257.2788573
0
ARC
8
DEFAULT_255_1_234
10
23.8793645
20
163.7352977
40
0.4102928
50
197.9693508
51
215.2623606
0
ARC
8
DEFAULT_255_1_234
10
24.1278761
20
163.8191709
40
0.6725652
50
187.8816417
51
198.2346507
0
ARC
8
DEFAULT_255_1_234
10
24.5236969
20
163.8763079
40
1.0724845
50
180.8976217
51
188.0055519
0
ARC
8
DEFAULT_255_1_234
10
24.8037157
20
163.8866777
40
1.3526448
50
180.7449369
51
181.1510016
0
ARC
8
DEFAULT_255_1_234
10
24.6459886
20
164.0723042
40
1.1948131
50
173.7675579
51
180.231553
0
ARC
8
DEFAULT_255_1_234
10
24.1942033
20
164.1233666
40
0.7401564
50
164.3058563
51
173.9002247
0
ARC
8
DEFAULT_255_1_234
10
23.9030102
20
164.2072656
40
0.4371288
50
148.7922025
51
164.568378
0
ARC
8
DEFAULT_255_1_234
10
23.8078554
20
164.2603929
40
0.3282386
50
144.5883898
51
148.1176286
0
ARC
8
DEFAULT_255_1_234
10
23.7735452
20
164.2843315
40
0.2864044
50
101.6440918
51
144.514236
0
ARC
8
DEFAULT_255_1_234
10
23.8160519
20
164.1154069
40
0.4604934
50
89.5284041
51
102.5819763
0
ARC
8
DEFAULT_255_1_234
10
23.8239606
20
164.1115018
40
0.464401
50
77.0437873
51
90.5081339
0
ARC
8
DEFAULT_255_1_234
10
23.8641608
20
164.2757615
40
0.2953195
50
48.2778575
51
77.4994676
0
ARC
8
DEFAULT_255_1_234
10
23.8714239
20
164.2886746
40
0.2808655
50
36.3142134
51
47.6305865
0
ARC
8
DEFAULT_255_1_234
10
23.7845546
20
164.2301515
40
0.3855453
50
18.2931786
51
35.6769206
0
ARC
8
DEFAULT_255_1_234
10
23.5302305
20
164.1428593
40
0.654423
50
8.024666
51
18.5605216
0
ARC
8
DEFAULT_255_1_234
10
23.1139225
20
164.0813792
40
1.0752407
50
1.1274072
51
8.1718305
0
ARC
8
DEFAULT_255_1_234
10
22.7903416
20
164.0686885
40
1.3990231
50
0.5424119
51
1.3863029
0
ARC
8
DEFAULT_255_1_234
10
22.9724794
20
164.0959342
40
1.0682415
50
359.8090433
51
4.9407866
0
ARC
8
DEFAULT_255_1_234
10
23.3934808
20
164.1335113
40
0.6455691
50
4.8362157
51
12.2904523
0
ARC
8
DEFAULT_255_1_234
10
23.6689922
20
164.1948965
40
0.3633074
50
12.0805627
51
23.8173984
0
ARC
8
DEFAULT_255_1_234
10
23.7863628
20
164.2445919
40
0.2358723
50
24.2871213
51
31.3935614
0
ARC
8
DEFAULT_255_1_234
10
23.8388325
20
164.2789233
40
0.1732111
50
30.7407893
51
82.4657128
0
ARC
8
DEFAULT_255_1_234
10
23.8208459
20
164.1905691
40
0.263235
50
81.1060089
51
90.2184952
0
ARC
8
DEFAULT_255_1_234
10
23.8172758
20
164.2163924
40
0.2374236
50
89.3806855
51
105.6762551
0
ARC
8
DEFAULT_255_1_234
10
23.7989389
20
164.2830567
40
0.1682847
50
105.7981136
51
149.7388061
0
ARC
8
DEFAULT_255_1_234
10
23.9053467
20
164.219095
40
0.2924306
50
149.4208916
51
163.6286378
0
ARC
8
DEFAULT_255_1_234
10
24.1144355
20
164.155325
40
0.5110213
50
163.3763315
51
172.1410975
0
ARC
8
DEFAULT_255_1_234
10
24.4445074
20
164.1080518
40
0.8444586
50
172.0259487
51
178.0703232
0
ARC
8
DEFAULT_255_1_234
10
24.7475164
20
164.0936906
40
1.1477868
50
177.8631668
51
179.5044149
0
ARC
8
DEFAULT_255_1_234
10
24.6402568
20
163.8622389
40
1.0404907
50
179.7995573
51
185.2460446
0
ARC
8
DEFAULT_255_1_234
10
24.2359607
20
163.8239513
40
0.6343885
50
185.1411642
51
193.0079639
0
ARC
8
DEFAULT_255_1_234
10
23.971608
20
163.7614641
40
0.3627568
50
192.7897626
51
205.2507664
0
ARC
8
DEFAULT_255_1_234
10
23.8669627
20
163.7147415
40
0.2481908
50
205.8005384
51
211.2537509
0
ARC
8
DEFAULT_255_1_234
10
23.8146067
20
163.679658
40
0.1852521
50
210.3789793
51
238.4008143
0
ARC
8
DEFAULT_255_1_234
10
23.8126589
20
163.6843376
40
0.1882621
50
239.6520629
51
265.9793761
0
ARC
8
DEFAULT_255_1_234
10
23.8211789
20
163.7515427
40
0.2559272
50
265.1315437
51
270.060332
0
ARC
8
DEFAULT_255_1_234
10
23.8240568
20
163.7191534
40
0.2235528
50
269.3314664
51
287.2178029
0
ARC
8
DEFAULT_255_1_234
10
23.837842
20
163.6688279
40
0.1714108
50
287.7958004
51
329.080874
0
ARC
8
DEFAULT_255_1_234
10
23.7420877
20
163.728593
40
0.2842745
50
328.6634704
51
343.3325132
0
ARC
8
DEFAULT_255_1_234
10
23.5247897
20
163.7962863
40
0.5118644
50
343.0499468
51
351.9393422
0
ARC
8
DEFAULT_255_1_234
10
23.1781197
20
163.8473949
40
0.8622784
50
351.8069023
51
357.7959224
0
ARC
8
DEFAULT_255_1_234
10
22.8545753
20
163.8641721
40
1.1862365
50
357.5871873
51
359.2677531
0
ENDSEC
0
EOF