0
SECTION
2
HEADER
9
$MEASUREMENT
70
1
0
ENDSEC
0
SECTION
2
TABLES
0
TABLE
2
LTYPE
0
LTYPE
72
65
70
64
2
CONTINUOUS
3
______
73
0
40
0
0
ENDTAB
0
TABLE
2
LAYER
0
LAYER
2
DEFAULT_255_2_778
70
0
62
255
6
CONTINUOUS
0
LAYER
2
DEFAULT_255_1_234
70
0
62
255
6
CONTINUOUS
0
ENDTAB
0
ENDSEC
0
SECTION
2
ENTITIES
0
ARC
8
DEFAULT_255_2_778
10
3.5700693
20
226.6176509
40
0.7914215
50
129.1312896
51
180.1450914
0
ARC
8
DEFAULT_255_2_778
10
3.5703345
20
226.618138
40
0.7912112
50
89.854026
51
129.1684493
0
ARC
8
DEFAULT_255_2_778
10
25.7993937
20
226.6178246
40
0.7915249
50
39.4792447
51
90.147911
0
ARC
8
DEFAULT_255_2_778
10
25.7999935
20
226.6176712
40
0.7911595
50
359.8533901
51
39.5154338
0
ARC
8
DEFAULT_255_2_778
10
25.7996693
20
-1.9864013
40
0.7914836
50
309.4761667
51
0.1482649
0
ARC
8
DEFAULT_255_2_778
10
25.799398
20
-1.9868324
40
0.7913235
50
269.8517415
51
309.511178
0
ARC
8
DEFAULT_255_2_778
10
3.570342
20
-1.9867742
40
0.7913815
50
219.1282118
51
270.1454017
0
ARC
8
DEFAULT_255_2_778
10
3.5700247
20
-1.9863918
40
0.7913769
50
179.8524075
51
219.1641908
0
LINE
8
DEFAULT_255_2_778
10
3.5723503
20
227.4093468
11
25.7973503
21
227.4093468
0
LINE
8
DEFAULT_255_2_778
10
26.5911503
20
226.6156468
11
26.5911503
21
-1.9843532
0
LINE
8
DEFAULT_255_2_778
10
25.7973503
20
-2.7781532
11
3.5723503
21
-2.7781532
0
LINE
8
DEFAULT_255_2_778
10
2.7786503
20
-1.9843532
11
2.7786503
21
226.6156468
0
LINE
8
DEFAULT_255_1_234
10
9.313985
20
-0.0087609
11
9.313985
21
-0.1348592
0
LINE
8
DEFAULT_255_1_234
10
9.313985
20
-0.1348592
11
8.8232458
21
-0.1348592
0
LINE
8
DEFAULT_255_1_234
10
8.8232458
20
-0.1348592
11
8.8232458
21
-0.6513
0
LINE
8
DEFAULT_255_1_234
10
8.8232458
20
-0.6513
11
8.6690364
21
-0.6513
0
LINE
8
DEFAULT_255_1_234
10
8.6690364
20
-0.6513
11
8.6690364
21
0.5181211
0
LINE
8
DEFAULT_255_1_234
10
8.6690364
20
0.5181211
11
9.3934992
21
0.5181211
0
LINE
8
DEFAULT_255_1_234
10
9.3934992
20
0.5181211
11
9.3934992
21
0.3912196
0
LINE
8
DEFAULT_255_1_234
10
9.3934992
20
0.3912196
11
8.8232458
21
0.3912196
0
LINE
8
DEFAULT_255_1_234
10
8.8232458
20
0.3912196
11
8.8232458
21
-0.0087609
0
LINE
8
DEFAULT_255_1_234
10
8.8232458
20
-0.0087609
11
9.313985
21
-0.0087609
0
LINE
8
DEFAULT_255_1_234
10
9.6778227
20
0.5181211
11
9.9597367
21
0.0699501
0
LINE
8
DEFAULT_255_1_234
10
9.9597367
20
0.0699501
11
10.2400444
21
0.5181211
0
LINE
8
DEFAULT_255_1_234
10
10.2400444
20
0.5181211
11
10.4215617
21
0.5181211
0
LINE
8
DEFAULT_255_1_234
10
10.4215617
20
0.5181211
11
10.0521017
21
-0.0617704
0
LINE
8
DEFAULT_255_1_234
10
10.0521017
20
-0.0617704
11
10.4303966
21
-0.6513
0
LINE
8
DEFAULT_255_1_234
10
10.4303966
20
-0.6513
11
10.2472729
21
-0.6513
0
LINE
8
DEFAULT_255_1_234
10
10.2472729
20
-0.6513
11
9.9597367
21
-0.1950973
0
LINE
8
DEFAULT_255_1_234
10
9.9597367
20
-0.1950973
11
9.6705941
21
-0.6513
0
LINE
8
DEFAULT_255_1_234
10
9.6705941
20
-0.6513
11
9.4882737
21
-0.6513
0
LINE
8
DEFAULT_255_1_234
10
9.4882737
20
-0.6513
11
9.8673717
21
-0.0617704
0
LINE
8
DEFAULT_255_1_234
10
9.8673717
20
-0.0617704
11
9.4971086
21
0.5181211
0
LINE
8
DEFAULT_255_1_234
10
9.4971086
20
0.5181211
11
9.6778227
21
0.5181211
0
LINE
8
DEFAULT_255_1_234
10
10.7870058
20
-0.1155831
11
10.7870058
21
0.0056962
0
LINE
8
DEFAULT_255_1_234
10
10.7870058
20
0.0056962
11
10.8986469
21
0.0056962
0
LINE
8
DEFAULT_255_1_234
10
10.7082947
20
0.2113087
11
10.5597076
21
0.2113087
0
LINE
8
DEFAULT_255_1_234
10
10.5492663
20
-0.3428812
11
10.6986566
21
-0.3428812
0
LINE
8
DEFAULT_255_1_234
10
10.8986469
20
-0.1155831
11
10.7870058
21
-0.1155831
0
ARC
8
DEFAULT_255_1_234
10
10.8957336
20
0.3449713
40
0.3392876
50
270.4919872
51
281.8951556
0
ARC
8
DEFAULT_255_1_234
10
10.9198597
20
0.2347702
40
0.2264817
50
281.6691735
51
301.2943132
0
ARC
8
DEFAULT_255_1_234
10
10.9368808
20
0.2036304
40
0.1910381
50
301.7833094
51
311.7545298
0
ARC
8
DEFAULT_255_1_234
10
10.9460383
20
0.1934748
40
0.1773635
50
311.7323931
51
354.2802411
0
ARC
8
DEFAULT_255_1_234
10
10.8734009
20
0.2059722
40
0.2509385
50
353.0937916
51
0.1181479
0
ARC
8
DEFAULT_255_1_234
10
10.8272793
20
0.2107386
40
0.2970898
50
359.1805295
51
15.0453146
0
ARC
8
DEFAULT_255_1_234
10
10.961863
20
0.2499992
40
0.1569564
50
13.9577229
51
77.6713066
0
ARC
8
DEFAULT_255_1_234
10
10.923216
20
0.1114949
40
0.3006298
50
76.1116566
51
90.7026153
0
ARC
8
DEFAULT_255_1_234
10
10.9172998
20
0.1388545
40
0.2732568
50
89.5324876
51
103.531937
0
ARC
8
DEFAULT_255_1_234
10
10.8972442
20
0.2187884
40
0.1908508
50
103.2931773
51
133.5619022
0
ARC
8
DEFAULT_255_1_234
10
10.892793
20
0.2247375
40
0.1834746
50
133.8349307
51
173.5344437
0
ARC
8
DEFAULT_255_1_234
10
10.9650973
20
0.2119213
40
0.2568033
50
172.5096846
51
180.1366907
0
ARC
8
DEFAULT_255_1_234
10
10.8699867
20
0.2153622
40
0.3103056
50
155.3484492
51
180.7484736
0
ARC
8
DEFAULT_255_1_234
10
10.8650956
20
0.2124846
40
0.3070957
50
131.5744599
51
154.4798489
0
ARC
8
DEFAULT_255_1_234
10
10.8964104
20
0.180831
40
0.3515643
50
96.9875458
51
131.9690667
0
ARC
8
DEFAULT_255_1_234
10
10.9183584
20
0.0562636
40
0.4779224
50
89.8596053
51
97.7825159
0
ARC
8
DEFAULT_255_1_234
10
10.9231647
20
0.0300616
40
0.5041361
50
78.3655447
51
90.4131539
0
ARC
8
DEFAULT_255_1_234
10
10.9589565
20
0.1959887
40
0.3344039
50
56.6229102
51
78.638727
0
ARC
8
DEFAULT_255_1_234
10
10.9804508
20
0.2335805
40
0.2912001
50
47.0253525
51
56.0854072
0
ARC
8
DEFAULT_255_1_234
10
10.9824288
20
0.2375223
40
0.2869704
50
10.9208013
51
46.7778124
0
ARC
8
DEFAULT_255_1_234
10
10.8460355
20
0.2059857
40
0.426899
50
359.6364486
51
11.6087304
0
ARC
8
DEFAULT_255_1_234
10
11.0295199
20
0.2044752
40
0.243409
50
332.3549906
51
359.7179418
0
ARC
8
DEFAULT_255_1_234
10
10.96448
20
0.2353142
40
0.3153459
50
325.2333722
51
332.8745602
0
ARC
8
DEFAULT_255_1_234
10
10.9797424
20
0.2246828
40
0.2967456
50
292.9802137
51
325.2392345
0
ARC
8
DEFAULT_255_1_234
10
10.9522798
20
0.2780863
40
0.3566604
50
292.5402179
51
293.6924929
0
ARC
8
DEFAULT_255_1_234
10
10.9915394
20
-0.3673909
40
0.3307468
50
57.6435486
51
72.8625112
0
ARC
8
DEFAULT_255_1_234
10
11.0269894
20
-0.3099451
40
0.2632492
50
36.7248896
51
57.4697979
0
ARC
8
DEFAULT_255_1_234
10
11.0258526
20
-0.308678
40
0.2634081
50
8.0545065
51
36.356114
0
ARC
8
DEFAULT_255_1_234
10
10.9395712
20
-0.3241826
40
0.3510261
50
359.8320645
51
8.5869982
0
ARC
8
DEFAULT_255_1_234
10
10.9020488
20
-0.3289899
40
0.3885653
50
343.9829931
51
0.5571613
0
ARC
8
DEFAULT_255_1_234
10
10.9906685
20
-0.3532562
40
0.2966924
50
311.6359546
51
343.7651759
0
ARC
8
DEFAULT_255_1_234
10
10.9528254
20
-0.3105898
40
0.3537231
50
279.7829875
51
311.6255694
0
ARC
8
DEFAULT_255_1_234
10
10.922703
20
-0.166872
40
0.5004971
50
269.7286406
51
280.3856417
0
ARC
8
DEFAULT_255_1_234
10
10.9165103
20
-0.1710004
40
0.4963778
50
256.6828919
51
270.4412052
0
ARC
8
DEFAULT_255_1_234
10
10.8826399
20
-0.3094606
40
0.3538406
50
229.4223008
51
256.8556159
0
ARC
8
DEFAULT_255_1_234
10
10.8411792
20
-0.3561264
40
0.2914296
50
181.818294
51
229.6455059
0
ARC
8
DEFAULT_255_1_234
10
10.9451748
20
-0.3430504
40
0.3959084
50
179.9755256
51
183.2323064
0
ARC
8
DEFAULT_255_1_234
10
10.9279494
20
-0.3450963
40
0.2293034
50
179.4465117
51
196.2869258
0
ARC
8
DEFAULT_255_1_234
10
10.8791902
20
-0.3584349
40
0.1787621
50
196.5661473
51
227.705904
0
ARC
8
DEFAULT_255_1_234
10
10.8955996
20
-0.3400845
40
0.2033784
50
227.7652068
51
257.8762805
0
ARC
8
DEFAULT_255_1_234
10
10.9180967
20
-0.2457844
40
0.3003081
50
257.4584385
51
270.426602
0
ARC
8
DEFAULT_255_1_234
10
10.9226533
20
-0.2168004
40
0.329292
50
269.5962073
51
280.8789248
0
ARC
8
DEFAULT_255_1_234
10
10.9456062
20
-0.3314315
40
0.2123908
50
280.6346389
51
299.8595945
0
ARC
8
DEFAULT_255_1_234
10
10.9646968
20
-0.3676788
40
0.171457
50
300.3576302
51
314.5517981
0
ARC
8
DEFAULT_255_1_234
10
10.9564028
20
-0.3616081
40
0.1816095
50
315.0728369
51
345.0431014
0
ARC
8
DEFAULT_255_1_234
10
10.8640843
20
-0.3347159
40
0.2777492
50
344.5986631
51
357.9269593
0
ARC
8
DEFAULT_255_1_234
10
10.7745169
20
-0.3285724
40
0.3674917
50
357.4748886
51
0.0231117
0
ARC
8
DEFAULT_255_1_234
10
10.8768278
20
-0.3261321
40
0.2651907
50
359.5047933
51
13.4239635
0
ARC
8
DEFAULT_255_1_234
10
10.9634922
20
-0.3039522
40
0.1757509
50
12.9498199
51
48.7551375
0
ARC
8
DEFAULT_255_1_234
10
10.9452656
20
-0.32886
40
0.2065134
50
49.5088623
51
72.1836453
0
ARC
8
DEFAULT_255_1_234
10
10.9094808
20
-0.4350709
40
0.3185836
50
71.9010081
51
84.3554254
0
ARC
8
DEFAULT_255_1_234
10
10.893344
20
-0.5711674
40
0.4556151
50
84.0193428
51
89.333121
0
LINE
8
DEFAULT_255_1_234
10
12.3965661
20
-0.068999
11
12.3965661
21
-0.4978938
0
LINE
8
DEFAULT_255_1_234
10
11.4954051
20
-0.1228116
11
11.4954051
21
-0.0208085
0
LINE
8
DEFAULT_255_1_234
10
12.3965661
20
0.1751659
11
12.2423567
21
0.1751659
0
LINE
8
DEFAULT_255_1_234
10
11.6504176
20
-0.0167927
11
11.6504176
21
-0.1123704
0
LINE
8
DEFAULT_255_1_234
10
12.2431599
20
-0.4569319
11
12.2431599
21
-0.1942941
0
LINE
8
DEFAULT_255_1_234
10
12.2431599
20
-0.1942941
11
11.9724903
21
-0.1942941
0
LINE
8
DEFAULT_255_1_234
10
11.9724903
20
-0.1942941
11
11.9724903
21
-0.068999
0
LINE
8
DEFAULT_255_1_234
10
11.9724903
20
-0.068999
11
12.3965661
21
-0.068999
0
ARC
8
DEFAULT_255_1_234
10
12.1134167
20
-0.2985604
40
0.3462765
50
295.8437914
51
324.8549609
0
ARC
8
DEFAULT_255_1_234
10
12.0718134
20
-0.2232433
40
0.4322211
50
291.5695085
51
296.4549398
0
ARC
8
DEFAULT_255_1_234
10
12.0207386
20
-0.0867725
40
0.5779178
50
278.6622409
51
291.3045483
0
ARC
8
DEFAULT_255_1_234
10
11.9867877
20
0.1280408
40
0.7953952
50
270.020006
51
278.7494541
0
ARC
8
DEFAULT_255_1_234
10
11.9829801
20
0.2597036
40
0.927067
50
269.9969998
51
270.2524872
0
ARC
8
DEFAULT_255_1_234
10
11.9791515
20
-0.1486411
40
0.5187361
50
253.5786322
51
270.4175299
0
ARC
8
DEFAULT_255_1_234
10
11.9618171
20
-0.2157764
40
0.4494451
50
238.8203306
51
253.2788235
0
ARC
8
DEFAULT_255_1_234
10
11.9598544
20
-0.2208769
40
0.4440665
50
206.7883783
51
238.6962764
0
ARC
8
DEFAULT_255_1_234
10
12.0372454
20
-0.1744595
40
0.5341121
50
206.1129412
51
207.4916643
0
ARC
8
DEFAULT_255_1_234
10
12.0969369
20
-0.1490512
40
0.5989041
50
188.6921119
51
205.7821245
0
ARC
8
DEFAULT_255_1_234
10
12.2825731
20
-0.117477
40
0.7871862
50
180.3882829
51
188.9219216
0
ARC
8
DEFAULT_255_1_234
10
12.4053545
20
-0.0151536
40
0.909967
50
170.2024264
51
180.3560651
0
ARC
8
DEFAULT_255_1_234
10
12.0890063
20
0.0414237
40
0.5886083
50
154.2857445
51
170.3893044
0
ARC
8
DEFAULT_255_1_234
10
11.9608266
20
0.100095
40
0.4476743
50
139.8401567
51
153.9332699
0
ARC
8
DEFAULT_255_1_234
10
11.9249002
20
0.1288577
40
0.4016697
50
98.4190291
51
139.6707122
0
ARC
8
DEFAULT_255_1_234
10
11.9628519
20
-0.0556672
40
0.5898566
50
89.7659205
51
99.4415478
0
ARC
8
DEFAULT_255_1_234
10
11.9693769
20
-0.0491156
40
0.5833147
50
78.0551672
51
90.4042112
0
ARC
8
DEFAULT_255_1_234
10
12.0098279
20
0.1327644
40
0.3970055
50
54.6380464
51
78.3339173
0
ARC
8
DEFAULT_255_1_234
10
12.0288335
20
0.1647795
40
0.3599102
50
50.031736
51
54.1558201
0
ARC
8
DEFAULT_255_1_234
10
12.0181122
20
0.1551766
40
0.3741624
50
18.1092409
51
49.7180913
0
ARC
8
DEFAULT_255_1_234
10
11.8724322
20
0.1018089
40
0.5292424
50
7.9672797
51
18.6984571
0
ARC
8
DEFAULT_255_1_234
10
11.8874801
20
0.1141504
40
0.3600838
50
9.7557294
51
27.3215714
0
ARC
8
DEFAULT_255_1_234
10
12.0002272
20
0.1704912
40
0.2340608
50
27.7361077
51
84.5257964
0
ARC
8
DEFAULT_255_1_234
10
11.9674659
20
0.006164
40
0.4011215
50
82.106034
51
90.2001166
0
ARC
8
DEFAULT_255_1_234
10
11.9624876
20
0.0569215
40
0.3503799
50
89.4150119
51
105.5823402
0
ARC
8
DEFAULT_255_1_234
10
11.9367874
20
0.1504867
40
0.2533503
50
105.6678618
51
144.2648758
0
ARC
8
DEFAULT_255_1_234
10
12.026113
20
0.0869289
40
0.3629787
50
144.3561283
51
162.8564086
0
ARC
8
DEFAULT_255_1_234
10
12.2345039
20
0.0200017
40
0.5818441
50
162.6076014
51
173.6780284
0
ARC
8
DEFAULT_255_1_234
10
12.5406182
20
-0.017211
40
0.8902007
50
173.4670142
51
179.9730753
0
ARC
8
DEFAULT_255_1_234
10
12.3497854
20
-0.116574
40
0.6993804
50
179.6556203
51
190.0080463
0
ARC
8
DEFAULT_255_1_234
10
12.1181683
20
-0.1590625
40
0.4639066
50
189.8116607
51
206.6796816
0
ARC
8
DEFAULT_255_1_234
10
12.0336835
20
-0.1984497
40
0.3707421
50
207.1031645
51
217.7074368
0
ARC
8
DEFAULT_255_1_234
10
11.9702524
20
-0.2536441
40
0.2868417
50
216.7345547
51
265.6812148
0
ARC
8
DEFAULT_255_1_234
10
11.9833315
20
-0.1632145
40
0.3780509
50
264.7366618
51
270.0611241
0
ARC
8
DEFAULT_255_1_234
10
11.9856578
20
0.1208111
40
0.662079
50
269.8335834
51
276.0539546
0
ARC
8
DEFAULT_255_1_234
10
12.0063582
20
-0.069344
40
0.4708016
50
275.9894168
51
284.4615085
0
ARC
8
DEFAULT_255_1_234
10
12.0261589
20
-0.1526337
40
0.3852094
50
284.7034461
51
286.4953897
0
ARC
8
DEFAULT_255_1_234
10
12.0668603
20
-0.2837035
40
0.2479842
50
286.0770838
51
304.2625829
0
ARC
8
DEFAULT_255_1_234
10
12.0802017
20
-0.3055406
40
0.2224291
50
304.5891602
51
317.1073298
0
LINE
8
DEFAULT_255_1_234
10
12.9395116
20
-0.0938974
11
12.9395116
21
-0.2151766
0
LINE
8
DEFAULT_255_1_234
10
12.9395116
20
-0.2151766
11
12.5475628
21
-0.2151766
0
LINE
8
DEFAULT_255_1_234
10
12.5475628
20
-0.2151766
11
12.5475628
21
-0.0938974
0
LINE
8
DEFAULT_255_1_234
10
12.5475628
20
-0.0938974
11
12.9395116
21
-0.0938974
0
LINE
8
DEFAULT_255_1_234
10
13.6961014
20
0.5181211
11
13.6961014
21
-0.258548
0
LINE
8
DEFAULT_255_1_234
10
13.6961014
20
-0.258548
11
13.8583425
21
-0.258548
0
LINE
8
DEFAULT_255_1_234
10
13.8583425
20
-0.258548
11
13.8583425
21
-0.3798272
0
LINE
8
DEFAULT_255_1_234
10
13.8583425
20
-0.3798272
11
13.6961014
21
-0.3798272
0
LINE
8
DEFAULT_255_1_234
10
13.6961014
20
-0.3798272
11
13.6961014
21
-0.6513
0
LINE
8
DEFAULT_255_1_234
10
13.6961014
20
-0.6513
11
13.546711
21
-0.6513
0
LINE
8
DEFAULT_255_1_234
10
13.546711
20
-0.6513
11
13.546711
21
-0.3798272
0
LINE
8
DEFAULT_255_1_234
10
13.546711
20
-0.3798272
11
13.0142068
21
-0.3798272
0
LINE
8
DEFAULT_255_1_234
10
13.0142068
20
-0.3798272
11
13.0142068
21
-0.2922813
0
LINE
8
DEFAULT_255_1_234
10
13.0142068
20
-0.2922813
11
13.5378761
21
0.5181211
0
LINE
8
DEFAULT_255_1_234
10
13.5378761
20
0.5181211
11
13.6961014
21
0.5181211
0
LINE
8
DEFAULT_255_1_234
10
13.5290412
20
0.2827912
11
13.1828733
21
-0.258548
0
LINE
8
DEFAULT_255_1_234
10
13.1828733
20
-0.258548
11
13.546711
21
-0.258548
0
LINE
8
DEFAULT_255_1_234
10
13.546711
20
-0.258548
11
13.546711
21
0.3149181
0
LINE
8
DEFAULT_255_1_234
10
13.546711
20
0.3149181
11
13.5290412
21
0.2827912
0
LINE
8
DEFAULT_255_1_234
10
14.7257702
20
0.0402327
11
14.7257702
21
-0.1525291
0
LINE
8
DEFAULT_255_1_234
10
13.9876535
20
-0.1726084
11
13.9876535
21
0.0257755
0
LINE
8
DEFAULT_255_1_234
10
14.5771831
20
-0.1926877
11
14.5771831
21
0.0506739
0
LINE
8
DEFAULT_255_1_234
10
14.1362406
20
0.0619184
11
14.1362406
21
-0.1758211
0
ARC
8
DEFAULT_255_1_234
10
13.5010592
20
-0.1574195
40
1.2247208
50
353.8441951
51
0.2287902
0
ARC
8
DEFAULT_255_1_234
10
13.9650095
20
-0.2092194
40
0.7578929
50
344.4934747
51
353.9765454
0
ARC
8
DEFAULT_255_1_234
10
14.2642686
20
-0.2943019
40
0.4467846
50
329.2803592
51
344.7472793
0
ARC
8
DEFAULT_255_1_234
10
14.363551
20
-0.3487982
40
0.3336173
50
324.9352394
51
328.6160465
0
ARC
8
DEFAULT_255_1_234
10
14.4012619
20
-0.3751573
40
0.2876076
50
280.580143
51
324.9173126
0
ARC
8
DEFAULT_255_1_234
10
14.3611412
20
-0.2080901
40
0.4592847
50
269.5977311
51
281.6734359
0
ARC
8
DEFAULT_255_1_234
10
14.3539317
20
-0.2200827
40
0.4472986
50
256.6228859
51
270.51044
0
ARC
8
DEFAULT_255_1_234
10
14.3137295
20
-0.3749123
40
0.2873874
50
215.8618325
51
257.2788573
0
ARC
8
DEFAULT_255_1_234
10
14.4158327
20
-0.3064023
40
0.4102928
50
197.9693508
51
215.2623606
0
ARC
8
DEFAULT_255_1_234
10
14.6643442
20
-0.2225291
40
0.6725652
50
187.8816417
51
198.2346507
0
ARC
8
DEFAULT_255_1_234
10
15.0601651
20
-0.1653921
40
1.0724845
50
180.8976217
51
188.0055519
0
ARC
8
DEFAULT_255_1_234
10
15.3401839
20
-0.1550223
40
1.3526448
50
180.7449369
51
181.1510016
0
ARC
8
DEFAULT_255_1_234
10
15.1824568
20
0.0306042
40
1.1948131
50
173.7675579
51
180.231553
0
ARC
8
DEFAULT_255_1_234
10
14.7306714
20
0.0816666
40
0.7401564
50
164.3058563
51
173.9002247
0
ARC
8
DEFAULT_255_1_234
10
14.4394783
20
0.1655656
40
0.4371288
50
148.7922025
51
164.568378
0
ARC
8
DEFAULT_255_1_234
10
14.3443235
20
0.2186929
40
0.3282386
50
144.5883898
51
148.1176286
0
ARC
8
DEFAULT_255_1_234
10
14.3100133
20
0.2426315
40
0.2864044
50
101.6440918
51
144.514236
0
ARC
8
DEFAULT_255_1_234
10
14.35252
20
0.0737069
40
0.4604934
50
89.5284041
51
102.5819763
0
ARC
8
DEFAULT_255_1_234
10
14.3604288
20
0.0698018
40
0.464401
50
77.0437873
51
90.5081339
0
ARC
8
DEFAULT_255_1_234
10
14.400629
20
0.2340615
40
0.2953195
50
48.2778575
51
77.4994676
0
ARC
8
DEFAULT_255_1_234
10
14.4078921
20
0.2469746
40
0.2808655
50
36.3142134
51
47.6305865
0
ARC
8
DEFAULT_255_1_234
10
14.3210228
20
0.1884515
40
0.3855453
50
18.2931786
51
35.6769206
0
ARC
8
DEFAULT_255_1_234
10
14.0666987
20
0.1011593
40
0.654423
50
8.024666
51
18.5605216
0
ARC
8
DEFAULT_255_1_234
10
13.6503907
20
0.0396792
40
1.0752407
50
1.1274072
51
8.1718305
0
ARC
8
DEFAULT_255_1_234
10
13.3268097
20
0.0269885
40
1.3990231
50
0.5424119
51
1.3863029
0
ARC
8
DEFAULT_255_1_234
10
13.5089475
20
0.0542342
40
1.0682415
50
359.8090433
51
4.9407866
0
ARC
8
DEFAULT_255_1_234
10
13.9299489
20
0.0918113
40
0.6455691
50
4.8362157
51
12.2904523
0
ARC
8
DEFAULT_255_1_234
10
14.2054604
20
0.1531965
40
0.3633074
50
12.0805627
51
23.8173984
0
ARC
8
DEFAULT_255_1_234
10
14.3228309
20
0.2028919
40
0.2358723
50
24.2871213
51
31.3935614
0
ARC
8
DEFAULT_255_1_234
10
14.3753007
20
0.2372233
40
0.1732111
50
30.7407893
51
82.4657128
0
ARC
8
DEFAULT_255_1_234
10
14.3573141
20
0.1488691
40
0.263235
50
81.1060089
51
90.2184952
0
ARC
8
DEFAULT_255_1_234
10
14.353744
20
0.1746924
40
0.2374236
50
89.3806855
51
105.6762551
0
ARC
8
DEFAULT_255_1_234
10
14.335407
20
0.2413567
40
0.1682847
50
105.7981136
51
149.7388061
0
ARC
8
DEFAULT_255_1_234
10
14.4418149
20
0.177395
40
0.2924306
50
149.4208916
51
163.6286378
0
ARC
8
DEFAULT_255_1_234
10
14.6509037
20
0.113625
40
0.5110213
50
163.3763315
51
172.1410975
0
ARC
8
DEFAULT_255_1_234
10
14.9809756
20
0.0663518
40
0.8444586
50
172.0259487
51
178.0703232
0
ARC
8
DEFAULT_255_1_234
10
15.2839845
20
0.0519906
40
1.1477868
50
177.8631668
51
179.5044149
0
ARC
8
DEFAULT_255_1_234
10
15.176725
20
-0.1794611
40
1.0404907
50
179.7995573
51
185.2460446
0
ARC
8
DEFAULT_255_1_234
10
14.7724289
20
-0.2177487
40
0.6343885
50
185.1411642
51
193.0079639
0
ARC
8
DEFAULT_255_1_234
10
14.5080761
20
-0.2802359
40
0.3627568
50
192.7897626
51
205.2507664
0
ARC
8
DEFAULT_255_1_234
10
14.4034308
20
-0.3269585
40
0.2481908
50
205.8005384
51
211.2537509
0
ARC
8
DEFAULT_255_1_234
10
14.3510749
20
-0.362042
40
0.1852521
50
210.3789793
51
238.4008143
0
ARC
8
DEFAULT_255_1_234
10
14.3491271
20
-0.3573624
40
0.1882621
50
239.6520629
51
265.9793761
0
ARC
8
DEFAULT_255_1_234
10
14.3576471
20
-0.2901573
40
0.2559272
50
265.1315437
51
270.060332
0
ARC
8
DEFAULT_255_1_234
10
14.360525
20
-0.3225466
40
0.2235528
50
269.3314664
51
287.2178029
0
ARC
8
DEFAULT_255_1_234
10
14.3743102
20
-0.3728721
40
0.1714108
50
287.7958004
51
329.080874
0
ARC
8
DEFAULT_255_1_234
10
14.2785559
20
-0.313107
40
0.2842745
50
328.6634704
51
343.3325132
0
ARC
8
DEFAULT_255_1_234
10
14.0612579
20
-0.2454137
40
0.5118644
50
343.0499468
51
351.9393422
0
ARC
8
DEFAULT_255_1_234
10
13.7145879
20
-0.1943051
40
0.8622784
50
351.8069023
51
357.7959224
0
ARC
8
DEFAULT_255_1_234
10
13.3910435
20
-0.1775279
40
1.1862365
50
357.5871873
51
359.2677531
0
LINE
8
DEFAULT_255_1_234
10
14.9546748
20
0.5181211
11
15.1538619
21
0.5181211
0
LINE
8
DEFAULT_255_1_234
10
15.1538619
20
0.5181211
11
15.5361726
21
-0.4360494
0
LINE
8
DEFAULT_255_1_234
10
15.5361726
20
-0.4360494
11
15.9184833
21
0.5181211
0
LINE
8
DEFAULT_255_1_234
10
15.9184833
20
0.5181211
11
16.1184736
21
0.5181211
0
LINE
8
DEFAULT_255_1_234
10
16.1184736
20
0.5181211
11
16.1184736
21
-0.6513
0
LINE
8
DEFAULT_255_1_234
10
16.1184736
20
-0.6513
11
15.9642643
21
-0.6513
0
LINE
8
DEFAULT_255_1_234
10
15.9642643
20
-0.6513
11
15.9642643
21
-0.1959004
0
LINE
8
DEFAULT_255_1_234
10
15.9642643
20
-0.1959004
11
15.9787214
21
0.2956419
0
LINE
8
DEFAULT_255_1_234
10
15.9787214
20
0.2956419
11
15.5948043
21
-0.6513
0
LINE
8
DEFAULT_255_1_234
10
15.5948043
20
-0.6513
11
15.4767377
21
-0.6513
0
LINE
8
DEFAULT_255_1_234
10
15.4767377
20
-0.6513
11
15.0936238
21
0.2932324
0
LINE
8
DEFAULT_255_1_234
10
15.0936238
20
0.2932324
11
15.1088841
21
-0.1959004
0
LINE
8
DEFAULT_255_1_234
10
15.1088841
20
-0.1959004
11
15.1088841
21
-0.6513
0
LINE
8
DEFAULT_255_1_234
10
15.1088841
20
-0.6513
11
14.9546748
21
-0.6513
0
LINE
8
DEFAULT_255_1_234
10
14.9546748
20
-0.6513
11
14.9546748
21
0.5181211
0
LINE
8
DEFAULT_255_1_234
10
17.1754504
20
0.5181211
11
17.1754504
21
0.3912196
0
LINE
8
DEFAULT_255_1_234
10
17.1754504
20
0.3912196
11
16.799565
21
0.3912196
0
LINE
8
DEFAULT_255_1_234
10
16.799565
20
0.3912196
11
16.799565
21
-0.6513
0
LINE
8
DEFAULT_255_1_234
10
16.799565
20
-0.6513
11
16.6461588
21
-0.6513
0
LINE
8
DEFAULT_255_1_234
10
16.6461588
20
-0.6513
11
16.6461588
21
0.3912196
0
LINE
8
DEFAULT_255_1_234
10
16.6461588
20
0.3912196
11
16.2710767
21
0.3912196
0
LINE
8
DEFAULT_255_1_234
10
16.2710767
20
0.3912196
11
16.2710767
21
0.5181211
0
LINE
8
DEFAULT_255_1_234
10
16.2710767
20
0.5181211
11
17.1754504
21
0.5181211
0
LINE
8
DEFAULT_255_1_234
10
17.8428878
20
0.5181211
11
17.3553613
21
-0.7516967
0
LINE
8
DEFAULT_255_1_234
10
17.3553613
20
-0.7516967
11
17.2276567
21
-0.7516967
0
LINE
8
DEFAULT_255_1_234
10
17.2276567
20
-0.7516967
11
17.7159864
21
0.5181211
0
LINE
8
DEFAULT_255_1_234
10
17.7159864
20
0.5181211
11
17.8428878
21
0.5181211
0
LINE
8
DEFAULT_255_1_234
10
18.6878267
20
0.0153343
11
18.6878267
21
-0.110764
0
LINE
8
DEFAULT_255_1_234
10
18.6878267
20
-0.110764
11
18.181024
21
-0.110764
0
LINE
8
DEFAULT_255_1_234
10
18.181024
20
-0.110764
11
18.181024
21
-0.5252017
0
LINE
8
DEFAULT_255_1_234
10
18.181024
20
-0.5252017
11
18.7697504
21
-0.5252017
0
LINE
8
DEFAULT_255_1_234
10
18.7697504
20
-0.5252017
11
18.7697504
21
-0.6513
0
LINE
8
DEFAULT_255_1_234
10
18.7697504
20
-0.6513
11
18.0268146
21
-0.6513
0
LINE
8
DEFAULT_255_1_234
10
18.0268146
20
-0.6513
11
18.0268146
21
0.5181211
0
LINE
8
DEFAULT_255_1_234
10
18.0268146
20
0.5181211
11
18.7617187
21
0.5181211
0
LINE
8
DEFAULT_255_1_234
10
18.7617187
20
0.5181211
11
18.7617187
21
0.3912196
0
LINE
8
DEFAULT_255_1_234
10
18.7617187
20
0.3912196
11
18.181024
21
0.3912196
0
LINE
8
DEFAULT_255_1_234
10
18.181024
20
0.3912196
11
18.181024
21
0.0153343
0
LINE
8
DEFAULT_255_1_234
10
18.181024
20
0.0153343
11
18.6878267
21
0.0153343
0
LINE
8
DEFAULT_255_1_234
10
19.7375749
20
0.1799849
11
19.5825624
21
0.1799849
0
LINE
8
DEFAULT_255_1_234
10
18.8902265
20
-0.3123606
11
19.0452391
21
-0.3123606
0
ARC
8
DEFAULT_255_1_234
10
19.6484436
20
1.0746768
40
1.252368
50
248.9199003
51
254.1439814
0
ARC
8
DEFAULT_255_1_234
10
19.4803931
20
0.6420234
40
0.788226
50
241.633709
51
249.0064503
0
ARC
8
DEFAULT_255_1_234
10
19.3275326
20
0.3619317
40
0.4691427
50
230.498225
51
241.8087113
0
ARC
8
DEFAULT_255_1_234
10
19.24909
20
0.2619906
40
0.3421437
50
227.4064532
51
229.9881192
0
ARC
8
DEFAULT_255_1_234
10
19.200342
20
0.2144088
40
0.2741476
50
200.6781896
51
228.1763934
0
ARC
8
DEFAULT_255_1_234
10
19.2075731
20
0.2129077
40
0.2804109
50
179.5061581
51
199.8694617
0
ARC
8
DEFAULT_255_1_234
10
19.2066483
20
0.220321
40
0.2795204
50
132.4834203
51
181.0242172
0
ARC
8
DEFAULT_255_1_234
10
19.2662065
20
0.1640704
40
0.3612768
50
129.2532479
51
133.4242687
0
ARC
8
DEFAULT_255_1_234
10
19.2808515
20
0.1420965
40
0.3875675
50
101.98776
51
128.8742646
0
ARC
8
DEFAULT_255_1_234
10
19.3207125
20
-0.0300259
40
0.5642249
50
89.5906553
51
102.3169264
0
ARC
8
DEFAULT_255_1_234
10
19.3277618
20
0.0018148
40
0.5323783
50
77.2360837
51
90.3248275
0
ARC
8
DEFAULT_255_1_234
10
19.3484697
20
0.09854
40
0.4334697
50
63.837784
51
77.0809408
0
ARC
8
DEFAULT_255_1_234
10
19.3762458
20
0.1502911
40
0.3747796
50
45.9864267
51
64.1607727
0
ARC
8
DEFAULT_255_1_234
10
19.402334
20
0.1800866
40
0.3352302
50
32.2747395
51
45.6547121
0
ARC
8
DEFAULT_255_1_234
10
19.408978
20
0.181988
40
0.328603
50
359.6507365
51
32.6130309
0
ARC
8
DEFAULT_255_1_234
10
19.3146876
20
0.182466
40
0.2678863
50
359.469343
51
14.9832209
0
ARC
8
DEFAULT_255_1_234
10
19.3851938
20
0.2013539
40
0.1948938
50
14.9781179
51
48.2004265
0
ARC
8
DEFAULT_255_1_234
10
19.3687582
20
0.1806983
40
0.2212521
50
48.5927837
51
74.1241538
0
ARC
8
DEFAULT_255_1_234
10
19.3354072
20
0.0706248
40
0.3362561
50
73.7888341
51
86.6652678
0
ARC
8
DEFAULT_255_1_234
10
19.3251637
20
-0.0501119
40
0.4573953
50
86.2640471
51
90.0526343
0
ARC
8
DEFAULT_255_1_234
10
19.322335
20
-0.0105808
40
0.4178709
50
89.6697524
51
99.2309573
0
ARC
8
DEFAULT_255_1_234
10
19.2980801
20
0.1338964
40
0.2713749
50
99.069534
51
113.7658566
0
ARC
8
DEFAULT_255_1_234
10
19.2706992
20
0.1984677
40
0.2012469
50
114.0401004
51
127.9850673
0
ARC
8
DEFAULT_255_1_234
10
19.2466556
20
0.228073
40
0.1631167
50
127.7287463
51
176.7105154
0
ARC
8
DEFAULT_255_1_234
10
19.3145273
20
0.2179693
40
0.2315392
50
175.1779447
51
180.0581938
0
ARC
8
DEFAULT_255_1_234
10
19.230212
20
0.2167428
40
0.1472271
50
179.6142195
51
228.1246017
0
ARC
8
DEFAULT_255_1_234
10
19.2743789
20
0.2576308
40
0.2072299
50
226.5779593
51
230.8800004
0
ARC
8
DEFAULT_255_1_234
10
19.3214867
20
0.3201636
40
0.2854818
50
231.4635071
51
241.9260842
0
ARC
8
DEFAULT_255_1_234
10
19.4412045
20
0.54048
40
0.53622
50
241.7178533
51
248.3259551
0
ARC
8
DEFAULT_255_1_234
10
19.5797417
20
0.8837064
40
0.9063478
50
248.2007737
51
252.4528373
0
ARC
8
DEFAULT_255_1_234
10
19.7001142
20
1.2558441
40
1.2974635
50
252.3391078
51
254.3469452
0
ARC
8
DEFAULT_255_1_234
10
18.9458845
20
-1.4418852
40
1.5037162
50
71.0197183
51
74.4087047
0
ARC
8
DEFAULT_255_1_234
10
19.115353
20
-0.9526889
40
0.9859993
50
66.1847285
51
71.086374
0
ARC
8
DEFAULT_255_1_234
10
19.2709842
20
-0.60228
40
0.6025855
50
59.3536294
51
66.2691831
0
ARC
8
DEFAULT_255_1_234
10
19.3598495
20
-0.4519391
40
0.4279449
50
49.1020879
51
59.3293958
0
ARC
8
DEFAULT_255_1_234
10
19.4417235
20
-0.3586166
40
0.3038015
50
32.7919921
51
49.2505539
0
ARC
8
DEFAULT_255_1_234
10
19.4738325
20
-0.3357809
40
0.264448
50
31.1181161
51
32.4005348
0
ARC
8
DEFAULT_255_1_234
10
19.4649862
20
-0.3393221
40
0.2738556
50
8.1116974
51
30.7958831
0
ARC
8
DEFAULT_255_1_234
10
19.383953
20
-0.3531247
40
0.3560327
50
359.8389159
51
8.4706516
0
ARC
8
DEFAULT_255_1_234
10
19.4465322
20
-0.3579863
40
0.2934776
50
337.4731098
51
0.7537279
0
ARC
8
DEFAULT_255_1_234
10
19.4644017
20
-0.3599613
40
0.2762607
50
307.5917067
51
336.4315538
0
ARC
8
DEFAULT_255_1_234
10
19.4183845
20
-0.3086898
40
0.3449979
50
307.6551545
51
308.4529766
0
ARC
8
DEFAULT_255_1_234
10
19.3953564
20
-0.273175
40
0.3871988
50
284.3734338
51
307.1424381
0
ARC
8
DEFAULT_255_1_234
10
19.3458394
20
-0.0910068
40
0.5759636
50
272.4382747
51
284.646547
0
ARC
8
DEFAULT_255_1_234
10
19.3331602
20
0.0889893
40
0.7563528
50
269.9708387
51
272.8178037
0
ARC
8
DEFAULT_255_1_234
10
19.3288642
20
-0.1148284
40
0.5525489
50
248.2707594
51
270.4055579
0
ARC
8
DEFAULT_255_1_234
10
19.3234383
20
-0.1338808
40
0.5328452
50
246.1383403
51
248.0542782
0
ARC
8
DEFAULT_255_1_234
10
19.2815762
20
-0.2218157
40
0.4355005
50
233.1670131
51
246.4950969
0
ARC
8
DEFAULT_255_1_234
10
19.2261667
20
-0.2966188
40
0.3424126
50
215.3403242
51
233.0843104
0
ARC
8
DEFAULT_255_1_234
10
19.1989098
20
-0.3164451
40
0.3087104
50
179.2419209
51
215.2648451
0
ARC
8
DEFAULT_255_1_234
10
19.2756692
20
-0.3150334
40
0.2304457
50
179.335461
51
199.1045811
0
ARC
8
DEFAULT_255_1_234
10
19.2424369
20
-0.3237234
40
0.1962176
50
199.8828939
51
232.7063202
0
ARC
8
DEFAULT_255_1_234
10
19.2896637
20
-0.2643212
40
0.2720938
50
232.3738199
51
255.5136649
0
ARC
8
DEFAULT_255_1_234
10
19.3237504
20
-0.1399165
40
0.4010747
50
255.2446292
51
267.5320849
0
ARC
8
DEFAULT_255_1_234
10
19.3325127
20
-0.0166298
40
0.5246356
50
267.1557994
51
270.0286766
0
ARC
8
DEFAULT_255_1_234
10
19.3352899
20
-0.061005
40
0.4802668
50
269.7000017
51
278.1660162
0
ARC
8
DEFAULT_255_1_234
10
19.3608904
20
-0.2340485
40
0.3053425
50
278.0231263
51
290.625471
0
ARC
8
DEFAULT_255_1_234
10
19.3956591
20
-0.3267975
40
0.206291
50
290.6619762
51
307.0370976
0
ARC
8
DEFAULT_255_1_234
10
19.4256981
20
-0.3636496
40
0.1587906
50
306.3943566
51
355.3030547
0
ARC
8
DEFAULT_255_1_234
10
19.3744912
20
-0.3559887
40
0.2104809
50
354.3660432
51
0.0698737
0
ARC
8
DEFAULT_255_1_234
10
19.3887257
20
-0.3537383
40
0.1962563
50
359.417946
51
16.1971788
0
ARC
8
DEFAULT_255_1_234
10
19.4342567
20
-0.3412582
40
0.149053
50
16.4723299
51
52.6262157
0
ARC
8
DEFAULT_255_1_234
10
19.3521621
20
-0.4496567
40
0.2850296
50
52.7386432
51
62.4979148
0
ARC
8
DEFAULT_255_1_234
10
19.2136698
20
-0.7102717
40
0.5801521
50
62.2515216
51
68.1220564
0
ARC
8
DEFAULT_255_1_234
10
19.0416609
20
-1.1330128
40
1.0365451
50
68.0062803
51
71.8053402
0
ARC
8
DEFAULT_255_1_234
10
18.8620981
20
-1.6715242
40
1.6042013
50
71.7183119
51
73.9258742
0
LINE
8
DEFAULT_255_2_778
10
10.5738396
20
223.4618073
11
9.3932396
21
223.4618073
0
LINE
8
DEFAULT_255_2_778
10
9.3932396
20
223.4618073
11
9.9837396
21
224.4844073
0
LINE
8
DEFAULT_255_2_778
10
9.9837396
20
224.4844073
11
11.1643396
21
224.4844073
0
LINE
8
DEFAULT_255_2_778
10
11.1643396
20
224.4844073
11
10.5738396
21
223.4618073
0
LINE
8
DEFAULT_255_2_778
10
10.5738396
20
223.4618073
11
10.5738396
21
223.4618073
0
LINE
8
DEFAULT_255_2_778
10
11.7546396
20
223.4618073
11
12.9354396
21
223.4618073
0
LINE
8
DEFAULT_255_2_778
10
12.9354396
20
223.4618073
11
12.3451396
21
224.4844073
0
LINE
8
DEFAULT_255_2_778
10
12.3451396
20
224.4844073
11
11.1643396
21
224.4844073
0
LINE
8
DEFAULT_255_2_778
10
11.1643396
20
224.4844073
11
11.7546396
21
223.4618073
0
LINE
8
DEFAULT_255_2_778
10
11.7546396
20
223.4618073
11
11.7546396
21
223.4618073
0
LINE
8
DEFAULT_255_2_778
10
11.7545823
20
225.5070146
11
11.1642823
21
226.5296146
0
LINE
8
DEFAULT_255_2_778
10
11.1642823
20
226.5296146
11
10.5737823
21
225.5070146
0
LINE
8
DEFAULT_255_2_778
10
10.5737823
20
225.5070146
11
11.1642823
21
224.4844146
0
LINE
8
DEFAULT_255_2_778
10
11.1642823
20
224.4844146
11
11.7545823
21
225.5070146
0
LINE
8
DEFAULT_255_2_778
10
11.7545823
20
225.5070146
11
11.7545823
21
225.5070146
0
ARC
8
DEFAULT_255_2_778
10
16.5183731
20
225.1532426
40
0.5650491
50
268.7543645
51
289.1417717
0
ARC
8
DEFAULT_255_2_778
10
16.606208
20
224.8980531
40
0.2951681
50
289.2776255
51
3.7648372
0
ARC
8
DEFAULT_255_2_778
10
16.3901618
20
224.9246085
40
0.5106278
50
359.1949826
51
0.0020862
0
ARC
8
DEFAULT_255_2_778
10
16.547449
20
224.9105832
40
0.1541914
50
280.2616216
51
358.5297855
0
ARC
8
DEFAULT_255_2_778
10
16.5080075
20
225.023155
40
0.2726346
50
269.5969454
51
284.2065679
0
ARC
8
DEFAULT_255_2_778
10
16.4981967
20
225.0075316
40
0.2571258
50
246.5290903
51
271.7590909
0
ARC
8
DEFAULT_255_2_778
10
16.4527148
20
224.8995009
40
0.1399248
50
188.1071678
51
245.9934684
0
ARC
8
DEFAULT_255_2_778
10
16.4829007
20
224.9064617
40
0.1708111
50
179.9445314
51
188.990814
0
ARC
8
DEFAULT_255_2_778
10
16.4924507
20
224.9132849
40
0.3763411
50
178.2272621
51
205.8283807
0
ARC
8
DEFAULT_255_2_778
10
16.4132476
20
224.8955833
40
0.2979176
50
209.4028057
51
263.0375728
0
ARC
8
DEFAULT_255_2_778
10
16.5005111
20
225.2702629
40
0.6816586
50
259.5722942
51
270.4689037
0
ARC
8
DEFAULT_255_2_778
10
17.411252
20
225.3264767
40
0.1217154
50
2.0482843
51
87.015299
0
ARC
8
DEFAULT_255_2_778
10
17.4060617
20
225.3308852
40
0.126828
50
353.0600847
51
359.9737428
0
ARC
8
DEFAULT_255_2_778
10
17.4110442
20
225.3277555
40
0.1215295
50
270.5739762
51
354.2410513
0
ARC
8
DEFAULT_255_2_778
10
17.4065059
20
225.3639297
40
0.1578027
50
269.9941256
51
272.0902921
0
ARC
8
DEFAULT_255_2_778
10
17.414084
20
224.9130295
40
0.1400686
50
358.2807293
51
95.6106825
0
ARC
8
DEFAULT_255_2_778
10
17.4103233
20
224.9091963
40
0.1437669
50
266.9962473
51
359.8528392
0
ARC
8
DEFAULT_255_2_778
10
17.4725249
20
224.9494988
40
0.3335288
50
268.2414507
51
302.0223478
0
ARC
8
DEFAULT_255_2_778
10
17.5091261
20
224.874183
40
0.2504234
50
304.0600275
51
2.0468005
0
ARC
8
DEFAULT_255_2_778
10
17.4832788
20
224.8808521
40
0.2761203
50
0.4720601
51
65.8403529
0
ARC
8
DEFAULT_255_2_778
10
17.5191655
20
224.9456061
40
0.2024466
50
67.606893
51
75.8693222
0
ARC
8
DEFAULT_255_2_778
10
17.5042026
20
225.353222
40
0.2208874
50
286.9473417
51
358.0074963
0
ARC
8
DEFAULT_255_2_778
10
17.4710866
20
225.3620045
40
0.2544031
50
356.2897886
51
0.0050857
0
ARC
8
DEFAULT_255_2_778
10
17.497262
20
225.3670946
40
0.2282839
50
358.7280137
51
81.8073164
0
ARC
8
DEFAULT_255_2_778
10
17.4216369
20
225.1156283
40
0.4895182
50
77.2355086
51
90.5088275
0
ARC
8
DEFAULT_255_2_778
10
17.5842742
20
224.1511263
40
0.130243
50
89.9974494
51
92.6776592
0
ARC
8
DEFAULT_255_2_778
10
17.5843316
20
224.1516872
40
0.129682
50
45.0880141
51
90.022782
0
ARC
8
DEFAULT_255_2_778
10
17.5844118
20
224.151719
40
0.1296029
50
0.001866
51
45.1031959
0
ARC
8
DEFAULT_255_2_778
10
17.5845123
20
224.1517202
40
0.1295026
50
357.4803735
51
0.0013544
0
ARC
8
DEFAULT_255_2_778
10
17.5901979
20
224.1478512
40
0.1237052
50
339.8672523
51
359.1550732
0
ARC
8
DEFAULT_255_2_778
10
17.5794513
20
224.1450079
40
0.1329691
50
272.0853006
51
342.6124646
0
ARC
8
DEFAULT_255_2_778
10
17.6596145
20
224.1832661
40
0.2575135
50
286.787355
51
290.6121696
0
ARC
8
DEFAULT_255_2_778
10
17.6689461
20
224.1689533
40
0.24086
50
289.7330405
51
342.3216972
0
ARC
8
DEFAULT_255_2_778
10
17.641261
20
224.1737954
40
0.268735
50
343.130572
51
0.3905272
0
ARC
8
DEFAULT_255_2_778
10
17.6578783
20
224.1911767
40
0.2525904
50
356.4706028
51
80.1788963
0
ARC
8
DEFAULT_255_2_778
10
17.5921649
20
223.9642163
40
0.4881286
50
77.1212301
51
90.4900821
0
ARC
8
DEFAULT_255_2_778
10
17.5166337
20
223.666536
40
0.1865405
50
50.1507009
51
92.9634648
0
ARC
8
DEFAULT_255_2_778
10
17.5301354
20
223.6948678
40
0.1563319
50
12.621233
51
47.2950617
0
ARC
8
DEFAULT_255_2_778
10
16.8485884
20
223.5619726
40
0.8506657
50
2.8173892
51
11.3253986
0
ARC
8
DEFAULT_255_2_778
10
-29.2295733
20
220.0656175
40
47.060992
50
4.3048394
51
4.3117143
0
ARC
8
DEFAULT_255_2_778
10
18.5500859
20
223.638084
40
0.8523717
50
182.6850102
51
191.2954256
0
ARC
8
DEFAULT_255_2_778
10
17.9656837
20
223.5317399
40
0.2586603
50
193.5512904
51
195.3825538
0
ARC
8
DEFAULT_255_2_778
10
19.3415679
20
223.7893916
40
1.4608773
50
182.5958701
51
192.9049706
0
ARC
8
DEFAULT_255_2_778
10
17.6207606
20
223.7177215
40
0.261487
50
1.2064311
51
30.4123358
0
ARC
8
DEFAULT_255_2_778
10
17.6663626
20
223.732776
40
0.2147766
50
33.1081154
51
71.7312197
0
LINE
8
DEFAULT_255_2_778
10
13.4657897
20
223.8973271
11
13.9385897
21
223.8973271
0
LINE
8
DEFAULT_255_2_778
10
13.9385897
20
223.8973271
11
13.9385897
21
224.0687271
0
LINE
8
DEFAULT_255_2_778
10
13.9385897
20
224.0687271
11
13.4657897
21
224.0687271
0
LINE
8
DEFAULT_255_2_778
10
13.4657897
20
224.0687271
11
13.4657897
21
224.2796271
0
LINE
8
DEFAULT_255_2_778
10
13.4657897
20
224.2796271
11
13.9977897
21
224.2796271
0
LINE
8
DEFAULT_255_2_778
10
13.9977897
20
224.2796271
11
13.9977897
21
224.4510271
0
LINE
8
DEFAULT_255_2_778
10
13.9977897
20
224.4510271
11
13.4657897
21
224.4510271
0
LINE
8
DEFAULT_255_2_778
10
13.4657897
20
224.4510271
11
13.2651897
21
224.4510271
0
LINE
8
DEFAULT_255_2_778
10
13.2651897
20
224.4510271
11
13.2651897
21
224.2796271
0
LINE
8
DEFAULT_255_2_778
10
13.2651897
20
224.2796271
11
13.2651897
21
223.6332271
0
LINE
8
DEFAULT_255_2_778
10
13.2651897
20
223.6332271
11
13.2651897
21
223.4617271
0
LINE
8
DEFAULT_255_2_778
10
13.2651897
20
223.4617271
11
13.4657897
21
223.4617271
0
LINE
8
DEFAULT_255_2_778
10
13.4657897
20
223.4617271
11
14.0118897
21
223.4617271
0
LINE
8
DEFAULT_255_2_778
10
14.0118897
20
223.4617271
11
14.0118897
21
223.6332271
0
LINE
8
DEFAULT_255_2_778
10
14.0118897
20
223.6332271
11
13.4657897
21
223.6332271
0
LINE
8
DEFAULT_255_2_778
10
13.4657897
20
223.6332271
11
13.4657897
21
223.8970271
0
LINE
8
DEFAULT_255_2_778
10
13.4657897
20
223.8970271
11
13.4657897
21
223.8973271
0
LINE
8
DEFAULT_255_2_778
10
13.4519897
20
225.3514271
11
13.6620897
21
224.6161271
0
LINE
8
DEFAULT_255_2_778
10
13.6620897
20
224.6161271
11
13.6704897
21
224.6161271
0
LINE
8
DEFAULT_255_2_778
10
13.6704897
20
224.6161271
11
13.8464897
21
224.6161271
0
LINE
8
DEFAULT_255_2_778
10
13.8464897
20
224.6161271
11
13.8546897
21
224.6161271
0
LINE
8
DEFAULT_255_2_778
10
13.8546897
20
224.6161271
11
14.0647897
21
225.3514271
0
LINE
8
DEFAULT_255_2_778
10
14.0647897
20
225.3514271
11
14.0647897
21
224.6161271
0
LINE
8
DEFAULT_255_2_778
10
14.0647897
20
224.6161271
11
14.2515897
21
224.6161271
0
LINE
8
DEFAULT_255_2_778
10
14.2515897
20
224.6161271
11
14.2515897
21
225.6054271
0
LINE
8
DEFAULT_255_2_778
10
14.2515897
20
225.6054271
11
14.1496897
21
225.6054271
0
LINE
8
DEFAULT_255_2_778
10
14.1496897
20
225.6054271
11
14.0615897
21
225.6054271
0
LINE
8
DEFAULT_255_2_778
10
14.0615897
20
225.6054271
11
13.9655897
21
225.6054271
0
LINE
8
DEFAULT_255_2_778
10
13.9655897
20
225.6054271
11
13.7583897
21
224.9111271
0
LINE
8
DEFAULT_255_2_778
10
13.7583897
20
224.9111271
11
13.5511897
21
225.6054271
0
LINE
8
DEFAULT_255_2_778
10
13.5511897
20
225.6054271
11
13.4551897
21
225.6054271
0
LINE
8
DEFAULT_255_2_778
10
13.4551897
20
225.6054271
11
13.3669897
21
225.6054271
0
LINE
8
DEFAULT_255_2_778
10
13.3669897
20
225.6054271
11
13.2651897
21
225.6054271
0
LINE
8
DEFAULT_255_2_778
10
13.2651897
20
225.6054271
11
13.2651897
21
224.6161271
0
LINE
8
DEFAULT_255_2_778
10
13.2651897
20
224.6161271
11
13.4519897
21
224.6161271
0
LINE
8
DEFAULT_255_2_778
10
13.4519897
20
224.6161271
11
13.4519897
21
225.3514271
0
LINE
8
DEFAULT_255_2_778
10
13.4519897
20
225.3514271
11
13.4519897
21
225.3514271
0
LINE
8
DEFAULT_255_2_778
10
18.0056897
20
225.6054271
11
17.8064897
21
225.6054271
0
LINE
8
DEFAULT_255_2_778
10
17.8064897
20
225.6054271
11
17.8064897
21
224.6161271
0
LINE
8
DEFAULT_255_2_778
10
17.8064897
20
224.6161271
11
18.0056897
21
224.6161271
0
LINE
8
DEFAULT_255_2_778
10
18.0056897
20
224.6161271
11
18.0056897
21
225.6054271
0
LINE
8
DEFAULT_255_2_778
10
18.0056897
20
225.6054271
11
18.0056897
21
225.6054271
0
LINE
8
DEFAULT_255_2_778
10
18.1681897
20
224.4513271
11
17.9689897
21
224.4513271
0
LINE
8
DEFAULT_255_2_778
10
17.9689897
20
224.4513271
11
17.9689897
21
223.4620271
0
LINE
8
DEFAULT_255_2_778
10
17.9689897
20
223.4620271
11
18.1681897
21
223.4620271
0
LINE
8
DEFAULT_255_2_778
10
18.1681897
20
223.4620271
11
18.1681897
21
224.4513271
0
LINE
8
DEFAULT_255_2_778
10
18.1681897
20
224.4513271
11
18.1681897
21
224.4513271
0
LINE
8
DEFAULT_255_2_778
10
19.9765897
20
225.6054271
11
19.7773897
21
225.6054271
0
LINE
8
DEFAULT_255_2_778
10
19.7773897
20
225.6054271
11
19.7773897
21
224.6161271
0
LINE
8
DEFAULT_255_2_778
10
19.7773897
20
224.6161271
11
19.9765897
21
224.6161271
0
LINE
8
DEFAULT_255_2_778
10
19.9765897
20
224.6161271
11
19.9765897
21
225.6054271
0
LINE
8
DEFAULT_255_2_778
10
19.9765897
20
225.6054271
11
19.9765897
21
225.6054271
0
LINE
8
DEFAULT_255_2_778
10
14.5298897
20
225.6054271
11
14.3306897
21
225.6054271
0
LINE
8
DEFAULT_255_2_778
10
14.3306897
20
225.6054271
11
14.3306897
21
224.6161271
0
LINE
8
DEFAULT_255_2_778
10
14.3306897
20
224.6161271
11
14.5298897
21
224.6161271
0
LINE
8
DEFAULT_255_2_778
10
14.5298897
20
224.6161271
11
14.5298897
21
225.6054271
0
LINE
8
DEFAULT_255_2_778
10
14.5298897
20
225.6054271
11
14.5298897
21
225.6054271
0
LINE
8
DEFAULT_255_2_778
10
19.4989897
20
225.2194271
11
19.1029897
21
225.2194271
0
LINE
8
DEFAULT_255_2_778
10
19.1029897
20
225.2194271
11
19.1029897
21
225.6051271
0
LINE
8
DEFAULT_255_2_778
10
19.1029897
20
225.6051271
11
18.9068897
21
225.6051271
0
LINE
8
DEFAULT_255_2_778
10
18.9068897
20
225.6051271
11
18.9068897
21
224.6161271
0
LINE
8
DEFAULT_255_2_778
10
18.9068897
20
224.6161271
11
19.1029897
21
224.6161271
0
LINE
8
DEFAULT_255_2_778
10
19.1029897
20
224.6161271
11
19.1029897
21
225.0479271
0
LINE
8
DEFAULT_255_2_778
10
19.1029897
20
225.0479271
11
19.4989897
21
225.0479271
0
LINE
8
DEFAULT_255_2_778
10
19.4989897
20
225.0479271
11
19.4989897
21
224.6161271
0
LINE
8
DEFAULT_255_2_778
10
19.4989897
20
224.6161271
11
19.6950897
21
224.6161271
0
LINE
8
DEFAULT_255_2_778
10
19.6950897
20
224.6161271
11
19.6950897
21
225.6051271
0
LINE
8
DEFAULT_255_2_778
10
19.6950897
20
225.6051271
11
19.4989897
21
225.6051271
0
LINE
8
DEFAULT_255_2_778
10
19.4989897
20
225.6051271
11
19.4989897
21
225.2194271
0
LINE
8
DEFAULT_255_2_778
10
19.4989897
20
225.2194271
11
19.4989897
21
225.2194271
0
LINE
8
DEFAULT_255_2_778
10
14.8246897
20
224.6161271
11
15.0280897
21
224.6161271
0
LINE
8
DEFAULT_255_2_778
10
15.0280897
20
224.6161271
11
15.0280897
21
225.4340271
0
LINE
8
DEFAULT_255_2_778
10
15.0280897
20
225.4340271
11
15.2696897
21
225.4340271
0
LINE
8
DEFAULT_255_2_778
10
15.2696897
20
225.4340271
11
15.2696897
21
225.6054271
0
LINE
8
DEFAULT_255_2_778
10
15.2696897
20
225.6054271
11
15.0280897
21
225.6054271
0
LINE
8
DEFAULT_255_2_778
10
15.0280897
20
225.6054271
11
14.8246897
21
225.6054271
0
LINE
8
DEFAULT_255_2_778
10
14.8246897
20
225.6054271
11
14.5830897
21
225.6054271
0
LINE
8
DEFAULT_255_2_778
10
14.5830897
20
225.6054271
11
14.5830897
21
225.4340271
0
LINE
8
DEFAULT_255_2_778
10
14.5830897
20
225.4340271
11
14.8246897
21
225.4340271
0
LINE
8
DEFAULT_255_2_778
10
14.8246897
20
225.4340271
11
14.8246897
21
224.6161271
0
LINE
8
DEFAULT_255_2_778
10
14.8246897
20
224.6161271
11
14.8246897
21
224.6161271
0
LINE
8
DEFAULT_255_2_778
10
16.6422897
20
223.4620271
11
16.8454897
21
223.4620271
0
LINE
8
DEFAULT_255_2_778
10
16.8454897
20
223.4620271
11
16.8454897
21
224.2798271
0
LINE
8
DEFAULT_255_2_778
10
16.8454897
20
224.2798271
11
17.0873897
21
224.2798271
0
LINE
8
DEFAULT_255_2_778
10
17.0873897
20
224.2798271
11
17.0873897
21
224.4516271
0
LINE
8
DEFAULT_255_2_778
10
17.0873897
20
224.4516271
11
16.8454897
21
224.4516271
0
LINE
8
DEFAULT_255_2_778
10
16.8454897
20
224.4516271
11
16.6422897
21
224.4516271
0
LINE
8
DEFAULT_255_2_778
10
16.6422897
20
224.4516271
11
16.4004897
21
224.4516271
0
LINE
8
DEFAULT_255_2_778
10
16.4004897
20
224.4516271
11
16.4004897
21
224.2798271
0
LINE
8
DEFAULT_255_2_778
10
16.4004897
20
224.2798271
11
16.6422897
21
224.2798271
0
LINE
8
DEFAULT_255_2_778
10
16.6422897
20
224.2798271
11
16.6422897
21
223.4620271
0
LINE
8
DEFAULT_255_2_778
10
16.6422897
20
223.4620271
11
16.6422897
21
223.4620271
0
LINE
8
DEFAULT_255_2_778
10
16.9007897
20
224.9246271
11
16.9007897
21
225.6051271
0
LINE
8
DEFAULT_255_2_778
10
16.9007897
20
225.6051271
11
16.7015897
21
225.6051271
0
LINE
8
DEFAULT_255_2_778
10
16.7015897
20
225.6051271
11
16.7015897
21
224.9066271
0
LINE
8
DEFAULT_255_2_778
10
16.3120897
20
224.9066271
11
16.3120897
21
225.6051271
0
LINE
8
DEFAULT_255_2_778
10
16.3120897
20
225.6051271
11
16.1162897
21
225.6051271
0
LINE
8
DEFAULT_255_2_778
10
16.1162897
20
225.6051271
11
16.1162897
21
224.9249271
0
LINE
8
DEFAULT_255_2_778
10
15.0000897
20
223.8973271
11
15.4730897
21
223.8973271
0
LINE
8
DEFAULT_255_2_778
10
15.4730897
20
223.8973271
11
15.4730897
21
224.0687271
0
LINE
8
DEFAULT_255_2_778
10
15.4730897
20
224.0687271
11
15.0000897
21
224.0687271
0
LINE
8
DEFAULT_255_2_778
10
15.0000897
20
224.0687271
11
15.0000897
21
224.2796271
0
LINE
8
DEFAULT_255_2_778
10
15.0000897
20
224.2796271
11
15.5320897
21
224.2796271
0
LINE
8
DEFAULT_255_2_778
10
15.5320897
20
224.2796271
11
15.5320897
21
224.4510271
0
LINE
8
DEFAULT_255_2_778
10
15.5320897
20
224.4510271
11
15.0000897
21
224.4510271
0
LINE
8
DEFAULT_255_2_778
10
15.0000897
20
224.4510271
11
14.7997897
21
224.4510271
0
LINE
8
DEFAULT_255_2_778
10
14.7997897
20
224.4510271
11
14.7997897
21
224.2796271
0
LINE
8
DEFAULT_255_2_778
10
14.7997897
20
224.2796271
11
14.7997897
21
223.6332271
0
LINE
8
DEFAULT_255_2_778
10
14.7997897
20
223.6332271
11
14.7997897
21
223.4617271
0
LINE
8
DEFAULT_255_2_778
10
14.7997897
20
223.4617271
11
15.0000897
21
223.4617271
0
LINE
8
DEFAULT_255_2_778
10
15.0000897
20
223.4617271
11
15.5461897
21
223.4617271
0
LINE
8
DEFAULT_255_2_778
10
15.5461897
20
223.4617271
11
15.5461897
21
223.6332271
0
LINE
8
DEFAULT_255_2_778
10
15.5461897
20
223.6332271
11
15.0000897
21
223.6332271
0
LINE
8
DEFAULT_255_2_778
10
15.0000897
20
223.6332271
11
15.0000897
21
223.8970271
0
LINE
8
DEFAULT_255_2_778
10
15.0000897
20
223.8970271
11
15.0000897
21
223.8973271
0
LINE
8
DEFAULT_255_2_778
10
17.4064897
20
225.2061271
11
17.1690897
21
225.2061271
0
LINE
8
DEFAULT_255_2_778
10
17.1690897
20
225.2061271
11
17.1690897
21
225.4477271
0
LINE
8
DEFAULT_255_2_778
10
17.1690897
20
225.4477271
11
17.4175897
21
225.4477271
0
LINE
8
DEFAULT_255_2_778
10
17.4175897
20
225.4477271
11
17.4175897
21
225.4480271
0
LINE
8
DEFAULT_255_2_778
10
17.4027897
20
224.7653271
11
17.1690897
21
224.7653271
0
LINE
8
DEFAULT_255_2_778
10
17.1690897
20
224.7653271
11
17.1690897
21
225.0524271
0
LINE
8
DEFAULT_255_2_778
10
17.1690897
20
225.0524271
11
17.4003897
21
225.0524271
0
LINE
8
DEFAULT_255_2_778
10
17.1767897
20
224.6161271
11
17.4622897
21
224.6161271
0
LINE
8
DEFAULT_255_2_778
10
17.4172897
20
225.6051271
11
17.1770897
21
225.6051271
0
LINE
8
DEFAULT_255_2_778
10
17.1770897
20
225.6051271
11
16.9722897
21
225.6051271
0
LINE
8
DEFAULT_255_2_778
10
16.9722897
20
225.6051271
11
16.9711897
21
225.6051271
0
LINE
8
DEFAULT_255_2_778
10
16.9711897
20
225.6051271
11
16.9711897
21
224.6161271
0
LINE
8
DEFAULT_255_2_778
10
16.9711897
20
224.6161271
11
16.9722897
21
224.6161271
0
LINE
8
DEFAULT_255_2_778
10
16.9722897
20
224.6161271
11
17.1770897
21
224.6161271
0
LINE
8
DEFAULT_255_2_778
10
17.1770897
20
224.6161271
11
17.1767897
21
224.6161271
0
LINE
8
DEFAULT_255_2_778
10
17.3368897
20
224.0118271
11
17.3368897
21
224.2812271
0
LINE
8
DEFAULT_255_2_778
10
17.3368897
20
224.2812271
11
17.5781897
21
224.2812271
0
LINE
8
DEFAULT_255_2_778
10
17.5842897
20
224.0121271
11
17.3370897
21
224.0121271
0
LINE
8
DEFAULT_255_2_778
10
17.3370897
20
224.0121271
11
17.3368897
21
224.0118271
0
LINE
8
DEFAULT_255_2_778
10
17.5879897
20
224.4523271
11
17.3368897
21
224.4523271
0
LINE
8
DEFAULT_255_2_778
10
17.3368897
20
224.4523271
11
17.1383897
21
224.4523271
0
LINE
8
DEFAULT_255_2_778
10
17.1383897
20
224.4523271
11
17.1362897
21
224.4523271
0
LINE
8
DEFAULT_255_2_778
10
17.1362897
20
224.4523271
11
17.1362897
21
223.4631271
0
LINE
8
DEFAULT_255_2_778
10
17.1362897
20
223.4631271
11
17.3368897
21
223.4631271
0
LINE
8
DEFAULT_255_2_778
10
17.3368897
20
223.4631271
11
17.3368897
21
223.8528271
0
LINE
8
DEFAULT_255_2_778
10
17.3368897
20
223.8528271
11
17.5069897
21
223.8528271
0
LINE
8
DEFAULT_255_2_778
10
17.7162897
20
223.4631271
11
17.9175897
21
223.4631271
0
LINE
8
DEFAULT_255_2_778
10
14.2763897
20
224.4513271
11
14.0760897
21
224.4513271
0
LINE
8
DEFAULT_255_2_778
10
14.0760897
20
224.4513271
11
14.0760897
21
223.6335271
0
LINE
8
DEFAULT_255_2_778
10
14.0760897
20
223.6335271
11
14.0760897
21
223.4620271
0
LINE
8
DEFAULT_255_2_778
10
14.0760897
20
223.4620271
11
14.2763897
21
223.4620271
0
LINE
8
DEFAULT_255_2_778
10
14.2763897
20
223.4620271
11
14.7428897
21
223.4620271
0
LINE
8
DEFAULT_255_2_778
10
14.7428897
20
223.4620271
11
14.7428897
21
223.6335271
0
LINE
8
DEFAULT_255_2_778
10
14.7428897
20
223.6335271
11
14.2763897
21
223.6335271
0
LINE
8
DEFAULT_255_2_778
10
14.2763897
20
223.6335271
11
14.2763897
21
224.4513271
0
LINE
8
DEFAULT_255_2_778
10
14.2763897
20
224.4513271
11
14.2763897
21
224.4513271
0
ARC
8
DEFAULT_255_2_778
10
15.4584271
20
224.0771969
40
0.9681224
50
72.4822103
51
81.3184214
0
ARC
8
DEFAULT_255_2_778
10
15.7160297
20
224.8538918
40
0.1503783
50
28.8883513
51
77.0092434
0
ARC
8
DEFAULT_255_2_778
10
15.7432379
20
224.8828196
40
0.113238
50
358.9917455
51
22.7117017
0
ARC
8
DEFAULT_255_2_778
10
15.7394861
20
224.8869918
40
0.1171346
50
289.2958104
51
356.9831562
0
ARC
8
DEFAULT_255_2_778
10
15.6668261
20
225.0444882
40
0.2902651
50
268.4665462
51
292.5613311
0
ARC
8
DEFAULT_255_2_778
10
15.6496856
20
224.9854179
40
0.2312808
50
236.4956947
51
272.3225735
0
ARC
8
DEFAULT_255_2_778
10
15.6106646
20
224.9171839
40
0.1529307
50
178.9722202
51
234.5742435
0
ARC
8
DEFAULT_255_2_778
10
15.5656113
20
224.9076079
40
0.3002058
50
177.6481608
51
245.5596397
0
ARC
8
DEFAULT_255_2_778
10
15.6409971
20
225.0798561
40
0.488217
50
245.8690375
51
267.169035
0
ARC
8
DEFAULT_255_2_778
10
15.6671503
20
225.3308916
40
0.7403648
50
266.1069867
51
270.0547972
0
ARC
8
DEFAULT_255_2_778
10
15.6772894
20
225.1621135
40
0.5716642
50
269.0547216
51
287.7147747
0
ARC
8
DEFAULT_255_2_778
10
15.7598889
20
224.9164091
40
0.3125017
50
286.995984
51
325.1221533
0
ARC
8
DEFAULT_255_2_778
10
15.7678294
20
224.899861
40
0.2966627
50
326.8673922
51
0.8625726
0
ARC
8
DEFAULT_255_2_778
10
15.7898286
20
224.9084409
40
0.2746606
50
359.1417932
51
76.9739731
0
ARC
8
DEFAULT_255_2_778
10
15.6705461
20
224.6275719
40
0.577616
50
71.7185727
51
79.1315439
0
ARC
8
DEFAULT_255_2_778
10
14.2492968
20
217.273967
40
8.0673056
50
79.0662148
51
79.6216572
0
ARC
8
DEFAULT_255_2_778
10
16.4356585
20
229.1516581
40
4.0099443
50
259.1227669
51
259.4665204
0
ARC
8
DEFAULT_255_2_778
10
15.7836732
20
225.8566142
40
0.6513291
50
249.9945768
51
260.7485895
0
ARC
8
DEFAULT_255_2_778
10
15.5880401
20
225.3455999
40
0.1046098
50
178.6705173
51
254.9333545
0
ARC
8
DEFAULT_255_2_778
10
15.6049957
20
225.3421688
40
0.1216785
50
93.288632
51
177.2403935
0
ARC
8
DEFAULT_255_2_778
10
15.6585677
20
225.1551752
40
0.3143588
50
89.6189463
51
101.1057977
0
ARC
8
DEFAULT_255_2_778
10
15.6722733
20
225.267016
40
0.2028439
50
53.5634072
51
93.2825843
0
ARC
8
DEFAULT_255_2_778
10
15.7018505
20
225.3252144
40
0.1388739
50
357.1985816
51
49.1152298
0
ARC
8
DEFAULT_255_2_778
10
15.7254907
20
225.3184274
40
0.3087677
50
359.9999335
51
2.3703878
0
ARC
8
DEFAULT_255_2_778
10
15.7353555
20
225.3199337
40
0.298851
50
2.1600756
51
60.1092229
0
ARC
8
DEFAULT_255_2_778
10
15.6766212
20
225.2133133
40
0.4205645
50
60.4106856
51
86.1444419
0
ARC
8
DEFAULT_255_2_778
10
15.6536151
20
225.0366228
40
0.5985046
50
85.0843314
51
90.0628677
0
ARC
8
DEFAULT_255_2_778
10
15.6529718
20
225.1600466
40
0.4750804
50
90.001616
51
92.2300394
0
ARC
8
DEFAULT_255_2_778
10
15.6281193
20
225.265187
40
0.3696351
50
89.0131319
51
149.6364996
0
ARC
8
DEFAULT_255_2_778
10
15.5505461
20
225.3374055
40
0.2671974
50
154.5962367
51
180.4885883
0
ARC
8
DEFAULT_255_2_778
10
15.5651524
20
225.335884
40
0.281795
50
180.1539064
51
255.1120325
0
ARC
8
DEFAULT_255_2_778
10
15.7094242
20
225.658732
40
0.6333958
50
249.9962237
51
260.4976723
0
ARC
8
DEFAULT_255_2_778
10
18.2470963
20
224.0783351
40
0.967002
50
72.4685023
51
81.3064395
0
ARC
8
DEFAULT_255_2_778
10
18.5045397
20
224.853927
40
0.1503535
50
28.8782248
51
76.9904304
0
ARC
8
DEFAULT_255_2_778
10
18.5317197
20
224.8828189
40
0.1132561
50
358.9922779
51
22.7082666
0
ARC
8
DEFAULT_255_2_778
10
18.5280402
20
224.8869088
40
0.1170763
50
289.2761556
51
357.0223042
0
ARC
8
DEFAULT_255_2_778
10
18.4553612
20
225.0447836
40
0.2905613
50
268.4611814
51
292.5289055
0
ARC
8
DEFAULT_255_2_778
10
18.4381801
20
224.9863175
40
0.2321799
50
236.6698634
51
272.3149402
0
ARC
8
DEFAULT_255_2_778
10
18.39878
20
224.9171762
40
0.1528464
50
178.9687581
51
234.7686008
0
ARC
8
DEFAULT_255_2_778
10
18.3540113
20
224.9076079
40
0.3002058
50
177.6481608
51
245.5596397
0
ARC
8
DEFAULT_255_2_778
10
18.4293971
20
225.0798561
40
0.488217
50
245.8690375
51
267.169035
0
ARC
8
DEFAULT_255_2_778
10
18.4555503
20
225.3308916
40
0.7403648
50
266.1069867
51
270.0547972
0
ARC
8
DEFAULT_255_2_778
10
18.4656836
20
225.1627451
40
0.5722957
50
269.0563423
51
287.7048702
0
ARC
8
DEFAULT_255_2_778
10
18.548344
20
224.9167682
40
0.312856
50
286.9832601
51
325.0871916
0
ARC
8
DEFAULT_255_2_778
10
18.5567708
20
224.8998856
40
0.2964208
50
326.8311942
51
0.8585267
0
ARC
8
DEFAULT_255_2_778
10
18.5785756
20
224.9085282
40
0.2746149
50
359.1234265
51
76.9343785
0
ARC
8
DEFAULT_255_2_778
10
18.4596421
20
224.6286965
40
0.5764934
50
71.6999697
51
79.1198353
0
ARC
8
DEFAULT_255_2_778
10
17.0173657
20
217.1519392
40
8.1910887
50
79.0843627
51
79.6321368
0
ARC
8
DEFAULT_255_2_778
10
19.2200266
20
229.1314177
40
3.9892176
50
259.1314419
51
259.4772924
0
ARC
8
DEFAULT_255_2_778
10
18.5723251
20
225.8560131
40
0.6507003
50
249.9919323
51
260.7592458
0
ARC
8
DEFAULT_255_2_778
10
18.376901
20
225.3455546
40
0.1045718
50
178.6452075
51
254.9151907
0
ARC
8
DEFAULT_255_2_778
10
18.3939581
20
225.3421016
40
0.121744
50
93.2745253
51
177.21023
0
ARC
8
DEFAULT_255_2_778
10
18.4475726
20
225.1550052
40
0.3145287
50
89.6200387
51
101.1027534
0
ARC
8
DEFAULT_255_2_778
10
18.4613489
20
225.2683453
40
0.2015212
50
53.1490002
51
93.3256649
0
ARC
8
DEFAULT_255_2_778
10
18.4902753
20
225.3251519
40
0.1391457
50
357.2298288
51
48.6469881
0
ARC
8
DEFAULT_255_2_778
10
18.5137232
20
225.3184226
40
0.3092351
50
0.0008291
51
2.3676985
0
ARC
8
DEFAULT_255_2_778
10
18.5240744
20
225.3199868
40
0.2988304
50
2.1500394
51
60.0956838
0
ARC
8
DEFAULT_255_2_778
10
18.4654399
20
225.2134909
40
0.4203859
50
60.40452
51
86.1455285
0
ARC
8
DEFAULT_255_2_778
10
18.4424157
20
225.0366686
40
0.5984588
50
85.0841409
51
90.0629301
0
ARC
8
DEFAULT_255_2_778
10
18.4417778
20
225.1596392
40
0.4754878
50
90.0023409
51
92.3231329
0
ARC
8
DEFAULT_255_2_778
10
18.4167555
20
225.2649604
40
0.3698206
50
89.1093915
51
149.6400816
0
ARC
8
DEFAULT_255_2_778
10
18.338761
20
225.3373917
40
0.2669122
50
154.6001925
51
180.486137
0
ARC
8
DEFAULT_255_2_778
10
18.3537607
20
225.3360152
40
0.2819037
50
180.1805176
51
255.132702
0
ARC
8
DEFAULT_255_2_778
10
18.4982264
20
225.6592784
40
0.6339516
50
250.0026216
51
260.4967164
0
ARC
8
DEFAULT_255_2_778
10
16.008917
20
223.8664283
40
0.2519711
50
190.2626864
51
267.3480013
0
ARC
8
DEFAULT_255_2_778
10
16.2443543
20
223.9577548
40
0.5022041
50
179.6723028
51
195.7380858
0
ARC
8
DEFAULT_255_2_778
10
16.1790511
20
223.9732671
40
0.4370755
50
148.7005643
51
181.6572045
0
ARC
8
DEFAULT_255_2_778
10
15.9957576
20
224.0833723
40
0.2232598
50
89.6148479
51
148.4074796
0
ARC
8
DEFAULT_255_2_778
10
16.0060936
20
224.105449
40
0.201372
50
41.9769772
51
92.5146611
0
ARC
8
DEFAULT_255_2_778
10
15.9522078
20
224.0677523
40
0.2667646
50
15.1848537
51
40.2549591
0
ARC
8
DEFAULT_255_2_778
10
16.028123
20
224.0780326
40
0.3935735
50
8.7091682
51
82.0550801
0
ARC
8
DEFAULT_255_2_778
10
15.9931241
20
223.9315871
40
0.543642
50
80.5350289
51
90.1544743
0
ARC
8
DEFAULT_255_2_778
10
15.9818804
20
224.0202192
40
0.4551129
50
88.7689246
51
119.6437418
0
ARC
8
DEFAULT_255_2_778
10
16.0077717
20
224.0239647
40
0.4653013
50
122.644121
51
173.3997839
0
ARC
8
DEFAULT_255_2_778
10
16.2711934
20
223.9596568
40
0.7351371
50
170.7798304
51
180.1348114
0
ARC
8
DEFAULT_255_2_778
10
16.1377257
20
223.9442615
40
0.6018225
50
178.6988735
51
210.5289552
0
ARC
8
DEFAULT_255_2_778
10
15.970325
20
223.8534953
40
0.4115783
50
211.4828222
51
265.8686737
0
ARC
8
DEFAULT_255_2_778
10
15.9909864
20
223.9782011
40
0.5375742
50
264.6297133
51
270.0503073
0
ARC
8
DEFAULT_255_2_778
10
16.0020995
20
223.9100749
40
0.4695684
50
268.7014824
51
300.1403067
0
ARC
8
DEFAULT_255_2_778
10
16.0350333
20
223.8316852
40
0.385394
50
301.7580058
51
353.77968
0
ARC
8
DEFAULT_255_2_778
10
16.0012256
20
223.8260219
40
0.2113379
50
268.8430278
51
350.1661143
0
ARC
8
DEFAULT_255_2_778
10
18.6896799
20
223.8663824
40
0.2519281
50
190.2538303
51
267.3332171
0
ARC
8
DEFAULT_255_2_778
10
18.9252249
20
223.9577581
40
0.5022746
50
179.672724
51
195.7362088
0
ARC
8
DEFAULT_255_2_778
10
18.8600432
20
223.9732917
40
0.4372682
50
148.7196987
51
181.6596982
0
ARC
8
DEFAULT_255_2_778
10
18.676443
20
224.0834906
40
0.2231415
50
89.6108896
51
148.4244661
0
ARC
8
DEFAULT_255_2_778
10
18.686876
20
224.105467
40
0.2013576
50
42.5913083
51
92.5383066
0
ARC
8
DEFAULT_255_2_778
10
18.6345542
20
224.0690973
40
0.2646316
50
15.0085433
51
40.7215892
0
ARC
8
DEFAULT_255_2_778
10
18.708623
20
224.0780326
40
0.3935735
50
8.7091682
51
82.0550801
0
ARC
8
DEFAULT_255_2_778
10
18.6736241
20
223.9315871
40
0.543642
50
80.5350289
51
90.1544743
0
ARC
8
DEFAULT_255_2_778
10
18.6623804
20
224.0202192
40
0.4551129
50
88.7689246
51
119.6437418
0
ARC
8
DEFAULT_255_2_778
10
18.6882717
20
224.0239647
40
0.4653013
50
122.644121
51
173.3997839
0
ARC
8
DEFAULT_255_2_778
10
18.9516934
20
223.9596568
40
0.7351371
50
170.7798304
51
180.1348114
0
ARC
8
DEFAULT_255_2_778
10
18.8177822
20
223.94432
40
0.6013778
50
178.7034849
51
210.5604279
0
ARC
8
DEFAULT_255_2_778
10
18.6511312
20
223.8538377
40
0.4119265
50
211.5090145
51
265.8592607
0
ARC
8
DEFAULT_255_2_778
10
18.6716883
20
223.9779521
40
0.5373252
50
264.628472
51
270.0501277
0
ARC
8
DEFAULT_255_2_778
10
18.682837
20
223.9098685
40
0.4693629
50
268.6963312
51
300.2191972
0
ARC
8
DEFAULT_255_2_778
10
18.7155684
20
223.8319124
40
0.3856821
50
301.8465101
51
353.7503927
0
ARC
8
DEFAULT_255_2_778
10
18.6820648
20
223.8258604
40
0.2111733
50
268.8857714
51
350.2028431
0
LINE
8
DEFAULT_255_2_778
10
15.4577584
20
224.9199271
11
15.2656584
21
224.9199271
0
LINE
8
DEFAULT_255_2_778
10
15.8405584
20
225.3184271
11
16.0342584
21
225.3184271
0
LINE
8
DEFAULT_255_2_778
10
18.2459584
20
224.9199271
11
18.0540584
21
224.9199271
0
LINE
8
DEFAULT_255_2_778
10
18.6292584
20
225.3184271
11
18.8229584
21
225.3184271
0
LINE
8
DEFAULT_255_2_778
10
16.2096584
20
224.1376271
11
16.4171584
21
224.1376271
0
LINE
8
DEFAULT_255_2_778
10
16.4181584
20
223.7899271
11
16.2094584
21
223.7899271
0
LINE
8
DEFAULT_255_2_778
10
18.8901584
20
224.1376271
11
19.0976584
21
224.1376271
0
LINE
8
DEFAULT_255_2_778
10
19.0989584
20
223.7899271
11
18.8901584
21
223.7899271
0
LINE
8
DEFAULT_255_1_234
10
12.021885
20
221.5797391
11
12.021885
21
221.4536408
0
LINE
8
DEFAULT_255_1_234
10
12.021885
20
221.4536408
11
11.5311458
21
221.4536408
0
LINE
8
DEFAULT_255_1_234
10
11.5311458
20
221.4536408
11
11.5311458
21
220.9372
0
LINE
8
DEFAULT_255_1_234
10
11.5311458
20
220.9372
11
11.3769364
21
220.9372
0
LINE
8
DEFAULT_255_1_234
10
11.3769364
20
220.9372
11
11.3769364
21
222.1066211
0
LINE
8
DEFAULT_255_1_234
10
11.3769364
20
222.1066211
11
12.1013992
21
222.1066211
0
LINE
8
DEFAULT_255_1_234
10
12.1013992
20
222.1066211
11
12.1013992
21
221.9797196
0
LINE
8
DEFAULT_255_1_234
10
12.1013992
20
221.9797196
11
11.5311458
21
221.9797196
0
LINE
8
DEFAULT_255_1_234
10
11.5311458
20
221.9797196
11
11.5311458
21
221.5797391
0
LINE
8
DEFAULT_255_1_234
10
11.5311458
20
221.5797391
11
12.021885
21
221.5797391
0
LINE
8
DEFAULT_255_1_234
10
13.4692042
20
221.7684849
11
13.3141917
21
221.7684849
0
LINE
8
DEFAULT_255_1_234
10
12.6218558
20
221.2761394
11
12.7768684
21
221.2761394
0
ARC
8
DEFAULT_255_1_234
10
13.3800729
20
222.6631768
40
1.252368
50
248.9199003
51
254.1439814
0
ARC
8
DEFAULT_255_1_234
10
13.2120224
20
222.2305234
40
0.788226
50
241.633709
51
249.0064503
0
ARC
8
DEFAULT_255_1_234
10
13.0591619
20
221.9504317
40
0.4691427
50
230.498225
51
241.8087113
0
ARC
8
DEFAULT_255_1_234
10
12.9807193
20
221.8504906
40
0.3421437
50
227.4064532
51
229.9881192
0
ARC
8
DEFAULT_255_1_234
10
12.9319713
20
221.8029088
40
0.2741476
50
200.6781896
51
228.1763934
0
ARC
8
DEFAULT_255_1_234
10
12.9392024
20
221.8014077
40
0.2804109
50
179.5061581
51
199.8694617
0
ARC
8
DEFAULT_255_1_234
10
12.9382776
20
221.808821
40
0.2795204
50
132.4834203
51
181.0242172
0
ARC
8
DEFAULT_255_1_234
10
12.9978358
20
221.7525704
40
0.3612768
50
129.2532479
51
133.4242687
0
ARC
8
DEFAULT_255_1_234
10
13.0124808
20
221.7305965
40
0.3875675
50
101.98776
51
128.8742646
0
ARC
8
DEFAULT_255_1_234
10
13.0523418
20
221.5584741
40
0.5642249
50
89.5906553
51
102.3169264
0
ARC
8
DEFAULT_255_1_234
10
13.0593911
20
221.5903148
40
0.5323783
50
77.2360837
51
90.3248275
0
ARC
8
DEFAULT_255_1_234
10
13.080099
20
221.68704
40
0.4334697
50
63.837784
51
77.0809408
0
ARC
8
DEFAULT_255_1_234
10
13.1078751
20
221.7387911
40
0.3747796
50
45.9864267
51
64.1607727
0
ARC
8
DEFAULT_255_1_234
10
13.1339633
20
221.7685866
40
0.3352302
50
32.2747395
51
45.6547121
0
ARC
8
DEFAULT_255_1_234
10
13.1406073
20
221.770488
40
0.328603
50
359.6507365
51
32.6130309
0
ARC
8
DEFAULT_255_1_234
10
13.0463169
20
221.770966
40
0.2678863
50
359.469343
51
14.9832209
0
ARC
8
DEFAULT_255_1_234
10
13.1168231
20
221.7898539
40
0.1948938
50
14.9781179
51
48.2004265
0
ARC
8
DEFAULT_255_1_234
10
13.1003875
20
221.7691983
40
0.2212521
50
48.5927837
51
74.1241538
0
ARC
8
DEFAULT_255_1_234
10
13.0670365
20
221.6591248
40
0.3362561
50
73.7888341
51
86.6652678
0
ARC
8
DEFAULT_255_1_234
10
13.056793
20
221.5383881
40
0.4573953
50
86.2640471
51
90.0526343
0
ARC
8
DEFAULT_255_1_234
10
13.0539643
20
221.5779192
40
0.4178709
50
89.6697524
51
99.2309573
0
ARC
8
DEFAULT_255_1_234
10
13.0297094
20
221.7223964
40
0.2713749
50
99.069534
51
113.7658566
0
ARC
8
DEFAULT_255_1_234
10
13.0023285
20
221.7869677
40
0.2012469
50
114.0401004
51
127.9850673
0
ARC
8
DEFAULT_255_1_234
10
12.9782849
20
221.816573
40
0.1631167
50
127.7287463
51
176.7105154
0
ARC
8
DEFAULT_255_1_234
10
13.0461566
20
221.8064693
40
0.2315392
50
175.1779447
51
180.0581938
0
ARC
8
DEFAULT_255_1_234
10
12.9618413
20
221.8052428
40
0.1472271
50
179.6142195
51
228.1246017
0
ARC
8
DEFAULT_255_1_234
10
13.0060082
20
221.8461308
40
0.2072299
50
226.5779593
51
230.8800004
0
ARC
8
DEFAULT_255_1_234
10
13.053116
20
221.9086636
40
0.2854818
50
231.4635071
51
241.9260842
0
ARC
8
DEFAULT_255_1_234
10
13.1728338
20
222.12898
40
0.53622
50
241.7178533
51
248.3259551
0
ARC
8
DEFAULT_255_1_234
10
13.311371
20
222.4722064
40
0.9063478
50
248.2007737
51
252.4528373
0
ARC
8
DEFAULT_255_1_234
10
13.4317435
20
222.8443441
40
1.2974635
50
252.3391078
51
254.3469452
0
ARC
8
DEFAULT_255_1_234
10
12.6775138
20
220.1466148
40
1.5037162
50
71.0197183
51
74.4087047
0
ARC
8
DEFAULT_255_1_234
10
12.8469823
20
220.6358111
40
0.9859993
50
66.1847285
51
71.086374
0
ARC
8
DEFAULT_255_1_234
10
13.0026135
20
220.98622
40
0.6025855
50
59.3536294
51
66.2691831
0
ARC
8
DEFAULT_255_1_234
10
13.0914788
20
221.1365609
40
0.4279449
50
49.1020879
51
59.3293958
0
ARC
8
DEFAULT_255_1_234
10
13.1733528
20
221.2298834
40
0.3038015
50
32.7919921
51
49.2505539
0
ARC
8
DEFAULT_255_1_234
10
13.2054618
20
221.2527191
40
0.264448
50
31.1181161
51
32.4005348
0
ARC
8
DEFAULT_255_1_234
10
13.1966155
20
221.2491779
40
0.2738556
50
8.1116974
51
30.7958831
0
ARC
8
DEFAULT_255_1_234
10
13.1155823
20
221.2353753
40
0.3560327
50
359.8389159
51
8.4706516
0
ARC
8
DEFAULT_255_1_234
10
13.1781615
20
221.2305137
40
0.2934776
50
337.4731098
51
0.7537279
0
ARC
8
DEFAULT_255_1_234
10
13.196031
20
221.2285387
40
0.2762607
50
307.5917067
51
336.4315538
0
ARC
8
DEFAULT_255_1_234
10
13.1500138
20
221.2798102
40
0.3449979
50
307.6551545
51
308.4529766
0
ARC
8
DEFAULT_255_1_234
10
13.1269857
20
221.315325
40
0.3871988
50
284.3734338
51
307.1424381
0
ARC
8
DEFAULT_255_1_234
10
13.0774687
20
221.4974932
40
0.5759636
50
272.4382747
51
284.646547
0
ARC
8
DEFAULT_255_1_234
10
13.0647895
20
221.6774893
40
0.7563528
50
269.9708387
51
272.8178037
0
ARC
8
DEFAULT_255_1_234
10
13.0604935
20
221.4736716
40
0.5525489
50
248.2707594
51
270.4055579
0
ARC
8
DEFAULT_255_1_234
10
13.0550676
20
221.4546192
40
0.5328452
50
246.1383403
51
248.0542782
0
ARC
8
DEFAULT_255_1_234
10
13.0132055
20
221.3666843
40
0.4355005
50
233.1670131
51
246.4950969
0
ARC
8
DEFAULT_255_1_234
10
12.957796
20
221.2918812
40
0.3424126
50
215.3403242
51
233.0843104
0
ARC
8
DEFAULT_255_1_234
10
12.9305391
20
221.2720549
40
0.3087104
50
179.2419209
51
215.2648451
0
ARC
8
DEFAULT_255_1_234
10
13.0072985
20
221.2734666
40
0.2304457
50
179.335461
51
199.1045811
0
ARC
8
DEFAULT_255_1_234
10
12.9740662
20
221.2647766
40
0.1962176
50
199.8828939
51
232.7063202
0
ARC
8
DEFAULT_255_1_234
10
13.021293
20
221.3241788
40
0.2720938
50
232.3738199
51
255.5136649
0
ARC
8
DEFAULT_255_1_234
10
13.0553797
20
221.4485835
40
0.4010747
50
255.2446292
51
267.5320849
0
ARC
8
DEFAULT_255_1_234
10
13.064142
20
221.5718702
40
0.5246356
50
267.1557994
51
270.0286766
0
ARC
8
DEFAULT_255_1_234
10
13.0669192
20
221.527495
40
0.4802668
50
269.7000017
51
278.1660162
0
ARC
8
DEFAULT_255_1_234
10
13.0925197
20
221.3544515
40
0.3053425
50
278.0231263
51
290.625471
0
ARC
8
DEFAULT_255_1_234
10
13.1272884
20
221.2617025
40
0.206291
50
290.6619762
51
307.0370976
0
ARC
8
DEFAULT_255_1_234
10
13.1573274
20
221.2248504
40
0.1587906
50
306.3943566
51
355.3030547
0
ARC
8
DEFAULT_255_1_234
10
13.1061205
20
221.2325113
40
0.2104809
50
354.3660432
51
0.0698737
0
ARC
8
DEFAULT_255_1_234
10
13.120355
20
221.2347617
40
0.1962563
50
359.417946
51
16.1971788
0
ARC
8
DEFAULT_255_1_234
10
13.165886
20
221.2472418
40
0.149053
50
16.4723299
51
52.6262157
0
ARC
8
DEFAULT_255_1_234
10
13.0837914
20
221.1388433
40
0.2850296
50
52.7386432
51
62.4979148
0
ARC
8
DEFAULT_255_1_234
10
12.9452991
20
220.8782283
40
0.5801521
50
62.2515216
51
68.1220564
0
ARC
8
DEFAULT_255_1_234
10
12.7732902
20
220.4554872
40
1.0365451
50
68.0062803
51
71.8053402
0
ARC
8
DEFAULT_255_1_234
10
12.5937274
20
219.9169758
40
1.6042013
50
71.7183119
51
73.9258742
0
LINE
8
DEFAULT_255_1_234
10
13.6081533
20
221.3476218
11
13.6081533
21
221.3749297
0
LINE
8
DEFAULT_255_1_234
10
14.3454668
20
221.3909932
11
14.3454668
21
221.3291488
0
LINE
8
DEFAULT_255_1_234
10
14.3454668
20
221.3291488
11
13.7567404
21
221.3291488
0
LINE
8
DEFAULT_255_1_234
10
14.2434638
20
221.1596792
11
14.3342224
21
221.0889999
0
LINE
8
DEFAULT_255_1_234
10
13.7615595
20
221.4512313
11
14.1968797
21
221.4512313
0
LINE
8
DEFAULT_255_1_234
10
14.1968797
20
221.4512313
11
14.1968797
21
221.4624757
0
ARC
8
DEFAULT_255_1_234
10
14.0020898
20
221.3587332
40
0.4376191
50
252.3266134
51
270.5810217
0
ARC
8
DEFAULT_255_1_234
10
13.9815987
20
221.2846644
40
0.3608374
50
223.3000567
51
251.8561855
0
ARC
8
DEFAULT_255_1_234
10
14.0027348
20
221.3051937
40
0.3902993
50
190.9374509
51
223.3654032
0
ARC
8
DEFAULT_255_1_234
10
14.175232
20
221.3441885
40
0.5670891
50
179.6531105
51
191.4989439
0
ARC
8
DEFAULT_255_1_234
10
14.1874332
20
221.3781417
40
0.5792888
50
167.4007466
51
180.3176909
0
ARC
8
DEFAULT_255_1_234
10
14.0822394
20
221.4003885
40
0.471777
50
154.1835823
51
167.250763
0
ARC
8
DEFAULT_255_1_234
10
14.0190861
20
221.4336417
40
0.4004528
50
134.3149965
51
154.5315275
0
ARC
8
DEFAULT_255_1_234
10
13.9973356
20
221.4527228
40
0.371612
50
122.8616532
51
133.9707695
0
ARC
8
DEFAULT_255_1_234
10
13.986993
20
221.4749703
40
0.3473289
50
89.8249009
51
123.4199222
0
ARC
8
DEFAULT_255_1_234
10
13.9919971
20
221.4102967
40
0.4120197
50
74.7876118
51
90.5482747
0
ARC
8
DEFAULT_255_1_234
10
14.0213715
20
221.518803
40
0.2996077
50
39.8178249
51
74.7633718
0
ARC
8
DEFAULT_255_1_234
10
13.9701035
20
221.4788351
40
0.3645855
50
16.8990863
51
39.4829761
0
ARC
8
DEFAULT_255_1_234
10
13.7806331
20
221.4181526
40
0.5635218
50
4.9636328
51
17.2026414
0
ARC
8
DEFAULT_255_1_234
10
13.5388401
20
221.392634
40
0.8066286
50
359.8834553
51
5.2834307
0
ARC
8
DEFAULT_255_1_234
10
14.1425926
20
221.3357803
40
0.3859091
50
180.9846213
51
194.9401313
0
ARC
8
DEFAULT_255_1_234
10
14.0376204
20
221.3070849
40
0.2770883
50
194.80314
51
222.0412631
0
ARC
8
DEFAULT_255_1_234
10
14.0072085
20
221.2769116
40
0.2343055
50
221.5417084
51
268.8614402
0
ARC
8
DEFAULT_255_1_234
10
14.014508
20
221.3445686
40
0.3021528
50
267.732405
51
270.0097136
0
ARC
8
DEFAULT_255_1_234
10
14.016289
20
221.3647105
40
0.3222994
50
269.6924892
51
280.4117579
0
ARC
8
DEFAULT_255_1_234
10
14.0339297
20
221.2728193
40
0.2287344
50
280.2255091
51
298.6338936
0
ARC
8
DEFAULT_255_1_234
10
14.0456089
20
221.2484223
40
0.2017294
50
299.0430333
51
300.4643464
0
ARC
8
DEFAULT_255_1_234
10
13.9776094
20
221.3618038
40
0.3339357
50
300.6577328
51
322.0378878
0
ARC
8
DEFAULT_255_1_234
10
13.9425633
20
221.3922021
40
0.3802736
50
321.6750233
51
322.3046845
0
ARC
8
DEFAULT_255_1_234
10
14.0356595
20
221.275537
40
0.3520454
50
276.9728461
51
328.0035423
0
ARC
8
DEFAULT_255_1_234
10
14.0079648
20
221.4235841
40
0.5024498
50
269.8361028
51
278.0581756
0
ARC
8
DEFAULT_255_1_234
10
13.9852385
20
221.4980757
40
0.202159
50
89.2018686
51
117.2851756
0
ARC
8
DEFAULT_255_1_234
10
13.9905554
20
221.4938752
40
0.2083484
50
118.0551165
51
137.4540413
0
ARC
8
DEFAULT_255_1_234
10
14.0280294
20
221.4598304
40
0.2589774
50
137.5109581
51
158.8516286
0
ARC
8
DEFAULT_255_1_234
10
14.141813
20
221.4139074
40
0.38167
50
158.5845963
51
170.1721436
0
ARC
8
DEFAULT_255_1_234
10
14.2587519
20
221.3906823
40
0.5008657
50
169.8376422
51
173.0566086
0
ARC
8
DEFAULT_255_1_234
10
13.7890593
20
221.4417509
40
0.4083467
50
2.9091802
51
12.8847116
0
ARC
8
DEFAULT_255_1_234
10
13.9261269
20
221.4740101
40
0.2675383
50
12.6957781
51
28.6404489
0
ARC
8
DEFAULT_255_1_234
10
13.980294
20
221.5020458
40
0.2065654
50
29.0169854
51
41.1487595
0
ARC
8
DEFAULT_255_1_234
10
14.0005725
20
221.5197003
40
0.1796786
50
41.1646065
51
85.0013516
0
ARC
8
DEFAULT_255_1_234
10
13.9884822
20
221.4462431
40
0.2539726
50
83.7280015
51
90.0964893
0
LINE
8
DEFAULT_255_1_234
10
14.937406
20
221.8110531
11
14.937406
21
221.6729072
0
LINE
8
DEFAULT_255_1_234
10
14.6659332
20
221.5540375
11
14.6659332
21
220.9372
0
LINE
8
DEFAULT_255_1_234
10
14.6659332
20
220.9372
11
14.517346
21
220.9372
0
LINE
8
DEFAULT_255_1_234
10
14.517346
20
220.9372
11
14.517346
21
221.8062341
0
LINE
8
DEFAULT_255_1_234
10
14.517346
20
221.8062341
11
14.6619173
21
221.8062341
0
LINE
8
DEFAULT_255_1_234
10
14.6619173
20
221.8062341
11
14.6643269
21
221.7058374
0
ARC
8
DEFAULT_255_1_234
10
14.8707465
20
221.2669342
40
0.4114092
50
80.6754243
51
86.8932892
0
ARC
8
DEFAULT_255_1_234
10
14.8646999
20
221.17017
40
0.5083596
50
86.8038578
51
90.0431435
0
ARC
8
DEFAULT_255_1_234
10
14.860998
20
221.4158866
40
0.2626638
50
89.2759698
51
106.6213787
0
ARC
8
DEFAULT_255_1_234
10
14.8405544
20
221.490183
40
0.1856317
50
107.1346045
51
157.6458115
0
ARC
8
DEFAULT_255_1_234
10
14.9097146
20
221.4518311
40
0.2643398
50
155.6586782
51
157.2539184
0
ARC
8
DEFAULT_255_1_234
10
14.8892348
20
221.5687157
40
0.2634121
50
127.8165941
51
148.6302098
0
ARC
8
DEFAULT_255_1_234
10
14.8638817
20
221.5947218
40
0.2273596
50
91.3329982
51
126.7875809
0
ARC
8
DEFAULT_255_1_234
10
14.8714757
20
221.5232195
40
0.299078
50
89.986594
51
92.4688449
0
ARC
8
DEFAULT_255_1_234
10
14.8723152
20
221.5507078
40
0.2715908
50
85.3589899
51
90.1623399
0
ARC
8
DEFAULT_255_1_234
10
14.8807668
20
221.6511164
40
0.1708278
50
78.401942
51
85.4594656
0
ARC
8
DEFAULT_255_1_234
10
14.8952552
20
221.7202236
40
0.1002194
50
67.7858312
51
78.5728455
0
ARC
8
DEFAULT_255_1_234
10
14.9060404
20
221.7481887
40
0.0702548
50
63.4835954
51
67.3062642
0
LINE
8
DEFAULT_255_1_234
10
15.2353834
20
221.8062341
11
15.2353834
21
220.9372
0
LINE
8
DEFAULT_255_1_234
10
15.2353834
20
220.9372
11
15.0867963
21
220.9372
0
LINE
8
DEFAULT_255_1_234
10
15.0867963
20
220.9372
11
15.0867963
21
221.8062341
0
LINE
8
DEFAULT_255_1_234
10
15.0867963
20
221.8062341
11
15.2353834
21
221.8062341
0
ARC
8
DEFAULT_255_1_234
10
15.1726112
20
222.0376889
40
0.097867
50
161.415052
51
180.5526306
0
ARC
8
DEFAULT_255_1_234
10
15.160189
20
222.0411077
40
0.0850062
50
138.1827368
51
160.9307106
0
ARC
8
DEFAULT_255_1_234
10
15.1491835
20
222.0506588
40
0.0704362
50
104.6368899
51
138.0039868
0
ARC
8
DEFAULT_255_1_234
10
15.159899
20
222.0139963
40
0.1086221
50
92.0600725
51
105.2189128
0
ARC
8
DEFAULT_255_1_234
10
15.1622338
20
221.9797117
40
0.1429728
50
89.9756393
51
92.5012496
0
ARC
8
DEFAULT_255_1_234
10
15.1632358
20
222.0022731
40
0.1204151
50
78.0235316
51
90.4478182
0
ARC
8
DEFAULT_255_1_234
10
15.172445
20
222.0436295
40
0.0780493
50
55.051506
51
78.3369085
0
ARC
8
DEFAULT_255_1_234
10
15.1774724
20
222.0520711
40
0.0682538
50
42.0501187
51
54.4513741
0
ARC
8
DEFAULT_255_1_234
10
15.1639591
20
222.0396798
40
0.0865878
50
1.7497075
51
42.1496013
0
ARC
8
DEFAULT_255_1_234
10
15.1384924
20
222.0367738
40
0.1121515
50
359.9852656
51
2.8364544
0
ARC
8
DEFAULT_255_1_234
10
15.1550916
20
222.0358229
40
0.0955566
50
342.1070653
51
0.552888
0
ARC
8
DEFAULT_255_1_234
10
15.1693614
20
222.0318904
40
0.0807713
50
316.7107116
51
341.6516965
0
ARC
8
DEFAULT_255_1_234
10
15.1760651
20
222.0258823
40
0.0717724
50
285.4397031
51
316.5324284
0
ARC
8
DEFAULT_255_1_234
10
15.1650568
20
222.0624554
40
0.1099597
50
272.3547054
51
285.8953117
0
ARC
8
DEFAULT_255_1_234
10
15.1623726
20
222.0990048
40
0.1465932
50
269.9695369
51
272.8160237
0
ARC
8
DEFAULT_255_1_234
10
15.1613907
20
222.0770863
40
0.1246779
50
258.8431134
51
270.4153935
0
ARC
8
DEFAULT_255_1_234
10
15.1523949
20
222.0335414
40
0.0802162
50
238.5431189
51
259.1288175
0
ARC
8
DEFAULT_255_1_234
10
15.1455834
20
222.0211856
40
0.0661247
50
222.5062634
51
237.9906969
0
ARC
8
DEFAULT_255_1_234
10
15.1583422
20
222.0327889
40
0.0833707
50
184.1069131
51
222.460413
0
ARC
8
DEFAULT_255_1_234
10
15.1852662
20
222.0366349
40
0.1105176
50
179.9429482
51
185.0960898
0
LINE
8
DEFAULT_255_1_234
10
15.4353737
20
221.3476218
11
15.4353737
21
221.3749297
0
LINE
8
DEFAULT_255_1_234
10
16.1726873
20
221.3909932
11
16.1726873
21
221.3291488
0
LINE
8
DEFAULT_255_1_234
10
16.1726873
20
221.3291488
11
15.5839609
21
221.3291488
0
LINE
8
DEFAULT_255_1_234
10
16.0706842
20
221.1596792
11
16.1614429
21
221.0889999
0
LINE
8
DEFAULT_255_1_234
10
15.5887799
20
221.4512313
11
16.0241001
21
221.4512313
0
LINE
8
DEFAULT_255_1_234
10
16.0241001
20
221.4512313
11
16.0241001
21
221.4624757
0
ARC
8
DEFAULT_255_1_234
10
15.8293102
20
221.3587332
40
0.4376191
50
252.3266134
51
270.5810217
0
ARC
8
DEFAULT_255_1_234
10
15.8088192
20
221.2846644
40
0.3608374
50
223.3000567
51
251.8561855
0
ARC
8
DEFAULT_255_1_234
10
15.8299552
20
221.3051937
40
0.3902993
50
190.9374509
51
223.3654032
0
ARC
8
DEFAULT_255_1_234
10
16.0024524
20
221.3441885
40
0.5670891
50
179.6531105
51
191.4989439
0
ARC
8
DEFAULT_255_1_234
10
16.0146537
20
221.3781417
40
0.5792888
50
167.4007466
51
180.3176909
0
ARC
8
DEFAULT_255_1_234
10
15.9094598
20
221.4003885
40
0.471777
50
154.1835823
51
167.250763
0
ARC
8
DEFAULT_255_1_234
10
15.8463066
20
221.4336417
40
0.4004528
50
134.3149965
51
154.5315275
0
ARC
8
DEFAULT_255_1_234
10
15.8245561
20
221.4527228
40
0.371612
50
122.8616532
51
133.9707695
0
ARC
8
DEFAULT_255_1_234
10
15.8142135
20
221.4749703
40
0.3473289
50
89.8249009
51
123.4199222
0
ARC
8
DEFAULT_255_1_234
10
15.8192176
20
221.4102967
40
0.4120197
50
74.7876118
51
90.5482747
0
ARC
8
DEFAULT_255_1_234
10
15.8485919
20
221.518803
40
0.2996077
50
39.8178249
51
74.7633718
0
ARC
8
DEFAULT_255_1_234
10
15.7973239
20
221.4788351
40
0.3645855
50
16.8990863
51
39.4829761
0
ARC
8
DEFAULT_255_1_234
10
15.6078536
20
221.4181526
40
0.5635218
50
4.9636328
51
17.2026414
0
ARC
8
DEFAULT_255_1_234
10
15.3660606
20
221.392634
40
0.8066286
50
359.8834553
51
5.2834307
0
ARC
8
DEFAULT_255_1_234
10
15.9698131
20
221.3357803
40
0.3859091
50
180.9846213
51
194.9401313
0
ARC
8
DEFAULT_255_1_234
10
15.8648408
20
221.3070849
40
0.2770883
50
194.80314
51
222.0412631
0
ARC
8
DEFAULT_255_1_234
10
15.834429
20
221.2769116
40
0.2343055
50
221.5417084
51
268.8614402
0
ARC
8
DEFAULT_255_1_234
10
15.8417285
20
221.3445686
40
0.3021528
50
267.732405
51
270.0097136
0
ARC
8
DEFAULT_255_1_234
10
15.8435095
20
221.3647105
40
0.3222994
50
269.6924892
51
280.4117579
0
ARC
8
DEFAULT_255_1_234
10
15.8611502
20
221.2728193
40
0.2287344
50
280.2255091
51
298.6338936
0
ARC
8
DEFAULT_255_1_234
10
15.8728294
20
221.2484223
40
0.2017294
50
299.0430333
51
300.4643464
0
ARC
8
DEFAULT_255_1_234
10
15.8048299
20
221.3618038
40
0.3339357
50
300.6577328
51
322.0378878
0
ARC
8
DEFAULT_255_1_234
10
15.7697838
20
221.3922021
40
0.3802736
50
321.6750233
51
322.3046845
0
ARC
8
DEFAULT_255_1_234
10
15.8628799
20
221.275537
40
0.3520454
50
276.9728461
51
328.0035423
0
ARC
8
DEFAULT_255_1_234
10
15.8351852
20
221.4235841
40
0.5024498
50
269.8361028
51
278.0581756
0
ARC
8
DEFAULT_255_1_234
10
15.812459
20
221.4980757
40
0.202159
50
89.2018686
51
117.2851756
0
ARC
8
DEFAULT_255_1_234
10
15.8177759
20
221.4938752
40
0.2083484
50
118.0551165
51
137.4540413
0
ARC
8
DEFAULT_255_1_234
10
15.8552499
20
221.4598304
40
0.2589774
50
137.5109581
51
158.8516286
0
ARC
8
DEFAULT_255_1_234
10
15.9690334
20
221.4139074
40
0.38167
50
158.5845963
51
170.1721436
0
ARC
8
DEFAULT_255_1_234
10
16.0859723
20
221.3906823
40
0.5008657
50
169.8376422
51
173.0566086
0
ARC
8
DEFAULT_255_1_234
10
15.6162797
20
221.4417509
40
0.4083467
50
2.9091802
51
12.8847116
0
ARC
8
DEFAULT_255_1_234
10
15.7533474
20
221.4740101
40
0.2675383
50
12.6957781
51
28.6404489
0
ARC
8
DEFAULT_255_1_234
10
15.8075145
20
221.5020458
40
0.2065654
50
29.0169854
51
41.1487595
0
ARC
8
DEFAULT_255_1_234
10
15.827793
20
221.5197003
40
0.1796786
50
41.1646065
51
85.0013516
0
ARC
8
DEFAULT_255_1_234
10
15.8157027
20
221.4462431
40
0.2539726
50
83.7280015
51
90.0964893
0
LINE
8
DEFAULT_255_1_234
10
16.9911214
20
221.5508248
11
16.8417311
21
221.5508248
0
LINE
8
DEFAULT_255_1_234
10
16.3084237
20
221.2046569
11
16.4570108
21
221.2046569
0
ARC
8
DEFAULT_255_1_234
10
16.722913
20
221.1691959
40
0.1276617
50
359.3334982
51
18.5871358
0
ARC
8
DEFAULT_255_1_234
10
16.7437767
20
221.1747133
40
0.1061371
50
19.3540742
51
54.6485071
0
ARC
8
DEFAULT_255_1_234
10
16.6933669
20
221.1051919
40
0.1920087
50
54.3827097
51
65.0622807
0
ARC
8
DEFAULT_255_1_234
10
16.6165065
20
220.94349
40
0.3710447
50
64.8282493
51
71.4200025
0
ARC
8
DEFAULT_255_1_234
10
16.5262941
20
220.6788107
40
0.6506741
50
71.3164301
51
75.8006402
0
ARC
8
DEFAULT_255_1_234
10
16.4421761
20
220.3547561
40
0.9854641
50
75.6809531
51
78.0061883
0
ARC
8
DEFAULT_255_1_234
10
16.8870294
20
222.452677
40
1.1591028
50
254.6901892
51
258.0466452
0
ARC
8
DEFAULT_255_1_234
10
16.7832202
20
222.0767781
40
0.7691345
50
249.9010773
51
254.755261
0
ARC
8
DEFAULT_255_1_234
10
16.6828544
20
221.8041982
40
0.478665
50
243.3097214
51
249.9709442
0
ARC
8
DEFAULT_255_1_234
10
16.6199565
20
221.6787778
40
0.3383568
50
234.4047477
51
243.2862168
0
ARC
8
DEFAULT_255_1_234
10
16.5577089
20
221.5928232
40
0.2322322
50
220.8667099
51
234.5493881
0
ARC
8
DEFAULT_255_1_234
10
16.523503
20
221.5616817
40
0.1859923
50
214.3062465
51
220.5065136
0
ARC
8
DEFAULT_255_1_234
10
16.5209109
20
221.558588
40
0.1821108
50
186.912965
51
213.9618616
0
ARC
8
DEFAULT_255_1_234
10
16.5741204
20
221.5672009
40
0.2359799
50
179.8808832
51
187.4339886
0
ARC
8
DEFAULT_255_1_234
10
16.5586337
20
221.5692088
40
0.2204978
50
132.005434
51
180.3942919
0
ARC
8
DEFAULT_255_1_234
10
16.6242951
20
221.5086083
40
0.3095791
50
129.2319861
51
133.5302299
0
ARC
8
DEFAULT_255_1_234
10
16.6296459
20
221.4991928
40
0.3202615
50
100.4410011
51
128.9081242
0
ARC
8
DEFAULT_255_1_234
10
16.6570343
20
221.3706455
40
0.4516583
50
89.6985377
51
100.9026564
0
ARC
8
DEFAULT_255_1_234
10
16.6627384
20
221.3546166
40
0.4676928
50
77.6965325
51
90.4076836
0
ARC
8
DEFAULT_255_1_234
10
16.6958369
20
221.4973413
40
0.3211988
50
50.7276602
51
78.0399361
0
ARC
8
DEFAULT_255_1_234
10
16.7402827
20
221.5491296
40
0.2529778
50
25.7545084
51
51.0957453
0
ARC
8
DEFAULT_255_1_234
10
16.7404052
20
221.5541206
40
0.250738
50
359.2468627
51
24.7394243
0
ARC
8
DEFAULT_255_1_234
10
16.7119504
20
221.5512664
40
0.1297815
50
359.8050318
51
45.1544908
0
ARC
8
DEFAULT_255_1_234
10
16.6712646
20
221.5164794
40
0.1831883
50
43.8047702
51
49.6271585
0
ARC
8
DEFAULT_255_1_234
10
16.6720547
20
221.5165678
40
0.18261
50
49.7980766
51
82.1218353
0
ARC
8
DEFAULT_255_1_234
10
16.6601519
20
221.4518998
40
0.2483163
50
81.4465357
51
90.1710293
0
ARC
8
DEFAULT_255_1_234
10
16.6577122
20
221.399288
40
0.300932
50
89.6766211
51
99.1264602
0
ARC
8
DEFAULT_255_1_234
10
16.6405584
20
221.5026537
40
0.1961547
50
98.968313
51
113.4570237
0
ARC
8
DEFAULT_255_1_234
10
16.6209669
20
221.5494965
40
0.1453859
50
113.722589
51
127.4763106
0
ARC
8
DEFAULT_255_1_234
10
16.6041315
20
221.5695124
40
0.1192639
50
126.9083309
51
150.3165862
0
ARC
8
DEFAULT_255_1_234
10
16.5993648
20
221.5745981
40
0.112623
50
151.3635175
51
180.0701457
0
ARC
8
DEFAULT_255_1_234
10
16.6302432
20
221.572499
40
0.1435149
50
179.2169974
51
179.9954013
0
ARC
8
DEFAULT_255_1_234
10
16.5941489
20
221.5712056
40
0.1074286
50
179.3040112
51
198.4225446
0
ARC
8
DEFAULT_255_1_234
10
16.5749623
20
221.5662127
40
0.0876573
50
199.2895851
51
238.6034594
0
ARC
8
DEFAULT_255_1_234
10
16.635247
20
221.660845
40
0.1998512
50
237.9846301
51
246.8744712
0
ARC
8
DEFAULT_255_1_234
10
16.7210415
20
221.8571205
40
0.4140547
50
246.6234531
51
251.8168941
0
ARC
8
DEFAULT_255_1_234
10
16.8240958
20
222.1665905
40
0.7402308
50
251.713434
51
255.0778414
0
ARC
8
DEFAULT_255_1_234
10
16.9440221
20
222.6132563
40
1.2027155
50
255.0367487
51
257.4705983
0
ARC
8
DEFAULT_255_1_234
10
16.4332231
20
220.3118863
40
1.1546601
50
73.6837552
51
77.5016755
0
ARC
8
DEFAULT_255_1_234
10
16.5421005
20
220.6818581
40
0.7690009
50
68.7044154
51
73.7249639
0
ARC
8
DEFAULT_255_1_234
10
16.6324026
20
220.9145654
40
0.5193873
50
63.590599
51
68.6626804
0
ARC
8
DEFAULT_255_1_234
10
16.7095045
20
221.0683123
40
0.3473927
50
54.7106439
51
63.7013633
0
ARC
8
DEFAULT_255_1_234
10
16.77195
20
221.15554
40
0.2401192
50
41.0622434
51
54.8487496
0
ARC
8
DEFAULT_255_1_234
10
16.8060886
20
221.1868592
40
0.1938094
50
34.4950568
51
40.7105546
0
ARC
8
DEFAULT_255_1_234
10
16.8107693
20
221.1917078
40
0.1872106
50
9.3763373
51
34.0833615
0
ARC
8
DEFAULT_255_1_234
10
16.7454564
20
221.1791728
40
0.2536988
50
359.7694872
51
9.7663171
0
ARC
8
DEFAULT_255_1_234
10
16.7652065
20
221.1748764
40
0.2339696
50
335.8654732
51
0.8022045
0
ARC
8
DEFAULT_255_1_234
10
16.7727109
20
221.1762197
40
0.2277108
50
307.7357725
51
334.7849066
0
ARC
8
DEFAULT_255_1_234
10
16.7326285
20
221.2212645
40
0.2878951
50
307.0241536
51
308.5578354
0
ARC
8
DEFAULT_255_1_234
10
16.7068616
20
221.2598801
40
0.3342515
50
282.9362969
51
306.5646424
0
ARC
8
DEFAULT_255_1_234
10
16.6706914
20
221.4066108
40
0.4853615
50
271.1026298
51
283.2200835
0
ARC
8
DEFAULT_255_1_234
10
16.6643157
20
221.5307418
40
0.6096052
50
269.9919117
51
271.4772449
0
ARC
8
DEFAULT_255_1_234
10
16.6616913
20
221.4229436
40
0.5018135
50
259.0723564
51
270.289833
0
ARC
8
DEFAULT_255_1_234
10
16.6404645
20
221.3112271
40
0.388099
50
245.4963068
51
259.0227342
0
ARC
8
DEFAULT_255_1_234
10
16.6126601
20
221.2530615
40
0.3236422
50
228.9684658
51
245.7044727
0
ARC
8
DEFAULT_255_1_234
10
16.5861045
20
221.2203575
40
0.2815426
50
214.4011705
51
228.6759915
0
ARC
8
DEFAULT_255_1_234
10
16.5571785
20
221.204529
40
0.2487548
50
179.9705531
51
215.1572795
0
ARC
8
DEFAULT_255_1_234
10
16.6272385
20
221.2118806
40
0.1703809
50
182.4299387
51
203.0329699
0
ARC
8
DEFAULT_255_1_234
10
16.6088043
20
221.2062396
40
0.1512226
50
203.798802
51
232.548466
0
ARC
8
DEFAULT_255_1_234
10
16.6364564
20
221.2413826
40
0.1959374
50
232.3782728
51
256.3934612
0
ARC
8
DEFAULT_255_1_234
10
16.6594926
20
221.3303842
40
0.2878639
50
256.104506
51
268.4626716
0
ARC
8
DEFAULT_255_1_234
10
16.664141
20
221.4100487
40
0.3676329
50
268.0715632
51
270.0138206
0
ARC
8
DEFAULT_255_1_234
10
16.6659935
20
221.3828083
40
0.3403971
50
269.7031147
51
278.8341955
0
ARC
8
DEFAULT_255_1_234
10
16.6842028
20
221.2697876
40
0.2259217
50
278.6728789
51
292.8232582
0
ARC
8
DEFAULT_255_1_234
10
16.7042566
20
221.2196449
40
0.171929
50
293.1452328
51
303.6655899
0
ARC
8
DEFAULT_255_1_234
10
16.7307445
20
221.1820204
40
0.1259367
50
303.1248165
51
321.742847
0
ARC
8
DEFAULT_255_1_234
10
16.7493325
20
221.1657156
40
0.1012531
50
322.4748573
51
1.1291126
0
LINE
8
DEFAULT_255_2_778
10
9.3932417
20
203.5968475
11
10.7161417
21
203.5968475
0
LINE
8
DEFAULT_255_2_778
10
10.7161417
20
203.5968475
11
10.7161417
21
114.9614475
0
LINE
8
DEFAULT_255_2_778
10
10.7161417
20
109.6697475
11
10.7161417
21
21.0343475
0
LINE
8
DEFAULT_255_2_778
10
10.7161417
20
21.0343475
11
9.3932417
21
21.0343475
0
LINE
8
DEFAULT_255_2_778
10
9.3932834
20
114.9614333
11
12.0390834
21
114.9614333
0
LINE
8
DEFAULT_255_2_778
10
12.0390834
20
114.9614333
11
12.0390834
21
109.6697333
0
LINE
8
DEFAULT_255_2_778
10
12.0390834
20
109.6697333
11
9.3932834
21
109.6697333
0
LINE
8
DEFAULT_255_2_778
10
9.3932834
20
109.6697333
11
9.3932834
21
114.9614333
0
LINE
8
DEFAULT_255_2_778
10
10.187
20
110.1989666
11
10.187
21
114.4322666
0
LINE
8
DEFAULT_255_2_778
10
9.9224167
20
113.638575
11
10.1870167
21
114.432275
0
LINE
8
DEFAULT_255_2_778
10
10.1870167
20
114.432275
11
10.4516167
21
113.638575
0
LINE
8
DEFAULT_255_2_778
10
10.4516167
20
113.638575
11
9.9224167
21
113.638575
0
LINE
8
DEFAULT_255_2_778
10
11.2453
20
114.4322666
11
11.2453
21
110.1989666
0
LINE
8
DEFAULT_255_2_778
10
10.9807167
20
110.992675
11
11.2453167
21
110.198975
0
LINE
8
DEFAULT_255_2_778
10
11.2453167
20
110.198975
11
11.5099167
21
110.992675
0
LINE
8
DEFAULT_255_2_778
10
11.5099167
20
110.992675
11
10.9807167
21
110.992675
0
LINE
8
DEFAULT_255_2_778
10
19.9765417
20
211.5343483
11
18.6536417
21
211.5343483
0
LINE
8
DEFAULT_255_2_778
10
18.6536417
20
211.5343483
11
18.6536417
21
154.6489483
0
LINE
8
DEFAULT_255_2_778
10
18.6536417
20
149.3572483
11
18.6536417
21
92.4718483
0
LINE
8
DEFAULT_255_2_778
10
18.6536417
20
92.4718483
11
19.9765417
21
92.4718483
0
LINE
8
DEFAULT_255_2_778
10
17.3307834
20
154.6489333
11
19.9765834
21
154.6489333
0
LINE
8
DEFAULT_255_2_778
10
19.9765834
20
154.6489333
11
19.9765834
21
149.3572333
0
LINE
8
DEFAULT_255_2_778
10
19.9765834
20
149.3572333
11
17.3307834
21
149.3572333
0
LINE
8
DEFAULT_255_2_778
10
17.3307834
20
149.3572333
11
17.3307834
21
154.6489333
0
LINE
8
DEFAULT_255_2_778
10
18.1245
20
149.8864666
11
18.1245
21
154.1197666
0
LINE
8
DEFAULT_255_2_778
10
17.8599167
20
153.326075
11
18.1245167
21
154.119775
0
LINE
8
DEFAULT_255_2_778
10
18.1245167
20
154.119775
11
18.3891167
21
153.326075
0
LINE
8
DEFAULT_255_2_778
10
18.3891167
20
153.326075
11
17.8599167
21
153.326075
0
LINE
8
DEFAULT_255_2_778
10
19.1828
20
154.1197666
11
19.1828
21
149.8864666
0
LINE
8
DEFAULT_255_2_778
10
18.9182167
20
150.680175
11
19.1828167
21
149.886475
0
LINE
8
DEFAULT_255_2_778
10
19.1828167
20
149.886475
11
19.4474167
21
150.680175
0
LINE
8
DEFAULT_255_2_778
10
19.4474167
20
150.680175
11
18.9182167
21
150.680175
0
LINE
8
DEFAULT_255_1_234
10
4.2134489
20
220.1223211
11
4.2134489
21
219.0789983
0
LINE
8
DEFAULT_255_1_234
10
4.2134489
20
219.0789983
11
4.7676389
21
219.0789983
0
LINE
8
DEFAULT_255_1_234
10
4.7676389
20
219.0789983
11
4.7676389
21
218.9529
0
LINE
8
DEFAULT_255_1_234
10
4.7676389
20
218.9529
11
4.0584364
21
218.9529
0
LINE
8
DEFAULT_255_1_234
10
4.0584364
20
218.9529
11
4.0584364
21
220.1223211
0
LINE
8
DEFAULT_255_1_234
10
4.0584364
20
220.1223211
11
4.2134489
21
220.1223211
0
LINE
8
DEFAULT_255_1_234
10
5.0784482
20
5.222701
11
5.0784482
21
4.7938062
0
LINE
8
DEFAULT_255_1_234
10
4.1772872
20
5.1688884
11
4.1772872
21
5.2708915
0
LINE
8
DEFAULT_255_1_234
10
5.0784482
20
5.4668659
11
4.9242389
21
5.4668659
0
LINE
8
DEFAULT_255_1_234
10
4.3322998
20
5.2749073
11
4.3322998
21
5.1793296
0
LINE
8
DEFAULT_255_1_234
10
4.925042
20
4.8347681
11
4.925042
21
5.0974059
0
LINE
8
DEFAULT_255_1_234
10
4.925042
20
5.0974059
11
4.6543725
21
5.0974059
0
LINE
8
DEFAULT_255_1_234
10
4.6543725
20
5.0974059
11
4.6543725
21
5.222701
0
LINE
8
DEFAULT_255_1_234
10
4.6543725
20
5.222701
11
5.0784482
21
5.222701
0
ARC
8
DEFAULT_255_1_234
10
4.7952989
20
4.9931396
40
0.3462765
50
295.8437914
51
324.8549609
0
ARC
8
DEFAULT_255_1_234
10
4.7536956
20
5.0684567
40
0.4322211
50
291.5695085
51
296.4549398
0
ARC
8
DEFAULT_255_1_234
10
4.7026207
20
5.2049275
40
0.5779178
50
278.6622409
51
291.3045483
0
ARC
8
DEFAULT_255_1_234
10
4.6686699
20
5.4197408
40
0.7953952
50
270.020006
51
278.7494541
0
ARC
8
DEFAULT_255_1_234
10
4.6648623
20
5.5514036
40
0.927067
50
269.9969998
51
270.2524872
0
ARC
8
DEFAULT_255_1_234
10
4.6610336
20
5.1430589
40
0.5187361
50
253.5786322
51
270.4175299
0
ARC
8
DEFAULT_255_1_234
10
4.6436992
20
5.0759236
40
0.4494451
50
238.8203306
51
253.2788235
0
ARC
8
DEFAULT_255_1_234
10
4.6417365
20
5.0708231
40
0.4440665
50
206.7883783
51
238.6962764
0
ARC
8
DEFAULT_255_1_234
10
4.7191275
20
5.1172405
40
0.5341121
50
206.1129412
51
207.4916643
0
ARC
8
DEFAULT_255_1_234
10
4.778819
20
5.1426488
40
0.5989041
50
188.6921119
51
205.7821245
0
ARC
8
DEFAULT_255_1_234
10
4.9644552
20
5.174223
40
0.7871862
50
180.3882829
51
188.9219216
0
ARC
8
DEFAULT_255_1_234
10
5.0872366
20
5.2765464
40
0.909967
50
170.2024264
51
180.3560651
0
ARC
8
DEFAULT_255_1_234
10
4.7708884
20
5.3331237
40
0.5886083
50
154.2857445
51
170.3893044
0
ARC
8
DEFAULT_255_1_234
10
4.6427087
20
5.391795
40
0.4476743
50
139.8401567
51
153.9332699
0
ARC
8
DEFAULT_255_1_234
10
4.6067823
20
5.4205577
40
0.4016697
50
98.4190291
51
139.6707122
0
ARC
8
DEFAULT_255_1_234
10
4.6447341
20
5.2360328
40
0.5898566
50
89.7659205
51
99.4415478
0
ARC
8
DEFAULT_255_1_234
10
4.651259
20
5.2425844
40
0.5833147
50
78.0551672
51
90.4042112
0
ARC
8
DEFAULT_255_1_234
10
4.69171
20
5.4244644
40
0.3970055
50
54.6380464
51
78.3339173
0
ARC
8
DEFAULT_255_1_234
10
4.7107156
20
5.4564795
40
0.3599102
50
50.031736
51
54.1558201
0
ARC
8
DEFAULT_255_1_234
10
4.6999944
20
5.4468766
40
0.3741624
50
18.1092409
51
49.7180913
0
ARC
8
DEFAULT_255_1_234
10
4.5543144
20
5.3935089
40
0.5292424
50
7.9672797
51
18.6984571
0
ARC
8
DEFAULT_255_1_234
10
4.5693622
20
5.4058504
40
0.3600838
50
9.7557294
51
27.3215714
0
ARC
8
DEFAULT_255_1_234
10
4.6821094
20
5.4621912
40
0.2340608
50
27.7361077
51
84.5257964
0
ARC
8
DEFAULT_255_1_234
10
4.6493481
20
5.297864
40
0.4011215
50
82.106034
51
90.2001166
0
ARC
8
DEFAULT_255_1_234
10
4.6443698
20
5.3486215
40
0.3503799
50
89.4150119
51
105.5823402
0
ARC
8
DEFAULT_255_1_234
10
4.6186696
20
5.4421867
40
0.2533503
50
105.6678618
51
144.2648758
0
ARC
8
DEFAULT_255_1_234
10
4.7079951
20
5.3786289
40
0.3629787
50
144.3561283
51
162.8564086
0
ARC
8
DEFAULT_255_1_234
10
4.916386
20
5.3117017
40
0.5818441
50
162.6076014
51
173.6780284
0
ARC
8
DEFAULT_255_1_234
10
5.2225004
20
5.274489
40
0.8902007
50
173.4670142
51
179.9730753
0
ARC
8
DEFAULT_255_1_234
10
5.0316675
20
5.175126
40
0.6993804
50
179.6556203
51
190.0080463
0
ARC
8
DEFAULT_255_1_234
10
4.8000504
20
5.1326375
40
0.4639066
50
189.8116607
51
206.6796816
0
ARC
8
DEFAULT_255_1_234
10
4.7155656
20
5.0932503
40
0.3707421
50
207.1031645
51
217.7074368
0
ARC
8
DEFAULT_255_1_234
10
4.6521345
20
5.0380559
40
0.2868417
50
216.7345547
51
265.6812148
0
ARC
8
DEFAULT_255_1_234
10
4.6652136
20
5.1284855
40
0.3780509
50
264.7366618
51
270.0611241
0
ARC
8
DEFAULT_255_1_234
10
4.6675399
20
5.4125111
40
0.662079
50
269.8335834
51
276.0539546
0
ARC
8
DEFAULT_255_1_234
10
4.6882404
20
5.222356
40
0.4708016
50
275.9894168
51
284.4615085
0
ARC
8
DEFAULT_255_1_234
10
4.7080411
20
5.1390663
40
0.3852094
50
284.7034461
51
286.4953897
0
ARC
8
DEFAULT_255_1_234
10
4.7487424
20
5.0079965
40
0.2479842
50
286.0770838
51
304.2625829
0
ARC
8
DEFAULT_255_1_234
10
4.7620838
20
4.9861594
40
0.2224291
50
304.5891602
51
317.1073298
0
LINE
8
DEFAULT_255_1_234
10
6.2342154
20
5.8098211
11
6.2342154
21
4.6404
0
LINE
8
DEFAULT_255_1_234
10
6.2342154
20
4.6404
11
6.0792028
21
4.6404
0
LINE
8
DEFAULT_255_1_234
10
6.0792028
20
4.6404
11
5.4904764
21
5.541561
0
LINE
8
DEFAULT_255_1_234
10
5.4904764
20
5.541561
11
5.4904764
21
4.6404
0
LINE
8
DEFAULT_255_1_234
10
5.4904764
20
4.6404
11
5.3354639
21
4.6404
0
LINE
8
DEFAULT_255_1_234
10
5.3354639
20
4.6404
11
5.3354639
21
5.8098211
0
LINE
8
DEFAULT_255_1_234
10
5.3354639
20
5.8098211
11
5.4904764
21
5.8098211
0
LINE
8
DEFAULT_255_1_234
10
5.4904764
20
5.8098211
11
6.0808092
21
4.9046442
0
LINE
8
DEFAULT_255_1_234
10
6.0808092
20
4.9046442
11
6.0808092
21
5.8098211
0
LINE
8
DEFAULT_255_1_234
10
6.0808092
20
5.8098211
11
6.2342154
21
5.8098211
0
LINE
8
DEFAULT_255_1_234
10
6.8317767
20
4.6404
11
6.5080977
21
4.6404
0
LINE
8
DEFAULT_255_1_234
10
6.5080977
20
4.6404
11
6.5080977
21
5.8098211
0
LINE
8
DEFAULT_255_1_234
10
6.5080977
20
5.8098211
11
6.8382021
21
5.8098211
0
LINE
8
DEFAULT_255_1_234
10
7.3538397
20
5.2644661
11
7.3538397
21
5.1897709
0
LINE
8
DEFAULT_255_1_234
10
6.842218
20
5.6829196
11
6.662307
21
5.6829196
0
LINE
8
DEFAULT_255_1_234
10
6.662307
20
5.6829196
11
6.662307
21
4.7664983
0
LINE
8
DEFAULT_255_1_234
10
6.662307
20
4.7664983
11
6.8245481
21
4.7664983
0
LINE
8
DEFAULT_255_1_234
10
7.2012367
20
5.1929836
11
7.2012367
21
5.2612534
0
ARC
8
DEFAULT_255_1_234
10
6.8420963
20
5.2232894
40
0.5865446
50
75.4101064
51
90.3804066
0
ARC
8
DEFAULT_255_1_234
10
6.8650477
20
5.3189492
40
0.4881916
50
60.145586
51
75.1888407
0
ARC
8
DEFAULT_255_1_234
10
6.8809252
20
5.3466199
40
0.4562893
50
26.5253612
51
60.1450928
0
ARC
8
DEFAULT_255_1_234
10
6.7689002
20
5.2872158
40
0.5830602
50
7.4030428
51
26.8320788
0
ARC
8
DEFAULT_255_1_234
10
6.6094758
20
5.2623804
40
0.7443669
50
0.1605367
51
7.7176192
0
ARC
8
DEFAULT_255_1_234
10
6.6258663
20
5.1859434
40
0.7279835
50
348.7289388
51
0.3012466
0
ARC
8
DEFAULT_255_1_234
10
6.7915093
20
5.1530386
40
0.559104
50
333.0706509
51
348.7181832
0
ARC
8
DEFAULT_255_1_234
10
6.8881851
20
5.1005319
40
0.4491417
50
299.2531685
51
333.4571258
0
ARC
8
DEFAULT_255_1_234
10
6.8520991
20
5.1690828
40
0.5265881
50
278.107187
51
299.0339503
0
ARC
8
DEFAULT_255_1_234
10
6.826507
20
5.3198216
40
0.679442
50
270.4443897
51
278.4511052
0
ARC
8
DEFAULT_255_1_234
10
6.82859
20
5.2269213
40
0.4604407
50
269.4970433
51
284.0205042
0
ARC
8
DEFAULT_255_1_234
10
6.8641201
20
5.0903978
40
0.3193797
50
283.7700273
51
318.1555492
0
ARC
8
DEFAULT_255_1_234
10
6.8303959
20
5.1156367
40
0.3613588
50
318.7415601
51
343.6873628
0
ARC
8
DEFAULT_255_1_234
10
6.6499982
20
5.1719832
40
0.5503313
50
343.3325091
51
355.8548958
0
ARC
8
DEFAULT_255_1_234
10
6.4401666
20
5.1919319
40
0.7610708
50
355.4988528
51
0.0791727
0
ARC
8
DEFAULT_255_1_234
10
6.5184289
20
5.265478
40
0.6828208
50
359.6455037
51
9.8607896
0
ARC
8
DEFAULT_255_1_234
10
6.7544987
20
5.3081099
40
0.4429406
50
9.6571907
51
26.1932807
0
ARC
8
DEFAULT_255_1_234
10
6.8472975
20
5.3512118
40
0.3406537
50
26.5777228
51
40.1532208
0
ARC
8
DEFAULT_255_1_234
10
6.8728702
20
5.3711619
40
0.308246
50
40.3840491
51
80.1431104
0
ARC
8
DEFAULT_255_1_234
10
6.840182
20
5.2262333
40
0.4566909
50
79.2152159
51
89.7445637
0
LINE
8
DEFAULT_255_1_234
10
4.9989023
20
13.4091849
11
4.8438897
21
13.4091849
0
LINE
8
DEFAULT_255_1_234
10
4.1515539
20
12.9168394
11
4.3065665
21
12.9168394
0
ARC
8
DEFAULT_255_1_234
10
4.909771
20
14.3038768
40
1.252368
50
248.9199003
51
254.1439814
0
ARC
8
DEFAULT_255_1_234
10
4.7417205
20
13.8712234
40
0.788226
50
241.633709
51
249.0064503
0
ARC
8
DEFAULT_255_1_234
10
4.58886
20
13.5911317
40
0.4691427
50
230.498225
51
241.8087113
0
ARC
8
DEFAULT_255_1_234
10
4.5104174
20
13.4911906
40
0.3421437
50
227.4064532
51
229.9881192
0
ARC
8
DEFAULT_255_1_234
10
4.4616694
20
13.4436088
40
0.2741476
50
200.6781896
51
228.1763934
0
ARC
8
DEFAULT_255_1_234
10
4.4689005
20
13.4421077
40
0.2804109
50
179.5061581
51
199.8694617
0
ARC
8
DEFAULT_255_1_234
10
4.4679757
20
13.449521
40
0.2795204
50
132.4834203
51
181.0242172
0
ARC
8
DEFAULT_255_1_234
10
4.5275339
20
13.3932704
40
0.3612768
50
129.2532479
51
133.4242687
0
ARC
8
DEFAULT_255_1_234
10
4.5421789
20
13.3712965
40
0.3875675
50
101.98776
51
128.8742646
0
ARC
8
DEFAULT_255_1_234
10
4.5820399
20
13.1991741
40
0.5642249
50
89.5906553
51
102.3169264
0
ARC
8
DEFAULT_255_1_234
10
4.5890891
20
13.2310148
40
0.5323783
50
77.2360837
51
90.3248275
0
ARC
8
DEFAULT_255_1_234
10
4.6097971
20
13.32774
40
0.4334697
50
63.837784
51
77.0809408
0
ARC
8
DEFAULT_255_1_234
10
4.6375732
20
13.3794911
40
0.3747796
50
45.9864267
51
64.1607727
0
ARC
8
DEFAULT_255_1_234
10
4.6636614
20
13.4092866
40
0.3352302
50
32.2747395
51
45.6547121
0
ARC
8
DEFAULT_255_1_234
10
4.6703054
20
13.411188
40
0.328603
50
359.6507365
51
32.6130309
0
ARC
8
DEFAULT_255_1_234
10
4.576015
20
13.411666
40
0.2678863
50
359.469343
51
14.9832209
0
ARC
8
DEFAULT_255_1_234
10
4.6465212
20
13.4305539
40
0.1948938
50
14.9781179
51
48.2004265
0
ARC
8
DEFAULT_255_1_234
10
4.6300856
20
13.4098983
40
0.2212521
50
48.5927837
51
74.1241538
0
ARC
8
DEFAULT_255_1_234
10
4.5967346
20
13.2998248
40
0.3362561
50
73.7888341
51
86.6652678
0
ARC
8
DEFAULT_255_1_234
10
4.5864911
20
13.1790881
40
0.4573953
50
86.2640471
51
90.0526343
0
ARC
8
DEFAULT_255_1_234
10
4.5836624
20
13.2186192
40
0.4178709
50
89.6697524
51
99.2309573
0
ARC
8
DEFAULT_255_1_234
10
4.5594075
20
13.3630964
40
0.2713749
50
99.069534
51
113.7658566
0
ARC
8
DEFAULT_255_1_234
10
4.5320266
20
13.4276677
40
0.2012469
50
114.0401004
51
127.9850673
0
ARC
8
DEFAULT_255_1_234
10
4.507983
20
13.457273
40
0.1631167
50
127.7287463
51
176.7105154
0
ARC
8
DEFAULT_255_1_234
10
4.5758547
20
13.4471693
40
0.2315392
50
175.1779447
51
180.0581938
0
ARC
8
DEFAULT_255_1_234
10
4.4915394
20
13.4459428
40
0.1472271
50
179.6142195
51
228.1246017
0
ARC
8
DEFAULT_255_1_234
10
4.5357063
20
13.4868308
40
0.2072299
50
226.5779593
51
230.8800004
0
ARC
8
DEFAULT_255_1_234
10
4.5828141
20
13.5493636
40
0.2854818
50
231.4635071
51
241.9260842
0
ARC
8
DEFAULT_255_1_234
10
4.7025319
20
13.76968
40
0.53622
50
241.7178533
51
248.3259551
0
ARC
8
DEFAULT_255_1_234
10
4.8410691
20
14.1129064
40
0.9063478
50
248.2007737
51
252.4528373
0
ARC
8
DEFAULT_255_1_234
10
4.9614416
20
14.4850441
40
1.2974635
50
252.3391078
51
254.3469452
0
ARC
8
DEFAULT_255_1_234
10
4.2072119
20
11.7873148
40
1.5037162
50
71.0197183
51
74.4087047
0
ARC
8
DEFAULT_255_1_234
10
4.3766804
20
12.2765111
40
0.9859993
50
66.1847285
51
71.086374
0
ARC
8
DEFAULT_255_1_234
10
4.5323116
20
12.62692
40
0.6025855
50
59.3536294
51
66.2691831
0
ARC
8
DEFAULT_255_1_234
10
4.6211769
20
12.7772609
40
0.4279449
50
49.1020879
51
59.3293958
0
ARC
8
DEFAULT_255_1_234
10
4.7030509
20
12.8705834
40
0.3038015
50
32.7919921
51
49.2505539
0
ARC
8
DEFAULT_255_1_234
10
4.7351599
20
12.8934191
40
0.264448
50
31.1181161
51
32.4005348
0
ARC
8
DEFAULT_255_1_234
10
4.7263136
20
12.8898779
40
0.2738556
50
8.1116974
51
30.7958831
0
ARC
8
DEFAULT_255_1_234
10
4.6452804
20
12.8760753
40
0.3560327
50
359.8389159
51
8.4706516
0
ARC
8
DEFAULT_255_1_234
10
4.7078596
20
12.8712137
40
0.2934776
50
337.4731098
51
0.7537279
0
ARC
8
DEFAULT_255_1_234
10
4.7257291
20
12.8692387
40
0.2762607
50
307.5917067
51
336.4315538
0
ARC
8
DEFAULT_255_1_234
10
4.6797119
20
12.9205102
40
0.3449979
50
307.6551545
51
308.4529766
0
ARC
8
DEFAULT_255_1_234
10
4.6566838
20
12.956025
40
0.3871988
50
284.3734338
51
307.1424381
0
ARC
8
DEFAULT_255_1_234
10
4.6071668
20
13.1381932
40
0.5759636
50
272.4382747
51
284.646547
0
ARC
8
DEFAULT_255_1_234
10
4.5944876
20
13.3181893
40
0.7563528
50
269.9708387
51
272.8178037
0
ARC
8
DEFAULT_255_1_234
10
4.5901916
20
13.1143716
40
0.5525489
50
248.2707594
51
270.4055579
0
ARC
8
DEFAULT_255_1_234
10
4.5847657
20
13.0953192
40
0.5328452
50
246.1383403
51
248.0542782
0
ARC
8
DEFAULT_255_1_234
10
4.5429036
20
13.0073843
40
0.4355005
50
233.1670131
51
246.4950969
0
ARC
8
DEFAULT_255_1_234
10
4.4874941
20
12.9325812
40
0.3424126
50
215.3403242
51
233.0843104
0
ARC
8
DEFAULT_255_1_234
10
4.4602372
20
12.9127549
40
0.3087104
50
179.2419209
51
215.2648451
0
ARC
8
DEFAULT_255_1_234
10
4.5369966
20
12.9141666
40
0.2304457
50
179.335461
51
199.1045811
0
ARC
8
DEFAULT_255_1_234
10
4.5037643
20
12.9054766
40
0.1962176
50
199.8828939
51
232.7063202
0
ARC
8
DEFAULT_255_1_234
10
4.5509911
20
12.9648788
40
0.2720938
50
232.3738199
51
255.5136649
0
ARC
8
DEFAULT_255_1_234
10
4.5850778
20
13.0892835
40
0.4010747
50
255.2446292
51
267.5320849
0
ARC
8
DEFAULT_255_1_234
10
4.5938401
20
13.2125702
40
0.5246356
50
267.1557994
51
270.0286766
0
ARC
8
DEFAULT_255_1_234
10
4.5966173
20
13.168195
40
0.4802668
50
269.7000017
51
278.1660162
0
ARC
8
DEFAULT_255_1_234
10
4.6222178
20
12.9951515
40
0.3053425
50
278.0231263
51
290.625471
0
ARC
8
DEFAULT_255_1_234
10
4.6569865
20
12.9024025
40
0.206291
50
290.6619762
51
307.0370976
0
ARC
8
DEFAULT_255_1_234
10
4.6870254
20
12.8655504
40
0.1587906
50
306.3943566
51
355.3030547
0
ARC
8
DEFAULT_255_1_234
10
4.6358186
20
12.8732113
40
0.2104809
50
354.3660432
51
0.0698737
0
ARC
8
DEFAULT_255_1_234
10
4.6500531
20
12.8754617
40
0.1962563
50
359.417946
51
16.1971788
0
ARC
8
DEFAULT_255_1_234
10
4.6955841
20
12.8879418
40
0.149053
50
16.4723299
51
52.6262157
0
ARC
8
DEFAULT_255_1_234
10
4.6134895
20
12.7795433
40
0.2850296
50
52.7386432
51
62.4979148
0
ARC
8
DEFAULT_255_1_234
10
4.4749972
20
12.5189283
40
0.5801521
50
62.2515216
51
68.1220564
0
ARC
8
DEFAULT_255_1_234
10
4.3029883
20
12.0961872
40
1.0365451
50
68.0062803
51
71.8053402
0
ARC
8
DEFAULT_255_1_234
10
4.1234255
20
11.5576758
40
1.6042013
50
71.7183119
51
73.9258742
0
LINE
8
DEFAULT_255_1_234
10
5.6928445
20
13.7473211
11
5.205318
21
12.4775033
0
LINE
8
DEFAULT_255_1_234
10
5.205318
20
12.4775033
11
5.0776133
21
12.4775033
0
LINE
8
DEFAULT_255_1_234
10
5.0776133
20
12.4775033
11
5.565943
21
13.7473211
0
LINE
8
DEFAULT_255_1_234
10
5.565943
20
13.7473211
11
5.6928445
21
13.7473211
0
LINE
8
DEFAULT_255_1_234
10
6.6526372
20
13.4091849
11
6.4976247
21
13.4091849
0
LINE
8
DEFAULT_255_1_234
10
5.8052888
20
12.9168394
11
5.9603014
21
12.9168394
0
ARC
8
DEFAULT_255_1_234
10
6.5635059
20
14.3038768
40
1.252368
50
248.9199003
51
254.1439814
0
ARC
8
DEFAULT_255_1_234
10
6.3954554
20
13.8712234
40
0.788226
50
241.633709
51
249.0064503
0
ARC
8
DEFAULT_255_1_234
10
6.2425949
20
13.5911317
40
0.4691427
50
230.498225
51
241.8087113
0
ARC
8
DEFAULT_255_1_234
10
6.1641523
20
13.4911906
40
0.3421437
50
227.4064532
51
229.9881192
0
ARC
8
DEFAULT_255_1_234
10
6.1154044
20
13.4436088
40
0.2741476
50
200.6781896
51
228.1763934
0
ARC
8
DEFAULT_255_1_234
10
6.1226354
20
13.4421077
40
0.2804109
50
179.5061581
51
199.8694617
0
ARC
8
DEFAULT_255_1_234
10
6.1217106
20
13.449521
40
0.2795204
50
132.4834203
51
181.0242172
0
ARC
8
DEFAULT_255_1_234
10
6.1812688
20
13.3932704
40
0.3612768
50
129.2532479
51
133.4242687
0
ARC
8
DEFAULT_255_1_234
10
6.1959138
20
13.3712965
40
0.3875675
50
101.98776
51
128.8742646
0
ARC
8
DEFAULT_255_1_234
10
6.2357748
20
13.1991741
40
0.5642249
50
89.5906553
51
102.3169264
0
ARC
8
DEFAULT_255_1_234
10
6.2428241
20
13.2310148
40
0.5323783
50
77.2360837
51
90.3248275
0
ARC
8
DEFAULT_255_1_234
10
6.263532
20
13.32774
40
0.4334697
50
63.837784
51
77.0809408
0
ARC
8
DEFAULT_255_1_234
10
6.2913081
20
13.3794911
40
0.3747796
50
45.9864267
51
64.1607727
0
ARC
8
DEFAULT_255_1_234
10
6.3173963
20
13.4092866
40
0.3352302
50
32.2747395
51
45.6547121
0
ARC
8
DEFAULT_255_1_234
10
6.3240403
20
13.411188
40
0.328603
50
359.6507365
51
32.6130309
0
ARC
8
DEFAULT_255_1_234
10
6.2297499
20
13.411666
40
0.2678863
50
359.469343
51
14.9832209
0
ARC
8
DEFAULT_255_1_234
10
6.3002561
20
13.4305539
40
0.1948938
50
14.9781179
51
48.2004265
0
ARC
8
DEFAULT_255_1_234
10
6.2838205
20
13.4098983
40
0.2212521
50
48.5927837
51
74.1241538
0
ARC
8
DEFAULT_255_1_234
10
6.2504695
20
13.2998248
40
0.3362561
50
73.7888341
51
86.6652678
0
ARC
8
DEFAULT_255_1_234
10
6.240226
20
13.1790881
40
0.4573953
50
86.2640471
51
90.0526343
0
ARC
8
DEFAULT_255_1_234
10
6.2373973
20
13.2186192
40
0.4178709
50
89.6697524
51
99.2309573
0
ARC
8
DEFAULT_255_1_234
10
6.2131424
20
13.3630964
40
0.2713749
50
99.069534
51
113.7658566
0
ARC
8
DEFAULT_255_1_234
10
6.1857615
20
13.4276677
40
0.2012469
50
114.0401004
51
127.9850673
0
ARC
8
DEFAULT_255_1_234
10
6.1617179
20
13.457273
40
0.1631167
50
127.7287463
51
176.7105154
0
ARC
8
DEFAULT_255_1_234
10
6.2295896
20
13.4471693
40
0.2315392
50
175.1779447
51
180.0581938
0
ARC
8
DEFAULT_255_1_234
10
6.1452743
20
13.4459428
40
0.1472271
50
179.6142195
51
228.1246017
0
ARC
8
DEFAULT_255_1_234
10
6.1894412
20
13.4868308
40
0.2072299
50
226.5779593
51
230.8800004
0
ARC
8
DEFAULT_255_1_234
10
6.236549
20
13.5493636
40
0.2854818
50
231.4635071
51
241.9260842
0
ARC
8
DEFAULT_255_1_234
10
6.3562668
20
13.76968
40
0.53622
50
241.7178533
51
248.3259551
0
ARC
8
DEFAULT_255_1_234
10
6.494804
20
14.1129064
40
0.9063478
50
248.2007737
51
252.4528373
0
ARC
8
DEFAULT_255_1_234
10
6.6151765
20
14.4850441
40
1.2974635
50
252.3391078
51
254.3469452
0
ARC
8
DEFAULT_255_1_234
10
5.8609468
20
11.7873148
40
1.5037162
50
71.0197183
51
74.4087047
0
ARC
8
DEFAULT_255_1_234
10
6.0304153
20
12.2765111
40
0.9859993
50
66.1847285
51
71.086374
0
ARC
8
DEFAULT_255_1_234
10
6.1860465
20
12.62692
40
0.6025855
50
59.3536294
51
66.2691831
0
ARC
8
DEFAULT_255_1_234
10
6.2749118
20
12.7772609
40
0.4279449
50
49.1020879
51
59.3293958
0
ARC
8
DEFAULT_255_1_234
10
6.3567858
20
12.8705834
40
0.3038015
50
32.7919921
51
49.2505539
0
ARC
8
DEFAULT_255_1_234
10
6.3888948
20
12.8934191
40
0.264448
50
31.1181161
51
32.4005348
0
ARC
8
DEFAULT_255_1_234
10
6.3800485
20
12.8898779
40
0.2738556
50
8.1116974
51
30.7958831
0
ARC
8
DEFAULT_255_1_234
10
6.2990153
20
12.8760753
40
0.3560327
50
359.8389159
51
8.4706516
0
ARC
8
DEFAULT_255_1_234
10
6.3615945
20
12.8712137
40
0.2934776
50
337.4731098
51
0.7537279
0
ARC
8
DEFAULT_255_1_234
10
6.379464
20
12.8692387
40
0.2762607
50
307.5917067
51
336.4315538
0
ARC
8
DEFAULT_255_1_234
10
6.3334468
20
12.9205102
40
0.3449979
50
307.6551545
51
308.4529766
0
ARC
8
DEFAULT_255_1_234
10
6.3104187
20
12.956025
40
0.3871988
50
284.3734338
51
307.1424381
0
ARC
8
DEFAULT_255_1_234
10
6.2609017
20
13.1381932
40
0.5759636
50
272.4382747
51
284.646547
0
ARC
8
DEFAULT_255_1_234
10
6.2482226
20
13.3181893
40
0.7563528
50
269.9708387
51
272.8178037
0
ARC
8
DEFAULT_255_1_234
10
6.2439265
20
13.1143716
40
0.5525489
50
248.2707594
51
270.4055579
0
ARC
8
DEFAULT_255_1_234
10
6.2385006
20
13.0953192
40
0.5328452
50
246.1383403
51
248.0542782
0
ARC
8
DEFAULT_255_1_234
10
6.1966385
20
13.0073843
40
0.4355005
50
233.1670131
51
246.4950969
0
ARC
8
DEFAULT_255_1_234
10
6.141229
20
12.9325812
40
0.3424126
50
215.3403242
51
233.0843104
0
ARC
8
DEFAULT_255_1_234
10
6.1139721
20
12.9127549
40
0.3087104
50
179.2419209
51
215.2648451
0
ARC
8
DEFAULT_255_1_234
10
6.1907315
20
12.9141666
40
0.2304457
50
179.335461
51
199.1045811
0
ARC
8
DEFAULT_255_1_234
10
6.1574992
20
12.9054766
40
0.1962176
50
199.8828939
51
232.7063202
0
ARC
8
DEFAULT_255_1_234
10
6.204726
20
12.9648788
40
0.2720938
50
232.3738199
51
255.5136649
0
ARC
8
DEFAULT_255_1_234
10
6.2388127
20
13.0892835
40
0.4010747
50
255.2446292
51
267.5320849
0
ARC
8
DEFAULT_255_1_234
10
6.247575
20
13.2125702
40
0.5246356
50
267.1557994
51
270.0286766
0
ARC
8
DEFAULT_255_1_234
10
6.2503522
20
13.168195
40
0.4802668
50
269.7000017
51
278.1660162
0
ARC
8
DEFAULT_255_1_234
10
6.2759527
20
12.9951515
40
0.3053425
50
278.0231263
51
290.625471
0
ARC
8
DEFAULT_255_1_234
10
6.3107214
20
12.9024025
40
0.206291
50
290.6619762
51
307.0370976
0
ARC
8
DEFAULT_255_1_234
10
6.3407604
20
12.8655504
40
0.1587906
50
306.3943566
51
355.3030547
0
ARC
8
DEFAULT_255_1_234
10
6.2895535
20
12.8732113
40
0.2104809
50
354.3660432
51
0.0698737
0
ARC
8
DEFAULT_255_1_234
10
6.303788
20
12.8754617
40
0.1962563
50
359.417946
51
16.1971788
0
ARC
8
DEFAULT_255_1_234
10
6.3493191
20
12.8879418
40
0.149053
50
16.4723299
51
52.6262157
0
ARC
8
DEFAULT_255_1_234
10
6.2672244
20
12.7795433
40
0.2850296
50
52.7386432
51
62.4979148
0
ARC
8
DEFAULT_255_1_234
10
6.1287321
20
12.5189283
40
0.5801521
50
62.2515216
51
68.1220564
0
ARC
8
DEFAULT_255_1_234
10
5.9567232
20
12.0961872
40
1.0365451
50
68.0062803
51
71.8053402
0
ARC
8
DEFAULT_255_1_234
10
5.7771604
20
11.5576758
40
1.6042013
50
71.7183119
51
73.9258742
0
LINE
8
DEFAULT_255_1_234
10
4.3681299
20
21.6848211
11
4.6500439
21
21.2366501
0
LINE
8
DEFAULT_255_1_234
10
4.6500439
20
21.2366501
11
4.9303516
21
21.6848211
0
LINE
8
DEFAULT_255_1_234
10
4.9303516
20
21.6848211
11
5.1118689
21
21.6848211
0
LINE
8
DEFAULT_255_1_234
10
5.1118689
20
21.6848211
11
4.7424089
21
21.1049296
0
LINE
8
DEFAULT_255_1_234
10
4.7424089
20
21.1049296
11
5.1207038
21
20.5154
0
LINE
8
DEFAULT_255_1_234
10
5.1207038
20
20.5154
11
4.9375802
21
20.5154
0
LINE
8
DEFAULT_255_1_234
10
4.9375802
20
20.5154
11
4.6500439
21
20.9716027
0
LINE
8
DEFAULT_255_1_234
10
4.6500439
20
20.9716027
11
4.3609014
21
20.5154
0
LINE
8
DEFAULT_255_1_234
10
4.3609014
20
20.5154
11
4.1785809
21
20.5154
0
LINE
8
DEFAULT_255_1_234
10
4.1785809
20
20.5154
11
4.557679
21
21.1049296
0
LINE
8
DEFAULT_255_1_234
10
4.557679
20
21.1049296
11
4.1874158
21
21.6848211
0
LINE
8
DEFAULT_255_1_234
10
4.1874158
20
21.6848211
11
4.3681299
21
21.6848211
0
LINE
8
DEFAULT_255_1_234
10
6.0274871
20
20.6366792
11
6.0274871
21
20.5154
0
LINE
8
DEFAULT_255_1_234
10
6.0274871
20
20.5154
11
5.2612592
21
20.5154
0
LINE
8
DEFAULT_255_1_234
10
5.2612592
20
20.5154
11
5.2612592
21
20.6222221
0
LINE
8
DEFAULT_255_1_234
10
5.2612592
20
20.6222221
11
5.6660588
21
21.0719995
0
LINE
8
DEFAULT_255_1_234
10
5.3873575
20
21.3402595
11
5.2387704
21
21.3402595
0
LINE
8
DEFAULT_255_1_234
10
5.7536048
20
20.9764218
11
5.440367
21
20.6366792
0
LINE
8
DEFAULT_255_1_234
10
5.440367
20
20.6366792
11
6.0274871
21
20.6366792
0
ARC
8
DEFAULT_255_1_234
10
4.3170422
20
22.2649527
40
1.8008286
50
318.5132453
51
320.7828378
0
ARC
8
DEFAULT_255_1_234
10
4.8457396
20
21.8346426
40
1.1191493
50
320.7372736
51
323.9737074
0
ARC
8
DEFAULT_255_1_234
10
5.2377252
20
21.5506361
40
0.6350923
50
323.8961724
51
328.6421089
0
ARC
8
DEFAULT_255_1_234
10
5.4423848
20
21.4244031
40
0.3946393
50
328.8299013
51
331.789948
0
ARC
8
DEFAULT_255_1_234
10
5.5421026
20
21.3729509
40
0.2824501
50
331.4255242
51
352.9364833
0
ARC
8
DEFAULT_255_1_234
10
5.5557527
20
21.3698976
40
0.2685315
50
353.2248685
51
0.0169286
0
ARC
8
DEFAULT_255_1_234
10
5.5767404
20
21.372195
40
0.2475536
50
359.4866256
51
15.9339782
0
ARC
8
DEFAULT_255_1_234
10
5.6274389
20
21.3858286
40
0.1950618
50
16.1714718
51
43.5284424
0
ARC
8
DEFAULT_255_1_234
10
5.6351698
20
21.3935573
40
0.184134
50
43.4415429
51
83.1661404
0
ARC
8
DEFAULT_255_1_234
10
5.6217616
20
21.3198771
40
0.258926
50
82.160215
51
90.1505798
0
ARC
8
DEFAULT_255_1_234
10
5.6186043
20
21.2661865
40
0.3126255
50
89.5460705
51
102.5418777
0
ARC
8
DEFAULT_255_1_234
10
5.5943129
20
21.3692665
40
0.2067346
50
102.1739365
51
129.2061916
0
ARC
8
DEFAULT_255_1_234
10
5.5864201
20
21.3817094
40
0.1921118
50
129.7279328
51
135.7542026
0
ARC
8
DEFAULT_255_1_234
10
5.5985729
20
21.3720045
40
0.2075944
50
136.175737
51
166.3674722
0
ARC
8
DEFAULT_255_1_234
10
5.6992648
20
21.3450182
40
0.3118201
50
165.9092917
51
178.8683903
0
ARC
8
DEFAULT_255_1_234
10
5.7857509
20
21.3403179
40
0.3983935
50
178.438168
51
180.0083905
0
ARC
8
DEFAULT_255_1_234
10
5.6456111
20
21.3442231
40
0.4068601
50
163.2878735
51
180.5581814
0
ARC
8
DEFAULT_255_1_234
10
5.5654373
20
21.366284
40
0.3237344
50
133.454115
51
162.9470031
0
ARC
8
DEFAULT_255_1_234
10
5.5832914
20
21.3473
40
0.349795
50
100.7869394
51
133.4384016
0
ARC
8
DEFAULT_255_1_234
10
5.6180686
20
21.1924319
40
0.5084616
50
89.6605301
51
101.3704185
0
ARC
8
DEFAULT_255_1_234
10
5.6247024
20
21.1985496
40
0.502348
50
78.2171172
51
90.4130393
0
ARC
8
DEFAULT_255_1_234
10
5.6602103
20
21.3609637
40
0.3361092
50
55.9268222
51
78.4888551
0
ARC
8
DEFAULT_255_1_234
10
5.6798543
20
21.3948324
40
0.2970617
50
47.9292255
51
55.4054003
0
ARC
8
DEFAULT_255_1_234
10
5.6900103
20
21.4051502
40
0.2825983
50
4.3347696
51
48.0560701
0
ARC
8
DEFAULT_255_1_234
10
5.5804497
20
21.3881601
40
0.393225
50
359.925209
51
5.5967654
0
ARC
8
DEFAULT_255_1_234
10
5.6233389
20
21.3937816
40
0.3503892
50
337.8914096
51
358.9967724
0
ARC
8
DEFAULT_255_1_234
10
5.3519801
20
21.4984706
40
0.6412172
50
326.9135351
51
338.3505194
0
ARC
8
DEFAULT_255_1_234
10
4.9534105
20
21.7539284
40
1.1146189
50
319.6472867
51
327.095818
0
ARC
8
DEFAULT_255_1_234
10
4.5701108
20
22.0701
40
1.6114559
50
317.2586784
51
319.9046139
0
LINE
8
DEFAULT_255_1_234
10
6.9398925
20
21.6848211
11
6.9398925
21
21.601291
0
LINE
8
DEFAULT_255_1_234
10
6.9398925
20
21.601291
11
6.4555787
21
20.5154
0
LINE
8
DEFAULT_255_1_234
10
6.4555787
20
20.5154
11
6.299763
21
20.5154
0
LINE
8
DEFAULT_255_1_234
10
6.299763
20
20.5154
11
6.7824705
21
21.5627387
0
LINE
8
DEFAULT_255_1_234
10
6.7824705
20
21.5627387
11
6.1495695
21
21.5627387
0
LINE
8
DEFAULT_255_1_234
10
6.1495695
20
21.5627387
11
6.1495695
21
21.6848211
0
LINE
8
DEFAULT_255_1_234
10
6.1495695
20
21.6848211
11
6.9398925
21
21.6848211
0
LINE
8
DEFAULT_255_1_234
10
4.3681299
20
29.6223211
11
4.6500439
21
29.1741501
0
LINE
8
DEFAULT_255_1_234
10
4.6500439
20
29.1741501
11
4.9303516
21
29.6223211
0
LINE
8
DEFAULT_255_1_234
10
4.9303516
20
29.6223211
11
5.1118689
21
29.6223211
0
LINE
8
DEFAULT_255_1_234
10
5.1118689
20
29.6223211
11
4.7424089
21
29.0424296
0
LINE
8
DEFAULT_255_1_234
10
4.7424089
20
29.0424296
11
5.1207038
21
28.4529
0
LINE
8
DEFAULT_255_1_234
10
5.1207038
20
28.4529
11
4.9375802
21
28.4529
0
LINE
8
DEFAULT_255_1_234
10
4.9375802
20
28.4529
11
4.6500439
21
28.9091027
0
LINE
8
DEFAULT_255_1_234
10
4.6500439
20
28.9091027
11
4.3609014
21
28.4529
0
LINE
8
DEFAULT_255_1_234
10
4.3609014
20
28.4529
11
4.1785809
21
28.4529
0
LINE
8
DEFAULT_255_1_234
10
4.1785809
20
28.4529
11
4.557679
21
29.0424296
0
LINE
8
DEFAULT_255_1_234
10
4.557679
20
29.0424296
11
4.1874158
21
29.6223211
0
LINE
8
DEFAULT_255_1_234
10
4.1874158
20
29.6223211
11
4.3681299
21
29.6223211
0
LINE
8
DEFAULT_255_1_234
10
6.0274871
20
28.5741792
11
6.0274871
21
28.4529
0
LINE
8
DEFAULT_255_1_234
10
6.0274871
20
28.4529
11
5.2612592
21
28.4529
0
LINE
8
DEFAULT_255_1_234
10
5.2612592
20
28.4529
11
5.2612592
21
28.5597221
0
LINE
8
DEFAULT_255_1_234
10
5.2612592
20
28.5597221
11
5.6660588
21
29.0094995
0
LINE
8
DEFAULT_255_1_234
10
5.3873575
20
29.2777595
11
5.2387704
21
29.2777595
0
LINE
8
DEFAULT_255_1_234
10
5.7536048
20
28.9139218
11
5.440367
21
28.5741792
0
LINE
8
DEFAULT_255_1_234
10
5.440367
20
28.5741792
11
6.0274871
21
28.5741792
0
ARC
8
DEFAULT_255_1_234
10
4.3170422
20
30.2024527
40
1.8008286
50
318.5132453
51
320.7828378
0
ARC
8
DEFAULT_255_1_234
10
4.8457396
20
29.7721426
40
1.1191493
50
320.7372736
51
323.9737074
0
ARC
8
DEFAULT_255_1_234
10
5.2377252
20
29.4881361
40
0.6350923
50
323.8961724
51
328.6421089
0
ARC
8
DEFAULT_255_1_234
10
5.4423848
20
29.3619031
40
0.3946393
50
328.8299013
51
331.789948
0
ARC
8
DEFAULT_255_1_234
10
5.5421026
20
29.3104509
40
0.2824501
50
331.4255242
51
352.9364833
0
ARC
8
DEFAULT_255_1_234
10
5.5557527
20
29.3073976
40
0.2685315
50
353.2248685
51
0.0169286
0
ARC
8
DEFAULT_255_1_234
10
5.5767404
20
29.309695
40
0.2475536
50
359.4866256
51
15.9339782
0
ARC
8
DEFAULT_255_1_234
10
5.6274389
20
29.3233286
40
0.1950618
50
16.1714718
51
43.5284424
0
ARC
8
DEFAULT_255_1_234
10
5.6351698
20
29.3310573
40
0.184134
50
43.4415429
51
83.1661404
0
ARC
8
DEFAULT_255_1_234
10
5.6217616
20
29.2573771
40
0.258926
50
82.160215
51
90.1505798
0
ARC
8
DEFAULT_255_1_234
10
5.6186043
20
29.2036865
40
0.3126255
50
89.5460705
51
102.5418777
0
ARC
8
DEFAULT_255_1_234
10
5.5943129
20
29.3067665
40
0.2067346
50
102.1739365
51
129.2061916
0
ARC
8
DEFAULT_255_1_234
10
5.5864201
20
29.3192094
40
0.1921118
50
129.7279328
51
135.7542026
0
ARC
8
DEFAULT_255_1_234
10
5.5985729
20
29.3095045
40
0.2075944
50
136.175737
51
166.3674722
0
ARC
8
DEFAULT_255_1_234
10
5.6992648
20
29.2825182
40
0.3118201
50
165.9092917
51
178.8683903
0
ARC
8
DEFAULT_255_1_234
10
5.7857509
20
29.2778179
40
0.3983935
50
178.438168
51
180.0083905
0
ARC
8
DEFAULT_255_1_234
10
5.6456111
20
29.2817231
40
0.4068601
50
163.2878735
51
180.5581814
0
ARC
8
DEFAULT_255_1_234
10
5.5654373
20
29.303784
40
0.3237344
50
133.454115
51
162.9470031
0
ARC
8
DEFAULT_255_1_234
10
5.5832914
20
29.2848
40
0.349795
50
100.7869394
51
133.4384016
0
ARC
8
DEFAULT_255_1_234
10
5.6180686
20
29.1299319
40
0.5084616
50
89.6605301
51
101.3704185
0
ARC
8
DEFAULT_255_1_234
10
5.6247024
20
29.1360496
40
0.502348
50
78.2171172
51
90.4130393
0
ARC
8
DEFAULT_255_1_234
10
5.6602103
20
29.2984637
40
0.3361092
50
55.9268222
51
78.4888551
0
ARC
8
DEFAULT_255_1_234
10
5.6798543
20
29.3323324
40
0.2970617
50
47.9292255
51
55.4054003
0
ARC
8
DEFAULT_255_1_234
10
5.6900103
20
29.3426502
40
0.2825983
50
4.3347696
51
48.0560701
0
ARC
8
DEFAULT_255_1_234
10
5.5804497
20
29.3256601
40
0.393225
50
359.925209
51
5.5967654
0
ARC
8
DEFAULT_255_1_234
10
5.6233389
20
29.3312816
40
0.3503892
50
337.8914096
51
358.9967724
0
ARC
8
DEFAULT_255_1_234
10
5.3519801
20
29.4359706
40
0.6412172
50
326.9135351
51
338.3505194
0
ARC
8
DEFAULT_255_1_234
10
4.9534105
20
29.6914284
40
1.1146189
50
319.6472867
51
327.095818
0
ARC
8
DEFAULT_255_1_234
10
4.5701108
20
30.0076
40
1.6114559
50
317.2586784
51
319.9046139
0
LINE
8
DEFAULT_255_1_234
10
6.7415086
20
29.6231243
11
6.7680133
21
29.6231243
0
LINE
8
DEFAULT_255_1_234
10
6.7680133
20
29.6231243
11
6.7680133
21
29.497026
0
LINE
8
DEFAULT_255_1_234
10
6.7680133
20
29.497026
11
6.7407054
21
29.497026
0
LINE
8
DEFAULT_255_1_234
10
6.193744
20
28.8978583
11
6.193744
21
28.9548836
0
LINE
8
DEFAULT_255_1_234
10
6.3431344
20
28.9356075
11
6.3431344
21
28.8809917
0
ARC
8
DEFAULT_255_1_234
10
6.7459402
20
28.9972455
40
0.4998079
50
90.6001036
51
104.514704
0
ARC
8
DEFAULT_255_1_234
10
6.7070918
20
29.1417131
40
0.3502176
50
104.2855254
51
133.862935
0
ARC
8
DEFAULT_255_1_234
10
6.7234675
20
29.130883
40
0.3693984
50
134.5302688
51
161.6210873
0
ARC
8
DEFAULT_255_1_234
10
6.8887864
20
29.0725895
40
0.5446739
50
161.2849839
51
174.2076652
0
ARC
8
DEFAULT_255_1_234
10
7.0294801
20
29.0531787
40
0.6866274
50
173.7810589
51
174.9254635
0
ARC
8
DEFAULT_255_1_234
10
6.5744633
20
28.9148839
40
0.3033419
50
95.8330959
51
138.9954921
0
ARC
8
DEFAULT_255_1_234
10
6.5967989
20
28.7870375
40
0.4328947
50
89.8753725
51
97.0544009
0
ARC
8
DEFAULT_255_1_234
10
6.6015455
20
28.8705748
40
0.3493769
50
71.6407809
51
90.6240094
0
ARC
8
DEFAULT_255_1_234
10
6.6166028
20
28.9260082
40
0.2920396
50
39.6367836
51
71.019018
0
ARC
8
DEFAULT_255_1_234
10
6.5529501
20
28.8709998
40
0.3761538
50
10.658731
51
39.9043955
0
ARC
8
DEFAULT_255_1_234
10
6.3981584
20
28.8373686
40
0.5345136
50
359.682601
51
11.132623
0
ARC
8
DEFAULT_255_1_234
10
6.3941715
20
28.830301
40
0.5385081
50
347.2486944
51
0.4369317
0
ARC
8
DEFAULT_255_1_234
10
6.5609192
20
28.7901807
40
0.3670249
50
318.1409698
51
347.6118597
0
ARC
8
DEFAULT_255_1_234
10
6.5934185
20
28.7634702
40
0.3250007
50
275.6342139
51
317.8248465
0
ARC
8
DEFAULT_255_1_234
10
6.5713296
20
28.8934219
40
0.4565864
50
269.8874292
51
276.7917694
0
ARC
8
DEFAULT_255_1_234
10
6.5658367
20
28.7908743
40
0.3540676
50
246.9140195
51
270.7437342
0
ARC
8
DEFAULT_255_1_234
10
6.5664757
20
28.7766384
40
0.3412781
50
218.1665114
51
245.878116
0
ARC
8
DEFAULT_255_1_234
10
6.6544218
20
28.8502279
40
0.455911
50
191.4115814
51
218.6077802
0
ARC
8
DEFAULT_255_1_234
10
6.8482307
20
28.8936833
40
0.6545001
50
179.6345085
51
191.7836486
0
ARC
8
DEFAULT_255_1_234
10
7.4064644
20
28.9615697
40
1.2127388
50
171.4525249
51
180.3158839
0
ARC
8
DEFAULT_255_1_234
10
6.966952
20
29.0299608
40
0.7679464
50
157.9802646
51
171.6246686
0
ARC
8
DEFAULT_255_1_234
10
6.7455541
20
29.1182421
40
0.5296008
50
141.4298019
51
157.854097
0
ARC
8
DEFAULT_255_1_234
10
6.6813861
20
29.1636381
40
0.4511509
50
102.8715806
51
140.8564722
0
ARC
8
DEFAULT_255_1_234
10
6.7461477
20
28.9196552
40
0.7034845
50
90.3778349
51
103.5869322
0
ARC
8
DEFAULT_255_1_234
10
6.5723253
20
28.859173
40
0.2370698
50
89.8751008
51
126.2071704
0
ARC
8
DEFAULT_255_1_234
10
6.5769043
20
28.8437303
40
0.2522934
50
124.9745049
51
144.895901
0
ARC
8
DEFAULT_255_1_234
10
6.5593233
20
28.858056
40
0.2296779
50
145.2974905
51
160.2660252
0
ARC
8
DEFAULT_255_1_234
10
6.8665772
20
28.8778071
40
0.5234525
50
179.6514266
51
190.2855912
0
ARC
8
DEFAULT_255_1_234
10
6.6971909
20
28.8458786
40
0.3510893
50
190.0945431
51
207.5098196
0
ARC
8
DEFAULT_255_1_234
10
6.6406179
20
28.8189623
40
0.288489
50
207.9583163
51
216.3251085
0
ARC
8
DEFAULT_255_1_234
10
6.6066287
20
28.7910105
40
0.2445587
50
215.7661442
51
232.5456785
0
ARC
8
DEFAULT_255_1_234
10
6.568327
20
28.7423482
40
0.1826382
50
232.8005391
51
270.6605633
0
ARC
8
DEFAULT_255_1_234
10
6.5728971
20
28.7787612
40
0.2190529
50
269.35537
51
288.4744281
0
ARC
8
DEFAULT_255_1_234
10
6.5821868
20
28.7438118
40
0.1829749
50
289.1833337
51
322.9683818
0
ARC
8
DEFAULT_255_1_234
10
6.521039
20
28.7920391
40
0.2608399
50
322.6007884
51
346.5182367
0
ARC
8
DEFAULT_255_1_234
10
6.4052986
20
28.8215616
40
0.3802777
50
346.2582162
51
358.7741648
0
ARC
8
DEFAULT_255_1_234
10
6.3034655
20
28.8270965
40
0.4822176
50
358.3755224
51
0.0098023
0
ARC
8
DEFAULT_255_1_234
10
6.3790842
20
28.8298657
40
0.4066078
50
359.6214041
51
11.2839074
0
ARC
8
DEFAULT_255_1_234
10
6.5067989
20
28.8565066
40
0.2761514
50
11.0482309
51
31.8146458
0
ARC
8
DEFAULT_255_1_234
10
6.5377032
20
28.8732584
40
0.2410679
50
32.3035391
51
38.082671
0
ARC
8
DEFAULT_255_1_234
10
6.5797692
20
28.9113662
40
0.1844966
50
36.825067
51
85.7415724
0
ARC
8
DEFAULT_255_1_234
10
6.5730525
20
28.8613301
40
0.2349122
50
85.0140713
51
90.0513278
0
LINE
8
DEFAULT_255_1_234
10
4.3681299
20
37.5598211
11
4.6500439
21
37.1116501
0
LINE
8
DEFAULT_255_1_234
10
4.6500439
20
37.1116501
11
4.9303516
21
37.5598211
0
LINE
8
DEFAULT_255_1_234
10
4.9303516
20
37.5598211
11
5.1118689
21
37.5598211
0
LINE
8
DEFAULT_255_1_234
10
5.1118689
20
37.5598211
11
4.7424089
21
36.9799296
0
LINE
8
DEFAULT_255_1_234
10
4.7424089
20
36.9799296
11
5.1207038
21
36.3904
0
LINE
8
DEFAULT_255_1_234
10
5.1207038
20
36.3904
11
4.9375802
21
36.3904
0
LINE
8
DEFAULT_255_1_234
10
4.9375802
20
36.3904
11
4.6500439
21
36.8466027
0
LINE
8
DEFAULT_255_1_234
10
4.6500439
20
36.8466027
11
4.3609014
21
36.3904
0
LINE
8
DEFAULT_255_1_234
10
4.3609014
20
36.3904
11
4.1785809
21
36.3904
0
LINE
8
DEFAULT_255_1_234
10
4.1785809
20
36.3904
11
4.557679
21
36.9799296
0
LINE
8
DEFAULT_255_1_234
10
4.557679
20
36.9799296
11
4.1874158
21
37.5598211
0
LINE
8
DEFAULT_255_1_234
10
4.1874158
20
37.5598211
11
4.3681299
21
37.5598211
0
LINE
8
DEFAULT_255_1_234
10
6.0274871
20
36.5116792
11
6.0274871
21
36.3904
0
LINE
8
DEFAULT_255_1_234
10
6.0274871
20
36.3904
11
5.2612592
21
36.3904
0
LINE
8
DEFAULT_255_1_234
10
5.2612592
20
36.3904
11
5.2612592
21
36.4972221
0
LINE
8
DEFAULT_255_1_234
10
5.2612592
20
36.4972221
11
5.6660588
21
36.9469995
0
LINE
8
DEFAULT_255_1_234
10
5.3873575
20
37.2152595
11
5.2387704
21
37.2152595
0
LINE
8
DEFAULT_255_1_234
10
5.7536048
20
36.8514218
11
5.440367
21
36.5116792
0
LINE
8
DEFAULT_255_1_234
10
5.440367
20
36.5116792
11
6.0274871
21
36.5116792
0
ARC
8
DEFAULT_255_1_234
10
4.3170422
20
38.1399527
40
1.8008286
50
318.5132453
51
320.7828378
0
ARC
8
DEFAULT_255_1_234
10
4.8457396
20
37.7096426
40
1.1191493
50
320.7372736
51
323.9737074
0
ARC
8
DEFAULT_255_1_234
10
5.2377252
20
37.4256361
40
0.6350923
50
323.8961724
51
328.6421089
0
ARC
8
DEFAULT_255_1_234
10
5.4423848
20
37.2994031
40
0.3946393
50
328.8299013
51
331.789948
0
ARC
8
DEFAULT_255_1_234
10
5.5421026
20
37.2479509
40
0.2824501
50
331.4255242
51
352.9364833
0
ARC
8
DEFAULT_255_1_234
10
5.5557527
20
37.2448976
40
0.2685315
50
353.2248685
51
0.0169286
0
ARC
8
DEFAULT_255_1_234
10
5.5767404
20
37.247195
40
0.2475536
50
359.4866256
51
15.9339782
0
ARC
8
DEFAULT_255_1_234
10
5.6274389
20
37.2608286
40
0.1950618
50
16.1714718
51
43.5284424
0
ARC
8
DEFAULT_255_1_234
10
5.6351698
20
37.2685573
40
0.184134
50
43.4415429
51
83.1661404
0
ARC
8
DEFAULT_255_1_234
10
5.6217616
20
37.1948771
40
0.258926
50
82.160215
51
90.1505798
0
ARC
8
DEFAULT_255_1_234
10
5.6186043
20
37.1411865
40
0.3126255
50
89.5460705
51
102.5418777
0
ARC
8
DEFAULT_255_1_234
10
5.5943129
20
37.2442665
40
0.2067346
50
102.1739365
51
129.2061916
0
ARC
8
DEFAULT_255_1_234
10
5.5864201
20
37.2567094
40
0.1921118
50
129.7279328
51
135.7542026
0
ARC
8
DEFAULT_255_1_234
10
5.5985729
20
37.2470045
40
0.2075944
50
136.175737
51
166.3674722
0
ARC
8
DEFAULT_255_1_234
10
5.6992648
20
37.2200182
40
0.3118201
50
165.9092917
51
178.8683903
0
ARC
8
DEFAULT_255_1_234
10
5.7857509
20
37.2153179
40
0.3983935
50
178.438168
51
180.0083905
0
ARC
8
DEFAULT_255_1_234
10
5.6456111
20
37.2192231
40
0.4068601
50
163.2878735
51
180.5581814
0
ARC
8
DEFAULT_255_1_234
10
5.5654373
20
37.241284
40
0.3237344
50
133.454115
51
162.9470031
0
ARC
8
DEFAULT_255_1_234
10
5.5832914
20
37.2223
40
0.349795
50
100.7869394
51
133.4384016
0
ARC
8
DEFAULT_255_1_234
10
5.6180686
20
37.0674319
40
0.5084616
50
89.6605301
51
101.3704185
0
ARC
8
DEFAULT_255_1_234
10
5.6247024
20
37.0735496
40
0.502348
50
78.2171172
51
90.4130393
0
ARC
8
DEFAULT_255_1_234
10
5.6602103
20
37.2359637
40
0.3361092
50
55.9268222
51
78.4888551
0
ARC
8
DEFAULT_255_1_234
10
5.6798543
20
37.2698324
40
0.2970617
50
47.9292255
51
55.4054003
0
ARC
8
DEFAULT_255_1_234
10
5.6900103
20
37.2801502
40
0.2825983
50
4.3347696
51
48.0560701
0
ARC
8
DEFAULT_255_1_234
10
5.5804497
20
37.2631601
40
0.393225
50
359.925209
51
5.5967654
0
ARC
8
DEFAULT_255_1_234
10
5.6233389
20
37.2687816
40
0.3503892
50
337.8914096
51
358.9967724
0
ARC
8
DEFAULT_255_1_234
10
5.3519801
20
37.3734706
40
0.6412172
50
326.9135351
51
338.3505194
0
ARC
8
DEFAULT_255_1_234
10
4.9534105
20
37.6289284
40
1.1146189
50
319.6472867
51
327.095818
0
ARC
8
DEFAULT_255_1_234
10
4.5701108
20
37.9451
40
1.6114559
50
317.2586784
51
319.9046139
0
LINE
8
DEFAULT_255_1_234
10
6.3720486
20
36.9461963
11
6.2531789
21
36.9767169
0
LINE
8
DEFAULT_255_1_234
10
6.2531789
20
36.9767169
11
6.3126138
21
37.5598211
0
LINE
8
DEFAULT_255_1_234
10
6.3126138
20
37.5598211
11
6.9117814
21
37.5598211
0
LINE
8
DEFAULT_255_1_234
10
6.9117814
20
37.5598211
11
6.9117814
21
37.4224784
0
LINE
8
DEFAULT_255_1_234
10
6.9117814
20
37.4224784
11
6.4387121
21
37.4224784
0
LINE
8
DEFAULT_255_1_234
10
6.4387121
20
37.4224784
11
6.4033724
21
37.1036184
0
LINE
8
DEFAULT_255_1_234
10
6.2114139
20
36.6980156
11
6.3519693
21
36.6980156
0
LINE
8
DEFAULT_255_1_234
10
6.4114042
20
36.9783232
11
6.3720486
21
36.9461963
0
ARC
8
DEFAULT_255_1_234
10
6.5888508
20
36.785623
40
0.3681349
50
93.7182161
51
120.2538958
0
ARC
8
DEFAULT_255_1_234
10
6.5982771
20
36.7048394
40
0.449379
50
89.9660152
51
94.2496022
0
ARC
8
DEFAULT_255_1_234
10
6.6023505
20
36.7637549
40
0.390482
50
73.8043271
51
90.5585896
0
ARC
8
DEFAULT_255_1_234
10
6.6258402
20
36.8495602
40
0.3015334
50
41.3071453
51
73.5430202
0
ARC
8
DEFAULT_255_1_234
10
6.5842229
20
36.8137324
40
0.3564457
50
13.5075983
51
41.2174222
0
ARC
8
DEFAULT_255_1_234
10
6.4200433
20
36.7707486
40
0.5261351
50
1.1331335
51
13.8829381
0
ARC
8
DEFAULT_255_1_234
10
6.2788802
20
36.7631665
40
0.6674378
50
359.9919444
51
1.544251
0
ARC
8
DEFAULT_255_1_234
10
6.4065628
20
36.759028
40
0.5397702
50
347.8572367
51
0.4293338
0
ARC
8
DEFAULT_255_1_234
10
6.5815946
20
36.7193736
40
0.3603188
50
323.673004
51
348.1672506
0
ARC
8
DEFAULT_255_1_234
10
6.6110454
20
36.7014168
40
0.3259678
50
316.8171152
51
323.1492751
0
ARC
8
DEFAULT_255_1_234
10
6.6171643
20
36.697746
40
0.3189975
50
281.8396411
51
316.5457803
0
ARC
8
DEFAULT_255_1_234
10
6.5795907
20
36.8532762
40
0.4789527
50
269.5770101
51
282.4214771
0
ARC
8
DEFAULT_255_1_234
10
6.5724718
20
36.8319125
40
0.45759
50
256.2427136
51
270.4486331
0
ARC
8
DEFAULT_255_1_234
10
6.542562
20
36.7119229
40
0.3339303
50
228.9023911
51
256.3314342
0
ARC
8
DEFAULT_255_1_234
10
6.5351853
20
36.7002746
40
0.32031
50
193.753695
51
228.5271154
0
ARC
8
DEFAULT_255_1_234
10
6.6589807
20
36.73658
40
0.4492253
50
184.924711
51
194.497588
0
ARC
8
DEFAULT_255_1_234
10
6.6782374
20
36.7401591
40
0.3289787
50
187.3600538
51
198.6732863
0
ARC
8
DEFAULT_255_1_234
10
6.5732668
20
36.7037674
40
0.217884
50
198.4451669
51
217.794479
0
ARC
8
DEFAULT_255_1_234
10
6.5436843
20
36.6828085
40
0.1816698
50
218.2887171
51
228.5612368
0
ARC
8
DEFAULT_255_1_234
10
6.553463
20
36.6959963
40
0.1980329
50
228.9654866
51
258.1234728
0
ARC
8
DEFAULT_255_1_234
10
6.574034
20
36.7840833
40
0.2884748
50
257.7258293
51
270.401361
0
ARC
8
DEFAULT_255_1_234
10
6.5785226
20
36.7395821
40
0.2439788
50
269.4204404
51
286.4209037
0
ARC
8
DEFAULT_255_1_234
10
6.5933714
20
36.6856657
40
0.1880666
50
286.7251356
51
320.600362
0
ARC
8
DEFAULT_255_1_234
10
6.5550539
20
36.7167595
40
0.2374121
50
320.6712579
51
344.5441685
0
ARC
8
DEFAULT_255_1_234
10
6.4393865
20
36.7507045
40
0.3579479
50
344.2412205
51
356.7357071
0
ARC
8
DEFAULT_255_1_234
10
6.3145014
20
36.7610444
40
0.4832297
50
356.3548756
51
0.0500261
0
ARC
8
DEFAULT_255_1_234
10
6.4481523
20
36.764165
40
0.3495889
50
359.5576869
51
12.953486
0
ARC
8
DEFAULT_255_1_234
10
6.553642
20
36.7897434
40
0.2410532
50
12.6490276
51
41.6081334
0
ARC
8
DEFAULT_255_1_234
10
6.5766791
20
36.8093321
40
0.2108218
50
41.7850273
51
85.9892764
0
ARC
8
DEFAULT_255_1_234
10
6.5643528
20
36.7280462
40
0.2928454
50
84.6957577
51
90.0676183
0
ARC
8
DEFAULT_255_1_234
10
6.5620012
20
36.6611716
40
0.3597255
50
89.6804936
51
99.1614436
0
ARC
8
DEFAULT_255_1_234
10
6.5414643
20
36.7839131
40
0.235281
50
98.9830931
51
113.8908934
0
ARC
8
DEFAULT_255_1_234
10
6.5185053
20
36.8380587
40
0.176479
50
114.1950727
51
127.3641004
0
LINE
8
DEFAULT_255_1_234
10
4.4740299
20
45.4973211
11
4.7559439
21
45.0491501
0
LINE
8
DEFAULT_255_1_234
10
4.7559439
20
45.0491501
11
5.0362516
21
45.4973211
0
LINE
8
DEFAULT_255_1_234
10
5.0362516
20
45.4973211
11
5.2177689
21
45.4973211
0
LINE
8
DEFAULT_255_1_234
10
5.2177689
20
45.4973211
11
4.8483089
21
44.9174296
0
LINE
8
DEFAULT_255_1_234
10
4.8483089
20
44.9174296
11
5.2266038
21
44.3279
0
LINE
8
DEFAULT_255_1_234
10
5.2266038
20
44.3279
11
5.0434802
21
44.3279
0
LINE
8
DEFAULT_255_1_234
10
5.0434802
20
44.3279
11
4.7559439
21
44.7841027
0
LINE
8
DEFAULT_255_1_234
10
4.7559439
20
44.7841027
11
4.4668014
21
44.3279
0
LINE
8
DEFAULT_255_1_234
10
4.4668014
20
44.3279
11
4.2844809
21
44.3279
0
LINE
8
DEFAULT_255_1_234
10
4.2844809
20
44.3279
11
4.663579
21
44.9174296
0
LINE
8
DEFAULT_255_1_234
10
4.663579
20
44.9174296
11
4.2933158
21
45.4973211
0
LINE
8
DEFAULT_255_1_234
10
4.2933158
20
45.4973211
11
4.4740299
21
45.4973211
0
LINE
8
DEFAULT_255_1_234
10
6.1333871
20
44.4491792
11
6.1333871
21
44.3279
0
LINE
8
DEFAULT_255_1_234
10
6.1333871
20
44.3279
11
5.3671592
21
44.3279
0
LINE
8
DEFAULT_255_1_234
10
5.3671592
20
44.3279
11
5.3671592
21
44.4347221
0
LINE
8
DEFAULT_255_1_234
10
5.3671592
20
44.4347221
11
5.7719588
21
44.8844995
0
LINE
8
DEFAULT_255_1_234
10
5.4932575
20
45.1527595
11
5.3446704
21
45.1527595
0
LINE
8
DEFAULT_255_1_234
10
5.8595048
20
44.7889218
11
5.546267
21
44.4491792
0
LINE
8
DEFAULT_255_1_234
10
5.546267
20
44.4491792
11
6.1333871
21
44.4491792
0
ARC
8
DEFAULT_255_1_234
10
4.4229422
20
46.0774527
40
1.8008286
50
318.5132453
51
320.7828378
0
ARC
8
DEFAULT_255_1_234
10
4.9516396
20
45.6471426
40
1.1191493
50
320.7372736
51
323.9737074
0
ARC
8
DEFAULT_255_1_234
10
5.3436252
20
45.3631361
40
0.6350923
50
323.8961724
51
328.6421089
0
ARC
8
DEFAULT_255_1_234
10
5.5482848
20
45.2369031
40
0.3946393
50
328.8299013
51
331.789948
0
ARC
8
DEFAULT_255_1_234
10
5.6480026
20
45.1854509
40
0.2824501
50
331.4255242
51
352.9364833
0
ARC
8
DEFAULT_255_1_234
10
5.6616527
20
45.1823976
40
0.2685315
50
353.2248685
51
0.0169286
0
ARC
8
DEFAULT_255_1_234
10
5.6826404
20
45.184695
40
0.2475536
50
359.4866256
51
15.9339782
0
ARC
8
DEFAULT_255_1_234
10
5.7333389
20
45.1983286
40
0.1950618
50
16.1714718
51
43.5284424
0
ARC
8
DEFAULT_255_1_234
10
5.7410698
20
45.2060573
40
0.184134
50
43.4415429
51
83.1661404
0
ARC
8
DEFAULT_255_1_234
10
5.7276616
20
45.1323771
40
0.258926
50
82.160215
51
90.1505798
0
ARC
8
DEFAULT_255_1_234
10
5.7245043
20
45.0786865
40
0.3126255
50
89.5460705
51
102.5418777
0
ARC
8
DEFAULT_255_1_234
10
5.7002129
20
45.1817665
40
0.2067346
50
102.1739365
51
129.2061916
0
ARC
8
DEFAULT_255_1_234
10
5.6923201
20
45.1942094
40
0.1921118
50
129.7279328
51
135.7542026
0
ARC
8
DEFAULT_255_1_234
10
5.7044729
20
45.1845045
40
0.2075944
50
136.175737
51
166.3674722
0
ARC
8
DEFAULT_255_1_234
10
5.8051648
20
45.1575182
40
0.3118201
50
165.9092917
51
178.8683903
0
ARC
8
DEFAULT_255_1_234
10
5.8916509
20
45.1528179
40
0.3983935
50
178.438168
51
180.0083905
0
ARC
8
DEFAULT_255_1_234
10
5.7515111
20
45.1567231
40
0.4068601
50
163.2878735
51
180.5581814
0
ARC
8
DEFAULT_255_1_234
10
5.6713373
20
45.178784
40
0.3237344
50
133.454115
51
162.9470031
0
ARC
8
DEFAULT_255_1_234
10
5.6891914
20
45.1598
40
0.349795
50
100.7869394
51
133.4384016
0
ARC
8
DEFAULT_255_1_234
10
5.7239686
20
45.0049319
40
0.5084616
50
89.6605301
51
101.3704185
0
ARC
8
DEFAULT_255_1_234
10
5.7306024
20
45.0110496
40
0.502348
50
78.2171172
51
90.4130393
0
ARC
8
DEFAULT_255_1_234
10
5.7661103
20
45.1734637
40
0.3361092
50
55.9268222
51
78.4888551
0
ARC
8
DEFAULT_255_1_234
10
5.7857543
20
45.2073324
40
0.2970617
50
47.9292255
51
55.4054003
0
ARC
8
DEFAULT_255_1_234
10
5.7959103
20
45.2176502
40
0.2825983
50
4.3347696
51
48.0560701
0
ARC
8
DEFAULT_255_1_234
10
5.6863497
20
45.2006601
40
0.393225
50
359.925209
51
5.5967654
0
ARC
8
DEFAULT_255_1_234
10
5.7292389
20
45.2062816
40
0.3503892
50
337.8914096
51
358.9967724
0
ARC
8
DEFAULT_255_1_234
10
5.4578801
20
45.3109706
40
0.6412172
50
326.9135351
51
338.3505194
0
ARC
8
DEFAULT_255_1_234
10
5.0593105
20
45.5664284
40
1.1146189
50
319.6472867
51
327.095818
0
ARC
8
DEFAULT_255_1_234
10
4.6760108
20
45.8826
40
1.6114559
50
317.2586784
51
319.9046139
0
LINE
8
DEFAULT_255_1_234
10
6.9180879
20
45.4973211
11
6.9180879
21
44.720652
0
LINE
8
DEFAULT_255_1_234
10
6.9180879
20
44.720652
11
7.080329
21
44.720652
0
LINE
8
DEFAULT_255_1_234
10
7.080329
20
44.720652
11
7.080329
21
44.5993728
0
LINE
8
DEFAULT_255_1_234
10
7.080329
20
44.5993728
11
6.9180879
21
44.5993728
0
LINE
8
DEFAULT_255_1_234
10
6.9180879
20
44.5993728
11
6.9180879
21
44.3279
0
LINE
8
DEFAULT_255_1_234
10
6.9180879
20
44.3279
11
6.7686976
21
44.3279
0
LINE
8
DEFAULT_255_1_234
10
6.7686976
20
44.3279
11
6.7686976
21
44.5993728
0
LINE
8
DEFAULT_255_1_234
10
6.7686976
20
44.5993728
11
6.2361933
21
44.5993728
0
LINE
8
DEFAULT_255_1_234
10
6.2361933
20
44.5993728
11
6.2361933
21
44.6869187
0
LINE
8
DEFAULT_255_1_234
10
6.2361933
20
44.6869187
11
6.7598626
21
45.4973211
0
LINE
8
DEFAULT_255_1_234
10
6.7598626
20
45.4973211
11
6.9180879
21
45.4973211
0
LINE
8
DEFAULT_255_1_234
10
6.7510277
20
45.2619912
11
6.4048598
21
44.720652
0
LINE
8
DEFAULT_255_1_234
10
6.4048598
20
44.720652
11
6.7686976
21
44.720652
0
LINE
8
DEFAULT_255_1_234
10
6.7686976
20
44.720652
11
6.7686976
21
45.2941181
0
LINE
8
DEFAULT_255_1_234
10
6.7686976
20
45.2941181
11
6.7510277
21
45.2619912
0
LINE
8
DEFAULT_255_1_234
10
4.3681299
20
53.4348211
11
4.6500439
21
52.9866501
0
LINE
8
DEFAULT_255_1_234
10
4.6500439
20
52.9866501
11
4.9303516
21
53.4348211
0
LINE
8
DEFAULT_255_1_234
10
4.9303516
20
53.4348211
11
5.1118689
21
53.4348211
0
LINE
8
DEFAULT_255_1_234
10
5.1118689
20
53.4348211
11
4.7424089
21
52.8549296
0
LINE
8
DEFAULT_255_1_234
10
4.7424089
20
52.8549296
11
5.1207038
21
52.2654
0
LINE
8
DEFAULT_255_1_234
10
5.1207038
20
52.2654
11
4.9375802
21
52.2654
0
LINE
8
DEFAULT_255_1_234
10
4.9375802
20
52.2654
11
4.6500439
21
52.7216027
0
LINE
8
DEFAULT_255_1_234
10
4.6500439
20
52.7216027
11
4.3609014
21
52.2654
0
LINE
8
DEFAULT_255_1_234
10
4.3609014
20
52.2654
11
4.1785809
21
52.2654
0
LINE
8
DEFAULT_255_1_234
10
4.1785809
20
52.2654
11
4.557679
21
52.8549296
0
LINE
8
DEFAULT_255_1_234
10
4.557679
20
52.8549296
11
4.1874158
21
53.4348211
0
LINE
8
DEFAULT_255_1_234
10
4.1874158
20
53.4348211
11
4.3681299
21
53.4348211
0
LINE
8
DEFAULT_255_1_234
10
6.0274871
20
52.3866792
11
6.0274871
21
52.2654
0
LINE
8
DEFAULT_255_1_234
10
6.0274871
20
52.2654
11
5.2612592
21
52.2654
0
LINE
8
DEFAULT_255_1_234
10
5.2612592
20
52.2654
11
5.2612592
21
52.3722221
0
LINE
8
DEFAULT_255_1_234
10
5.2612592
20
52.3722221
11
5.6660588
21
52.8219995
0
LINE
8
DEFAULT_255_1_234
10
5.3873575
20
53.0902595
11
5.2387704
21
53.0902595
0
LINE
8
DEFAULT_255_1_234
10
5.7536048
20
52.7264218
11
5.440367
21
52.3866792
0
LINE
8
DEFAULT_255_1_234
10
5.440367
20
52.3866792
11
6.0274871
21
52.3866792
0
ARC
8
DEFAULT_255_1_234
10
4.3170422
20
54.0149527
40
1.8008286
50
318.5132453
51
320.7828378
0
ARC
8
DEFAULT_255_1_234
10
4.8457396
20
53.5846426
40
1.1191493
50
320.7372736
51
323.9737074
0
ARC
8
DEFAULT_255_1_234
10
5.2377252
20
53.3006361
40
0.6350923
50
323.8961724
51
328.6421089
0
ARC
8
DEFAULT_255_1_234
10
5.4423848
20
53.1744031
40
0.3946393
50
328.8299013
51
331.789948
0
ARC
8
DEFAULT_255_1_234
10
5.5421026
20
53.1229509
40
0.2824501
50
331.4255242
51
352.9364833
0
ARC
8
DEFAULT_255_1_234
10
5.5557527
20
53.1198976
40
0.2685315
50
353.2248685
51
0.0169286
0
ARC
8
DEFAULT_255_1_234
10
5.5767404
20
53.122195
40
0.2475536
50
359.4866256
51
15.9339782
0
ARC
8
DEFAULT_255_1_234
10
5.6274389
20
53.1358286
40
0.1950618
50
16.1714718
51
43.5284424
0
ARC
8
DEFAULT_255_1_234
10
5.6351698
20
53.1435573
40
0.184134
50
43.4415429
51
83.1661404
0
ARC
8
DEFAULT_255_1_234
10
5.6217616
20
53.0698771
40
0.258926
50
82.160215
51
90.1505798
0
ARC
8
DEFAULT_255_1_234
10
5.6186043
20
53.0161865
40
0.3126255
50
89.5460705
51
102.5418777
0
ARC
8
DEFAULT_255_1_234
10
5.5943129
20
53.1192665
40
0.2067346
50
102.1739365
51
129.2061916
0
ARC
8
DEFAULT_255_1_234
10
5.5864201
20
53.1317094
40
0.1921118
50
129.7279328
51
135.7542026
0
ARC
8
DEFAULT_255_1_234
10
5.5985729
20
53.1220045
40
0.2075944
50
136.175737
51
166.3674722
0
ARC
8
DEFAULT_255_1_234
10
5.6992648
20
53.0950182
40
0.3118201
50
165.9092917
51
178.8683903
0
ARC
8
DEFAULT_255_1_234
10
5.7857509
20
53.0903179
40
0.3983935
50
178.438168
51
180.0083905
0
ARC
8
DEFAULT_255_1_234
10
5.6456111
20
53.0942231
40
0.4068601
50
163.2878735
51
180.5581814
0
ARC
8
DEFAULT_255_1_234
10
5.5654373
20
53.116284
40
0.3237344
50
133.454115
51
162.9470031
0
ARC
8
DEFAULT_255_1_234
10
5.5832914
20
53.0973
40
0.349795
50
100.7869394
51
133.4384016
0
ARC
8
DEFAULT_255_1_234
10
5.6180686
20
52.9424319
40
0.5084616
50
89.6605301
51
101.3704185
0
ARC
8
DEFAULT_255_1_234
10
5.6247024
20
52.9485496
40
0.502348
50
78.2171172
51
90.4130393
0
ARC
8
DEFAULT_255_1_234
10
5.6602103
20
53.1109637
40
0.3361092
50
55.9268222
51
78.4888551
0
ARC
8
DEFAULT_255_1_234
10
5.6798543
20
53.1448324
40
0.2970617
50
47.9292255
51
55.4054003
0
ARC
8
DEFAULT_255_1_234
10
5.6900103
20
53.1551502
40
0.2825983
50
4.3347696
51
48.0560701
0
ARC
8
DEFAULT_255_1_234
10
5.5804497
20
53.1381601
40
0.393225
50
359.925209
51
5.5967654
0
ARC
8
DEFAULT_255_1_234
10
5.6233389
20
53.1437816
40
0.3503892
50
337.8914096
51
358.9967724
0
ARC
8
DEFAULT_255_1_234
10
5.3519801
20
53.2484706
40
0.6412172
50
326.9135351
51
338.3505194
0
ARC
8
DEFAULT_255_1_234
10
4.9534105
20
53.5039284
40
1.1146189
50
319.6472867
51
327.095818
0
ARC
8
DEFAULT_255_1_234
10
4.5701108
20
53.8201
40
1.6114559
50
317.2586784
51
319.9046139
0
LINE
8
DEFAULT_255_1_234
10
6.4009629
20
52.8011169
11
6.4009629
21
52.9223962
0
LINE
8
DEFAULT_255_1_234
10
6.4009629
20
52.9223962
11
6.5126041
21
52.9223962
0
LINE
8
DEFAULT_255_1_234
10
6.3222519
20
53.1280087
11
6.1736647
21
53.1280087
0
LINE
8
DEFAULT_255_1_234
10
6.1632234
20
52.5738188
11
6.3126138
21
52.5738188
0
LINE
8
DEFAULT_255_1_234
10
6.5126041
20
52.8011169
11
6.4009629
21
52.8011169
0
ARC
8
DEFAULT_255_1_234
10
6.5096907
20
53.2616713
40
0.3392876
50
270.4919872
51
281.8951556
0
ARC
8
DEFAULT_255_1_234
10
6.5338169
20
53.1514702
40
0.2264817
50
281.6691735
51
301.2943132
0
ARC
8
DEFAULT_255_1_234
10
6.5508379
20
53.1203304
40
0.1910381
50
301.7833094
51
311.7545298
0
ARC
8
DEFAULT_255_1_234
10
6.5599955
20
53.1101748
40
0.1773635
50
311.7323931
51
354.2802411
0
ARC
8
DEFAULT_255_1_234
10
6.487358
20
53.1226722
40
0.2509385
50
353.0937916
51
0.1181479
0
ARC
8
DEFAULT_255_1_234
10
6.4412365
20
53.1274386
40
0.2970898
50
359.1805295
51
15.0453146
0
ARC
8
DEFAULT_255_1_234
10
6.5758202
20
53.1666992
40
0.1569564
50
13.9577229
51
77.6713066
0
ARC
8
DEFAULT_255_1_234
10
6.5371731
20
53.0281949
40
0.3006298
50
76.1116566
51
90.7026153
0
ARC
8
DEFAULT_255_1_234
10
6.5312569
20
53.0555545
40
0.2732568
50
89.5324876
51
103.531937
0
ARC
8
DEFAULT_255_1_234
10
6.5112013
20
53.1354884
40
0.1908508
50
103.2931773
51
133.5619022
0
ARC
8
DEFAULT_255_1_234
10
6.5067502
20
53.1414375
40
0.1834746
50
133.8349307
51
173.5344437
0
ARC
8
DEFAULT_255_1_234
10
6.5790545
20
53.1286213
40
0.2568033
50
172.5096846
51
180.1366907
0
ARC
8
DEFAULT_255_1_234
10
6.4839439
20
53.1320622
40
0.3103056
50
155.3484492
51
180.7484736
0
ARC
8
DEFAULT_255_1_234
10
6.4790528
20
53.1291846
40
0.3070957
50
131.5744599
51
154.4798489
0
ARC
8
DEFAULT_255_1_234
10
6.5103675
20
53.097531
40
0.3515643
50
96.9875458
51
131.9690667
0
ARC
8
DEFAULT_255_1_234
10
6.5323155
20
52.9729636
40
0.4779224
50
89.8596053
51
97.7825159
0
ARC
8
DEFAULT_255_1_234
10
6.5371218
20
52.9467616
40
0.5041361
50
78.3655447
51
90.4131539
0
ARC
8
DEFAULT_255_1_234
10
6.5729136
20
53.1126887
40
0.3344039
50
56.6229102
51
78.638727
0
ARC
8
DEFAULT_255_1_234
10
6.594408
20
53.1502805
40
0.2912001
50
47.0253525
51
56.0854072
0
ARC
8
DEFAULT_255_1_234
10
6.596386
20
53.1542223
40
0.2869704
50
10.9208013
51
46.7778124
0
ARC
8
DEFAULT_255_1_234
10
6.4599926
20
53.1226857
40
0.426899
50
359.6364486
51
11.6087304
0
ARC
8
DEFAULT_255_1_234
10
6.643477
20
53.1211752
40
0.243409
50
332.3549906
51
359.7179418
0
ARC
8
DEFAULT_255_1_234
10
6.5784372
20
53.1520142
40
0.3153459
50
325.2333722
51
332.8745602
0
ARC
8
DEFAULT_255_1_234
10
6.5936995
20
53.1413828
40
0.2967456
50
292.9802137
51
325.2392345
0
ARC
8
DEFAULT_255_1_234
10
6.5662369
20
53.1947863
40
0.3566604
50
292.5402179
51
293.6924929
0
ARC
8
DEFAULT_255_1_234
10
6.6054965
20
52.5493091
40
0.3307468
50
57.6435486
51
72.8625112
0
ARC
8
DEFAULT_255_1_234
10
6.6409465
20
52.6067549
40
0.2632492
50
36.7248896
51
57.4697979
0
ARC
8
DEFAULT_255_1_234
10
6.6398098
20
52.608022
40
0.2634081
50
8.0545065
51
36.356114
0
ARC
8
DEFAULT_255_1_234
10
6.5535283
20
52.5925174
40
0.3510261
50
359.8320645
51
8.5869982
0
ARC
8
DEFAULT_255_1_234
10
6.5160059
20
52.5877101
40
0.3885653
50
343.9829931
51
0.5571613
0
ARC
8
DEFAULT_255_1_234
10
6.6046256
20
52.5634438
40
0.2966924
50
311.6359546
51
343.7651759
0
ARC
8
DEFAULT_255_1_234
10
6.5667825
20
52.6061102
40
0.3537231
50
279.7829875
51
311.6255694
0
ARC
8
DEFAULT_255_1_234
10
6.5366601
20
52.749828
40
0.5004971
50
269.7286406
51
280.3856417
0
ARC
8
DEFAULT_255_1_234
10
6.5304674
20
52.7456996
40
0.4963778
50
256.6828919
51
270.4412052
0
ARC
8
DEFAULT_255_1_234
10
6.496597
20
52.6072394
40
0.3538406
50
229.4223008
51
256.8556159
0
ARC
8
DEFAULT_255_1_234
10
6.4551363
20
52.5605736
40
0.2914296
50
181.818294
51
229.6455059
0
ARC
8
DEFAULT_255_1_234
10
6.5591319
20
52.5736496
40
0.3959084
50
179.9755256
51
183.2323064
0
ARC
8
DEFAULT_255_1_234
10
6.5419065
20
52.5716037
40
0.2293034
50
179.4465117
51
196.2869258
0
ARC
8
DEFAULT_255_1_234
10
6.4931473
20
52.5582651
40
0.1787621
50
196.5661473
51
227.705904
0
ARC
8
DEFAULT_255_1_234
10
6.5095568
20
52.5766155
40
0.2033784
50
227.7652068
51
257.8762805
0
ARC
8
DEFAULT_255_1_234
10
6.5320538
20
52.6709156
40
0.3003081
50
257.4584385
51
270.426602
0
ARC
8
DEFAULT_255_1_234
10
6.5366104
20
52.6998996
40
0.329292
50
269.5962073
51
280.8789248
0
ARC
8
DEFAULT_255_1_234
10
6.5595633
20
52.5852685
40
0.2123908
50
280.6346389
51
299.8595945
0
ARC
8
DEFAULT_255_1_234
10
6.578654
20
52.5490212
40
0.171457
50
300.3576302
51
314.5517981
0
ARC
8
DEFAULT_255_1_234
10
6.57036
20
52.5550919
40
0.1816095
50
315.0728369
51
345.0431014
0
ARC
8
DEFAULT_255_1_234
10
6.4780414
20
52.5819841
40
0.2777492
50
344.5986631
51
357.9269593
0
ARC
8
DEFAULT_255_1_234
10
6.388474
20
52.5881276
40
0.3674917
50
357.4748886
51
0.0231117
0
ARC
8
DEFAULT_255_1_234
10
6.490785
20
52.5905679
40
0.2651907
50
359.5047933
51
13.4239635
0
ARC
8
DEFAULT_255_1_234
10
6.5774493
20
52.6127478
40
0.1757509
50
12.9498199
51
48.7551375
0
ARC
8
DEFAULT_255_1_234
10
6.5592227
20
52.58784
40
0.2065134
50
49.5088623
51
72.1836453
0
ARC
8
DEFAULT_255_1_234
10
6.523438
20
52.4816291
40
0.3185836
50
71.9010081
51
84.3554254
0
ARC
8
DEFAULT_255_1_234
10
6.5073012
20
52.3455326
40
0.4556151
50
84.0193428
51
89.333121
0
LINE
8
DEFAULT_255_1_234
10
4.3681299
20
61.3723211
11
4.6500439
21
60.9241501
0
LINE
8
DEFAULT_255_1_234
10
4.6500439
20
60.9241501
11
4.9303516
21
61.3723211
0
LINE
8
DEFAULT_255_1_234
10
4.9303516
20
61.3723211
11
5.1118689
21
61.3723211
0
LINE
8
DEFAULT_255_1_234
10
5.1118689
20
61.3723211
11
4.7424089
21
60.7924296
0
LINE
8
DEFAULT_255_1_234
10
4.7424089
20
60.7924296
11
5.1207038
21
60.2029
0
LINE
8
DEFAULT_255_1_234
10
5.1207038
20
60.2029
11
4.9375802
21
60.2029
0
LINE
8
DEFAULT_255_1_234
10
4.9375802
20
60.2029
11
4.6500439
21
60.6591027
0
LINE
8
DEFAULT_255_1_234
10
4.6500439
20
60.6591027
11
4.3609014
21
60.2029
0
LINE
8
DEFAULT_255_1_234
10
4.3609014
20
60.2029
11
4.1785809
21
60.2029
0
LINE
8
DEFAULT_255_1_234
10
4.1785809
20
60.2029
11
4.557679
21
60.7924296
0
LINE
8
DEFAULT_255_1_234
10
4.557679
20
60.7924296
11
4.1874158
21
61.3723211
0
LINE
8
DEFAULT_255_1_234
10
4.1874158
20
61.3723211
11
4.3681299
21
61.3723211
0
LINE
8
DEFAULT_255_1_234
10
6.0274871
20
60.3241792
11
6.0274871
21
60.2029
0
LINE
8
DEFAULT_255_1_234
10
6.0274871
20
60.2029
11
5.2612592
21
60.2029
0
LINE
8
DEFAULT_255_1_234
10
5.2612592
20
60.2029
11
5.2612592
21
60.3097221
0
LINE
8
DEFAULT_255_1_234
10
5.2612592
20
60.3097221
11
5.6660588
21
60.7594995
0
LINE
8
DEFAULT_255_1_234
10
5.3873575
20
61.0277595
11
5.2387704
21
61.0277595
0
LINE
8
DEFAULT_255_1_234
10
5.7536048
20
60.6639218
11
5.440367
21
60.3241792
0
LINE
8
DEFAULT_255_1_234
10
5.440367
20
60.3241792
11
6.0274871
21
60.3241792
0
ARC
8
DEFAULT_255_1_234
10
4.3170422
20
61.9524527
40
1.8008286
50
318.5132453
51
320.7828378
0
ARC
8
DEFAULT_255_1_234
10
4.8457396
20
61.5221426
40
1.1191493
50
320.7372736
51
323.9737074
0
ARC
8
DEFAULT_255_1_234
10
5.2377252
20
61.2381361
40
0.6350923
50
323.8961724
51
328.6421089
0
ARC
8
DEFAULT_255_1_234
10
5.4423848
20
61.1119031
40
0.3946393
50
328.8299013
51
331.789948
0
ARC
8
DEFAULT_255_1_234
10
5.5421026
20
61.0604509
40
0.2824501
50
331.4255242
51
352.9364833
0
ARC
8
DEFAULT_255_1_234
10
5.5557527
20
61.0573976
40
0.2685315
50
353.2248685
51
0.0169286
0
ARC
8
DEFAULT_255_1_234
10
5.5767404
20
61.059695
40
0.2475536
50
359.4866256
51
15.9339782
0
ARC
8
DEFAULT_255_1_234
10
5.6274389
20
61.0733286
40
0.1950618
50
16.1714718
51
43.5284424
0
ARC
8
DEFAULT_255_1_234
10
5.6351698
20
61.0810573
40
0.184134
50
43.4415429
51
83.1661404
0
ARC
8
DEFAULT_255_1_234
10
5.6217616
20
61.0073771
40
0.258926
50
82.160215
51
90.1505798
0
ARC
8
DEFAULT_255_1_234
10
5.6186043
20
60.9536865
40
0.3126255
50
89.5460705
51
102.5418777
0
ARC
8
DEFAULT_255_1_234
10
5.5943129
20
61.0567665
40
0.2067346
50
102.1739365
51
129.2061916
0
ARC
8
DEFAULT_255_1_234
10
5.5864201
20
61.0692094
40
0.1921118
50
129.7279328
51
135.7542026
0
ARC
8
DEFAULT_255_1_234
10
5.5985729
20
61.0595045
40
0.2075944
50
136.175737
51
166.3674722
0
ARC
8
DEFAULT_255_1_234
10
5.6992648
20
61.0325182
40
0.3118201
50
165.9092917
51
178.8683903
0
ARC
8
DEFAULT_255_1_234
10
5.7857509
20
61.0278179
40
0.3983935
50
178.438168
51
180.0083905
0
ARC
8
DEFAULT_255_1_234
10
5.6456111
20
61.0317231
40
0.4068601
50
163.2878735
51
180.5581814
0
ARC
8
DEFAULT_255_1_234
10
5.5654373
20
61.053784
40
0.3237344
50
133.454115
51
162.9470031
0
ARC
8
DEFAULT_255_1_234
10
5.5832914
20
61.0348
40
0.349795
50
100.7869394
51
133.4384016
0
ARC
8
DEFAULT_255_1_234
10
5.6180686
20
60.8799319
40
0.5084616
50
89.6605301
51
101.3704185
0
ARC
8
DEFAULT_255_1_234
10
5.6247024
20
60.8860496
40
0.502348
50
78.2171172
51
90.4130393
0
ARC
8
DEFAULT_255_1_234
10
5.6602103
20
61.0484637
40
0.3361092
50
55.9268222
51
78.4888551
0
ARC
8
DEFAULT_255_1_234
10
5.6798543
20
61.0823324
40
0.2970617
50
47.9292255
51
55.4054003
0
ARC
8
DEFAULT_255_1_234
10
5.6900103
20
61.0926502
40
0.2825983
50
4.3347696
51
48.0560701
0
ARC
8
DEFAULT_255_1_234
10
5.5804497
20
61.0756601
40
0.393225
50
359.925209
51
5.5967654
0
ARC
8
DEFAULT_255_1_234
10
5.6233389
20
61.0812816
40
0.3503892
50
337.8914096
51
358.9967724
0
ARC
8
DEFAULT_255_1_234
10
5.3519801
20
61.1859706
40
0.6412172
50
326.9135351
51
338.3505194
0
ARC
8
DEFAULT_255_1_234
10
4.9534105
20
61.4414284
40
1.1146189
50
319.6472867
51
327.095818
0
ARC
8
DEFAULT_255_1_234
10
4.5701108
20
61.7576
40
1.6114559
50
317.2586784
51
319.9046139
0
LINE
8
DEFAULT_255_1_234
10
6.951137
20
60.3241792
11
6.951137
21
60.2029
0
LINE
8
DEFAULT_255_1_234
10
6.951137
20
60.2029
11
6.1849091
21
60.2029
0
LINE
8
DEFAULT_255_1_234
10
6.1849091
20
60.2029
11
6.1849091
21
60.3097221
0
LINE
8
DEFAULT_255_1_234
10
6.1849091
20
60.3097221
11
6.5897087
21
60.7594995
0
LINE
8
DEFAULT_255_1_234
10
6.3110074
20
61.0277595
11
6.1624203
21
61.0277595
0
LINE
8
DEFAULT_255_1_234
10
6.6772547
20
60.6639218
11
6.3640169
21
60.3241792
0
LINE
8
DEFAULT_255_1_234
10
6.3640169
20
60.3241792
11
6.951137
21
60.3241792
0
ARC
8
DEFAULT_255_1_234
10
5.2406921
20
61.9524527
40
1.8008286
50
318.5132453
51
320.7828378
0
ARC
8
DEFAULT_255_1_234
10
5.7693895
20
61.5221426
40
1.1191493
50
320.7372736
51
323.9737074
0
ARC
8
DEFAULT_255_1_234
10
6.1613751
20
61.2381361
40
0.6350923
50
323.8961724
51
328.6421089
0
ARC
8
DEFAULT_255_1_234
10
6.3660347
20
61.1119031
40
0.3946393
50
328.8299013
51
331.789948
0
ARC
8
DEFAULT_255_1_234
10
6.4657525
20
61.0604509
40
0.2824501
50
331.4255242
51
352.9364833
0
ARC
8
DEFAULT_255_1_234
10
6.4794026
20
61.0573976
40
0.2685315
50
353.2248685
51
0.0169286
0
ARC
8
DEFAULT_255_1_234
10
6.5003903
20
61.059695
40
0.2475536
50
359.4866256
51
15.9339782
0
ARC
8
DEFAULT_255_1_234
10
6.5510888
20
61.0733286
40
0.1950618
50
16.1714718
51
43.5284424
0
ARC
8
DEFAULT_255_1_234
10
6.5588197
20
61.0810573
40
0.184134
50
43.4415429
51
83.1661404
0
ARC
8
DEFAULT_255_1_234
10
6.5454115
20
61.0073771
40
0.258926
50
82.160215
51
90.1505798
0
ARC
8
DEFAULT_255_1_234
10
6.5422542
20
60.9536865
40
0.3126255
50
89.5460705
51
102.5418777
0
ARC
8
DEFAULT_255_1_234
10
6.5179628
20
61.0567665
40
0.2067346
50
102.1739365
51
129.2061916
0
ARC
8
DEFAULT_255_1_234
10
6.51007
20
61.0692094
40
0.1921118
50
129.7279328
51
135.7542026
0
ARC
8
DEFAULT_255_1_234
10
6.5222228
20
61.0595045
40
0.2075944
50
136.175737
51
166.3674722
0
ARC
8
DEFAULT_255_1_234
10
6.6229147
20
61.0325182
40
0.3118201
50
165.9092917
51
178.8683903
0
ARC
8
DEFAULT_255_1_234
10
6.7094008
20
61.0278179
40
0.3983935
50
178.438168
51
180.0083905
0
ARC
8
DEFAULT_255_1_234
10
6.569261
20
61.0317231
40
0.4068601
50
163.2878735
51
180.5581814
0
ARC
8
DEFAULT_255_1_234
10
6.4890872
20
61.053784
40
0.3237344
50
133.454115
51
162.9470031
0
ARC
8
DEFAULT_255_1_234
10
6.5069413
20
61.0348
40
0.349795
50
100.7869394
51
133.4384016
0
ARC
8
DEFAULT_255_1_234
10
6.5417185
20
60.8799319
40
0.5084616
50
89.6605301
51
101.3704185
0
ARC
8
DEFAULT_255_1_234
10
6.5483523
20
60.8860496
40
0.502348
50
78.2171172
51
90.4130393
0
ARC
8
DEFAULT_255_1_234
10
6.5838602
20
61.0484637
40
0.3361092
50
55.9268222
51
78.4888551
0
ARC
8
DEFAULT_255_1_234
10
6.6035042
20
61.0823324
40
0.2970617
50
47.9292255
51
55.4054003
0
ARC
8
DEFAULT_255_1_234
10
6.6136603
20
61.0926502
40
0.2825983
50
4.3347696
51
48.0560701
0
ARC
8
DEFAULT_255_1_234
10
6.5040996
20
61.0756601
40
0.393225
50
359.925209
51
5.5967654
0
ARC
8
DEFAULT_255_1_234
10
6.5469888
20
61.0812816
40
0.3503892
50
337.8914096
51
358.9967724
0
ARC
8
DEFAULT_255_1_234
10
6.27563
20
61.1859706
40
0.6412172
50
326.9135351
51
338.3505194
0
ARC
8
DEFAULT_255_1_234
10
5.8770604
20
61.4414284
40
1.1146189
50
319.6472867
51
327.095818
0
ARC
8
DEFAULT_255_1_234
10
5.4937607
20
61.7576
40
1.6114559
50
317.2586784
51
319.9046139
0
LINE
8
DEFAULT_255_1_234
10
4.3590299
20
69.3098211
11
4.6409439
21
68.8616501
0
LINE
8
DEFAULT_255_1_234
10
4.6409439
20
68.8616501
11
4.9212516
21
69.3098211
0
LINE
8
DEFAULT_255_1_234
10
4.9212516
20
69.3098211
11
5.1027689
21
69.3098211
0
LINE
8
DEFAULT_255_1_234
10
5.1027689
20
69.3098211
11
4.7333089
21
68.7299296
0
LINE
8
DEFAULT_255_1_234
10
4.7333089
20
68.7299296
11
5.1116038
21
68.1404
0
LINE
8
DEFAULT_255_1_234
10
5.1116038
20
68.1404
11
4.9284802
21
68.1404
0
LINE
8
DEFAULT_255_1_234
10
4.9284802
20
68.1404
11
4.6409439
21
68.5966027
0
LINE
8
DEFAULT_255_1_234
10
4.6409439
20
68.5966027
11
4.3518014
21
68.1404
0
LINE
8
DEFAULT_255_1_234
10
4.3518014
20
68.1404
11
4.1694809
21
68.1404
0
LINE
8
DEFAULT_255_1_234
10
4.1694809
20
68.1404
11
4.548579
21
68.7299296
0
LINE
8
DEFAULT_255_1_234
10
4.548579
20
68.7299296
11
4.1783158
21
69.3098211
0
LINE
8
DEFAULT_255_1_234
10
4.1783158
20
69.3098211
11
4.3590299
21
69.3098211
0
LINE
8
DEFAULT_255_1_234
10
6.0183871
20
68.2616792
11
6.0183871
21
68.1404
0
LINE
8
DEFAULT_255_1_234
10
6.0183871
20
68.1404
11
5.2521592
21
68.1404
0
LINE
8
DEFAULT_255_1_234
10
5.2521592
20
68.1404
11
5.2521592
21
68.2472221
0
LINE
8
DEFAULT_255_1_234
10
5.2521592
20
68.2472221
11
5.6569588
21
68.6969995
0
LINE
8
DEFAULT_255_1_234
10
5.3782575
20
68.9652595
11
5.2296704
21
68.9652595
0
LINE
8
DEFAULT_255_1_234
10
5.7445048
20
68.6014218
11
5.431267
21
68.2616792
0
LINE
8
DEFAULT_255_1_234
10
5.431267
20
68.2616792
11
6.0183871
21
68.2616792
0
ARC
8
DEFAULT_255_1_234
10
4.3079422
20
69.8899527
40
1.8008286
50
318.5132453
51
320.7828378
0
ARC
8
DEFAULT_255_1_234
10
4.8366396
20
69.4596426
40
1.1191493
50
320.7372736
51
323.9737074
0
ARC
8
DEFAULT_255_1_234
10
5.2286252
20
69.1756361
40
0.6350923
50
323.8961724
51
328.6421089
0
ARC
8
DEFAULT_255_1_234
10
5.4332848
20
69.0494031
40
0.3946393
50
328.8299013
51
331.789948
0
ARC
8
DEFAULT_255_1_234
10
5.5330026
20
68.9979509
40
0.2824501
50
331.4255242
51
352.9364833
0
ARC
8
DEFAULT_255_1_234
10
5.5466527
20
68.9948976
40
0.2685315
50
353.2248685
51
0.0169286
0
ARC
8
DEFAULT_255_1_234
10
5.5676404
20
68.997195
40
0.2475536
50
359.4866256
51
15.9339782
0
ARC
8
DEFAULT_255_1_234
10
5.6183389
20
69.0108286
40
0.1950618
50
16.1714718
51
43.5284424
0
ARC
8
DEFAULT_255_1_234
10
5.6260698
20
69.0185573
40
0.184134
50
43.4415429
51
83.1661404
0
ARC
8
DEFAULT_255_1_234
10
5.6126616
20
68.9448771
40
0.258926
50
82.160215
51
90.1505798
0
ARC
8
DEFAULT_255_1_234
10
5.6095043
20
68.8911865
40
0.3126255
50
89.5460705
51
102.5418777
0
ARC
8
DEFAULT_255_1_234
10
5.5852129
20
68.9942665
40
0.2067346
50
102.1739365
51
129.2061916
0
ARC
8
DEFAULT_255_1_234
10
5.5773201
20
69.0067094
40
0.1921118
50
129.7279328
51
135.7542026
0
ARC
8
DEFAULT_255_1_234
10
5.5894729
20
68.9970045
40
0.2075944
50
136.175737
51
166.3674722
0
ARC
8
DEFAULT_255_1_234
10
5.6901648
20
68.9700182
40
0.3118201
50
165.9092917
51
178.8683903
0
ARC
8
DEFAULT_255_1_234
10
5.7766509
20
68.9653179
40
0.3983935
50
178.438168
51
180.0083905
0
ARC
8
DEFAULT_255_1_234
10
5.6365111
20
68.9692231
40
0.4068601
50
163.2878735
51
180.5581814
0
ARC
8
DEFAULT_255_1_234
10
5.5563373
20
68.991284
40
0.3237344
50
133.454115
51
162.9470031
0
ARC
8
DEFAULT_255_1_234
10
5.5741914
20
68.9723
40
0.349795
50
100.7869394
51
133.4384016
0
ARC
8
DEFAULT_255_1_234
10
5.6089686
20
68.8174319
40
0.5084616
50
89.6605301
51
101.3704185
0
ARC
8
DEFAULT_255_1_234
10
5.6156024
20
68.8235496
40
0.502348
50
78.2171172
51
90.4130393
0
ARC
8
DEFAULT_255_1_234
10
5.6511103
20
68.9859637
40
0.3361092
50
55.9268222
51
78.4888551
0
ARC
8
DEFAULT_255_1_234
10
5.6707543
20
69.0198324
40
0.2970617
50
47.9292255
51
55.4054003
0
ARC
8
DEFAULT_255_1_234
10
5.6809103
20
69.0301502
40
0.2825983
50
4.3347696
51
48.0560701
0
ARC
8
DEFAULT_255_1_234
10
5.5713497
20
69.0131601
40
0.393225
50
359.925209
51
5.5967654
0
ARC
8
DEFAULT_255_1_234
10
5.6142389
20
69.0187816
40
0.3503892
50
337.8914096
51
358.9967724
0
ARC
8
DEFAULT_255_1_234
10
5.3428801
20
69.1234706
40
0.6412172
50
326.9135351
51
338.3505194
0
ARC
8
DEFAULT_255_1_234
10
4.9443105
20
69.3789284
40
1.1146189
50
319.6472867
51
327.095818
0
ARC
8
DEFAULT_255_1_234
10
4.5610108
20
69.6951
40
1.6114559
50
317.2586784
51
319.9046139
0
LINE
8
DEFAULT_255_1_234
10
6.6641388
20
69.3154433
11
6.6641388
21
68.1404
0
LINE
8
DEFAULT_255_1_234
10
6.6641388
20
68.1404
11
6.5147485
21
68.1404
0
LINE
8
DEFAULT_255_1_234
10
6.5147485
20
68.1404
11
6.5147485
21
69.1307133
0
LINE
8
DEFAULT_255_1_234
10
6.5147485
20
69.1307133
11
6.2151646
21
69.0206785
0
LINE
8
DEFAULT_255_1_234
10
6.2151646
20
69.0206785
11
6.2151646
21
69.1556117
0
LINE
8
DEFAULT_255_1_234
10
6.2151646
20
69.1556117
11
6.6408468
21
69.3154433
0
LINE
8
DEFAULT_255_1_234
10
6.6408468
20
69.3154433
11
6.6641388
21
69.3154433
0
LINE
8
DEFAULT_255_1_234
10
4.3681299
20
77.2473211
11
4.6500439
21
76.7991501
0
LINE
8
DEFAULT_255_1_234
10
4.6500439
20
76.7991501
11
4.9303516
21
77.2473211
0
LINE
8
DEFAULT_255_1_234
10
4.9303516
20
77.2473211
11
5.1118689
21
77.2473211
0
LINE
8
DEFAULT_255_1_234
10
5.1118689
20
77.2473211
11
4.7424089
21
76.6674296
0
LINE
8
DEFAULT_255_1_234
10
4.7424089
20
76.6674296
11
5.1207038
21
76.0779
0
LINE
8
DEFAULT_255_1_234
10
5.1207038
20
76.0779
11
4.9375802
21
76.0779
0
LINE
8
DEFAULT_255_1_234
10
4.9375802
20
76.0779
11
4.6500439
21
76.5341027
0
LINE
8
DEFAULT_255_1_234
10
4.6500439
20
76.5341027
11
4.3609014
21
76.0779
0
LINE
8
DEFAULT_255_1_234
10
4.3609014
20
76.0779
11
4.1785809
21
76.0779
0
LINE
8
DEFAULT_255_1_234
10
4.1785809
20
76.0779
11
4.557679
21
76.6674296
0
LINE
8
DEFAULT_255_1_234
10
4.557679
20
76.6674296
11
4.1874158
21
77.2473211
0
LINE
8
DEFAULT_255_1_234
10
4.1874158
20
77.2473211
11
4.3681299
21
77.2473211
0
LINE
8
DEFAULT_255_1_234
10
6.0274871
20
76.1991792
11
6.0274871
21
76.0779
0
LINE
8
DEFAULT_255_1_234
10
6.0274871
20
76.0779
11
5.2612592
21
76.0779
0
LINE
8
DEFAULT_255_1_234
10
5.2612592
20
76.0779
11
5.2612592
21
76.1847221
0
LINE
8
DEFAULT_255_1_234
10
5.2612592
20
76.1847221
11
5.6660588
21
76.6344995
0
LINE
8
DEFAULT_255_1_234
10
5.3873575
20
76.9027595
11
5.2387704
21
76.9027595
0
LINE
8
DEFAULT_255_1_234
10
5.7536048
20
76.5389218
11
5.440367
21
76.1991792
0
LINE
8
DEFAULT_255_1_234
10
5.440367
20
76.1991792
11
6.0274871
21
76.1991792
0
ARC
8
DEFAULT_255_1_234
10
4.3170422
20
77.8274527
40
1.8008286
50
318.5132453
51
320.7828378
0
ARC
8
DEFAULT_255_1_234
10
4.8457396
20
77.3971426
40
1.1191493
50
320.7372736
51
323.9737074
0
ARC
8
DEFAULT_255_1_234
10
5.2377252
20
77.1131361
40
0.6350923
50
323.8961724
51
328.6421089
0
ARC
8
DEFAULT_255_1_234
10
5.4423848
20
76.9869031
40
0.3946393
50
328.8299013
51
331.789948
0
ARC
8
DEFAULT_255_1_234
10
5.5421026
20
76.9354509
40
0.2824501
50
331.4255242
51
352.9364833
0
ARC
8
DEFAULT_255_1_234
10
5.5557527
20
76.9323976
40
0.2685315
50
353.2248685
51
0.0169286
0
ARC
8
DEFAULT_255_1_234
10
5.5767404
20
76.934695
40
0.2475536
50
359.4866256
51
15.9339782
0
ARC
8
DEFAULT_255_1_234
10
5.6274389
20
76.9483286
40
0.1950618
50
16.1714718
51
43.5284424
0
ARC
8
DEFAULT_255_1_234
10
5.6351698
20
76.9560573
40
0.184134
50
43.4415429
51
83.1661404
0
ARC
8
DEFAULT_255_1_234
10
5.6217616
20
76.8823771
40
0.258926
50
82.160215
51
90.1505798
0
ARC
8
DEFAULT_255_1_234
10
5.6186043
20
76.8286865
40
0.3126255
50
89.5460705
51
102.5418777
0
ARC
8
DEFAULT_255_1_234
10
5.5943129
20
76.9317665
40
0.2067346
50
102.1739365
51
129.2061916
0
ARC
8
DEFAULT_255_1_234
10
5.5864201
20
76.9442094
40
0.1921118
50
129.7279328
51
135.7542026
0
ARC
8
DEFAULT_255_1_234
10
5.5985729
20
76.9345045
40
0.2075944
50
136.175737
51
166.3674722
0
ARC
8
DEFAULT_255_1_234
10
5.6992648
20
76.9075182
40
0.3118201
50
165.9092917
51
178.8683903
0
ARC
8
DEFAULT_255_1_234
10
5.7857509
20
76.9028179
40
0.3983935
50
178.438168
51
180.0083905
0
ARC
8
DEFAULT_255_1_234
10
5.6456111
20
76.9067231
40
0.4068601
50
163.2878735
51
180.5581814
0
ARC
8
DEFAULT_255_1_234
10
5.5654373
20
76.928784
40
0.3237344
50
133.454115
51
162.9470031
0
ARC
8
DEFAULT_255_1_234
10
5.5832914
20
76.9098
40
0.349795
50
100.7869394
51
133.4384016
0
ARC
8
DEFAULT_255_1_234
10
5.6180686
20
76.7549319
40
0.5084616
50
89.6605301
51
101.3704185
0
ARC
8
DEFAULT_255_1_234
10
5.6247024
20
76.7610496
40
0.502348
50
78.2171172
51
90.4130393
0
ARC
8
DEFAULT_255_1_234
10
5.6602103
20
76.9234637
40
0.3361092
50
55.9268222
51
78.4888551
0
ARC
8
DEFAULT_255_1_234
10
5.6798543
20
76.9573324
40
0.2970617
50
47.9292255
51
55.4054003
0
ARC
8
DEFAULT_255_1_234
10
5.6900103
20
76.9676502
40
0.2825983
50
4.3347696
51
48.0560701
0
ARC
8
DEFAULT_255_1_234
10
5.5804497
20
76.9506601
40
0.393225
50
359.925209
51
5.5967654
0
ARC
8
DEFAULT_255_1_234
10
5.6233389
20
76.9562816
40
0.3503892
50
337.8914096
51
358.9967724
0
ARC
8
DEFAULT_255_1_234
10
5.3519801
20
77.0609706
40
0.6412172
50
326.9135351
51
338.3505194
0
ARC
8
DEFAULT_255_1_234
10
4.9534105
20
77.3164284
40
1.1146189
50
319.6472867
51
327.095818
0
ARC
8
DEFAULT_255_1_234
10
4.5701108
20
77.6326
40
1.6114559
50
317.2586784
51
319.9046139
0
LINE
8
DEFAULT_255_1_234
10
6.9182068
20
76.7694327
11
6.9182068
21
76.5766709
0
LINE
8
DEFAULT_255_1_234
10
6.1800901
20
76.5565916
11
6.1800901
21
76.7549755
0
LINE
8
DEFAULT_255_1_234
10
6.7696197
20
76.5365123
11
6.7696197
21
76.7798739
0
LINE
8
DEFAULT_255_1_234
10
6.3286772
20
76.7911184
11
6.3286772
21
76.5533789
0
ARC
8
DEFAULT_255_1_234
10
5.6934958
20
76.5717805
40
1.2247208
50
353.8441951
51
0.2287902
0
ARC
8
DEFAULT_255_1_234
10
6.1574462
20
76.5199806
40
0.7578929
50
344.4934747
51
353.9765454
0
ARC
8
DEFAULT_255_1_234
10
6.4567052
20
76.4348981
40
0.4467846
50
329.2803592
51
344.7472793
0
ARC
8
DEFAULT_255_1_234
10
6.5559877
20
76.3804018
40
0.3336173
50
324.9352394
51
328.6160465
0
ARC
8
DEFAULT_255_1_234
10
6.5936985
20
76.3540427
40
0.2876076
50
280.580143
51
324.9173126
0
ARC
8
DEFAULT_255_1_234
10
6.5535778
20
76.5211099
40
0.4592847
50
269.5977311
51
281.6734359
0
ARC
8
DEFAULT_255_1_234
10
6.5463684
20
76.5091173
40
0.4472986
50
256.6228859
51
270.51044
0
ARC
8
DEFAULT_255_1_234
10
6.5061661
20
76.3542877
40
0.2873874
50
215.8618325
51
257.2788573
0
ARC
8
DEFAULT_255_1_234
10
6.6082693
20
76.4227977
40
0.4102928
50
197.9693508
51
215.2623606
0
ARC
8
DEFAULT_255_1_234
10
6.8567809
20
76.5066709
40
0.6725652
50
187.8816417
51
198.2346507
0
ARC
8
DEFAULT_255_1_234
10
7.2526017
20
76.5638079
40
1.0724845
50
180.8976217
51
188.0055519
0
ARC
8
DEFAULT_255_1_234
10
7.5326205
20
76.5741777
40
1.3526448
50
180.7449369
51
181.1510016
0
ARC
8
DEFAULT_255_1_234
10
7.3748934
20
76.7598042
40
1.1948131
50
173.7675579
51
180.231553
0
ARC
8
DEFAULT_255_1_234
10
6.9231081
20
76.8108666
40
0.7401564
50
164.3058563
51
173.9002247
0
ARC
8
DEFAULT_255_1_234
10
6.631915
20
76.8947656
40
0.4371288
50
148.7922025
51
164.568378
0
ARC
8
DEFAULT_255_1_234
10
6.5367602
20
76.9478929
40
0.3282386
50
144.5883898
51
148.1176286
0
ARC
8
DEFAULT_255_1_234
10
6.50245
20
76.9718315
40
0.2864044
50
101.6440918
51
144.514236
0
ARC
8
DEFAULT_255_1_234
10
6.5449566
20
76.8029069
40
0.4604934
50
89.5284041
51
102.5819763
0
ARC
8
DEFAULT_255_1_234
10
6.5528654
20
76.7990018
40
0.464401
50
77.0437873
51
90.5081339
0
ARC
8
DEFAULT_255_1_234
10
6.5930656
20
76.9632615
40
0.2953195
50
48.2778575
51
77.4994676
0
ARC
8
DEFAULT_255_1_234
10
6.6003287
20
76.9761746
40
0.2808655
50
36.3142134
51
47.6305865
0
ARC
8
DEFAULT_255_1_234
10
6.5134594
20
76.9176515
40
0.3855453
50
18.2931786
51
35.6769206
0
ARC
8
DEFAULT_255_1_234
10
6.2591353
20
76.8303593
40
0.654423
50
8.024666
51
18.5605216
0
ARC
8
DEFAULT_255_1_234
10
5.8428273
20
76.7688792
40
1.0752407
50
1.1274072
51
8.1718305
0
ARC
8
DEFAULT_255_1_234
10
5.5192464
20
76.7561885
40
1.3990231
50
0.5424119
51
1.3863029
0
ARC
8
DEFAULT_255_1_234
10
5.7013841
20
76.7834342
40
1.0682415
50
359.8090433
51
4.9407866
0
ARC
8
DEFAULT_255_1_234
10
6.1223855
20
76.8210113
40
0.6455691
50
4.8362157
51
12.2904523
0
ARC
8
DEFAULT_255_1_234
10
6.397897
20
76.8823965
40
0.3633074
50
12.0805627
51
23.8173984
0
ARC
8
DEFAULT_255_1_234
10
6.5152676
20
76.9320919
40
0.2358723
50
24.2871213
51
31.3935614
0
ARC
8
DEFAULT_255_1_234
10
6.5677373
20
76.9664233
40
0.1732111
50
30.7407893
51
82.4657128
0
ARC
8
DEFAULT_255_1_234
10
6.5497507
20
76.8780691
40
0.263235
50
81.1060089
51
90.2184952
0
ARC
8
DEFAULT_255_1_234
10
6.5461806
20
76.9038924
40
0.2374236
50
89.3806855
51
105.6762551
0
ARC
8
DEFAULT_255_1_234
10
6.5278437
20
76.9705567
40
0.1682847
50
105.7981136
51
149.7388061
0
ARC
8
DEFAULT_255_1_234
10
6.6342515
20
76.906595
40
0.2924306
50
149.4208916
51
163.6286378
0
ARC
8
DEFAULT_255_1_234
10
6.8433403
20
76.842825
40
0.5110213
50
163.3763315
51
172.1410975
0
ARC
8
DEFAULT_255_1_234
10
7.1734122
20
76.7955518
40
0.8444586
50
172.0259487
51
178.0703232
0
ARC
8
DEFAULT_255_1_234
10
7.4764211
20
76.7811906
40
1.1477868
50
177.8631668
51
179.5044149
0
ARC
8
DEFAULT_255_1_234
10
7.3691616
20
76.5497389
40
1.0404907
50
179.7995573
51
185.2460446
0
ARC
8
DEFAULT_255_1_234
10
6.9648655
20
76.5114513
40
0.6343885
50
185.1411642
51
193.0079639
0
ARC
8
DEFAULT_255_1_234
10
6.7005128
20
76.4489641
40
0.3627568
50
192.7897626
51
205.2507664
0
ARC
8
DEFAULT_255_1_234
10
6.5958675
20
76.4022415
40
0.2481908
50
205.8005384
51
211.2537509
0
ARC
8
DEFAULT_255_1_234
10
6.5435115
20
76.367158
40
0.1852521
50
210.3789793
51
238.4008143
0
ARC
8
DEFAULT_255_1_234
10
6.5415637
20
76.3718376
40
0.1882621
50
239.6520629
51
265.9793761
0
ARC
8
DEFAULT_255_1_234
10
6.5500837
20
76.4390427
40
0.2559272
50
265.1315437
51
270.060332
0
ARC
8
DEFAULT_255_1_234
10
6.5529616
20
76.4066534
40
0.2235528
50
269.3314664
51
287.2178029
0
ARC
8
DEFAULT_255_1_234
10
6.5667468
20
76.3563279
40
0.1714108
50
287.7958004
51
329.080874
0
ARC
8
DEFAULT_255_1_234
10
6.4709925
20
76.416093
40
0.2842745
50
328.6634704
51
343.3325132
0
ARC
8
DEFAULT_255_1_234
10
6.2536945
20
76.4837863
40
0.5118644
50
343.0499468
51
351.9393422
0
ARC
8
DEFAULT_255_1_234
10
5.9070245
20
76.5348949
40
0.8622784
50
351.8069023
51
357.7959224
0
ARC
8
DEFAULT_255_1_234
10
5.5834801
20
76.5516721
40
1.1862365
50
357.5871873
51
359.2677531
0
LINE
8
DEFAULT_255_1_234
10
4.3681299
20
85.1848211
11
4.6500439
21
84.7366501
0
LINE
8
DEFAULT_255_1_234
10
4.6500439
20
84.7366501
11
4.9303516
21
85.1848211
0
LINE
8
DEFAULT_255_1_234
10
4.9303516
20
85.1848211
11
5.1118689
21
85.1848211
0
LINE
8
DEFAULT_255_1_234
10
5.1118689
20
85.1848211
11
4.7424089
21
84.6049296
0
LINE
8
DEFAULT_255_1_234
10
4.7424089
20
84.6049296
11
5.1207038
21
84.0154
0
LINE
8
DEFAULT_255_1_234
10
5.1207038
20
84.0154
11
4.9375802
21
84.0154
0
LINE
8
DEFAULT_255_1_234
10
4.9375802
20
84.0154
11
4.6500439
21
84.4716027
0
LINE
8
DEFAULT_255_1_234
10
4.6500439
20
84.4716027
11
4.3609014
21
84.0154
0
LINE
8
DEFAULT_255_1_234
10
4.3609014
20
84.0154
11
4.1785809
21
84.0154
0
LINE
8
DEFAULT_255_1_234
10
4.1785809
20
84.0154
11
4.557679
21
84.6049296
0
LINE
8
DEFAULT_255_1_234
10
4.557679
20
84.6049296
11
4.1874158
21
85.1848211
0
LINE
8
DEFAULT_255_1_234
10
4.1874158
20
85.1848211
11
4.3681299
21
85.1848211
0
LINE
8
DEFAULT_255_1_234
10
5.7495889
20
85.1904433
11
5.7495889
21
84.0154
0
LINE
8
DEFAULT_255_1_234
10
5.7495889
20
84.0154
11
5.6001986
21
84.0154
0
LINE
8
DEFAULT_255_1_234
10
5.6001986
20
84.0154
11
5.6001986
21
85.0057133
0
LINE
8
DEFAULT_255_1_234
10
5.6001986
20
85.0057133
11
5.3006147
21
84.8956785
0
LINE
8
DEFAULT_255_1_234
10
5.3006147
20
84.8956785
11
5.3006147
21
85.0306117
0
LINE
8
DEFAULT_255_1_234
10
5.3006147
20
85.0306117
11
5.7262969
21
85.1904433
0
LINE
8
DEFAULT_255_1_234
10
5.7262969
20
85.1904433
11
5.7495889
21
85.1904433
0
LINE
8
DEFAULT_255_1_234
10
6.9398925
20
85.1848211
11
6.9398925
21
85.101291
0
LINE
8
DEFAULT_255_1_234
10
6.9398925
20
85.101291
11
6.4555787
21
84.0154
0
LINE
8
DEFAULT_255_1_234
10
6.4555787
20
84.0154
11
6.299763
21
84.0154
0
LINE
8
DEFAULT_255_1_234
10
6.299763
20
84.0154
11
6.7824705
21
85.0627387
0
LINE
8
DEFAULT_255_1_234
10
6.7824705
20
85.0627387
11
6.1495695
21
85.0627387
0
LINE
8
DEFAULT_255_1_234
10
6.1495695
20
85.0627387
11
6.1495695
21
85.1848211
0
LINE
8
DEFAULT_255_1_234
10
6.1495695
20
85.1848211
11
6.9398925
21
85.1848211
0
LINE
8
DEFAULT_255_1_234
10
4.3681299
20
93.1223211
11
4.6500439
21
92.6741501
0
LINE
8
DEFAULT_255_1_234
10
4.6500439
20
92.6741501
11
4.9303516
21
93.1223211
0
LINE
8
DEFAULT_255_1_234
10
4.9303516
20
93.1223211
11
5.1118689
21
93.1223211
0
LINE
8
DEFAULT_255_1_234
10
5.1118689
20
93.1223211
11
4.7424089
21
92.5424296
0
LINE
8
DEFAULT_255_1_234
10
4.7424089
20
92.5424296
11
5.1207038
21
91.9529
0
LINE
8
DEFAULT_255_1_234
10
5.1207038
20
91.9529
11
4.9375802
21
91.9529
0
LINE
8
DEFAULT_255_1_234
10
4.9375802
20
91.9529
11
4.6500439
21
92.4091027
0
LINE
8
DEFAULT_255_1_234
10
4.6500439
20
92.4091027
11
4.3609014
21
91.9529
0
LINE
8
DEFAULT_255_1_234
10
4.3609014
20
91.9529
11
4.1785809
21
91.9529
0
LINE
8
DEFAULT_255_1_234
10
4.1785809
20
91.9529
11
4.557679
21
92.5424296
0
LINE
8
DEFAULT_255_1_234
10
4.557679
20
92.5424296
11
4.1874158
21
93.1223211
0
LINE
8
DEFAULT_255_1_234
10
4.1874158
20
93.1223211
11
4.3681299
21
93.1223211
0
LINE
8
DEFAULT_255_1_234
10
5.7495889
20
93.1279433
11
5.7495889
21
91.9529
0
LINE
8
DEFAULT_255_1_234
10
5.7495889
20
91.9529
11
5.6001986
21
91.9529
0
LINE
8
DEFAULT_255_1_234
10
5.6001986
20
91.9529
11
5.6001986
21
92.9432133
0
LINE
8
DEFAULT_255_1_234
10
5.6001986
20
92.9432133
11
5.3006147
21
92.8331785
0
LINE
8
DEFAULT_255_1_234
10
5.3006147
20
92.8331785
11
5.3006147
21
92.9681117
0
LINE
8
DEFAULT_255_1_234
10
5.3006147
20
92.9681117
11
5.7262969
21
93.1279433
0
LINE
8
DEFAULT_255_1_234
10
5.7262969
20
93.1279433
11
5.7495889
21
93.1279433
0
LINE
8
DEFAULT_255_1_234
10
6.7415086
20
93.1231243
11
6.7680133
21
93.1231243
0
LINE
8
DEFAULT_255_1_234
10
6.7680133
20
93.1231243
11
6.7680133
21
92.997026
0
LINE
8
DEFAULT_255_1_234
10
6.7680133
20
92.997026
11
6.7407054
21
92.997026
0
LINE
8
DEFAULT_255_1_234
10
6.193744
20
92.3978583
11
6.193744
21
92.4548836
0
LINE
8
DEFAULT_255_1_234
10
6.3431344
20
92.4356075
11
6.3431344
21
92.3809917
0
ARC
8
DEFAULT_255_1_234
10
6.7459402
20
92.4972455
40
0.4998079
50
90.6001036
51
104.514704
0
ARC
8
DEFAULT_255_1_234
10
6.7070918
20
92.6417131
40
0.3502176
50
104.2855254
51
133.862935
0
ARC
8
DEFAULT_255_1_234
10
6.7234675
20
92.630883
40
0.3693984
50
134.5302688
51
161.6210873
0
ARC
8
DEFAULT_255_1_234
10
6.8887864
20
92.5725895
40
0.5446739
50
161.2849839
51
174.2076652
0
ARC
8
DEFAULT_255_1_234
10
7.0294801
20
92.5531787
40
0.6866274
50
173.7810589
51
174.9254635
0
ARC
8
DEFAULT_255_1_234
10
6.5744633
20
92.4148839
40
0.3033419
50
95.8330959
51
138.9954921
0
ARC
8
DEFAULT_255_1_234
10
6.5967989
20
92.2870375
40
0.4328947
50
89.8753725
51
97.0544009
0
ARC
8
DEFAULT_255_1_234
10
6.6015455
20
92.3705748
40
0.3493769
50
71.6407809
51
90.6240094
0
ARC
8
DEFAULT_255_1_234
10
6.6166028
20
92.4260082
40
0.2920396
50
39.6367836
51
71.019018
0
ARC
8
DEFAULT_255_1_234
10
6.5529501
20
92.3709998
40
0.3761538
50
10.658731
51
39.9043955
0
ARC
8
DEFAULT_255_1_234
10
6.3981584
20
92.3373686
40
0.5345136
50
359.682601
51
11.132623
0
ARC
8
DEFAULT_255_1_234
10
6.3941715
20
92.330301
40
0.5385081
50
347.2486944
51
0.4369317
0
ARC
8
DEFAULT_255_1_234
10
6.5609192
20
92.2901807
40
0.3670249
50
318.1409698
51
347.6118597
0
ARC
8
DEFAULT_255_1_234
10
6.5934185
20
92.2634702
40
0.3250007
50
275.6342139
51
317.8248465
0
ARC
8
DEFAULT_255_1_234
10
6.5713296
20
92.3934219
40
0.4565864
50
269.8874292
51
276.7917694
0
ARC
8
DEFAULT_255_1_234
10
6.5658367
20
92.2908743
40
0.3540676
50
246.9140195
51
270.7437342
0
ARC
8
DEFAULT_255_1_234
10
6.5664757
20
92.2766384
40
0.3412781
50
218.1665114
51
245.878116
0
ARC
8
DEFAULT_255_1_234
10
6.6544218
20
92.3502279
40
0.455911
50
191.4115814
51
218.6077802
0
ARC
8
DEFAULT_255_1_234
10
6.8482307
20
92.3936833
40
0.6545001
50
179.6345085
51
191.7836486
0
ARC
8
DEFAULT_255_1_234
10
7.4064644
20
92.4615697
40
1.2127388
50
171.4525249
51
180.3158839
0
ARC
8
DEFAULT_255_1_234
10
6.966952
20
92.5299608
40
0.7679464
50
157.9802646
51
171.6246686
0
ARC
8
DEFAULT_255_1_234
10
6.7455541
20
92.6182421
40
0.5296008
50
141.4298019
51
157.854097
0
ARC
8
DEFAULT_255_1_234
10
6.6813861
20
92.6636381
40
0.4511509
50
102.8715806
51
140.8564722
0
ARC
8
DEFAULT_255_1_234
10
6.7461477
20
92.4196552
40
0.7034845
50
90.3778349
51
103.5869322
0
ARC
8
DEFAULT_255_1_234
10
6.5723253
20
92.359173
40
0.2370698
50
89.8751008
51
126.2071704
0
ARC
8
DEFAULT_255_1_234
10
6.5769043
20
92.3437303
40
0.2522934
50
124.9745049
51
144.895901
0
ARC
8
DEFAULT_255_1_234
10
6.5593233
20
92.358056
40
0.2296779
50
145.2974905
51
160.2660252
0
ARC
8
DEFAULT_255_1_234
10
6.8665772
20
92.3778071
40
0.5234525
50
179.6514266
51
190.2855912
0
ARC
8
DEFAULT_255_1_234
10
6.6971909
20
92.3458786
40
0.3510893
50
190.0945431
51
207.5098196
0
ARC
8
DEFAULT_255_1_234
10
6.6406179
20
92.3189623
40
0.288489
50
207.9583163
51
216.3251085
0
ARC
8
DEFAULT_255_1_234
10
6.6066287
20
92.2910105
40
0.2445587
50
215.7661442
51
232.5456785
0
ARC
8
DEFAULT_255_1_234
10
6.568327
20
92.2423482
40
0.1826382
50
232.8005391
51
270.6605633
0
ARC
8
DEFAULT_255_1_234
10
6.5728971
20
92.2787612
40
0.2190529
50
269.35537
51
288.4744281
0
ARC
8
DEFAULT_255_1_234
10
6.5821868
20
92.2438118
40
0.1829749
50
289.1833337
51
322.9683818
0
ARC
8
DEFAULT_255_1_234
10
6.521039
20
92.2920391
40
0.2608399
50
322.6007884
51
346.5182367
0
ARC
8
DEFAULT_255_1_234
10
6.4052986
20
92.3215616
40
0.3802777
50
346.2582162
51
358.7741648
0
ARC
8
DEFAULT_255_1_234
10
6.3034655
20
92.3270965
40
0.4822176
50
358.3755224
51
0.0098023
0
ARC
8
DEFAULT_255_1_234
10
6.3790842
20
92.3298657
40
0.4066078
50
359.6214041
51
11.2839074
0
ARC
8
DEFAULT_255_1_234
10
6.5067989
20
92.3565066
40
0.2761514
50
11.0482309
51
31.8146458
0
ARC
8
DEFAULT_255_1_234
10
6.5377032
20
92.3732584
40
0.2410679
50
32.3035391
51
38.082671
0
ARC
8
DEFAULT_255_1_234
10
6.5797692
20
92.4113662
40
0.1844966
50
36.825067
51
85.7415724
0
ARC
8
DEFAULT_255_1_234
10
6.5730525
20
92.3613301
40
0.2349122
50
85.0140713
51
90.0513278
0
LINE
8
DEFAULT_255_1_234
10
4.3681299
20
101.0598211
11
4.6500439
21
100.6116501
0
LINE
8
DEFAULT_255_1_234
10
4.6500439
20
100.6116501
11
4.9303516
21
101.0598211
0
LINE
8
DEFAULT_255_1_234
10
4.9303516
20
101.0598211
11
5.1118689
21
101.0598211
0
LINE
8
DEFAULT_255_1_234
10
5.1118689
20
101.0598211
11
4.7424089
21
100.4799296
0
LINE
8
DEFAULT_255_1_234
10
4.7424089
20
100.4799296
11
5.1207038
21
99.8904
0
LINE
8
DEFAULT_255_1_234
10
5.1207038
20
99.8904
11
4.9375802
21
99.8904
0
LINE
8
DEFAULT_255_1_234
10
4.9375802
20
99.8904
11
4.6500439
21
100.3466027
0
LINE
8
DEFAULT_255_1_234
10
4.6500439
20
100.3466027
11
4.3609014
21
99.8904
0
LINE
8
DEFAULT_255_1_234
10
4.3609014
20
99.8904
11
4.1785809
21
99.8904
0
LINE
8
DEFAULT_255_1_234
10
4.1785809
20
99.8904
11
4.557679
21
100.4799296
0
LINE
8
DEFAULT_255_1_234
10
4.557679
20
100.4799296
11
4.1874158
21
101.0598211
0
LINE
8
DEFAULT_255_1_234
10
4.1874158
20
101.0598211
11
4.3681299
21
101.0598211
0
LINE
8
DEFAULT_255_1_234
10
5.7495889
20
101.0654433
11
5.7495889
21
99.8904
0
LINE
8
DEFAULT_255_1_234
10
5.7495889
20
99.8904
11
5.6001986
21
99.8904
0
LINE
8
DEFAULT_255_1_234
10
5.6001986
20
99.8904
11
5.6001986
21
100.8807133
0
LINE
8
DEFAULT_255_1_234
10
5.6001986
20
100.8807133
11
5.3006147
21
100.7706785
0
LINE
8
DEFAULT_255_1_234
10
5.3006147
20
100.7706785
11
5.3006147
21
100.9056117
0
LINE
8
DEFAULT_255_1_234
10
5.3006147
20
100.9056117
11
5.7262969
21
101.0654433
0
LINE
8
DEFAULT_255_1_234
10
5.7262969
20
101.0654433
11
5.7495889
21
101.0654433
0
LINE
8
DEFAULT_255_1_234
10
6.3720486
20
100.4461963
11
6.2531789
21
100.4767169
0
LINE
8
DEFAULT_255_1_234
10
6.2531789
20
100.4767169
11
6.3126138
21
101.0598211
0
LINE
8
DEFAULT_255_1_234
10
6.3126138
20
101.0598211
11
6.9117814
21
101.0598211
0
LINE
8
DEFAULT_255_1_234
10
6.9117814
20
101.0598211
11
6.9117814
21
100.9224784
0
LINE
8
DEFAULT_255_1_234
10
6.9117814
20
100.9224784
11
6.4387121
21
100.9224784
0
LINE
8
DEFAULT_255_1_234
10
6.4387121
20
100.9224784
11
6.4033724
21
100.6036184
0
LINE
8
DEFAULT_255_1_234
10
6.2114139
20
100.1980156
11
6.3519693
21
100.1980156
0
LINE
8
DEFAULT_255_1_234
10
6.4114042
20
100.4783232
11
6.3720486
21
100.4461963
0
ARC
8
DEFAULT_255_1_234
10
6.5888508
20
100.285623
40
0.3681349
50
93.7182161
51
120.2538958
0
ARC
8
DEFAULT_255_1_234
10
6.5982771
20
100.2048394
40
0.449379
50
89.9660152
51
94.2496022
0
ARC
8
DEFAULT_255_1_234
10
6.6023505
20
100.2637549
40
0.390482
50
73.8043271
51
90.5585896
0
ARC
8
DEFAULT_255_1_234
10
6.6258402
20
100.3495602
40
0.3015334
50
41.3071453
51
73.5430202
0
ARC
8
DEFAULT_255_1_234
10
6.5842229
20
100.3137324
40
0.3564457
50
13.5075983
51
41.2174222
0
ARC
8
DEFAULT_255_1_234
10
6.4200433
20
100.2707486
40
0.5261351
50
1.1331335
51
13.8829381
0
ARC
8
DEFAULT_255_1_234
10
6.2788802
20
100.2631665
40
0.6674378
50
359.9919444
51
1.544251
0
ARC
8
DEFAULT_255_1_234
10
6.4065628
20
100.259028
40
0.5397702
50
347.8572367
51
0.4293338
0
ARC
8
DEFAULT_255_1_234
10
6.5815946
20
100.2193736
40
0.3603188
50
323.673004
51
348.1672506
0
ARC
8
DEFAULT_255_1_234
10
6.6110454
20
100.2014168
40
0.3259678
50
316.8171152
51
323.1492751
0
ARC
8
DEFAULT_255_1_234
10
6.6171643
20
100.197746
40
0.3189975
50
281.8396411
51
316.5457803
0
ARC
8
DEFAULT_255_1_234
10
6.5795907
20
100.3532762
40
0.4789527
50
269.5770101
51
282.4214771
0
ARC
8
DEFAULT_255_1_234
10
6.5724718
20
100.3319125
40
0.45759
50
256.2427136
51
270.4486331
0
ARC
8
DEFAULT_255_1_234
10
6.542562
20
100.2119229
40
0.3339303
50
228.9023911
51
256.3314342
0
ARC
8
DEFAULT_255_1_234
10
6.5351853
20
100.2002746
40
0.32031
50
193.753695
51
228.5271154
0
ARC
8
DEFAULT_255_1_234
10
6.6589807
20
100.23658
40
0.4492253
50
184.924711
51
194.497588
0
ARC
8
DEFAULT_255_1_234
10
6.6782374
20
100.2401591
40
0.3289787
50
187.3600538
51
198.6732863
0
ARC
8
DEFAULT_255_1_234
10
6.5732668
20
100.2037674
40
0.217884
50
198.4451669
51
217.794479
0
ARC
8
DEFAULT_255_1_234
10
6.5436843
20
100.1828085
40
0.1816698
50
218.2887171
51
228.5612368
0
ARC
8
DEFAULT_255_1_234
10
6.553463
20
100.1959963
40
0.1980329
50
228.9654866
51
258.1234728
0
ARC
8
DEFAULT_255_1_234
10
6.574034
20
100.2840833
40
0.2884748
50
257.7258293
51
270.401361
0
ARC
8
DEFAULT_255_1_234
10
6.5785226
20
100.2395821
40
0.2439788
50
269.4204404
51
286.4209037
0
ARC
8
DEFAULT_255_1_234
10
6.5933714
20
100.1856657
40
0.1880666
50
286.7251356
51
320.600362
0
ARC
8
DEFAULT_255_1_234
10
6.5550539
20
100.2167595
40
0.2374121
50
320.6712579
51
344.5441685
0
ARC
8
DEFAULT_255_1_234
10
6.4393865
20
100.2507045
40
0.3579479
50
344.2412205
51
356.7357071
0
ARC
8
DEFAULT_255_1_234
10
6.3145014
20
100.2610444
40
0.4832297
50
356.3548756
51
0.0500261
0
ARC
8
DEFAULT_255_1_234
10
6.4481523
20
100.264165
40
0.3495889
50
359.5576869
51
12.953486
0
ARC
8
DEFAULT_255_1_234
10
6.553642
20
100.2897434
40
0.2410532
50
12.6490276
51
41.6081334
0
ARC
8
DEFAULT_255_1_234
10
6.5766791
20
100.3093321
40
0.2108218
50
41.7850273
51
85.9892764
0
ARC
8
DEFAULT_255_1_234
10
6.5643528
20
100.2280462
40
0.2928454
50
84.6957577
51
90.0676183
0
ARC
8
DEFAULT_255_1_234
10
6.5620012
20
100.1611716
40
0.3597255
50
89.6804936
51
99.1614436
0
ARC
8
DEFAULT_255_1_234
10
6.5414643
20
100.2839131
40
0.235281
50
98.9830931
51
113.8908934
0
ARC
8
DEFAULT_255_1_234
10
6.5185053
20
100.3380587
40
0.176479
50
114.1950727
51
127.3641004
0
LINE
8
DEFAULT_255_1_234
10
4.4740299
20
108.9973211
11
4.7559439
21
108.5491501
0
LINE
8
DEFAULT_255_1_234
10
4.7559439
20
108.5491501
11
5.0362516
21
108.9973211
0
LINE
8
DEFAULT_255_1_234
10
5.0362516
20
108.9973211
11
5.2177689
21
108.9973211
0
LINE
8
DEFAULT_255_1_234
10
5.2177689
20
108.9973211
11
4.8483089
21
108.4174296
0
LINE
8
DEFAULT_255_1_234
10
4.8483089
20
108.4174296
11
5.2266038
21
107.8279
0
LINE
8
DEFAULT_255_1_234
10
5.2266038
20
107.8279
11
5.0434802
21
107.8279
0
LINE
8
DEFAULT_255_1_234
10
5.0434802
20
107.8279
11
4.7559439
21
108.2841027
0
LINE
8
DEFAULT_255_1_234
10
4.7559439
20
108.2841027
11
4.4668014
21
107.8279
0
LINE
8
DEFAULT_255_1_234
10
4.4668014
20
107.8279
11
4.2844809
21
107.8279
0
LINE
8
DEFAULT_255_1_234
10
4.2844809
20
107.8279
11
4.663579
21
108.4174296
0
LINE
8
DEFAULT_255_1_234
10
4.663579
20
108.4174296
11
4.2933158
21
108.9973211
0
LINE
8
DEFAULT_255_1_234
10
4.2933158
20
108.9973211
11
4.4740299
21
108.9973211
0
LINE
8
DEFAULT_255_1_234
10
5.8554889
20
109.0029433
11
5.8554889
21
107.8279
0
LINE
8
DEFAULT_255_1_234
10
5.8554889
20
107.8279
11
5.7060986
21
107.8279
0
LINE
8
DEFAULT_255_1_234
10
5.7060986
20
107.8279
11
5.7060986
21
108.8182133
0
LINE
8
DEFAULT_255_1_234
10
5.7060986
20
108.8182133
11
5.4065147
21
108.7081785
0
LINE
8
DEFAULT_255_1_234
10
5.4065147
20
108.7081785
11
5.4065147
21
108.8431117
0
LINE
8
DEFAULT_255_1_234
10
5.4065147
20
108.8431117
11
5.8321969
21
109.0029433
0
LINE
8
DEFAULT_255_1_234
10
5.8321969
20
109.0029433
11
5.8554889
21
109.0029433
0
LINE
8
DEFAULT_255_1_234
10
6.9180879
20
108.9973211
11
6.9180879
21
108.220652
0
LINE
8
DEFAULT_255_1_234
10
6.9180879
20
108.220652
11
7.080329
21
108.220652
0
LINE
8
DEFAULT_255_1_234
10
7.080329
20
108.220652
11
7.080329
21
108.0993728
0
LINE
8
DEFAULT_255_1_234
10
7.080329
20
108.0993728
11
6.9180879
21
108.0993728
0
LINE
8
DEFAULT_255_1_234
10
6.9180879
20
108.0993728
11
6.9180879
21
107.8279
0
LINE
8
DEFAULT_255_1_234
10
6.9180879
20
107.8279
11
6.7686976
21
107.8279
0
LINE
8
DEFAULT_255_1_234
10
6.7686976
20
107.8279
11
6.7686976
21
108.0993728
0
LINE
8
DEFAULT_255_1_234
10
6.7686976
20
108.0993728
11
6.2361933
21
108.0993728
0
LINE
8
DEFAULT_255_1_234
10
6.2361933
20
108.0993728
11
6.2361933
21
108.1869187
0
LINE
8
DEFAULT_255_1_234
10
6.2361933
20
108.1869187
11
6.7598626
21
108.9973211
0
LINE
8
DEFAULT_255_1_234
10
6.7598626
20
108.9973211
11
6.9180879
21
108.9973211
0
LINE
8
DEFAULT_255_1_234
10
6.7510277
20
108.7619912
11
6.4048598
21
108.220652
0
LINE
8
DEFAULT_255_1_234
10
6.4048598
20
108.220652
11
6.7686976
21
108.220652
0
LINE
8
DEFAULT_255_1_234
10
6.7686976
20
108.220652
11
6.7686976
21
108.7941181
0
LINE
8
DEFAULT_255_1_234
10
6.7686976
20
108.7941181
11
6.7510277
21
108.7619912
0
LINE
8
DEFAULT_255_1_234
10
4.3681299
20
116.9348211
11
4.6500439
21
116.4866501
0
LINE
8
DEFAULT_255_1_234
10
4.6500439
20
116.4866501
11
4.9303516
21
116.9348211
0
LINE
8
DEFAULT_255_1_234
10
4.9303516
20
116.9348211
11
5.1118689
21
116.9348211
0
LINE
8
DEFAULT_255_1_234
10
5.1118689
20
116.9348211
11
4.7424089
21
116.3549296
0
LINE
8
DEFAULT_255_1_234
10
4.7424089
20
116.3549296
11
5.1207038
21
115.7654
0
LINE
8
DEFAULT_255_1_234
10
5.1207038
20
115.7654
11
4.9375802
21
115.7654
0
LINE
8
DEFAULT_255_1_234
10
4.9375802
20
115.7654
11
4.6500439
21
116.2216027
0
LINE
8
DEFAULT_255_1_234
10
4.6500439
20
116.2216027
11
4.3609014
21
115.7654
0
LINE
8
DEFAULT_255_1_234
10
4.3609014
20
115.7654
11
4.1785809
21
115.7654
0
LINE
8
DEFAULT_255_1_234
10
4.1785809
20
115.7654
11
4.557679
21
116.3549296
0
LINE
8
DEFAULT_255_1_234
10
4.557679
20
116.3549296
11
4.1874158
21
116.9348211
0
LINE
8
DEFAULT_255_1_234
10
4.1874158
20
116.9348211
11
4.3681299
21
116.9348211
0
LINE
8
DEFAULT_255_1_234
10
5.7495889
20
116.9404433
11
5.7495889
21
115.7654
0
LINE
8
DEFAULT_255_1_234
10
5.7495889
20
115.7654
11
5.6001986
21
115.7654
0
LINE
8
DEFAULT_255_1_234
10
5.6001986
20
115.7654
11
5.6001986
21
116.7557133
0
LINE
8
DEFAULT_255_1_234
10
5.6001986
20
116.7557133
11
5.3006147
21
116.6456785
0
LINE
8
DEFAULT_255_1_234
10
5.3006147
20
116.6456785
11
5.3006147
21
116.7806117
0
LINE
8
DEFAULT_255_1_234
10
5.3006147
20
116.7806117
11
5.7262969
21
116.9404433
0
LINE
8
DEFAULT_255_1_234
10
5.7262969
20
116.9404433
11
5.7495889
21
116.9404433
0
LINE
8
DEFAULT_255_1_234
10
6.4009629
20
116.3011169
11
6.4009629
21
116.4223962
0
LINE
8
DEFAULT_255_1_234
10
6.4009629
20
116.4223962
11
6.5126041
21
116.4223962
0
LINE
8
DEFAULT_255_1_234
10
6.3222519
20
116.6280087
11
6.1736647
21
116.6280087
0
LINE
8
DEFAULT_255_1_234
10
6.1632234
20
116.0738188
11
6.3126138
21
116.0738188
0
LINE
8
DEFAULT_255_1_234
10
6.5126041
20
116.3011169
11
6.4009629
21
116.3011169
0
ARC
8
DEFAULT_255_1_234
10
6.5096907
20
116.7616713
40
0.3392876
50
270.4919872
51
281.8951556
0
ARC
8
DEFAULT_255_1_234
10
6.5338169
20
116.6514702
40
0.2264817
50
281.6691735
51
301.2943132
0
ARC
8
DEFAULT_255_1_234
10
6.5508379
20
116.6203304
40
0.1910381
50
301.7833094
51
311.7545298
0
ARC
8
DEFAULT_255_1_234
10
6.5599955
20
116.6101748
40
0.1773635
50
311.7323931
51
354.2802411
0
ARC
8
DEFAULT_255_1_234
10
6.487358
20
116.6226722
40
0.2509385
50
353.0937916
51
0.1181479
0
ARC
8
DEFAULT_255_1_234
10
6.4412365
20
116.6274386
40
0.2970898
50
359.1805295
51
15.0453146
0
ARC
8
DEFAULT_255_1_234
10
6.5758202
20
116.6666992
40
0.1569564
50
13.9577229
51
77.6713066
0
ARC
8
DEFAULT_255_1_234
10
6.5371731
20
116.5281949
40
0.3006298
50
76.1116566
51
90.7026153
0
ARC
8
DEFAULT_255_1_234
10
6.5312569
20
116.5555545
40
0.2732568
50
89.5324876
51
103.531937
0
ARC
8
DEFAULT_255_1_234
10
6.5112013
20
116.6354884
40
0.1908508
50
103.2931773
51
133.5619022
0
ARC
8
DEFAULT_255_1_234
10
6.5067502
20
116.6414375
40
0.1834746
50
133.8349307
51
173.5344437
0
ARC
8
DEFAULT_255_1_234
10
6.5790545
20
116.6286213
40
0.2568033
50
172.5096846
51
180.1366907
0
ARC
8
DEFAULT_255_1_234
10
6.4839439
20
116.6320622
40
0.3103056
50
155.3484492
51
180.7484736
0
ARC
8
DEFAULT_255_1_234
10
6.4790528
20
116.6291846
40
0.3070957
50
131.5744599
51
154.4798489
0
ARC
8
DEFAULT_255_1_234
10
6.5103675
20
116.597531
40
0.3515643
50
96.9875458
51
131.9690667
0
ARC
8
DEFAULT_255_1_234
10
6.5323155
20
116.4729636
40
0.4779224
50
89.8596053
51
97.7825159
0
ARC
8
DEFAULT_255_1_234
10
6.5371218
20
116.4467616
40
0.5041361
50
78.3655447
51
90.4131539
0
ARC
8
DEFAULT_255_1_234
10
6.5729136
20
116.6126887
40
0.3344039
50
56.6229102
51
78.638727
0
ARC
8
DEFAULT_255_1_234
10
6.594408
20
116.6502805
40
0.2912001
50
47.0253525
51
56.0854072
0
ARC
8
DEFAULT_255_1_234
10
6.596386
20
116.6542223
40
0.2869704
50
10.9208013
51
46.7778124
0
ARC
8
DEFAULT_255_1_234
10
6.4599926
20
116.6226857
40
0.426899
50
359.6364486
51
11.6087304
0
ARC
8
DEFAULT_255_1_234
10
6.643477
20
116.6211752
40
0.243409
50
332.3549906
51
359.7179418
0
ARC
8
DEFAULT_255_1_234
10
6.5784372
20
116.6520142
40
0.3153459
50
325.2333722
51
332.8745602
0
ARC
8
DEFAULT_255_1_234
10
6.5936995
20
116.6413828
40
0.2967456
50
292.9802137
51
325.2392345
0
ARC
8
DEFAULT_255_1_234
10
6.5662369
20
116.6947863
40
0.3566604
50
292.5402179
51
293.6924929
0
ARC
8
DEFAULT_255_1_234
10
6.6054965
20
116.0493091
40
0.3307468
50
57.6435486
51
72.8625112
0
ARC
8
DEFAULT_255_1_234
10
6.6409465
20
116.1067549
40
0.2632492
50
36.7248896
51
57.4697979
0
ARC
8
DEFAULT_255_1_234
10
6.6398098
20
116.108022
40
0.2634081
50
8.0545065
51
36.356114
0
ARC
8
DEFAULT_255_1_234
10
6.5535283
20
116.0925174
40
0.3510261
50
359.8320645
51
8.5869982
0
ARC
8
DEFAULT_255_1_234
10
6.5160059
20
116.0877101
40
0.3885653
50
343.9829931
51
0.5571613
0
ARC
8
DEFAULT_255_1_234
10
6.6046256
20
116.0634438
40
0.2966924
50
311.6359546
51
343.7651759
0
ARC
8
DEFAULT_255_1_234
10
6.5667825
20
116.1061102
40
0.3537231
50
279.7829875
51
311.6255694
0
ARC
8
DEFAULT_255_1_234
10
6.5366601
20
116.249828
40
0.5004971
50
269.7286406
51
280.3856417
0
ARC
8
DEFAULT_255_1_234
10
6.5304674
20
116.2456996
40
0.4963778
50
256.6828919
51
270.4412052
0
ARC
8
DEFAULT_255_1_234
10
6.496597
20
116.1072394
40
0.3538406
50
229.4223008
51
256.8556159
0
ARC
8
DEFAULT_255_1_234
10
6.4551363
20
116.0605736
40
0.2914296
50
181.818294
51
229.6455059
0
ARC
8
DEFAULT_255_1_234
10
6.5591319
20
116.0736496
40
0.3959084
50
179.9755256
51
183.2323064
0
ARC
8
DEFAULT_255_1_234
10
6.5419065
20
116.0716037
40
0.2293034
50
179.4465117
51
196.2869258
0
ARC
8
DEFAULT_255_1_234
10
6.4931473
20
116.0582651
40
0.1787621
50
196.5661473
51
227.705904
0
ARC
8
DEFAULT_255_1_234
10
6.5095568
20
116.0766155
40
0.2033784
50
227.7652068
51
257.8762805
0
ARC
8
DEFAULT_255_1_234
10
6.5320538
20
116.1709156
40
0.3003081
50
257.4584385
51
270.426602
0
ARC
8
DEFAULT_255_1_234
10
6.5366104
20
116.1998996
40
0.329292
50
269.5962073
51
280.8789248
0
ARC
8
DEFAULT_255_1_234
10
6.5595633
20
116.0852685
40
0.2123908
50
280.6346389
51
299.8595945
0
ARC
8
DEFAULT_255_1_234
10
6.578654
20
116.0490212
40
0.171457
50
300.3576302
51
314.5517981
0
ARC
8
DEFAULT_255_1_234
10
6.57036
20
116.0550919
40
0.1816095
50
315.0728369
51
345.0431014
0
ARC
8
DEFAULT_255_1_234
10
6.4780414
20
116.0819841
40
0.2777492
50
344.5986631
51
357.9269593
0
ARC
8
DEFAULT_255_1_234
10
6.388474
20
116.0881276
40
0.3674917
50
357.4748886
51
0.0231117
0
ARC
8
DEFAULT_255_1_234
10
6.490785
20
116.0905679
40
0.2651907
50
359.5047933
51
13.4239635
0
ARC
8
DEFAULT_255_1_234
10
6.5774493
20
116.1127478
40
0.1757509
50
12.9498199
51
48.7551375
0
ARC
8
DEFAULT_255_1_234
10
6.5592227
20
116.08784
40
0.2065134
50
49.5088623
51
72.1836453
0
ARC
8
DEFAULT_255_1_234
10
6.523438
20
115.9816291
40
0.3185836
50
71.9010081
51
84.3554254
0
ARC
8
DEFAULT_255_1_234
10
6.5073012
20
115.8455326
40
0.4556151
50
84.0193428
51
89.333121
0
LINE
8
DEFAULT_255_1_234
10
4.3681299
20
124.8723211
11
4.6500439
21
124.4241501
0
LINE
8
DEFAULT_255_1_234
10
4.6500439
20
124.4241501
11
4.9303516
21
124.8723211
0
LINE
8
DEFAULT_255_1_234
10
4.9303516
20
124.8723211
11
5.1118689
21
124.8723211
0
LINE
8
DEFAULT_255_1_234
10
5.1118689
20
124.8723211
11
4.7424089
21
124.2924296
0
LINE
8
DEFAULT_255_1_234
10
4.7424089
20
124.2924296
11
5.1207038
21
123.7029
0
LINE
8
DEFAULT_255_1_234
10
5.1207038
20
123.7029
11
4.9375802
21
123.7029
0
LINE
8
DEFAULT_255_1_234
10
4.9375802
20
123.7029
11
4.6500439
21
124.1591027
0
LINE
8
DEFAULT_255_1_234
10
4.6500439
20
124.1591027
11
4.3609014
21
123.7029
0
LINE
8
DEFAULT_255_1_234
10
4.3609014
20
123.7029
11
4.1785809
21
123.7029
0
LINE
8
DEFAULT_255_1_234
10
4.1785809
20
123.7029
11
4.557679
21
124.2924296
0
LINE
8
DEFAULT_255_1_234
10
4.557679
20
124.2924296
11
4.1874158
21
124.8723211
0
LINE
8
DEFAULT_255_1_234
10
4.1874158
20
124.8723211
11
4.3681299
21
124.8723211
0
LINE
8
DEFAULT_255_1_234
10
5.7495889
20
124.8779433
11
5.7495889
21
123.7029
0
LINE
8
DEFAULT_255_1_234
10
5.7495889
20
123.7029
11
5.6001986
21
123.7029
0
LINE
8
DEFAULT_255_1_234
10
5.6001986
20
123.7029
11
5.6001986
21
124.6932133
0
LINE
8
DEFAULT_255_1_234
10
5.6001986
20
124.6932133
11
5.3006147
21
124.5831785
0
LINE
8
DEFAULT_255_1_234
10
5.3006147
20
124.5831785
11
5.3006147
21
124.7181117
0
LINE
8
DEFAULT_255_1_234
10
5.3006147
20
124.7181117
11
5.7262969
21
124.8779433
0
LINE
8
DEFAULT_255_1_234
10
5.7262969
20
124.8779433
11
5.7495889
21
124.8779433
0
LINE
8
DEFAULT_255_1_234
10
6.951137
20
123.8241792
11
6.951137
21
123.7029
0
LINE
8
DEFAULT_255_1_234
10
6.951137
20
123.7029
11
6.1849091
21
123.7029
0
LINE
8
DEFAULT_255_1_234
10
6.1849091
20
123.7029
11
6.1849091
21
123.8097221
0
LINE
8
DEFAULT_255_1_234
10
6.1849091
20
123.8097221
11
6.5897087
21
124.2594995
0
LINE
8
DEFAULT_255_1_234
10
6.3110074
20
124.5277595
11
6.1624203
21
124.5277595
0
LINE
8
DEFAULT_255_1_234
10
6.6772547
20
124.1639218
11
6.3640169
21
123.8241792
0
LINE
8
DEFAULT_255_1_234
10
6.3640169
20
123.8241792
11
6.951137
21
123.8241792
0
ARC
8
DEFAULT_255_1_234
10
5.2406921
20
125.4524527
40
1.8008286
50
318.5132453
51
320.7828378
0
ARC
8
DEFAULT_255_1_234
10
5.7693895
20
125.0221426
40
1.1191493
50
320.7372736
51
323.9737074
0
ARC
8
DEFAULT_255_1_234
10
6.1613751
20
124.7381361
40
0.6350923
50
323.8961724
51
328.6421089
0
ARC
8
DEFAULT_255_1_234
10
6.3660347
20
124.6119031
40
0.3946393
50
328.8299013
51
331.789948
0
ARC
8
DEFAULT_255_1_234
10
6.4657525
20
124.5604509
40
0.2824501
50
331.4255242
51
352.9364833
0
ARC
8
DEFAULT_255_1_234
10
6.4794026
20
124.5573976
40
0.2685315
50
353.2248685
51
0.0169286
0
ARC
8
DEFAULT_255_1_234
10
6.5003903
20
124.559695
40
0.2475536
50
359.4866256
51
15.9339782
0
ARC
8
DEFAULT_255_1_234
10
6.5510888
20
124.5733286
40
0.1950618
50
16.1714718
51
43.5284424
0
ARC
8
DEFAULT_255_1_234
10
6.5588197
20
124.5810573
40
0.184134
50
43.4415429
51
83.1661404
0
ARC
8
DEFAULT_255_1_234
10
6.5454115
20
124.5073771
40
0.258926
50
82.160215
51
90.1505798
0
ARC
8
DEFAULT_255_1_234
10
6.5422542
20
124.4536865
40
0.3126255
50
89.5460705
51
102.5418777
0
ARC
8
DEFAULT_255_1_234
10
6.5179628
20
124.5567665
40
0.2067346
50
102.1739365
51
129.2061916
0
ARC
8
DEFAULT_255_1_234
10
6.51007
20
124.5692094
40
0.1921118
50
129.7279328
51
135.7542026
0
ARC
8
DEFAULT_255_1_234
10
6.5222228
20
124.5595045
40
0.2075944
50
136.175737
51
166.3674722
0
ARC
8
DEFAULT_255_1_234
10
6.6229147
20
124.5325182
40
0.3118201
50
165.9092917
51
178.8683903
0
ARC
8
DEFAULT_255_1_234
10
6.7094008
20
124.5278179
40
0.3983935
50
178.438168
51
180.0083905
0
ARC
8
DEFAULT_255_1_234
10
6.569261
20
124.5317231
40
0.4068601
50
163.2878735
51
180.5581814
0
ARC
8
DEFAULT_255_1_234
10
6.4890872
20
124.553784
40
0.3237344
50
133.454115
51
162.9470031
0
ARC
8
DEFAULT_255_1_234
10
6.5069413
20
124.5348
40
0.349795
50
100.7869394
51
133.4384016
0
ARC
8
DEFAULT_255_1_234
10
6.5417185
20
124.3799319
40
0.5084616
50
89.6605301
51
101.3704185
0
ARC
8
DEFAULT_255_1_234
10
6.5483523
20
124.3860496
40
0.502348
50
78.2171172
51
90.4130393
0
ARC
8
DEFAULT_255_1_234
10
6.5838602
20
124.5484637
40
0.3361092
50
55.9268222
51
78.4888551
0
ARC
8
DEFAULT_255_1_234
10
6.6035042
20
124.5823324
40
0.2970617
50
47.9292255
51
55.4054003
0
ARC
8
DEFAULT_255_1_234
10
6.6136603
20
124.5926502
40
0.2825983
50
4.3347696
51
48.0560701
0
ARC
8
DEFAULT_255_1_234
10
6.5040996
20
124.5756601
40
0.393225
50
359.925209
51
5.5967654
0
ARC
8
DEFAULT_255_1_234
10
6.5469888
20
124.5812816
40
0.3503892
50
337.8914096
51
358.9967724
0
ARC
8
DEFAULT_255_1_234
10
6.27563
20
124.6859706
40
0.6412172
50
326.9135351
51
338.3505194
0
ARC
8
DEFAULT_255_1_234
10
5.8770604
20
124.9414284
40
1.1146189
50
319.6472867
51
327.095818
0
ARC
8
DEFAULT_255_1_234
10
5.4937607
20
125.2576
40
1.6114559
50
317.2586784
51
319.9046139
0
LINE
8
DEFAULT_255_1_234
10
4.3590299
20
132.8098211
11
4.6409439
21
132.3616501
0
LINE
8
DEFAULT_255_1_234
10
4.6409439
20
132.3616501
11
4.9212516
21
132.8098211
0
LINE
8
DEFAULT_255_1_234
10
4.9212516
20
132.8098211
11
5.1027689
21
132.8098211
0
LINE
8
DEFAULT_255_1_234
10
5.1027689
20
132.8098211
11
4.7333089
21
132.2299296
0
LINE
8
DEFAULT_255_1_234
10
4.7333089
20
132.2299296
11
5.1116038
21
131.6404
0
LINE
8
DEFAULT_255_1_234
10
5.1116038
20
131.6404
11
4.9284802
21
131.6404
0
LINE
8
DEFAULT_255_1_234
10
4.9284802
20
131.6404
11
4.6409439
21
132.0966027
0
LINE
8
DEFAULT_255_1_234
10
4.6409439
20
132.0966027
11
4.3518014
21
131.6404
0
LINE
8
DEFAULT_255_1_234
10
4.3518014
20
131.6404
11
4.1694809
21
131.6404
0
LINE
8
DEFAULT_255_1_234
10
4.1694809
20
131.6404
11
4.548579
21
132.2299296
0
LINE
8
DEFAULT_255_1_234
10
4.548579
20
132.2299296
11
4.1783158
21
132.8098211
0
LINE
8
DEFAULT_255_1_234
10
4.1783158
20
132.8098211
11
4.3590299
21
132.8098211
0
LINE
8
DEFAULT_255_1_234
10
5.7404889
20
132.8154433
11
5.7404889
21
131.6404
0
LINE
8
DEFAULT_255_1_234
10
5.7404889
20
131.6404
11
5.5910986
21
131.6404
0
LINE
8
DEFAULT_255_1_234
10
5.5910986
20
131.6404
11
5.5910986
21
132.6307133
0
LINE
8
DEFAULT_255_1_234
10
5.5910986
20
132.6307133
11
5.2915147
21
132.5206785
0
LINE
8
DEFAULT_255_1_234
10
5.2915147
20
132.5206785
11
5.2915147
21
132.6556117
0
LINE
8
DEFAULT_255_1_234
10
5.2915147
20
132.6556117
11
5.7171969
21
132.8154433
0
LINE
8
DEFAULT_255_1_234
10
5.7171969
20
132.8154433
11
5.7404889
21
132.8154433
0
LINE
8
DEFAULT_255_1_234
10
6.6641388
20
132.8154433
11
6.6641388
21
131.6404
0
LINE
8
DEFAULT_255_1_234
10
6.6641388
20
131.6404
11
6.5147485
21
131.6404
0
LINE
8
DEFAULT_255_1_234
10
6.5147485
20
131.6404
11
6.5147485
21
132.6307133
0
LINE
8
DEFAULT_255_1_234
10
6.5147485
20
132.6307133
11
6.2151646
21
132.5206785
0
LINE
8
DEFAULT_255_1_234
10
6.2151646
20
132.5206785
11
6.2151646
21
132.6556117
0
LINE
8
DEFAULT_255_1_234
10
6.2151646
20
132.6556117
11
6.6408468
21
132.8154433
0
LINE
8
DEFAULT_255_1_234
10
6.6408468
20
132.8154433
11
6.6641388
21
132.8154433
0
LINE
8
DEFAULT_255_1_234
10
4.3681299
20
140.7473211
11
4.6500439
21
140.2991501
0
LINE
8
DEFAULT_255_1_234
10
4.6500439
20
140.2991501
11
4.9303516
21
140.7473211
0
LINE
8
DEFAULT_255_1_234
10
4.9303516
20
140.7473211
11
5.1118689
21
140.7473211
0
LINE
8
DEFAULT_255_1_234
10
5.1118689
20
140.7473211
11
4.7424089
21
140.1674296
0
LINE
8
DEFAULT_255_1_234
10
4.7424089
20
140.1674296
11
5.1207038
21
139.5779
0
LINE
8
DEFAULT_255_1_234
10
5.1207038
20
139.5779
11
4.9375802
21
139.5779
0
LINE
8
DEFAULT_255_1_234
10
4.9375802
20
139.5779
11
4.6500439
21
140.0341027
0
LINE
8
DEFAULT_255_1_234
10
4.6500439
20
140.0341027
11
4.3609014
21
139.5779
0
LINE
8
DEFAULT_255_1_234
10
4.3609014
20
139.5779
11
4.1785809
21
139.5779
0
LINE
8
DEFAULT_255_1_234
10
4.1785809
20
139.5779
11
4.557679
21
140.1674296
0
LINE
8
DEFAULT_255_1_234
10
4.557679
20
140.1674296
11
4.1874158
21
140.7473211
0
LINE
8
DEFAULT_255_1_234
10
4.1874158
20
140.7473211
11
4.3681299
21
140.7473211
0
LINE
8
DEFAULT_255_1_234
10
5.7495889
20
140.7529433
11
5.7495889
21
139.5779
0
LINE
8
DEFAULT_255_1_234
10
5.7495889
20
139.5779
11
5.6001986
21
139.5779
0
LINE
8
DEFAULT_255_1_234
10
5.6001986
20
139.5779
11
5.6001986
21
140.5682133
0
LINE
8
DEFAULT_255_1_234
10
5.6001986
20
140.5682133
11
5.3006147
21
140.4581785
0
LINE
8
DEFAULT_255_1_234
10
5.3006147
20
140.4581785
11
5.3006147
21
140.5931117
0
LINE
8
DEFAULT_255_1_234
10
5.3006147
20
140.5931117
11
5.7262969
21
140.7529433
0
LINE
8
DEFAULT_255_1_234
10
5.7262969
20
140.7529433
11
5.7495889
21
140.7529433
0
LINE
8
DEFAULT_255_1_234
10
6.9182068
20
140.2694327
11
6.9182068
21
140.0766709
0
LINE
8
DEFAULT_255_1_234
10
6.1800901
20
140.0565916
11
6.1800901
21
140.2549755
0
LINE
8
DEFAULT_255_1_234
10
6.7696197
20
140.0365123
11
6.7696197
21
140.2798739
0
LINE
8
DEFAULT_255_1_234
10
6.3286772
20
140.2911184
11
6.3286772
21
140.0533789
0
ARC
8
DEFAULT_255_1_234
10
5.6934958
20
140.0717805
40
1.2247208
50
353.8441951
51
0.2287902
0
ARC
8
DEFAULT_255_1_234
10
6.1574462
20
140.0199806
40
0.7578929
50
344.4934747
51
353.9765454
0
ARC
8
DEFAULT_255_1_234
10
6.4567052
20
139.9348981
40
0.4467846
50
329.2803592
51
344.7472793
0
ARC
8
DEFAULT_255_1_234
10
6.5559877
20
139.8804018
40
0.3336173
50
324.9352394
51
328.6160465
0
ARC
8
DEFAULT_255_1_234
10
6.5936985
20
139.8540427
40
0.2876076
50
280.580143
51
324.9173126
0
ARC
8
DEFAULT_255_1_234
10
6.5535778
20
140.0211099
40
0.4592847
50
269.5977311
51
281.6734359
0
ARC
8
DEFAULT_255_1_234
10
6.5463684
20
140.0091173
40
0.4472986
50
256.6228859
51
270.51044
0
ARC
8
DEFAULT_255_1_234
10
6.5061661
20
139.8542877
40
0.2873874
50
215.8618325
51
257.2788573
0
ARC
8
DEFAULT_255_1_234
10
6.6082693
20
139.9227977
40
0.4102928
50
197.9693508
51
215.2623606
0
ARC
8
DEFAULT_255_1_234
10
6.8567809
20
140.0066709
40
0.6725652
50
187.8816417
51
198.2346507
0
ARC
8
DEFAULT_255_1_234
10
7.2526017
20
140.0638079
40
1.0724845
50
180.8976217
51
188.0055519
0
ARC
8
DEFAULT_255_1_234
10
7.5326205
20
140.0741777
40
1.3526448
50
180.7449369
51
181.1510016
0
ARC
8
DEFAULT_255_1_234
10
7.3748934
20
140.2598042
40
1.1948131
50
173.7675579
51
180.231553
0
ARC
8
DEFAULT_255_1_234
10
6.9231081
20
140.3108666
40
0.7401564
50
164.3058563
51
173.9002247
0
ARC
8
DEFAULT_255_1_234
10
6.631915
20
140.3947656
40
0.4371288
50
148.7922025
51
164.568378
0
ARC
8
DEFAULT_255_1_234
10
6.5367602
20
140.4478929
40
0.3282386
50
144.5883898
51
148.1176286
0
ARC
8
DEFAULT_255_1_234
10
6.50245
20
140.4718315
40
0.2864044
50
101.6440918
51
144.514236
0
ARC
8
DEFAULT_255_1_234
10
6.5449566
20
140.3029069
40
0.4604934
50
89.5284041
51
102.5819763
0
ARC
8
DEFAULT_255_1_234
10
6.5528654
20
140.2990018
40
0.464401
50
77.0437873
51
90.5081339
0
ARC
8
DEFAULT_255_1_234
10
6.5930656
20
140.4632615
40
0.2953195
50
48.2778575
51
77.4994676
0
ARC
8
DEFAULT_255_1_234
10
6.6003287
20
140.4761746
40
0.2808655
50
36.3142134
51
47.6305865
0
ARC
8
DEFAULT_255_1_234
10
6.5134594
20
140.4176515
40
0.3855453
50
18.2931786
51
35.6769206
0
ARC
8
DEFAULT_255_1_234
10
6.2591353
20
140.3303593
40
0.654423
50
8.024666
51
18.5605216
0
ARC
8
DEFAULT_255_1_234
10
5.8428273
20
140.2688792
40
1.0752407
50
1.1274072
51
8.1718305
0
ARC
8
DEFAULT_255_1_234
10
5.5192464
20
140.2561885
40
1.3990231
50
0.5424119
51
1.3863029
0
ARC
8
DEFAULT_255_1_234
10
5.7013841
20
140.2834342
40
1.0682415
50
359.8090433
51
4.9407866
0
ARC
8
DEFAULT_255_1_234
10
6.1223855
20
140.3210113
40
0.6455691
50
4.8362157
51
12.2904523
0
ARC
8
DEFAULT_255_1_234
10
6.397897
20
140.3823965
40
0.3633074
50
12.0805627
51
23.8173984
0
ARC
8
DEFAULT_255_1_234
10
6.5152676
20
140.4320919
40
0.2358723
50
24.2871213
51
31.3935614
0
ARC
8
DEFAULT_255_1_234
10
6.5677373
20
140.4664233
40
0.1732111
50
30.7407893
51
82.4657128
0
ARC
8
DEFAULT_255_1_234
10
6.5497507
20
140.3780691
40
0.263235
50
81.1060089
51
90.2184952
0
ARC
8
DEFAULT_255_1_234
10
6.5461806
20
140.4038924
40
0.2374236
50
89.3806855
51
105.6762551
0
ARC
8
DEFAULT_255_1_234
10
6.5278437
20
140.4705567
40
0.1682847
50
105.7981136
51
149.7388061
0
ARC
8
DEFAULT_255_1_234
10
6.6342515
20
140.406595
40
0.2924306
50
149.4208916
51
163.6286378
0
ARC
8
DEFAULT_255_1_234
10
6.8433403
20
140.342825
40
0.5110213
50
163.3763315
51
172.1410975
0
ARC
8
DEFAULT_255_1_234
10
7.1734122
20
140.2955518
40
0.8444586
50
172.0259487
51
178.0703232
0
ARC
8
DEFAULT_255_1_234
10
7.4764211
20
140.2811906
40
1.1477868
50
177.8631668
51
179.5044149
0
ARC
8
DEFAULT_255_1_234
10
7.3691616
20
140.0497389
40
1.0404907
50
179.7995573
51
185.2460446
0
ARC
8
DEFAULT_255_1_234
10
6.9648655
20
140.0114513
40
0.6343885
50
185.1411642
51
193.0079639
0
ARC
8
DEFAULT_255_1_234
10
6.7005128
20
139.9489641
40
0.3627568
50
192.7897626
51
205.2507664
0
ARC
8
DEFAULT_255_1_234
10
6.5958675
20
139.9022415
40
0.2481908
50
205.8005384
51
211.2537509
0
ARC
8
DEFAULT_255_1_234
10
6.5435115
20
139.867158
40
0.1852521
50
210.3789793
51
238.4008143
0
ARC
8
DEFAULT_255_1_234
10
6.5415637
20
139.8718376
40
0.1882621
50
239.6520629
51
265.9793761
0
ARC
8
DEFAULT_255_1_234
10
6.5500837
20
139.9390427
40
0.2559272
50
265.1315437
51
270.060332
0
ARC
8
DEFAULT_255_1_234
10
6.5529616
20
139.9066534
40
0.2235528
50
269.3314664
51
287.2178029
0
ARC
8
DEFAULT_255_1_234
10
6.5667468
20
139.8563279
40
0.1714108
50
287.7958004
51
329.080874
0
ARC
8
DEFAULT_255_1_234
10
6.4709925
20
139.916093
40
0.2842745
50
328.6634704
51
343.3325132
0
ARC
8
DEFAULT_255_1_234
10
6.2536945
20
139.9837863
40
0.5118644
50
343.0499468
51
351.9393422
0
ARC
8
DEFAULT_255_1_234
10
5.9070245
20
140.0348949
40
0.8622784
50
351.8069023
51
357.7959224
0
ARC
8
DEFAULT_255_1_234
10
5.5834801
20
140.0516721
40
1.1862365
50
357.5871873
51
359.2677531
0
LINE
8
DEFAULT_255_1_234
10
4.3112299
20
148.6848211
11
4.5931439
21
148.2366501
0
LINE
8
DEFAULT_255_1_234
10
4.5931439
20
148.2366501
11
4.8734516
21
148.6848211
0
LINE
8
DEFAULT_255_1_234
10
4.8734516
20
148.6848211
11
5.0549689
21
148.6848211
0
LINE
8
DEFAULT_255_1_234
10
5.0549689
20
148.6848211
11
4.6855089
21
148.1049296
0
LINE
8
DEFAULT_255_1_234
10
4.6855089
20
148.1049296
11
5.0638038
21
147.5154
0
LINE
8
DEFAULT_255_1_234
10
5.0638038
20
147.5154
11
4.8806802
21
147.5154
0
LINE
8
DEFAULT_255_1_234
10
4.8806802
20
147.5154
11
4.5931439
21
147.9716027
0
LINE
8
DEFAULT_255_1_234
10
4.5931439
20
147.9716027
11
4.3040014
21
147.5154
0
LINE
8
DEFAULT_255_1_234
10
4.3040014
20
147.5154
11
4.1216809
21
147.5154
0
LINE
8
DEFAULT_255_1_234
10
4.1216809
20
147.5154
11
4.500779
21
148.1049296
0
LINE
8
DEFAULT_255_1_234
10
4.500779
20
148.1049296
11
4.1305158
21
148.6848211
0
LINE
8
DEFAULT_255_1_234
10
4.1305158
20
148.6848211
11
4.3112299
21
148.6848211
0
LINE
8
DEFAULT_255_1_234
10
5.9593426
20
148.6848211
11
5.9593426
21
148.601291
0
LINE
8
DEFAULT_255_1_234
10
5.9593426
20
148.601291
11
5.4750288
21
147.5154
0
LINE
8
DEFAULT_255_1_234
10
5.4750288
20
147.5154
11
5.3192131
21
147.5154
0
LINE
8
DEFAULT_255_1_234
10
5.3192131
20
147.5154
11
5.8019206
21
148.5627387
0
LINE
8
DEFAULT_255_1_234
10
5.8019206
20
148.5627387
11
5.1690196
21
148.5627387
0
LINE
8
DEFAULT_255_1_234
10
5.1690196
20
148.5627387
11
5.1690196
21
148.6848211
0
LINE
8
DEFAULT_255_1_234
10
5.1690196
20
148.6848211
11
5.9593426
21
148.6848211
0
LINE
8
DEFAULT_255_1_234
10
4.3112299
20
156.6223211
11
4.5931439
21
156.1741501
0
LINE
8
DEFAULT_255_1_234
10
4.5931439
20
156.1741501
11
4.8734516
21
156.6223211
0
LINE
8
DEFAULT_255_1_234
10
4.8734516
20
156.6223211
11
5.0549689
21
156.6223211
0
LINE
8
DEFAULT_255_1_234
10
5.0549689
20
156.6223211
11
4.6855089
21
156.0424296
0
LINE
8
DEFAULT_255_1_234
10
4.6855089
20
156.0424296
11
5.0638038
21
155.4529
0
LINE
8
DEFAULT_255_1_234
10
5.0638038
20
155.4529
11
4.8806802
21
155.4529
0
LINE
8
DEFAULT_255_1_234
10
4.8806802
20
155.4529
11
4.5931439
21
155.9091027
0
LINE
8
DEFAULT_255_1_234
10
4.5931439
20
155.9091027
11
4.3040014
21
155.4529
0
LINE
8
DEFAULT_255_1_234
10
4.3040014
20
155.4529
11
4.1216809
21
155.4529
0
LINE
8
DEFAULT_255_1_234
10
4.1216809
20
155.4529
11
4.500779
21
156.0424296
0
LINE
8
DEFAULT_255_1_234
10
4.500779
20
156.0424296
11
4.1305158
21
156.6223211
0
LINE
8
DEFAULT_255_1_234
10
4.1305158
20
156.6223211
11
4.3112299
21
156.6223211
0
LINE
8
DEFAULT_255_1_234
10
5.7609587
20
156.6231243
11
5.7874634
21
156.6231243
0
LINE
8
DEFAULT_255_1_234
10
5.7874634
20
156.6231243
11
5.7874634
21
156.497026
0
LINE
8
DEFAULT_255_1_234
10
5.7874634
20
156.497026
11
5.7601555
21
156.497026
0
LINE
8
DEFAULT_255_1_234
10
5.2131941
20
155.8978583
11
5.2131941
21
155.9548836
0
LINE
8
DEFAULT_255_1_234
10
5.3625845
20
155.9356075
11
5.3625845
21
155.8809917
0
ARC
8
DEFAULT_255_1_234
10
5.7653903
20
155.9972455
40
0.4998079
50
90.6001036
51
104.514704
0
ARC
8
DEFAULT_255_1_234
10
5.7265419
20
156.1417131
40
0.3502176
50
104.2855254
51
133.862935
0
ARC
8
DEFAULT_255_1_234
10
5.7429176
20
156.130883
40
0.3693984
50
134.5302688
51
161.6210873
0
ARC
8
DEFAULT_255_1_234
10
5.9082365
20
156.0725895
40
0.5446739
50
161.2849839
51
174.2076652
0
ARC
8
DEFAULT_255_1_234
10
6.0489302
20
156.0531787
40
0.6866274
50
173.7810589
51
174.9254635
0
ARC
8
DEFAULT_255_1_234
10
5.5939134
20
155.9148839
40
0.3033419
50
95.8330959
51
138.9954921
0
ARC
8
DEFAULT_255_1_234
10
5.616249
20
155.7870375
40
0.4328947
50
89.8753725
51
97.0544009
0
ARC
8
DEFAULT_255_1_234
10
5.6209956
20
155.8705748
40
0.3493769
50
71.6407809
51
90.6240094
0
ARC
8
DEFAULT_255_1_234
10
5.6360529
20
155.9260082
40
0.2920396
50
39.6367836
51
71.019018
0
ARC
8
DEFAULT_255_1_234
10
5.5724002
20
155.8709998
40
0.3761538
50
10.658731
51
39.9043955
0
ARC
8
DEFAULT_255_1_234
10
5.4176085
20
155.8373686
40
0.5345136
50
359.682601
51
11.132623
0
ARC
8
DEFAULT_255_1_234
10
5.4136216
20
155.830301
40
0.5385081
50
347.2486944
51
0.4369317
0
ARC
8
DEFAULT_255_1_234
10
5.5803693
20
155.7901807
40
0.3670249
50
318.1409698
51
347.6118597
0
ARC
8
DEFAULT_255_1_234
10
5.6128686
20
155.7634702
40
0.3250007
50
275.6342139
51
317.8248465
0
ARC
8
DEFAULT_255_1_234
10
5.5907797
20
155.8934219
40
0.4565864
50
269.8874292
51
276.7917694
0
ARC
8
DEFAULT_255_1_234
10
5.5852868
20
155.7908743
40
0.3540676
50
246.9140195
51
270.7437342
0
ARC
8
DEFAULT_255_1_234
10
5.5859258
20
155.7766384
40
0.3412781
50
218.1665114
51
245.878116
0
ARC
8
DEFAULT_255_1_234
10
5.6738719
20
155.8502279
40
0.455911
50
191.4115814
51
218.6077802
0
ARC
8
DEFAULT_255_1_234
10
5.8676808
20
155.8936833
40
0.6545001
50
179.6345085
51
191.7836486
0
ARC
8
DEFAULT_255_1_234
10
6.4259145
20
155.9615697
40
1.2127388
50
171.4525249
51
180.3158839
0
ARC
8
DEFAULT_255_1_234
10
5.9864021
20
156.0299608
40
0.7679464
50
157.9802646
51
171.6246686
0
ARC
8
DEFAULT_255_1_234
10
5.7650042
20
156.1182421
40
0.5296008
50
141.4298019
51
157.854097
0
ARC
8
DEFAULT_255_1_234
10
5.7008362
20
156.1636381
40
0.4511509
50
102.8715806
51
140.8564722
0
ARC
8
DEFAULT_255_1_234
10
5.7655978
20
155.9196552
40
0.7034845
50
90.3778349
51
103.5869322
0
ARC
8
DEFAULT_255_1_234
10
5.5917754
20
155.859173
40
0.2370698
50
89.8751008
51
126.2071704
0
ARC
8
DEFAULT_255_1_234
10
5.5963544
20
155.8437303
40
0.2522934
50
124.9745049
51
144.895901
0
ARC
8
DEFAULT_255_1_234
10
5.5787734
20
155.858056
40
0.2296779
50
145.2974905
51
160.2660252
0
ARC
8
DEFAULT_255_1_234
10
5.8860273
20
155.8778071
40
0.5234525
50
179.6514266
51
190.2855912
0
ARC
8
DEFAULT_255_1_234
10
5.716641
20
155.8458786
40
0.3510893
50
190.0945431
51
207.5098196
0
ARC
8
DEFAULT_255_1_234
10
5.660068
20
155.8189623
40
0.288489
50
207.9583163
51
216.3251085
0
ARC
8
DEFAULT_255_1_234
10
5.6260788
20
155.7910105
40
0.2445587
50
215.7661442
51
232.5456785
0
ARC
8
DEFAULT_255_1_234
10
5.5877771
20
155.7423482
40
0.1826382
50
232.8005391
51
270.6605633
0
ARC
8
DEFAULT_255_1_234
10
5.5923472
20
155.7787612
40
0.2190529
50
269.35537
51
288.4744281
0
ARC
8
DEFAULT_255_1_234
10
5.6016369
20
155.7438118
40
0.1829749
50
289.1833337
51
322.9683818
0
ARC
8
DEFAULT_255_1_234
10
5.5404891
20
155.7920391
40
0.2608399
50
322.6007884
51
346.5182367
0
ARC
8
DEFAULT_255_1_234
10
5.4247487
20
155.8215616
40
0.3802777
50
346.2582162
51
358.7741648
0
ARC
8
DEFAULT_255_1_234
10
5.3229156
20
155.8270965
40
0.4822176
50
358.3755224
51
0.0098023
0
ARC
8
DEFAULT_255_1_234
10
5.3985343
20
155.8298657
40
0.4066078
50
359.6214041
51
11.2839074
0
ARC
8
DEFAULT_255_1_234
10
5.526249
20
155.8565066
40
0.2761514
50
11.0482309
51
31.8146458
0
ARC
8
DEFAULT_255_1_234
10
5.5571533
20
155.8732584
40
0.2410679
50
32.3035391
51
38.082671
0
ARC
8
DEFAULT_255_1_234
10
5.5992193
20
155.9113662
40
0.1844966
50
36.825067
51
85.7415724
0
ARC
8
DEFAULT_255_1_234
10
5.5925026
20
155.8613301
40
0.2349122
50
85.0140713
51
90.0513278
0
LINE
8
DEFAULT_255_1_234
10
4.3112299
20
164.5598211
11
4.5931439
21
164.1116501
0
LINE
8
DEFAULT_255_1_234
10
4.5931439
20
164.1116501
11
4.8734516
21
164.5598211
0
LINE
8
DEFAULT_255_1_234
10
4.8734516
20
164.5598211
11
5.0549689
21
164.5598211
0
LINE
8
DEFAULT_255_1_234
10
5.0549689
20
164.5598211
11
4.6855089
21
163.9799296
0
LINE
8
DEFAULT_255_1_234
10
4.6855089
20
163.9799296
11
5.0638038
21
163.3904
0
LINE
8
DEFAULT_255_1_234
10
5.0638038
20
163.3904
11
4.8806802
21
163.3904
0
LINE
8
DEFAULT_255_1_234
10
4.8806802
20
163.3904
11
4.5931439
21
163.8466027
0
LINE
8
DEFAULT_255_1_234
10
4.5931439
20
163.8466027
11
4.3040014
21
163.3904
0
LINE
8
DEFAULT_255_1_234
10
4.3040014
20
163.3904
11
4.1216809
21
163.3904
0
LINE
8
DEFAULT_255_1_234
10
4.1216809
20
163.3904
11
4.500779
21
163.9799296
0
LINE
8
DEFAULT_255_1_234
10
4.500779
20
163.9799296
11
4.1305158
21
164.5598211
0
LINE
8
DEFAULT_255_1_234
10
4.1305158
20
164.5598211
11
4.3112299
21
164.5598211
0
LINE
8
DEFAULT_255_1_234
10
5.3914987
20
163.9461963
11
5.272629
21
163.9767169
0
LINE
8
DEFAULT_255_1_234
10
5.272629
20
163.9767169
11
5.3320639
21
164.5598211
0
LINE
8
DEFAULT_255_1_234
10
5.3320639
20
164.5598211
11
5.9312315
21
164.5598211
0
LINE
8
DEFAULT_255_1_234
10
5.9312315
20
164.5598211
11
5.9312315
21
164.4224784
0
LINE
8
DEFAULT_255_1_234
10
5.9312315
20
164.4224784
11
5.4581622
21
164.4224784
0
LINE
8
DEFAULT_255_1_234
10
5.4581622
20
164.4224784
11
5.4228225
21
164.1036184
0
LINE
8
DEFAULT_255_1_234
10
5.230864
20
163.6980156
11
5.3714194
21
163.6980156
0
LINE
8
DEFAULT_255_1_234
10
5.4308542
20
163.9783232
11
5.3914987
21
163.9461963
0
ARC
8
DEFAULT_255_1_234
10
5.6083009
20
163.785623
40
0.3681349
50
93.7182161
51
120.2538958
0
ARC
8
DEFAULT_255_1_234
10
5.6177272
20
163.7048394
40
0.449379
50
89.9660152
51
94.2496022
0
ARC
8
DEFAULT_255_1_234
10
5.6218006
20
163.7637549
40
0.390482
50
73.8043271
51
90.5585896
0
ARC
8
DEFAULT_255_1_234
10
5.6452903
20
163.8495602
40
0.3015334
50
41.3071453
51
73.5430202
0
ARC
8
DEFAULT_255_1_234
10
5.603673
20
163.8137324
40
0.3564457
50
13.5075983
51
41.2174222
0
ARC
8
DEFAULT_255_1_234
10
5.4394934
20
163.7707486
40
0.5261351
50
1.1331335
51
13.8829381
0
ARC
8
DEFAULT_255_1_234
10
5.2983303
20
163.7631665
40
0.6674378
50
359.9919444
51
1.544251
0
ARC
8
DEFAULT_255_1_234
10
5.4260129
20
163.759028
40
0.5397702
50
347.8572367
51
0.4293338
0
ARC
8
DEFAULT_255_1_234
10
5.6010447
20
163.7193736
40
0.3603188
50
323.673004
51
348.1672506
0
ARC
8
DEFAULT_255_1_234
10
5.6304955
20
163.7014168
40
0.3259678
50
316.8171152
51
323.1492751
0
ARC
8
DEFAULT_255_1_234
10
5.6366144
20
163.697746
40
0.3189975
50
281.8396411
51
316.5457803
0
ARC
8
DEFAULT_255_1_234
10
5.5990408
20
163.8532762
40
0.4789527
50
269.5770101
51
282.4214771
0
ARC
8
DEFAULT_255_1_234
10
5.5919219
20
163.8319125
40
0.45759
50
256.2427136
51
270.4486331
0
ARC
8
DEFAULT_255_1_234
10
5.5620121
20
163.7119229
40
0.3339303
50
228.9023911
51
256.3314342
0
ARC
8
DEFAULT_255_1_234
10
5.5546354
20
163.7002746
40
0.32031
50
193.753695
51
228.5271154
0
ARC
8
DEFAULT_255_1_234
10
5.6784308
20
163.73658
40
0.4492253
50
184.924711
51
194.497588
0
ARC
8
DEFAULT_255_1_234
10
5.6976875
20
163.7401591
40
0.3289787
50
187.3600538
51
198.6732863
0
ARC
8
DEFAULT_255_1_234
10
5.5927169
20
163.7037674
40
0.217884
50
198.4451669
51
217.794479
0
ARC
8
DEFAULT_255_1_234
10
5.5631344
20
163.6828085
40
0.1816698
50
218.2887171
51
228.5612368
0
ARC
8
DEFAULT_255_1_234
10
5.5729131
20
163.6959963
40
0.1980329
50
228.9654866
51
258.1234728
0
ARC
8
DEFAULT_255_1_234
10
5.5934841
20
163.7840833
40
0.2884748
50
257.7258293
51
270.401361
0
ARC
8
DEFAULT_255_1_234
10
5.5979727
20
163.7395821
40
0.2439788
50
269.4204404
51
286.4209037
0
ARC
8
DEFAULT_255_1_234
10
5.6128215
20
163.6856657
40
0.1880666
50
286.7251356
51
320.600362
0
ARC
8
DEFAULT_255_1_234
10
5.574504
20
163.7167595
40
0.2374121
50
320.6712579
51
344.5441685
0
ARC
8
DEFAULT_255_1_234
10
5.4588366
20
163.7507045
40
0.3579479
50
344.2412205
51
356.7357071
0
ARC
8
DEFAULT_255_1_234
10
5.3339515
20
163.7610444
40
0.4832297
50
356.3548756
51
0.0500261
0
ARC
8
DEFAULT_255_1_234
10
5.4676024
20
163.764165
40
0.3495889
50
359.5576869
51
12.953486
0
ARC
8
DEFAULT_255_1_234
10
5.5730921
20
163.7897434
40
0.2410532
50
12.6490276
51
41.6081334
0
ARC
8
DEFAULT_255_1_234
10
5.5961292
20
163.8093321
40
0.2108218
50
41.7850273
51
85.9892764
0
ARC
8
DEFAULT_255_1_234
10
5.5838029
20
163.7280462
40
0.2928454
50
84.6957577
51
90.0676183
0
ARC
8
DEFAULT_255_1_234
10
5.5814513
20
163.6611716
40
0.3597255
50
89.6804936
51
99.1614436
0
ARC
8
DEFAULT_255_1_234
10
5.5609144
20
163.7839131
40
0.235281
50
98.9830931
51
113.8908934
0
ARC
8
DEFAULT_255_1_234
10
5.5379554
20
163.8380587
40
0.176479
50
114.1950727
51
127.3641004
0
LINE
8
DEFAULT_255_1_234
10
4.4170299
20
172.4973211
11
4.6989439
21
172.0491501
0
LINE
8
DEFAULT_255_1_234
10
4.6989439
20
172.0491501
11
4.9792516
21
172.4973211
0
LINE
8
DEFAULT_255_1_234
10
4.9792516
20
172.4973211
11
5.1607689
21
172.4973211
0
LINE
8
DEFAULT_255_1_234
10
5.1607689
20
172.4973211
11
4.7913089
21
171.9174296
0
LINE
8
DEFAULT_255_1_234
10
4.7913089
20
171.9174296
11
5.1696038
21
171.3279
0
LINE
8
DEFAULT_255_1_234
10
5.1696038
20
171.3279
11
4.9864802
21
171.3279
0
LINE
8
DEFAULT_255_1_234
10
4.9864802
20
171.3279
11
4.6989439
21
171.7841027
0
LINE
8
DEFAULT_255_1_234
10
4.6989439
20
171.7841027
11
4.4098014
21
171.3279
0
LINE
8
DEFAULT_255_1_234
10
4.4098014
20
171.3279
11
4.2274809
21
171.3279
0
LINE
8
DEFAULT_255_1_234
10
4.2274809
20
171.3279
11
4.606579
21
171.9174296
0
LINE
8
DEFAULT_255_1_234
10
4.606579
20
171.9174296
11
4.2363158
21
172.4973211
0
LINE
8
DEFAULT_255_1_234
10
4.2363158
20
172.4973211
11
4.4170299
21
172.4973211
0
LINE
8
DEFAULT_255_1_234
10
5.937438
20
172.4973211
11
5.937438
21
171.720652
0
LINE
8
DEFAULT_255_1_234
10
5.937438
20
171.720652
11
6.0996791
21
171.720652
0
LINE
8
DEFAULT_255_1_234
10
6.0996791
20
171.720652
11
6.0996791
21
171.5993728
0
LINE
8
DEFAULT_255_1_234
10
6.0996791
20
171.5993728
11
5.937438
21
171.5993728
0
LINE
8
DEFAULT_255_1_234
10
5.937438
20
171.5993728
11
5.937438
21
171.3279
0
LINE
8
DEFAULT_255_1_234
10
5.937438
20
171.3279
11
5.7880477
21
171.3279
0
LINE
8
DEFAULT_255_1_234
10
5.7880477
20
171.3279
11
5.7880477
21
171.5993728
0
LINE
8
DEFAULT_255_1_234
10
5.7880477
20
171.5993728
11
5.2555434
21
171.5993728
0
LINE
8
DEFAULT_255_1_234
10
5.2555434
20
171.5993728
11
5.2555434
21
171.6869187
0
LINE
8
DEFAULT_255_1_234
10
5.2555434
20
171.6869187
11
5.7792127
21
172.4973211
0
LINE
8
DEFAULT_255_1_234
10
5.7792127
20
172.4973211
11
5.937438
21
172.4973211
0
LINE
8
DEFAULT_255_1_234
10
5.7703778
20
172.2619912
11
5.4242099
21
171.720652
0
LINE
8
DEFAULT_255_1_234
10
5.4242099
20
171.720652
11
5.7880477
21
171.720652
0
LINE
8
DEFAULT_255_1_234
10
5.7880477
20
171.720652
11
5.7880477
21
172.2941181
0
LINE
8
DEFAULT_255_1_234
10
5.7880477
20
172.2941181
11
5.7703778
21
172.2619912
0
LINE
8
DEFAULT_255_1_234
10
4.3112299
20
180.4348211
11
4.5931439
21
179.9866501
0
LINE
8
DEFAULT_255_1_234
10
4.5931439
20
179.9866501
11
4.8734516
21
180.4348211
0
LINE
8
DEFAULT_255_1_234
10
4.8734516
20
180.4348211
11
5.0549689
21
180.4348211
0
LINE
8
DEFAULT_255_1_234
10
5.0549689
20
180.4348211
11
4.6855089
21
179.8549296
0
LINE
8
DEFAULT_255_1_234
10
4.6855089
20
179.8549296
11
5.0638038
21
179.2654
0
LINE
8
DEFAULT_255_1_234
10
5.0638038
20
179.2654
11
4.8806802
21
179.2654
0
LINE
8
DEFAULT_255_1_234
10
4.8806802
20
179.2654
11
4.5931439
21
179.7216027
0
LINE
8
DEFAULT_255_1_234
10
4.5931439
20
179.7216027
11
4.3040014
21
179.2654
0
LINE
8
DEFAULT_255_1_234
10
4.3040014
20
179.2654
11
4.1216809
21
179.2654
0
LINE
8
DEFAULT_255_1_234
10
4.1216809
20
179.2654
11
4.500779
21
179.8549296
0
LINE
8
DEFAULT_255_1_234
10
4.500779
20
179.8549296
11
4.1305158
21
180.4348211
0
LINE
8
DEFAULT_255_1_234
10
4.1305158
20
180.4348211
11
4.3112299
21
180.4348211
0
LINE
8
DEFAULT_255_1_234
10
5.420413
20
179.8011169
11
5.420413
21
179.9223962
0
LINE
8
DEFAULT_255_1_234
10
5.420413
20
179.9223962
11
5.5320542
21
179.9223962
0
LINE
8
DEFAULT_255_1_234
10
5.341702
20
180.1280087
11
5.1931148
21
180.1280087
0
LINE
8
DEFAULT_255_1_234
10
5.1826735
20
179.5738188
11
5.3320639
21
179.5738188
0
LINE
8
DEFAULT_255_1_234
10
5.5320542
20
179.8011169
11
5.420413
21
179.8011169
0
ARC
8
DEFAULT_255_1_234
10
5.5291408
20
180.2616713
40
0.3392876
50
270.4919872
51
281.8951556
0
ARC
8
DEFAULT_255_1_234
10
5.553267
20
180.1514702
40
0.2264817
50
281.6691735
51
301.2943132
0
ARC
8
DEFAULT_255_1_234
10
5.570288
20
180.1203304
40
0.1910381
50
301.7833094
51
311.7545298
0
ARC
8
DEFAULT_255_1_234
10
5.5794456
20
180.1101748
40
0.1773635
50
311.7323931
51
354.2802411
0
ARC
8
DEFAULT_255_1_234
10
5.5068081
20
180.1226722
40
0.2509385
50
353.0937916
51
0.1181479
0
ARC
8
DEFAULT_255_1_234
10
5.4606866
20
180.1274386
40
0.2970898
50
359.1805295
51
15.0453146
0
ARC
8
DEFAULT_255_1_234
10
5.5952703
20
180.1666992
40
0.1569564
50
13.9577229
51
77.6713066
0
ARC
8
DEFAULT_255_1_234
10
5.5566232
20
180.0281949
40
0.3006298
50
76.1116566
51
90.7026153
0
ARC
8
DEFAULT_255_1_234
10
5.550707
20
180.0555545
40
0.2732568
50
89.5324876
51
103.531937
0
ARC
8
DEFAULT_255_1_234
10
5.5306514
20
180.1354884
40
0.1908508
50
103.2931773
51
133.5619022
0
ARC
8
DEFAULT_255_1_234
10
5.5262003
20
180.1414375
40
0.1834746
50
133.8349307
51
173.5344437
0
ARC
8
DEFAULT_255_1_234
10
5.5985046
20
180.1286213
40
0.2568033
50
172.5096846
51
180.1366907
0
ARC
8
DEFAULT_255_1_234
10
5.503394
20
180.1320622
40
0.3103056
50
155.3484492
51
180.7484736
0
ARC
8
DEFAULT_255_1_234
10
5.4985029
20
180.1291846
40
0.3070957
50
131.5744599
51
154.4798489
0
ARC
8
DEFAULT_255_1_234
10
5.5298176
20
180.097531
40
0.3515643
50
96.9875458
51
131.9690667
0
ARC
8
DEFAULT_255_1_234
10
5.5517656
20
179.9729636
40
0.4779224
50
89.8596053
51
97.7825159
0
ARC
8
DEFAULT_255_1_234
10
5.5565719
20
179.9467616
40
0.5041361
50
78.3655447
51
90.4131539
0
ARC
8
DEFAULT_255_1_234
10
5.5923637
20
180.1126887
40
0.3344039
50
56.6229102
51
78.638727
0
ARC
8
DEFAULT_255_1_234
10
5.6138581
20
180.1502805
40
0.2912001
50
47.0253525
51
56.0854072
0
ARC
8
DEFAULT_255_1_234
10
5.6158361
20
180.1542223
40
0.2869704
50
10.9208013
51
46.7778124
0
ARC
8
DEFAULT_255_1_234
10
5.4794427
20
180.1226857
40
0.426899
50
359.6364486
51
11.6087304
0
ARC
8
DEFAULT_255_1_234
10
5.6629271
20
180.1211752
40
0.243409
50
332.3549906
51
359.7179418
0
ARC
8
DEFAULT_255_1_234
10
5.5978873
20
180.1520142
40
0.3153459
50
325.2333722
51
332.8745602
0
ARC
8
DEFAULT_255_1_234
10
5.6131496
20
180.1413828
40
0.2967456
50
292.9802137
51
325.2392345
0
ARC
8
DEFAULT_255_1_234
10
5.585687
20
180.1947863
40
0.3566604
50
292.5402179
51
293.6924929
0
ARC
8
DEFAULT_255_1_234
10
5.6249466
20
179.5493091
40
0.3307468
50
57.6435486
51
72.8625112
0
ARC
8
DEFAULT_255_1_234
10
5.6603966
20
179.6067549
40
0.2632492
50
36.7248896
51
57.4697979
0
ARC
8
DEFAULT_255_1_234
10
5.6592598
20
179.608022
40
0.2634081
50
8.0545065
51
36.356114
0
ARC
8
DEFAULT_255_1_234
10
5.5729784
20
179.5925174
40
0.3510261
50
359.8320645
51
8.5869982
0
ARC
8
DEFAULT_255_1_234
10
5.535456
20
179.5877101
40
0.3885653
50
343.9829931
51
0.5571613
0
ARC
8
DEFAULT_255_1_234
10
5.6240757
20
179.5634438
40
0.2966924
50
311.6359546
51
343.7651759
0
ARC
8
DEFAULT_255_1_234
10
5.5862326
20
179.6061102
40
0.3537231
50
279.7829875
51
311.6255694
0
ARC
8
DEFAULT_255_1_234
10
5.5561102
20
179.749828
40
0.5004971
50
269.7286406
51
280.3856417
0
ARC
8
DEFAULT_255_1_234
10
5.5499175
20
179.7456996
40
0.4963778
50
256.6828919
51
270.4412052
0
ARC
8
DEFAULT_255_1_234
10
5.5160471
20
179.6072394
40
0.3538406
50
229.4223008
51
256.8556159
0
ARC
8
DEFAULT_255_1_234
10
5.4745864
20
179.5605736
40
0.2914296
50
181.818294
51
229.6455059
0
ARC
8
DEFAULT_255_1_234
10
5.578582
20
179.5736496
40
0.3959084
50
179.9755256
51
183.2323064
0
ARC
8
DEFAULT_255_1_234
10
5.5613566
20
179.5716037
40
0.2293034
50
179.4465117
51
196.2869258
0
ARC
8
DEFAULT_255_1_234
10
5.5125974
20
179.5582651
40
0.1787621
50
196.5661473
51
227.705904
0
ARC
8
DEFAULT_255_1_234
10
5.5290069
20
179.5766155
40
0.2033784
50
227.7652068
51
257.8762805
0
ARC
8
DEFAULT_255_1_234
10
5.5515039
20
179.6709156
40
0.3003081
50
257.4584385
51
270.426602
0
ARC
8
DEFAULT_255_1_234
10
5.5560605
20
179.6998996
40
0.329292
50
269.5962073
51
280.8789248
0
ARC
8
DEFAULT_255_1_234
10
5.5790134
20
179.5852685
40
0.2123908
50
280.6346389
51
299.8595945
0
ARC
8
DEFAULT_255_1_234
10
5.598104
20
179.5490212
40
0.171457
50
300.3576302
51
314.5517981
0
ARC
8
DEFAULT_255_1_234
10
5.5898101
20
179.5550919
40
0.1816095
50
315.0728369
51
345.0431014
0
ARC
8
DEFAULT_255_1_234
10
5.4974915
20
179.5819841
40
0.2777492
50
344.5986631
51
357.9269593
0
ARC
8
DEFAULT_255_1_234
10
5.4079241
20
179.5881276
40
0.3674917
50
357.4748886
51
0.0231117
0
ARC
8
DEFAULT_255_1_234
10
5.5102351
20
179.5905679
40
0.2651907
50
359.5047933
51
13.4239635
0
ARC
8
DEFAULT_255_1_234
10
5.5968994
20
179.6127478
40
0.1757509
50
12.9498199
51
48.7551375
0
ARC
8
DEFAULT_255_1_234
10
5.5786728
20
179.58784
40
0.2065134
50
49.5088623
51
72.1836453
0
ARC
8
DEFAULT_255_1_234
10
5.5428881
20
179.4816291
40
0.3185836
50
71.9010081
51
84.3554254
0
ARC
8
DEFAULT_255_1_234
10
5.5267513
20
179.3455326
40
0.4556151
50
84.0193428
51
89.333121
0
LINE
8
DEFAULT_255_1_234
10
4.3112299
20
188.3723211
11
4.5931439
21
187.9241501
0
LINE
8
DEFAULT_255_1_234
10
4.5931439
20
187.9241501
11
4.8734516
21
188.3723211
0
LINE
8
DEFAULT_255_1_234
10
4.8734516
20
188.3723211
11
5.0549689
21
188.3723211
0
LINE
8
DEFAULT_255_1_234
10
5.0549689
20
188.3723211
11
4.6855089
21
187.7924296
0
LINE
8
DEFAULT_255_1_234
10
4.6855089
20
187.7924296
11
5.0638038
21
187.2029
0
LINE
8
DEFAULT_255_1_234
10
5.0638038
20
187.2029
11
4.8806802
21
187.2029
0
LINE
8
DEFAULT_255_1_234
10
4.8806802
20
187.2029
11
4.5931439
21
187.6591027
0
LINE
8
DEFAULT_255_1_234
10
4.5931439
20
187.6591027
11
4.3040014
21
187.2029
0
LINE
8
DEFAULT_255_1_234
10
4.3040014
20
187.2029
11
4.1216809
21
187.2029
0
LINE
8
DEFAULT_255_1_234
10
4.1216809
20
187.2029
11
4.500779
21
187.7924296
0
LINE
8
DEFAULT_255_1_234
10
4.500779
20
187.7924296
11
4.1305158
21
188.3723211
0
LINE
8
DEFAULT_255_1_234
10
4.1305158
20
188.3723211
11
4.3112299
21
188.3723211
0
LINE
8
DEFAULT_255_1_234
10
5.9705871
20
187.3241792
11
5.9705871
21
187.2029
0
LINE
8
DEFAULT_255_1_234
10
5.9705871
20
187.2029
11
5.2043592
21
187.2029
0
LINE
8
DEFAULT_255_1_234
10
5.2043592
20
187.2029
11
5.2043592
21
187.3097221
0
LINE
8
DEFAULT_255_1_234
10
5.2043592
20
187.3097221
11
5.6091588
21
187.7594995
0
LINE
8
DEFAULT_255_1_234
10
5.3304575
20
188.0277595
11
5.1818704
21
188.0277595
0
LINE
8
DEFAULT_255_1_234
10
5.6967048
20
187.6639218
11
5.383467
21
187.3241792
0
LINE
8
DEFAULT_255_1_234
10
5.383467
20
187.3241792
11
5.9705871
21
187.3241792
0
ARC
8
DEFAULT_255_1_234
10
4.2601422
20
188.9524527
40
1.8008286
50
318.5132453
51
320.7828378
0
ARC
8
DEFAULT_255_1_234
10
4.7888396
20
188.5221426
40
1.1191493
50
320.7372736
51
323.9737074
0
ARC
8
DEFAULT_255_1_234
10
5.1808252
20
188.2381361
40
0.6350923
50
323.8961724
51
328.6421089
0
ARC
8
DEFAULT_255_1_234
10
5.3854848
20
188.1119031
40
0.3946393
50
328.8299013
51
331.789948
0
ARC
8
DEFAULT_255_1_234
10
5.4852026
20
188.0604509
40
0.2824501
50
331.4255242
51
352.9364833
0
ARC
8
DEFAULT_255_1_234
10
5.4988527
20
188.0573976
40
0.2685315
50
353.2248685
51
0.0169286
0
ARC
8
DEFAULT_255_1_234
10
5.5198404
20
188.059695
40
0.2475536
50
359.4866256
51
15.9339782
0
ARC
8
DEFAULT_255_1_234
10
5.5705389
20
188.0733286
40
0.1950618
50
16.1714718
51
43.5284424
0
ARC
8
DEFAULT_255_1_234
10
5.5782698
20
188.0810573
40
0.184134
50
43.4415429
51
83.1661404
0
ARC
8
DEFAULT_255_1_234
10
5.5648616
20
188.0073771
40
0.258926
50
82.160215
51
90.1505798
0
ARC
8
DEFAULT_255_1_234
10
5.5617043
20
187.9536865
40
0.3126255
50
89.5460705
51
102.5418777
0
ARC
8
DEFAULT_255_1_234
10
5.5374129
20
188.0567665
40
0.2067346
50
102.1739365
51
129.2061916
0
ARC
8
DEFAULT_255_1_234
10
5.5295201
20
188.0692094
40
0.1921118
50
129.7279328
51
135.7542026
0
ARC
8
DEFAULT_255_1_234
10
5.5416729
20
188.0595045
40
0.2075944
50
136.175737
51
166.3674722
0
ARC
8
DEFAULT_255_1_234
10
5.6423648
20
188.0325182
40
0.3118201
50
165.9092917
51
178.8683903
0
ARC
8
DEFAULT_255_1_234
10
5.7288509
20
188.0278179
40
0.3983935
50
178.438168
51
180.0083905
0
ARC
8
DEFAULT_255_1_234
10
5.5887111
20
188.0317231
40
0.4068601
50
163.2878735
51
180.5581814
0
ARC
8
DEFAULT_255_1_234
10
5.5085373
20
188.053784
40
0.3237344
50
133.454115
51
162.9470031
0
ARC
8
DEFAULT_255_1_234
10
5.5263914
20
188.0348
40
0.349795
50
100.7869394
51
133.4384016
0
ARC
8
DEFAULT_255_1_234
10
5.5611686
20
187.8799319
40
0.5084616
50
89.6605301
51
101.3704185
0
ARC
8
DEFAULT_255_1_234
10
5.5678024
20
187.8860496
40
0.502348
50
78.2171172
51
90.4130393
0
ARC
8
DEFAULT_255_1_234
10
5.6033103
20
188.0484637
40
0.3361092
50
55.9268222
51
78.4888551
0
ARC
8
DEFAULT_255_1_234
10
5.6229543
20
188.0823324
40
0.2970617
50
47.9292255
51
55.4054003
0
ARC
8
DEFAULT_255_1_234
10
5.6331103
20
188.0926502
40
0.2825983
50
4.3347696
51
48.0560701
0
ARC
8
DEFAULT_255_1_234
10
5.5235497
20
188.0756601
40
0.393225
50
359.925209
51
5.5967654
0
ARC
8
DEFAULT_255_1_234
10
5.5664389
20
188.0812816
40
0.3503892
50
337.8914096
51
358.9967724
0
ARC
8
DEFAULT_255_1_234
10
5.2950801
20
188.1859706
40
0.6412172
50
326.9135351
51
338.3505194
0
ARC
8
DEFAULT_255_1_234
10
4.8965105
20
188.4414284
40
1.1146189
50
319.6472867
51
327.095818
0
ARC
8
DEFAULT_255_1_234
10
4.5132108
20
188.7576
40
1.6114559
50
317.2586784
51
319.9046139
0
LINE
8
DEFAULT_255_1_234
10
4.3027299
20
196.3098211
11
4.5846439
21
195.8616501
0
LINE
8
DEFAULT_255_1_234
10
4.5846439
20
195.8616501
11
4.8649516
21
196.3098211
0
LINE
8
DEFAULT_255_1_234
10
4.8649516
20
196.3098211
11
5.0464689
21
196.3098211
0
LINE
8
DEFAULT_255_1_234
10
5.0464689
20
196.3098211
11
4.6770089
21
195.7299296
0
LINE
8
DEFAULT_255_1_234
10
4.6770089
20
195.7299296
11
5.0553038
21
195.1404
0
LINE
8
DEFAULT_255_1_234
10
5.0553038
20
195.1404
11
4.8721802
21
195.1404
0
LINE
8
DEFAULT_255_1_234
10
4.8721802
20
195.1404
11
4.5846439
21
195.5966027
0
LINE
8
DEFAULT_255_1_234
10
4.5846439
20
195.5966027
11
4.2955014
21
195.1404
0
LINE
8
DEFAULT_255_1_234
10
4.2955014
20
195.1404
11
4.1131809
21
195.1404
0
LINE
8
DEFAULT_255_1_234
10
4.1131809
20
195.1404
11
4.492279
21
195.7299296
0
LINE
8
DEFAULT_255_1_234
10
4.492279
20
195.7299296
11
4.1220158
21
196.3098211
0
LINE
8
DEFAULT_255_1_234
10
4.1220158
20
196.3098211
11
4.3027299
21
196.3098211
0
LINE
8
DEFAULT_255_1_234
10
5.6841889
20
196.3154433
11
5.6841889
21
195.1404
0
LINE
8
DEFAULT_255_1_234
10
5.6841889
20
195.1404
11
5.5347986
21
195.1404
0
LINE
8
DEFAULT_255_1_234
10
5.5347986
20
195.1404
11
5.5347986
21
196.1307133
0
LINE
8
DEFAULT_255_1_234
10
5.5347986
20
196.1307133
11
5.2352147
21
196.0206785
0
LINE
8
DEFAULT_255_1_234
10
5.2352147
20
196.0206785
11
5.2352147
21
196.1556117
0
LINE
8
DEFAULT_255_1_234
10
5.2352147
20
196.1556117
11
5.6608969
21
196.3154433
0
LINE
8
DEFAULT_255_1_234
10
5.6608969
20
196.3154433
11
5.6841889
21
196.3154433
0
LINE
8
DEFAULT_255_1_234
10
4.3112299
20
204.2473211
11
4.5931439
21
203.7991501
0
LINE
8
DEFAULT_255_1_234
10
4.5931439
20
203.7991501
11
4.8734516
21
204.2473211
0
LINE
8
DEFAULT_255_1_234
10
4.8734516
20
204.2473211
11
5.0549689
21
204.2473211
0
LINE
8
DEFAULT_255_1_234
10
5.0549689
20
204.2473211
11
4.6855089
21
203.6674296
0
LINE
8
DEFAULT_255_1_234
10
4.6855089
20
203.6674296
11
5.0638038
21
203.0779
0
LINE
8
DEFAULT_255_1_234
10
5.0638038
20
203.0779
11
4.8806802
21
203.0779
0
LINE
8
DEFAULT_255_1_234
10
4.8806802
20
203.0779
11
4.5931439
21
203.5341027
0
LINE
8
DEFAULT_255_1_234
10
4.5931439
20
203.5341027
11
4.3040014
21
203.0779
0
LINE
8
DEFAULT_255_1_234
10
4.3040014
20
203.0779
11
4.1216809
21
203.0779
0
LINE
8
DEFAULT_255_1_234
10
4.1216809
20
203.0779
11
4.500779
21
203.6674296
0
LINE
8
DEFAULT_255_1_234
10
4.500779
20
203.6674296
11
4.1305158
21
204.2473211
0
LINE
8
DEFAULT_255_1_234
10
4.1305158
20
204.2473211
11
4.3112299
21
204.2473211
0
LINE
8
DEFAULT_255_1_234
10
5.9376569
20
203.7694327
11
5.9376569
21
203.5766709
0
LINE
8
DEFAULT_255_1_234
10
5.1995402
20
203.5565916
11
5.1995402
21
203.7549755
0
LINE
8
DEFAULT_255_1_234
10
5.7890698
20
203.5365123
11
5.7890698
21
203.7798739
0
LINE
8
DEFAULT_255_1_234
10
5.3481273
20
203.7911184
11
5.3481273
21
203.5533789
0
ARC
8
DEFAULT_255_1_234
10
4.7129459
20
203.5717805
40
1.2247208
50
353.8441951
51
0.2287902
0
ARC
8
DEFAULT_255_1_234
10
5.1768963
20
203.5199806
40
0.7578929
50
344.4934747
51
353.9765454
0
ARC
8
DEFAULT_255_1_234
10
5.4761553
20
203.4348981
40
0.4467846
50
329.2803592
51
344.7472793
0
ARC
8
DEFAULT_255_1_234
10
5.5754378
20
203.3804018
40
0.3336173
50
324.9352394
51
328.6160465
0
ARC
8
DEFAULT_255_1_234
10
5.6131486
20
203.3540427
40
0.2876076
50
280.580143
51
324.9173126
0
ARC
8
DEFAULT_255_1_234
10
5.5730279
20
203.5211099
40
0.4592847
50
269.5977311
51
281.6734359
0
ARC
8
DEFAULT_255_1_234
10
5.5658185
20
203.5091173
40
0.4472986
50
256.6228859
51
270.51044
0
ARC
8
DEFAULT_255_1_234
10
5.5256162
20
203.3542877
40
0.2873874
50
215.8618325
51
257.2788573
0
ARC
8
DEFAULT_255_1_234
10
5.6277194
20
203.4227977
40
0.4102928
50
197.9693508
51
215.2623606
0
ARC
8
DEFAULT_255_1_234
10
5.876231
20
203.5066709
40
0.6725652
50
187.8816417
51
198.2346507
0
ARC
8
DEFAULT_255_1_234
10
6.2720518
20
203.5638079
40
1.0724845
50
180.8976217
51
188.0055519
0
ARC
8
DEFAULT_255_1_234
10
6.5520706
20
203.5741777
40
1.3526448
50
180.7449369
51
181.1510016
0
ARC
8
DEFAULT_255_1_234
10
6.3943435
20
203.7598042
40
1.1948131
50
173.7675579
51
180.231553
0
ARC
8
DEFAULT_255_1_234
10
5.9425582
20
203.8108666
40
0.7401564
50
164.3058563
51
173.9002247
0
ARC
8
DEFAULT_255_1_234
10
5.651365
20
203.8947656
40
0.4371288
50
148.7922025
51
164.568378
0
ARC
8
DEFAULT_255_1_234
10
5.5562103
20
203.9478929
40
0.3282386
50
144.5883898
51
148.1176286
0
ARC
8
DEFAULT_255_1_234
10
5.5219001
20
203.9718315
40
0.2864044
50
101.6440918
51
144.514236
0
ARC
8
DEFAULT_255_1_234
10
5.5644067
20
203.8029069
40
0.4604934
50
89.5284041
51
102.5819763
0
ARC
8
DEFAULT_255_1_234
10
5.5723155
20
203.7990018
40
0.464401
50
77.0437873
51
90.5081339
0
ARC
8
DEFAULT_255_1_234
10
5.6125157
20
203.9632615
40
0.2953195
50
48.2778575
51
77.4994676
0
ARC
8
DEFAULT_255_1_234
10
5.6197788
20
203.9761746
40
0.2808655
50
36.3142134
51
47.6305865
0
ARC
8
DEFAULT_255_1_234
10
5.5329095
20
203.9176515
40
0.3855453
50
18.2931786
51
35.6769206
0
ARC
8
DEFAULT_255_1_234
10
5.2785854
20
203.8303593
40
0.654423
50
8.024666
51
18.5605216
0
ARC
8
DEFAULT_255_1_234
10
4.8622774
20
203.7688792
40
1.0752407
50
1.1274072
51
8.1718305
0
ARC
8
DEFAULT_255_1_234
10
4.5386964
20
203.7561885
40
1.3990231
50
0.5424119
51
1.3863029
0
ARC
8
DEFAULT_255_1_234
10
4.7208342
20
203.7834342
40
1.0682415
50
359.8090433
51
4.9407866
0
ARC
8
DEFAULT_255_1_234
10
5.1418356
20
203.8210113
40
0.6455691
50
4.8362157
51
12.2904523
0
ARC
8
DEFAULT_255_1_234
10
5.4173471
20
203.8823965
40
0.3633074
50
12.0805627
51
23.8173984
0
ARC
8
DEFAULT_255_1_234
10
5.5347176
20
203.9320919
40
0.2358723
50
24.2871213
51
31.3935614
0
ARC
8
DEFAULT_255_1_234
10
5.5871874
20
203.9664233
40
0.1732111
50
30.7407893
51
82.4657128
0
ARC
8
DEFAULT_255_1_234
10
5.5692008
20
203.8780691
40
0.263235
50
81.1060089
51
90.2184952
0
ARC
8
DEFAULT_255_1_234
10
5.5656307
20
203.9038924
40
0.2374236
50
89.3806855
51
105.6762551
0
ARC
8
DEFAULT_255_1_234
10
5.5472938
20
203.9705567
40
0.1682847
50
105.7981136
51
149.7388061
0
ARC
8
DEFAULT_255_1_234
10
5.6537016
20
203.906595
40
0.2924306
50
149.4208916
51
163.6286378
0
ARC
8
DEFAULT_255_1_234
10
5.8627904
20
203.842825
40
0.5110213
50
163.3763315
51
172.1410975
0
ARC
8
DEFAULT_255_1_234
10
6.1928623
20
203.7955518
40
0.8444586
50
172.0259487
51
178.0703232
0
ARC
8
DEFAULT_255_1_234
10
6.4958712
20
203.7811906
40
1.1477868
50
177.8631668
51
179.5044149
0
ARC
8
DEFAULT_255_1_234
10
6.3886117
20
203.5497389
40
1.0404907
50
179.7995573
51
185.2460446
0
ARC
8
DEFAULT_255_1_234
10
5.9843156
20
203.5114513
40
0.6343885
50
185.1411642
51
193.0079639
0
ARC
8
DEFAULT_255_1_234
10
5.7199629
20
203.4489641
40
0.3627568
50
192.7897626
51
205.2507664
0
ARC
8
DEFAULT_255_1_234
10
5.6153176
20
203.4022415
40
0.2481908
50
205.8005384
51
211.2537509
0
ARC
8
DEFAULT_255_1_234
10
5.5629616
20
203.367158
40
0.1852521
50
210.3789793
51
238.4008143
0
ARC
8
DEFAULT_255_1_234
10
5.5610138
20
203.3718376
40
0.1882621
50
239.6520629
51
265.9793761
0
ARC
8
DEFAULT_255_1_234
10
5.5695338
20
203.4390427
40
0.2559272
50
265.1315437
51
270.060332
0
ARC
8
DEFAULT_255_1_234
10
5.5724117
20
203.4066534
40
0.2235528
50
269.3314664
51
287.2178029
0
ARC
8
DEFAULT_255_1_234
10
5.5861969
20
203.3563279
40
0.1714108
50
287.7958004
51
329.080874
0
ARC
8
DEFAULT_255_1_234
10
5.4904426
20
203.416093
40
0.2842745
50
328.6634704
51
343.3325132
0
ARC
8
DEFAULT_255_1_234
10
5.2731446
20
203.4837863
40
0.5118644
50
343.0499468
51
351.9393422
0
ARC
8
DEFAULT_255_1_234
10
4.9264746
20
203.5348949
40
0.8622784
50
351.8069023
51
357.7959224
0
ARC
8
DEFAULT_255_1_234
10
4.6029302
20
203.5516721
40
1.1862365
50
357.5871873
51
359.2677531
0
LINE
8
DEFAULT_255_1_234
10
4.9447879
20
212.1848211
11
4.9447879
21
211.0154
0
LINE
8
DEFAULT_255_1_234
10
4.9447879
20
211.0154
11
4.7897753
21
211.0154
0
LINE
8
DEFAULT_255_1_234
10
4.7897753
20
211.0154
11
4.2010489
21
211.916561
0
LINE
8
DEFAULT_255_1_234
10
4.2010489
20
211.916561
11
4.2010489
21
211.0154
0
LINE
8
DEFAULT_255_1_234
10
4.2010489
20
211.0154
11
4.0460364
21
211.0154
0
LINE
8
DEFAULT_255_1_234
10
4.0460364
20
211.0154
11
4.0460364
21
212.1848211
0
LINE
8
DEFAULT_255_1_234
10
4.0460364
20
212.1848211
11
4.2010489
21
212.1848211
0
LINE
8
DEFAULT_255_1_234
10
4.2010489
20
212.1848211
11
4.7913817
21
211.2796442
0
LINE
8
DEFAULT_255_1_234
10
4.7913817
20
211.2796442
11
4.7913817
21
212.1848211
0
LINE
8
DEFAULT_255_1_234
10
4.7913817
20
212.1848211
11
4.9447879
21
212.1848211
0
LINE
8
DEFAULT_255_1_234
10
22.1840119
20
219.0741792
11
22.1840119
21
218.9529
0
LINE
8
DEFAULT_255_1_234
10
22.1840119
20
218.9529
11
21.417784
21
218.9529
0
LINE
8
DEFAULT_255_1_234
10
21.417784
20
218.9529
11
21.417784
21
219.0597221
0
LINE
8
DEFAULT_255_1_234
10
21.417784
20
219.0597221
11
21.8225836
21
219.5094995
0
LINE
8
DEFAULT_255_1_234
10
21.5438823
20
219.7777595
11
21.3952952
21
219.7777595
0
LINE
8
DEFAULT_255_1_234
10
21.9101296
20
219.4139218
11
21.5968918
21
219.0741792
0
LINE
8
DEFAULT_255_1_234
10
21.5968918
20
219.0741792
11
22.1840119
21
219.0741792
0
ARC
8
DEFAULT_255_1_234
10
20.473567
20
220.7024527
40
1.8008286
50
318.5132453
51
320.7828378
0
ARC
8
DEFAULT_255_1_234
10
21.0022644
20
220.2721426
40
1.1191493
50
320.7372736
51
323.9737074
0
ARC
8
DEFAULT_255_1_234
10
21.3942501
20
219.9881361
40
0.6350923
50
323.8961724
51
328.6421089
0
ARC
8
DEFAULT_255_1_234
10
21.5989096
20
219.8619031
40
0.3946393
50
328.8299013
51
331.789948
0
ARC
8
DEFAULT_255_1_234
10
21.6986274
20
219.8104509
40
0.2824501
50
331.4255242
51
352.9364833
0
ARC
8
DEFAULT_255_1_234
10
21.7122775
20
219.8073976
40
0.2685315
50
353.2248685
51
0.0169286
0
ARC
8
DEFAULT_255_1_234
10
21.7332652
20
219.809695
40
0.2475536
50
359.4866256
51
15.9339782
0
ARC
8
DEFAULT_255_1_234
10
21.7839637
20
219.8233286
40
0.1950618
50
16.1714718
51
43.5284424
0
ARC
8
DEFAULT_255_1_234
10
21.7916946
20
219.8310573
40
0.184134
50
43.4415429
51
83.1661404
0
ARC
8
DEFAULT_255_1_234
10
21.7782864
20
219.7573771
40
0.258926
50
82.160215
51
90.1505798
0
ARC
8
DEFAULT_255_1_234
10
21.7751291
20
219.7036865
40
0.3126255
50
89.5460705
51
102.5418777
0
ARC
8
DEFAULT_255_1_234
10
21.7508377
20
219.8067665
40
0.2067346
50
102.1739365
51
129.2061916
0
ARC
8
DEFAULT_255_1_234
10
21.7429449
20
219.8192094
40
0.1921118
50
129.7279328
51
135.7542026
0
ARC
8
DEFAULT_255_1_234
10
21.7550977
20
219.8095045
40
0.2075944
50
136.175737
51
166.3674722
0
ARC
8
DEFAULT_255_1_234
10
21.8557896
20
219.7825182
40
0.3118201
50
165.9092917
51
178.8683903
0
ARC
8
DEFAULT_255_1_234
10
21.9422757
20
219.7778179
40
0.3983935
50
178.438168
51
180.0083905
0
ARC
8
DEFAULT_255_1_234
10
21.8021359
20
219.7817231
40
0.4068601
50
163.2878735
51
180.5581814
0
ARC
8
DEFAULT_255_1_234
10
21.7219621
20
219.803784
40
0.3237344
50
133.454115
51
162.9470031
0
ARC
8
DEFAULT_255_1_234
10
21.7398162
20
219.7848
40
0.349795
50
100.7869394
51
133.4384016
0
ARC
8
DEFAULT_255_1_234
10
21.7745934
20
219.6299319
40
0.5084616
50
89.6605301
51
101.3704185
0
ARC
8
DEFAULT_255_1_234
10
21.7812273
20
219.6360496
40
0.502348
50
78.2171172
51
90.4130393
0
ARC
8
DEFAULT_255_1_234
10
21.8167351
20
219.7984637
40
0.3361092
50
55.9268222
51
78.4888551
0
ARC
8
DEFAULT_255_1_234
10
21.8363791
20
219.8323324
40
0.2970617
50
47.9292255
51
55.4054003
0
ARC
8
DEFAULT_255_1_234
10
21.8465352
20
219.8426502
40
0.2825983
50
4.3347696
51
48.0560701
0
ARC
8
DEFAULT_255_1_234
10
21.7369745
20
219.8256601
40
0.393225
50
359.925209
51
5.5967654
0
ARC
8
DEFAULT_255_1_234
10
21.7798637
20
219.8312816
40
0.3503892
50
337.8914096
51
358.9967724
0
ARC
8
DEFAULT_255_1_234
10
21.5085049
20
219.9359706
40
0.6412172
50
326.9135351
51
338.3505194
0
ARC
8
DEFAULT_255_1_234
10
21.1099353
20
220.1914284
40
1.1146189
50
319.6472867
51
327.095818
0
ARC
8
DEFAULT_255_1_234
10
20.7266356
20
220.5076
40
1.6114559
50
317.2586784
51
319.9046139
0
LINE
8
DEFAULT_255_1_234
10
22.9687127
20
220.1223211
11
22.9687127
21
219.345652
0
LINE
8
DEFAULT_255_1_234
10
22.9687127
20
219.345652
11
23.1309538
21
219.345652
0
LINE
8
DEFAULT_255_1_234
10
23.1309538
20
219.345652
11
23.1309538
21
219.2243728
0
LINE
8
DEFAULT_255_1_234
10
23.1309538
20
219.2243728
11
22.9687127
21
219.2243728
0
LINE
8
DEFAULT_255_1_234
10
22.9687127
20
219.2243728
11
22.9687127
21
218.9529
0
LINE
8
DEFAULT_255_1_234
10
22.9687127
20
218.9529
11
22.8193224
21
218.9529
0
LINE
8
DEFAULT_255_1_234
10
22.8193224
20
218.9529
11
22.8193224
21
219.2243728
0
LINE
8
DEFAULT_255_1_234
10
22.8193224
20
219.2243728
11
22.2868181
21
219.2243728
0
LINE
8
DEFAULT_255_1_234
10
22.2868181
20
219.2243728
11
22.2868181
21
219.3119187
0
LINE
8
DEFAULT_255_1_234
10
22.2868181
20
219.3119187
11
22.8104875
21
220.1223211
0
LINE
8
DEFAULT_255_1_234
10
22.8104875
20
220.1223211
11
22.9687127
21
220.1223211
0
LINE
8
DEFAULT_255_1_234
10
22.8016525
20
219.8869912
11
22.4554846
21
219.345652
0
LINE
8
DEFAULT_255_1_234
10
22.4554846
20
219.345652
11
22.8193224
21
219.345652
0
LINE
8
DEFAULT_255_1_234
10
22.8193224
20
219.345652
11
22.8193224
21
219.9191181
0
LINE
8
DEFAULT_255_1_234
10
22.8193224
20
219.9191181
11
22.8016525
21
219.8869912
0
LINE
8
DEFAULT_255_1_234
10
24.167048
20
219.535201
11
24.167048
21
219.1063062
0
LINE
8
DEFAULT_255_1_234
10
23.265887
20
219.4813884
11
23.265887
21
219.5833915
0
LINE
8
DEFAULT_255_1_234
10
24.167048
20
219.7793659
11
24.0128387
21
219.7793659
0
LINE
8
DEFAULT_255_1_234
10
23.4208996
20
219.5874073
11
23.4208996
21
219.4918296
0
LINE
8
DEFAULT_255_1_234
10
24.0136418
20
219.1472681
11
24.0136418
21
219.4099059
0
LINE
8
DEFAULT_255_1_234
10
24.0136418
20
219.4099059
11
23.7429723
21
219.4099059
0
LINE
8
DEFAULT_255_1_234
10
23.7429723
20
219.4099059
11
23.7429723
21
219.535201
0
LINE
8
DEFAULT_255_1_234
10
23.7429723
20
219.535201
11
24.167048
21
219.535201
0
ARC
8
DEFAULT_255_1_234
10
23.8838987
20
219.3056396
40
0.3462765
50
295.8437914
51
324.8549609
0
ARC
8
DEFAULT_255_1_234
10
23.8422954
20
219.3809567
40
0.4322211
50
291.5695085
51
296.4549398
0
ARC
8
DEFAULT_255_1_234
10
23.7912205
20
219.5174275
40
0.5779178
50
278.6622409
51
291.3045483
0
ARC
8
DEFAULT_255_1_234
10
23.7572697
20
219.7322408
40
0.7953952
50
270.020006
51
278.7494541
0
ARC
8
DEFAULT_255_1_234
10
23.7534621
20
219.8639036
40
0.927067
50
269.9969998
51
270.2524872
0
ARC
8
DEFAULT_255_1_234
10
23.7496334
20
219.4555589
40
0.5187361
50
253.5786322
51
270.4175299
0
ARC
8
DEFAULT_255_1_234
10
23.732299
20
219.3884236
40
0.4494451
50
238.8203306
51
253.2788235
0
ARC
8
DEFAULT_255_1_234
10
23.7303363
20
219.3833231
40
0.4440665
50
206.7883783
51
238.6962764
0
ARC
8
DEFAULT_255_1_234
10
23.8077273
20
219.4297405
40
0.5341121
50
206.1129412
51
207.4916643
0
ARC
8
DEFAULT_255_1_234
10
23.8674188
20
219.4551488
40
0.5989041
50
188.6921119
51
205.7821245
0
ARC
8
DEFAULT_255_1_234
10
24.053055
20
219.486723
40
0.7871862
50
180.3882829
51
188.9219216
0
ARC
8
DEFAULT_255_1_234
10
24.1758364
20
219.5890464
40
0.909967
50
170.2024264
51
180.3560651
0
ARC
8
DEFAULT_255_1_234
10
23.8594882
20
219.6456237
40
0.5886083
50
154.2857445
51
170.3893044
0
ARC
8
DEFAULT_255_1_234
10
23.7313085
20
219.704295
40
0.4476743
50
139.8401567
51
153.9332699
0
ARC
8
DEFAULT_255_1_234
10
23.6953821
20
219.7330577
40
0.4016697
50
98.4190291
51
139.6707122
0
ARC
8
DEFAULT_255_1_234
10
23.7333339
20
219.5485328
40
0.5898566
50
89.7659205
51
99.4415478
0
ARC
8
DEFAULT_255_1_234
10
23.7398588
20
219.5550844
40
0.5833147
50
78.0551672
51
90.4042112
0
ARC
8
DEFAULT_255_1_234
10
23.7803098
20
219.7369644
40
0.3970055
50
54.6380464
51
78.3339173
0
ARC
8
DEFAULT_255_1_234
10
23.7993154
20
219.7689795
40
0.3599102
50
50.031736
51
54.1558201
0
ARC
8
DEFAULT_255_1_234
10
23.7885942
20
219.7593766
40
0.3741624
50
18.1092409
51
49.7180913
0
ARC
8
DEFAULT_255_1_234
10
23.6429142
20
219.7060089
40
0.5292424
50
7.9672797
51
18.6984571
0
ARC
8
DEFAULT_255_1_234
10
23.657962
20
219.7183504
40
0.3600838
50
9.7557294
51
27.3215714
0
ARC
8
DEFAULT_255_1_234
10
23.7707092
20
219.7746912
40
0.2340608
50
27.7361077
51
84.5257964
0
ARC
8
DEFAULT_255_1_234
10
23.7379479
20
219.610364
40
0.4011215
50
82.106034
51
90.2001166
0
ARC
8
DEFAULT_255_1_234
10
23.7329696
20
219.6611215
40
0.3503799
50
89.4150119
51
105.5823402
0
ARC
8
DEFAULT_255_1_234
10
23.7072694
20
219.7546867
40
0.2533503
50
105.6678618
51
144.2648758
0
ARC
8
DEFAULT_255_1_234
10
23.7965949
20
219.6911289
40
0.3629787
50
144.3561283
51
162.8564086
0
ARC
8
DEFAULT_255_1_234
10
24.0049858
20
219.6242017
40
0.5818441
50
162.6076014
51
173.6780284
0
ARC
8
DEFAULT_255_1_234
10
24.3111002
20
219.586989
40
0.8902007
50
173.4670142
51
179.9730753
0
ARC
8
DEFAULT_255_1_234
10
24.1202673
20
219.487626
40
0.6993804
50
179.6556203
51
190.0080463
0
ARC
8
DEFAULT_255_1_234
10
23.8886502
20
219.4451375
40
0.4639066
50
189.8116607
51
206.6796816
0
ARC
8
DEFAULT_255_1_234
10
23.8041654
20
219.4057503
40
0.3707421
50
207.1031645
51
217.7074368
0
ARC
8
DEFAULT_255_1_234
10
23.7407343
20
219.3505559
40
0.2868417
50
216.7345547
51
265.6812148
0
ARC
8
DEFAULT_255_1_234
10
23.7538134
20
219.4409855
40
0.3780509
50
264.7366618
51
270.0611241
0
ARC
8
DEFAULT_255_1_234
10
23.7561397
20
219.7250111
40
0.662079
50
269.8335834
51
276.0539546
0
ARC
8
DEFAULT_255_1_234
10
23.7768402
20
219.534856
40
0.4708016
50
275.9894168
51
284.4615085
0
ARC
8
DEFAULT_255_1_234
10
23.7966409
20
219.4515663
40
0.3852094
50
284.7034461
51
286.4953897
0
ARC
8
DEFAULT_255_1_234
10
23.8373422
20
219.3204965
40
0.2479842
50
286.0770838
51
304.2625829
0
ARC
8
DEFAULT_255_1_234
10
23.8506836
20
219.2986594
40
0.2224291
50
304.5891602
51
317.1073298
0
LINE
8
DEFAULT_255_1_234
10
23.1670817
20
37.0819327
11
23.1670817
21
36.8891709
0
LINE
8
DEFAULT_255_1_234
10
22.428965
20
36.8690916
11
22.428965
21
37.0674755
0
LINE
8
DEFAULT_255_1_234
10
23.0184946
20
36.8490123
11
23.0184946
21
37.0923739
0
LINE
8
DEFAULT_255_1_234
10
22.5775521
20
37.1036184
11
22.5775521
21
36.8658789
0
ARC
8
DEFAULT_255_1_234
10
21.9423707
20
36.8842805
40
1.2247208
50
353.8441951
51
0.2287902
0
ARC
8
DEFAULT_255_1_234
10
22.4063211
20
36.8324806
40
0.7578929
50
344.4934747
51
353.9765454
0
ARC
8
DEFAULT_255_1_234
10
22.7055801
20
36.7473981
40
0.4467846
50
329.2803592
51
344.7472793
0
ARC
8
DEFAULT_255_1_234
10
22.8048626
20
36.6929018
40
0.3336173
50
324.9352394
51
328.6160465
0
ARC
8
DEFAULT_255_1_234
10
22.8425734
20
36.6665427
40
0.2876076
50
280.580143
51
324.9173126
0
ARC
8
DEFAULT_255_1_234
10
22.8024527
20
36.8336099
40
0.4592847
50
269.5977311
51
281.6734359
0
ARC
8
DEFAULT_255_1_234
10
22.7952433
20
36.8216173
40
0.4472986
50
256.6228859
51
270.51044
0
ARC
8
DEFAULT_255_1_234
10
22.755041
20
36.6667877
40
0.2873874
50
215.8618325
51
257.2788573
0
ARC
8
DEFAULT_255_1_234
10
22.8571442
20
36.7352977
40
0.4102928
50
197.9693508
51
215.2623606
0
ARC
8
DEFAULT_255_1_234
10
23.1056558
20
36.8191709
40
0.6725652
50
187.8816417
51
198.2346507
0
ARC
8
DEFAULT_255_1_234
10
23.5014766
20
36.8763079
40
1.0724845
50
180.8976217
51
188.0055519
0
ARC
8
DEFAULT_255_1_234
10
23.7814954
20
36.8866777
40
1.3526448
50
180.7449369
51
181.1510016
0
ARC
8
DEFAULT_255_1_234
10
23.6237683
20
37.0723042
40
1.1948131
50
173.7675579
51
180.231553
0
ARC
8
DEFAULT_255_1_234
10
23.171983
20
37.1233666
40
0.7401564
50
164.3058563
51
173.9002247
0
ARC
8
DEFAULT_255_1_234
10
22.8807899
20
37.2072656
40
0.4371288
50
148.7922025
51
164.568378
0
ARC
8
DEFAULT_255_1_234
10
22.7856351
20
37.2603929
40
0.3282386
50
144.5883898
51
148.1176286
0
ARC
8
DEFAULT_255_1_234
10
22.7513249
20
37.2843315
40
0.2864044
50
101.6440918
51
144.514236
0
ARC
8
DEFAULT_255_1_234
10
22.7938315
20
37.1154069
40
0.4604934
50
89.5284041
51
102.5819763
0
ARC
8
DEFAULT_255_1_234
10
22.8017403
20
37.1115018
40
0.464401
50
77.0437873
51
90.5081339
0
ARC
8
DEFAULT_255_1_234
10
22.8419405
20
37.2757615
40
0.2953195
50
48.2778575
51
77.4994676
0
ARC
8
DEFAULT_255_1_234
10
22.8492036
20
37.2886746
40
0.2808655
50
36.3142134
51
47.6305865
0
ARC
8
DEFAULT_255_1_234
10
22.7623343
20
37.2301515
40
0.3855453
50
18.2931786
51
35.6769206
0
ARC
8
DEFAULT_255_1_234
10
22.5080102
20
37.1428593
40
0.654423
50
8.024666
51
18.5605216
0
ARC
8
DEFAULT_255_1_234
10
22.0917022
20
37.0813792
40
1.0752407
50
1.1274072
51
8.1718305
0
ARC
8
DEFAULT_255_1_234
10
21.7681213
20
37.0686885
40
1.3990231
50
0.5424119
51
1.3863029
0
ARC
8
DEFAULT_255_1_234
10
21.950259
20
37.0959342
40
1.0682415
50
359.8090433
51
4.9407866
0
ARC
8
DEFAULT_255_1_234
10
22.3712604
20
37.1335113
40
0.6455691
50
4.8362157
51
12.2904523
0
ARC
8
DEFAULT_255_1_234
10
22.6467719
20
37.1948965
40
0.3633074
50
12.0805627
51
23.8173984
0
ARC
8
DEFAULT_255_1_234
10
22.7641425
20
37.2445919
40
0.2358723
50
24.2871213
51
31.3935614
0
ARC
8
DEFAULT_255_1_234
10
22.8166122
20
37.2789233
40
0.1732111
50
30.7407893
51
82.4657128
0
ARC
8
DEFAULT_255_1_234
10
22.7986256
20
37.1905691
40
0.263235
50
81.1060089
51
90.2184952
0
ARC
8
DEFAULT_255_1_234
10
22.7950555
20
37.2163924
40
0.2374236
50
89.3806855
51
105.6762551
0
ARC
8
DEFAULT_255_1_234
10
22.7767186
20
37.2830567
40
0.1682847
50
105.7981136
51
149.7388061
0
ARC
8
DEFAULT_255_1_234
10
22.8831264
20
37.219095
40
0.2924306
50
149.4208916
51
163.6286378
0
ARC
8
DEFAULT_255_1_234
10
23.0922152
20
37.155325
40
0.5110213
50
163.3763315
51
172.1410975
0
ARC
8
DEFAULT_255_1_234
10
23.4222871
20
37.1080518
40
0.8444586
50
172.0259487
51
178.0703232
0
ARC
8
DEFAULT_255_1_234
10
23.725296
20
37.0936906
40
1.1477868
50
177.8631668
51
179.5044149
0
ARC
8
DEFAULT_255_1_234
10
23.6180365
20
36.8622389
40
1.0404907
50
179.7995573
51
185.2460446
0
ARC
8
DEFAULT_255_1_234
10
23.2137404
20
36.8239513
40
0.6343885
50
185.1411642
51
193.0079639
0
ARC
8
DEFAULT_255_1_234
10
22.9493877
20
36.7614641
40
0.3627568
50
192.7897626
51
205.2507664
0
ARC
8
DEFAULT_255_1_234
10
22.8447424
20
36.7147415
40
0.2481908
50
205.8005384
51
211.2537509
0
ARC
8
DEFAULT_255_1_234
10
22.7923864
20
36.679658
40
0.1852521
50
210.3789793
51
238.4008143
0
ARC
8
DEFAULT_255_1_234
10
22.7904386
20
36.6843376
40
0.1882621
50
239.6520629
51
265.9793761
0
ARC
8
DEFAULT_255_1_234
10
22.7989586
20
36.7515427
40
0.2559272
50
265.1315437
51
270.060332
0
ARC
8
DEFAULT_255_1_234
10
22.8018365
20
36.7191534
40
0.2235528
50
269.3314664
51
287.2178029
0
ARC
8
DEFAULT_255_1_234
10
22.8156217
20
36.6688279
40
0.1714108
50
287.7958004
51
329.080874
0
ARC
8
DEFAULT_255_1_234
10
22.7198674
20
36.728593
40
0.2842745
50
328.6634704
51
343.3325132
0
ARC
8
DEFAULT_255_1_234
10
22.5025694
20
36.7962863
40
0.5118644
50
343.0499468
51
351.9393422
0
ARC
8
DEFAULT_255_1_234
10
22.1558994
20
36.8473949
40
0.8622784
50
351.8069023
51
357.7959224
0
ARC
8
DEFAULT_255_1_234
10
21.832355
20
36.8641721
40
1.1862365
50
357.5871873
51
359.2677531
0
LINE
8
DEFAULT_255_1_234
10
23.4506021
20
37.5598211
11
23.7831161
21
36.5952093
0
LINE
8
DEFAULT_255_1_234
10
23.7831161
20
36.5952093
11
24.1172364
21
37.5598211
0
LINE
8
DEFAULT_255_1_234
10
24.1172364
20
37.5598211
11
24.2859029
21
37.5598211
0
LINE
8
DEFAULT_255_1_234
10
24.2859029
20
37.5598211
11
23.852189
21
36.3904
0
LINE
8
DEFAULT_255_1_234
10
23.852189
20
36.3904
11
23.7156495
21
36.3904
0
LINE
8
DEFAULT_255_1_234
10
23.7156495
20
36.3904
11
23.2827388
21
37.5598211
0
LINE
8
DEFAULT_255_1_234
10
23.2827388
20
37.5598211
11
23.4506021
21
37.5598211
0
LINE
8
DEFAULT_255_1_234
10
20.461523
20
44.6989663
11
20.6165355
21
44.6989663
0
LINE
8
DEFAULT_255_1_234
10
19.7161777
20
44.8579947
11
19.7161777
21
44.9704391
0
LINE
8
DEFAULT_255_1_234
10
20.6165355
20
45.1214357
11
20.461523
21
45.1214357
0
LINE
8
DEFAULT_255_1_234
10
19.8711902
20
44.9664232
11
19.8711902
21
44.8531757
0
ARC
8
DEFAULT_255_1_234
10
20.0684742
20
44.7586846
40
0.5513052
50
340.1774281
51
353.7814284
0
ARC
8
DEFAULT_255_1_234
10
20.2256095
20
44.7001582
40
0.3836379
50
311.4558989
51
340.4421614
0
ARC
8
DEFAULT_255_1_234
10
20.2222763
20
44.7112528
40
0.3941894
50
282.4333181
51
310.7513653
0
ARC
8
DEFAULT_255_1_234
10
20.1783502
20
44.8927679
40
0.5809175
50
269.9358511
51
282.809604
0
ARC
8
DEFAULT_255_1_234
10
20.1731568
20
45.0385212
40
0.7266847
50
270.0021091
51
270.3581957
0
ARC
8
DEFAULT_255_1_234
10
20.1678985
20
44.7784585
40
0.4666519
50
250.7884749
51
270.6489167
0
ARC
8
DEFAULT_255_1_234
10
20.151082
20
44.7147319
40
0.4009729
50
219.3627325
51
250.0611886
0
ARC
8
DEFAULT_255_1_234
10
20.2340031
20
44.7852042
40
0.5097822
50
193.5479632
51
219.5756669
0
ARC
8
DEFAULT_255_1_234
10
20.4711652
20
44.8467919
40
0.7547848
50
181.1218675
51
193.87563
0
ARC
8
DEFAULT_255_1_234
10
20.6781833
20
44.857858
40
0.9620055
50
179.9918545
51
181.5394234
0
ARC
8
DEFAULT_255_1_234
10
20.4930935
20
44.9741788
40
0.7769248
50
169.5837241
51
180.2757934
0
ARC
8
DEFAULT_255_1_234
10
20.3093873
20
45.0081229
40
0.590109
50
155.0365899
51
169.6003176
0
ARC
8
DEFAULT_255_1_234
10
20.1958337
20
45.0628677
40
0.4640625
50
136.783148
51
155.2472683
0
ARC
8
DEFAULT_255_1_234
10
20.1568814
20
45.0959562
40
0.4130255
50
121.7633186
51
136.428115
0
ARC
8
DEFAULT_255_1_234
10
20.1703776
20
45.0710227
40
0.4413323
50
95.6459699
51
121.5490577
0
ARC
8
DEFAULT_255_1_234
10
20.1861058
20
44.9601949
40
0.55319
50
89.924208
51
96.1377933
0
ARC
8
DEFAULT_255_1_234
10
20.1911491
20
44.9720542
40
0.5413475
50
76.6779277
51
90.4563316
0
ARC
8
DEFAULT_255_1_234
10
20.2305114
20
45.1311114
40
0.3775041
50
47.485847
51
76.9287264
0
ARC
8
DEFAULT_255_1_234
10
20.2158087
20
45.1211159
40
0.3948286
50
16.5424086
51
46.8933463
0
ARC
8
DEFAULT_255_1_234
10
20.0550244
20
45.0682861
40
0.564021
50
5.4072051
51
17.0365086
0
ARC
8
DEFAULT_255_1_234
10
19.9111261
20
45.0451679
40
0.5556559
50
7.8891745
51
15.9239216
0
ARC
8
DEFAULT_255_1_234
10
20.1098274
20
45.1028631
40
0.3487515
50
15.7653144
51
27.9410532
0
ARC
8
DEFAULT_255_1_234
10
20.2202492
20
45.161979
40
0.2235026
50
27.8166557
51
46.4008329
0
ARC
8
DEFAULT_255_1_234
10
20.2252135
20
45.1614082
40
0.2205286
50
47.4371857
51
75.0698205
0
ARC
8
DEFAULT_255_1_234
10
20.1943529
20
45.0539765
40
0.3322915
50
74.7008593
51
87.8124495
0
ARC
8
DEFAULT_255_1_234
10
20.1870217
20
44.9483844
40
0.4380987
50
87.3814673
51
90.0240855
0
ARC
8
DEFAULT_255_1_234
10
20.183176
20
45.0661291
40
0.3203749
50
89.3451631
51
108.5745436
0
ARC
8
DEFAULT_255_1_234
10
20.1694865
20
45.1174908
40
0.2673494
50
109.2998449
51
143.3037509
0
ARC
8
DEFAULT_255_1_234
10
20.2456938
20
45.0588881
40
0.3634757
50
143.0753173
51
163.1916937
0
ARC
8
DEFAULT_255_1_234
10
20.4408666
20
44.9972967
40
0.5681262
50
162.9373603
51
174.6208611
0
ARC
8
DEFAULT_255_1_234
10
20.7034708
20
44.968501
40
0.8322832
50
174.3419979
51
180.1430411
0
ARC
8
DEFAULT_255_1_234
10
20.6103864
20
44.8490698
40
0.7392076
50
179.6817502
51
189.150529
0
ARC
8
DEFAULT_255_1_234
10
20.3603112
20
44.807419
40
0.4856932
50
188.9910863
51
203.5773039
0
ARC
8
DEFAULT_255_1_234
10
20.2523445
20
44.7626211
40
0.3688271
50
203.9077269
51
215.1312379
0
ARC
8
DEFAULT_255_1_234
10
20.1600539
20
44.6910941
40
0.2522457
50
213.9071664
51
263.8849284
0
ARC
8
DEFAULT_255_1_234
10
20.1725868
20
44.7695518
40
0.3316174
50
263.1758525
51
270.1031083
0
ARC
8
DEFAULT_255_1_234
10
20.175796
20
44.8942365
40
0.4563091
50
269.6719807
51
279.0609165
0
ARC
8
DEFAULT_255_1_234
10
20.2024728
20
44.7329907
40
0.2928759
50
278.8750225
51
293.6346586
0
ARC
8
DEFAULT_255_1_234
10
20.2344936
20
44.65779
40
0.2111472
50
293.8553404
51
310.0518804
0
ARC
8
DEFAULT_255_1_234
10
20.234979
20
44.6515516
40
0.2060917
50
311.0646779
51
332.0108348
0
ARC
8
DEFAULT_255_1_234
10
20.1157517
20
44.7172978
40
0.3422352
50
331.6588543
51
343.2878891
0
ARC
8
DEFAULT_255_1_234
10
19.9095032
20
44.7806798
40
0.5580003
50
343.1446044
51
351.010618
0
ARC
8
DEFAULT_255_1_234
10
19.7553678
20
44.8087871
40
0.7146438
50
350.7157277
51
351.1602153
0
LINE
8
DEFAULT_255_1_234
10
21.7265218
20
44.9487534
11
21.7265218
21
44.8748614
0
LINE
8
DEFAULT_255_1_234
10
20.7860052
20
44.8644201
11
20.7860052
21
44.9487534
0
LINE
8
DEFAULT_255_1_234
10
21.5731156
20
44.8636169
11
21.5731156
21
44.9503597
0
LINE
8
DEFAULT_255_1_234
10
20.9394114
20
44.960801
11
20.9394114
21
44.8748614
0
ARC
8
DEFAULT_255_1_234
10
20.8623244
20
44.8709015
40
0.8642064
50
350.487711
51
0.2625388
0
ARC
8
DEFAULT_255_1_234
10
21.0916486
20
44.8314578
40
0.631518
50
336.0277639
51
350.5787438
0
ARC
8
DEFAULT_255_1_234
10
21.2261309
20
44.7706892
40
0.4839466
50
319.8877444
51
336.1328423
0
ARC
8
DEFAULT_255_1_234
10
21.286395
20
44.722458
40
0.4067874
50
302.4806467
51
319.6143626
0
ARC
8
DEFAULT_255_1_234
10
21.274896
20
44.7446202
40
0.4316636
50
275.8195682
51
302.1884709
0
ARC
8
DEFAULT_255_1_234
10
21.2582593
20
44.8588665
40
0.5470306
50
269.9171439
51
276.3397983
0
ARC
8
DEFAULT_255_1_234
10
21.2537803
20
44.7902681
40
0.4784458
50
252.5219675
51
270.4416499
0
ARC
8
DEFAULT_255_1_234
10
21.2394062
20
44.7363592
40
0.422716
50
237.5352116
51
252.1857531
0
ARC
8
DEFAULT_255_1_234
10
21.2483258
20
44.7477363
40
0.4371052
50
209.063312
51
237.3492538
0
ARC
8
DEFAULT_255_1_234
10
21.3353106
20
44.8023685
40
0.5397041
50
205.1183774
51
209.6470015
0
ARC
8
DEFAULT_255_1_234
10
21.4150143
20
44.836183
40
0.6262326
50
188.7215458
51
204.8240747
0
ARC
8
DEFAULT_255_1_234
10
21.6147671
20
44.8698067
40
0.8287794
50
180.3723947
51
188.9252049
0
ARC
8
DEFAULT_255_1_234
10
21.6120423
20
44.9527402
40
0.8260467
50
169.5253763
51
180.2765336
0
ARC
8
DEFAULT_255_1_234
10
21.4217871
20
44.9877309
40
0.6326007
50
155.8315255
51
169.5089989
0
ARC
8
DEFAULT_255_1_234
10
21.2937373
20
45.0471348
40
0.4914567
50
139.6258461
51
156.0379525
0
ARC
8
DEFAULT_255_1_234
10
21.2347706
20
45.0945799
40
0.4158054
50
122.6416387
51
139.3430715
0
ARC
8
DEFAULT_255_1_234
10
21.2448326
20
45.0762451
40
0.4366739
50
93.0223692
51
122.455762
0
ARC
8
DEFAULT_255_1_234
10
21.2556323
20
44.9797709
40
0.5336137
50
89.975342
51
93.6341897
0
ARC
8
DEFAULT_255_1_234
10
21.2595102
20
45.0196242
40
0.4937738
50
73.746375
51
90.4233405
0
ARC
8
DEFAULT_255_1_234
10
21.2770681
20
45.0876287
40
0.4235786
50
57.662753
51
73.4518111
0
ARC
8
DEFAULT_255_1_234
10
21.2762687
20
45.0897832
40
0.4221899
50
29.1440151
51
57.414694
0
ARC
8
DEFAULT_255_1_234
10
21.1827882
20
45.0314005
40
0.5322966
50
24.0982783
51
29.7323517
0
ARC
8
DEFAULT_255_1_234
10
21.0794157
20
44.9885399
40
0.6441673
50
8.6655297
51
23.8241346
0
ARC
8
DEFAULT_255_1_234
10
20.8559895
20
44.9520854
40
0.8705386
50
359.7806941
51
8.8218784
0
ARC
8
DEFAULT_255_1_234
10
20.7412893
20
44.9546345
40
0.8318373
50
359.7055579
51
8.036044
0
ARC
8
DEFAULT_255_1_234
10
21.0412899
20
44.9983239
40
0.5286768
50
7.8928306
51
20.2962107
0
ARC
8
DEFAULT_255_1_234
10
21.204047
20
45.0583395
40
0.3552073
50
20.3231126
51
36.4992797
0
ARC
8
DEFAULT_255_1_234
10
21.2726016
20
45.1111402
40
0.2686974
50
36.1437156
51
85.6627023
0
ARC
8
DEFAULT_255_1_234
10
21.2563562
20
45.0071221
40
0.373739
50
84.3852322
51
90.0757696
0
ARC
8
DEFAULT_255_1_234
10
21.2521234
20
45.0731839
40
0.3076997
50
89.3038458
51
109.9045693
0
ARC
8
DEFAULT_255_1_234
10
21.2428625
20
45.1114062
40
0.2686424
50
110.8228367
51
143.9179474
0
ARC
8
DEFAULT_255_1_234
10
21.3362285
20
45.0401236
40
0.3860887
50
143.5289163
51
163.2980757
0
ARC
8
DEFAULT_255_1_234
10
21.5270106
20
44.9801433
40
0.5860659
50
163.0418846
51
174.3140048
0
ARC
8
DEFAULT_255_1_234
10
21.7674218
20
44.9523854
40
0.8280531
50
174.0509143
51
179.4176892
0
ARC
8
DEFAULT_255_1_234
10
21.7169957
20
44.8706954
40
0.7775954
50
179.6930361
51
188.7906598
0
ARC
8
DEFAULT_255_1_234
10
21.4506436
20
44.8280935
40
0.5078633
50
188.6331305
51
202.5629587
0
ARC
8
DEFAULT_255_1_234
10
21.3252028
20
44.7776996
40
0.3726913
50
202.8081362
51
216.1193925
0
ARC
8
DEFAULT_255_1_234
10
21.2442598
20
44.7125676
40
0.2689577
50
215.0755913
51
264.6379694
0
ARC
8
DEFAULT_255_1_234
10
21.2569548
20
44.7956513
40
0.3528978
50
263.846392
51
270.0833719
0
ARC
8
DEFAULT_255_1_234
10
21.2610938
20
44.7698374
40
0.3271036
50
269.3649385
51
287.5152008
0
ARC
8
DEFAULT_255_1_234
10
21.2789096
20
44.7051238
40
0.2600406
50
288.0630309
51
323.8113348
0
ARC
8
DEFAULT_255_1_234
10
21.1917937
20
44.7701049
40
0.3687189
50
323.6547608
51
342.6590488
0
ARC
8
DEFAULT_255_1_234
10
20.9886552
20
44.8361952
40
0.5823286
50
342.4091907
51
353.6451149
0
ARC
8
DEFAULT_255_1_234
10
20.7055063
20
44.871419
40
0.8676442
50
353.4029884
51
359.4847795
0
LINE
8
DEFAULT_255_1_234
10
21.9578358
20
45.4973211
11
22.1570229
21
45.4973211
0
LINE
8
DEFAULT_255_1_234
10
22.1570229
20
45.4973211
11
22.5393337
21
44.5431506
0
LINE
8
DEFAULT_255_1_234
10
22.5393337
20
44.5431506
11
22.9216444
21
45.4973211
0
LINE
8
DEFAULT_255_1_234
10
22.9216444
20
45.4973211
11
23.1216347
21
45.4973211
0
LINE
8
DEFAULT_255_1_234
10
23.1216347
20
45.4973211
11
23.1216347
21
44.3279
0
LINE
8
DEFAULT_255_1_234
10
23.1216347
20
44.3279
11
22.9674253
21
44.3279
0
LINE
8
DEFAULT_255_1_234
10
22.9674253
20
44.3279
11
22.9674253
21
44.7832996
0
LINE
8
DEFAULT_255_1_234
10
22.9674253
20
44.7832996
11
22.9818825
21
45.2748419
0
LINE
8
DEFAULT_255_1_234
10
22.9818825
20
45.2748419
11
22.5979654
21
44.3279
0
LINE
8
DEFAULT_255_1_234
10
22.5979654
20
44.3279
11
22.4798988
21
44.3279
0
LINE
8
DEFAULT_255_1_234
10
22.4798988
20
44.3279
11
22.0967849
21
45.2724324
0
LINE
8
DEFAULT_255_1_234
10
22.0967849
20
45.2724324
11
22.1120452
21
44.7832996
0
LINE
8
DEFAULT_255_1_234
10
22.1120452
20
44.7832996
11
22.1120452
21
44.3279
0
LINE
8
DEFAULT_255_1_234
10
22.1120452
20
44.3279
11
21.9578358
21
44.3279
0
LINE
8
DEFAULT_255_1_234
10
21.9578358
20
44.3279
11
21.9578358
21
45.4973211
0
LINE
8
DEFAULT_255_1_234
10
23.5424978
20
44.8836963
11
23.4236281
21
44.9142169
0
LINE
8
DEFAULT_255_1_234
10
23.4236281
20
44.9142169
11
23.4830629
21
45.4973211
0
LINE
8
DEFAULT_255_1_234
10
23.4830629
20
45.4973211
11
24.0822306
21
45.4973211
0
LINE
8
DEFAULT_255_1_234
10
24.0822306
20
45.4973211
11
24.0822306
21
45.3599784
0
LINE
8
DEFAULT_255_1_234
10
24.0822306
20
45.3599784
11
23.6091612
21
45.3599784
0
LINE
8
DEFAULT_255_1_234
10
23.6091612
20
45.3599784
11
23.5738216
21
45.0411184
0
LINE
8
DEFAULT_255_1_234
10
23.381863
20
44.6355156
11
23.5224185
21
44.6355156
0
LINE
8
DEFAULT_255_1_234
10
23.5818533
20
44.9158232
11
23.5424978
21
44.8836963
0
ARC
8
DEFAULT_255_1_234
10
23.7593
20
44.723123
40
0.3681349
50
93.7182161
51
120.2538958
0
ARC
8
DEFAULT_255_1_234
10
23.7687263
20
44.6423394
40
0.449379
50
89.9660152
51
94.2496022
0
ARC
8
DEFAULT_255_1_234
10
23.7727997
20
44.7012549
40
0.390482
50
73.8043271
51
90.5585896
0
ARC
8
DEFAULT_255_1_234
10
23.7962894
20
44.7870602
40
0.3015334
50
41.3071453
51
73.5430202
0
ARC
8
DEFAULT_255_1_234
10
23.7546721
20
44.7512324
40
0.3564457
50
13.5075983
51
41.2174222
0
ARC
8
DEFAULT_255_1_234
10
23.5904925
20
44.7082486
40
0.5261351
50
1.1331335
51
13.8829381
0
ARC
8
DEFAULT_255_1_234
10
23.4493294
20
44.7006665
40
0.6674378
50
359.9919444
51
1.544251
0
ARC
8
DEFAULT_255_1_234
10
23.577012
20
44.696528
40
0.5397702
50
347.8572367
51
0.4293338
0
ARC
8
DEFAULT_255_1_234
10
23.7520438
20
44.6568736
40
0.3603188
50
323.673004
51
348.1672506
0
ARC
8
DEFAULT_255_1_234
10
23.7814946
20
44.6389168
40
0.3259678
50
316.8171152
51
323.1492751
0
ARC
8
DEFAULT_255_1_234
10
23.7876135
20
44.635246
40
0.3189975
50
281.8396411
51
316.5457803
0
ARC
8
DEFAULT_255_1_234
10
23.7500398
20
44.7907762
40
0.4789527
50
269.5770101
51
282.4214771
0
ARC
8
DEFAULT_255_1_234
10
23.742921
20
44.7694125
40
0.45759
50
256.2427136
51
270.4486331
0
ARC
8
DEFAULT_255_1_234
10
23.7130112
20
44.6494229
40
0.3339303
50
228.9023911
51
256.3314342
0
ARC
8
DEFAULT_255_1_234
10
23.7056345
20
44.6377746
40
0.32031
50
193.753695
51
228.5271154
0
ARC
8
DEFAULT_255_1_234
10
23.8294299
20
44.67408
40
0.4492253
50
184.924711
51
194.497588
0
ARC
8
DEFAULT_255_1_234
10
23.8486866
20
44.6776591
40
0.3289787
50
187.3600538
51
198.6732863
0
ARC
8
DEFAULT_255_1_234
10
23.743716
20
44.6412674
40
0.217884
50
198.4451669
51
217.794479
0
ARC
8
DEFAULT_255_1_234
10
23.7141335
20
44.6203085
40
0.1816698
50
218.2887171
51
228.5612368
0
ARC
8
DEFAULT_255_1_234
10
23.7239122
20
44.6334963
40
0.1980329
50
228.9654866
51
258.1234728
0
ARC
8
DEFAULT_255_1_234
10
23.7444832
20
44.7215833
40
0.2884748
50
257.7258293
51
270.401361
0
ARC
8
DEFAULT_255_1_234
10
23.7489718
20
44.6770821
40
0.2439788
50
269.4204404
51
286.4209037
0
ARC
8
DEFAULT_255_1_234
10
23.7638206
20
44.6231657
40
0.1880666
50
286.7251356
51
320.600362
0
ARC
8
DEFAULT_255_1_234
10
23.7255031
20
44.6542595
40
0.2374121
50
320.6712579
51
344.5441685
0
ARC
8
DEFAULT_255_1_234
10
23.6098357
20
44.6882045
40
0.3579479
50
344.2412205
51
356.7357071
0
ARC
8
DEFAULT_255_1_234
10
23.4849505
20
44.6985444
40
0.4832297
50
356.3548756
51
0.0500261
0
ARC
8
DEFAULT_255_1_234
10
23.6186015
20
44.701665
40
0.3495889
50
359.5576869
51
12.953486
0
ARC
8
DEFAULT_255_1_234
10
23.7240912
20
44.7272434
40
0.2410532
50
12.6490276
51
41.6081334
0
ARC
8
DEFAULT_255_1_234
10
23.7471283
20
44.7468321
40
0.2108218
50
41.7850273
51
85.9892764
0
ARC
8
DEFAULT_255_1_234
10
23.734802
20
44.6655462
40
0.2928454
50
84.6957577
51
90.0676183
0
ARC
8
DEFAULT_255_1_234
10
23.7324504
20
44.5986716
40
0.3597255
50
89.6804936
51
99.1614436
0
ARC
8
DEFAULT_255_1_234
10
23.7119135
20
44.7214131
40
0.235281
50
98.9830931
51
113.8908934
0
ARC
8
DEFAULT_255_1_234
10
23.6889545
20
44.7755587
40
0.176479
50
114.1950727
51
127.3641004
0
LINE
8
DEFAULT_255_1_234
10
20.355723
20
52.6364663
11
20.5107355
21
52.6364663
0
LINE
8
DEFAULT_255_1_234
10
19.6103777
20
52.7954947
11
19.6103777
21
52.9079391
0
LINE
8
DEFAULT_255_1_234
10
20.5107355
20
53.0589357
11
20.355723
21
53.0589357
0
LINE
8
DEFAULT_255_1_234
10
19.7653902
20
52.9039232
11
19.7653902
21
52.7906757
0
ARC
8
DEFAULT_255_1_234
10
19.9626742
20
52.6961846
40
0.5513052
50
340.1774281
51
353.7814284
0
ARC
8
DEFAULT_255_1_234
10
20.1198095
20
52.6376582
40
0.3836379
50
311.4558989
51
340.4421614
0
ARC
8
DEFAULT_255_1_234
10
20.1164763
20
52.6487528
40
0.3941894
50
282.4333181
51
310.7513653
0
ARC
8
DEFAULT_255_1_234
10
20.0725502
20
52.8302679
40
0.5809175
50
269.9358511
51
282.809604
0
ARC
8
DEFAULT_255_1_234
10
20.0673568
20
52.9760212
40
0.7266847
50
270.0021091
51
270.3581957
0
ARC
8
DEFAULT_255_1_234
10
20.0620985
20
52.7159585
40
0.4666519
50
250.7884749
51
270.6489167
0
ARC
8
DEFAULT_255_1_234
10
20.045282
20
52.6522319
40
0.4009729
50
219.3627325
51
250.0611886
0
ARC
8
DEFAULT_255_1_234
10
20.1282031
20
52.7227042
40
0.5097822
50
193.5479632
51
219.5756669
0
ARC
8
DEFAULT_255_1_234
10
20.3653652
20
52.7842919
40
0.7547848
50
181.1218675
51
193.87563
0
ARC
8
DEFAULT_255_1_234
10
20.5723833
20
52.795358
40
0.9620055
50
179.9918545
51
181.5394234
0
ARC
8
DEFAULT_255_1_234
10
20.3872935
20
52.9116788
40
0.7769248
50
169.5837241
51
180.2757934
0
ARC
8
DEFAULT_255_1_234
10
20.2035873
20
52.9456229
40
0.590109
50
155.0365899
51
169.6003176
0
ARC
8
DEFAULT_255_1_234
10
20.0900337
20
53.0003677
40
0.4640625
50
136.783148
51
155.2472683
0
ARC
8
DEFAULT_255_1_234
10
20.0510814
20
53.0334562
40
0.4130255
50
121.7633186
51
136.428115
0
ARC
8
DEFAULT_255_1_234
10
20.0645776
20
53.0085227
40
0.4413323
50
95.6459699
51
121.5490577
0
ARC
8
DEFAULT_255_1_234
10
20.0803058
20
52.8976949
40
0.55319
50
89.924208
51
96.1377933
0
ARC
8
DEFAULT_255_1_234
10
20.0853491
20
52.9095542
40
0.5413475
50
76.6779277
51
90.4563316
0
ARC
8
DEFAULT_255_1_234
10
20.1247114
20
53.0686114
40
0.3775041
50
47.485847
51
76.9287264
0
ARC
8
DEFAULT_255_1_234
10
20.1100087
20
53.0586159
40
0.3948286
50
16.5424086
51
46.8933463
0
ARC
8
DEFAULT_255_1_234
10
19.9492244
20
53.0057861
40
0.564021
50
5.4072051
51
17.0365086
0
ARC
8
DEFAULT_255_1_234
10
19.8053261
20
52.9826679
40
0.5556559
50
7.8891745
51
15.9239216
0
ARC
8
DEFAULT_255_1_234
10
20.0040274
20
53.0403631
40
0.3487515
50
15.7653144
51
27.9410532
0
ARC
8
DEFAULT_255_1_234
10
20.1144492
20
53.099479
40
0.2235026
50
27.8166557
51
46.4008329
0
ARC
8
DEFAULT_255_1_234
10
20.1194135
20
53.0989082
40
0.2205286
50
47.4371857
51
75.0698205
0
ARC
8
DEFAULT_255_1_234
10
20.0885529
20
52.9914765
40
0.3322915
50
74.7008593
51
87.8124495
0
ARC
8
DEFAULT_255_1_234
10
20.0812217
20
52.8858844
40
0.4380987
50
87.3814673
51
90.0240855
0
ARC
8
DEFAULT_255_1_234
10
20.077376
20
53.0036291
40
0.3203749
50
89.3451631
51
108.5745436
0
ARC
8
DEFAULT_255_1_234
10
20.0636865
20
53.0549908
40
0.2673494
50
109.2998449
51
143.3037509
0
ARC
8
DEFAULT_255_1_234
10
20.1398938
20
52.9963881
40
0.3634757
50
143.0753173
51
163.1916937
0
ARC
8
DEFAULT_255_1_234
10
20.3350666
20
52.9347967
40
0.5681262
50
162.9373603
51
174.6208611
0
ARC
8
DEFAULT_255_1_234
10
20.5976708
20
52.906001
40
0.8322832
50
174.3419979
51
180.1430411
0
ARC
8
DEFAULT_255_1_234
10
20.5045864
20
52.7865698
40
0.7392076
50
179.6817502
51
189.150529
0
ARC
8
DEFAULT_255_1_234
10
20.2545112
20
52.744919
40
0.4856932
50
188.9910863
51
203.5773039
0
ARC
8
DEFAULT_255_1_234
10
20.1465445
20
52.7001211
40
0.3688271
50
203.9077269
51
215.1312379
0
ARC
8
DEFAULT_255_1_234
10
20.0542539
20
52.6285941
40
0.2522457
50
213.9071664
51
263.8849284
0
ARC
8
DEFAULT_255_1_234
10
20.0667868
20
52.7070518
40
0.3316174
50
263.1758525
51
270.1031083
0
ARC
8
DEFAULT_255_1_234
10
20.069996
20
52.8317365
40
0.4563091
50
269.6719807
51
279.0609165
0
ARC
8
DEFAULT_255_1_234
10
20.0966728
20
52.6704907
40
0.2928759
50
278.8750225
51
293.6346586
0
ARC
8
DEFAULT_255_1_234
10
20.1286936
20
52.59529
40
0.2111472
50
293.8553404
51
310.0518804
0
ARC
8
DEFAULT_255_1_234
10
20.129179
20
52.5890516
40
0.2060917
50
311.0646779
51
332.0108348
0
ARC
8
DEFAULT_255_1_234
10
20.0099517
20
52.6547978
40
0.3422352
50
331.6588543
51
343.2878891
0
ARC
8
DEFAULT_255_1_234
10
19.8037032
20
52.7181798
40
0.5580003
50
343.1446044
51
351.010618
0
ARC
8
DEFAULT_255_1_234
10
19.6495678
20
52.7462871
40
0.7146438
50
350.7157277
51
351.1602153
0
LINE
8
DEFAULT_255_1_234
10
21.6207218
20
52.8862534
11
21.6207218
21
52.8123614
0
LINE
8
DEFAULT_255_1_234
10
20.6802052
20
52.8019201
11
20.6802052
21
52.8862534
0
LINE
8
DEFAULT_255_1_234
10
21.4673156
20
52.8011169
11
21.4673156
21
52.8878597
0
LINE
8
DEFAULT_255_1_234
10
20.8336114
20
52.898301
11
20.8336114
21
52.8123614
0
ARC
8
DEFAULT_255_1_234
10
20.7565244
20
52.8084015
40
0.8642064
50
350.487711
51
0.2625388
0
ARC
8
DEFAULT_255_1_234
10
20.9858486
20
52.7689578
40
0.631518
50
336.0277639
51
350.5787438
0
ARC
8
DEFAULT_255_1_234
10
21.1203309
20
52.7081892
40
0.4839466
50
319.8877444
51
336.1328423
0
ARC
8
DEFAULT_255_1_234
10
21.180595
20
52.659958
40
0.4067874
50
302.4806467
51
319.6143626
0
ARC
8
DEFAULT_255_1_234
10
21.169096
20
52.6821202
40
0.4316636
50
275.8195682
51
302.1884709
0
ARC
8
DEFAULT_255_1_234
10
21.1524593
20
52.7963665
40
0.5470306
50
269.9171439
51
276.3397983
0
ARC
8
DEFAULT_255_1_234
10
21.1479803
20
52.7277681
40
0.4784458
50
252.5219675
51
270.4416499
0
ARC
8
DEFAULT_255_1_234
10
21.1336062
20
52.6738592
40
0.422716
50
237.5352116
51
252.1857531
0
ARC
8
DEFAULT_255_1_234
10
21.1425258
20
52.6852363
40
0.4371052
50
209.063312
51
237.3492538
0
ARC
8
DEFAULT_255_1_234
10
21.2295106
20
52.7398685
40
0.5397041
50
205.1183774
51
209.6470015
0
ARC
8
DEFAULT_255_1_234
10
21.3092143
20
52.773683
40
0.6262326
50
188.7215458
51
204.8240747
0
ARC
8
DEFAULT_255_1_234
10
21.5089671
20
52.8073067
40
0.8287794
50
180.3723947
51
188.9252049
0
ARC
8
DEFAULT_255_1_234
10
21.5062423
20
52.8902402
40
0.8260467
50
169.5253763
51
180.2765336
0
ARC
8
DEFAULT_255_1_234
10
21.3159871
20
52.9252309
40
0.6326007
50
155.8315255
51
169.5089989
0
ARC
8
DEFAULT_255_1_234
10
21.1879373
20
52.9846348
40
0.4914567
50
139.6258461
51
156.0379525
0
ARC
8
DEFAULT_255_1_234
10
21.1289706
20
53.0320799
40
0.4158054
50
122.6416387
51
139.3430715
0
ARC
8
DEFAULT_255_1_234
10
21.1390326
20
53.0137451
40
0.4366739
50
93.0223692
51
122.455762
0
ARC
8
DEFAULT_255_1_234
10
21.1498323
20
52.9172709
40
0.5336137
50
89.975342
51
93.6341897
0
ARC
8
DEFAULT_255_1_234
10
21.1537102
20
52.9571242
40
0.4937738
50
73.746375
51
90.4233405
0
ARC
8
DEFAULT_255_1_234
10
21.1712681
20
53.0251287
40
0.4235786
50
57.662753
51
73.4518111
0
ARC
8
DEFAULT_255_1_234
10
21.1704687
20
53.0272832
40
0.4221899
50
29.1440151
51
57.414694
0
ARC
8
DEFAULT_255_1_234
10
21.0769882
20
52.9689005
40
0.5322966
50
24.0982783
51
29.7323517
0
ARC
8
DEFAULT_255_1_234
10
20.9736157
20
52.9260399
40
0.6441673
50
8.6655297
51
23.8241346
0
ARC
8
DEFAULT_255_1_234
10
20.7501895
20
52.8895854
40
0.8705386
50
359.7806941
51
8.8218784
0
ARC
8
DEFAULT_255_1_234
10
20.6354893
20
52.8921345
40
0.8318373
50
359.7055579
51
8.036044
0
ARC
8
DEFAULT_255_1_234
10
20.9354899
20
52.9358239
40
0.5286768
50
7.8928306
51
20.2962107
0
ARC
8
DEFAULT_255_1_234
10
21.098247
20
52.9958395
40
0.3552073
50
20.3231126
51
36.4992797
0
ARC
8
DEFAULT_255_1_234
10
21.1668016
20
53.0486402
40
0.2686974
50
36.1437156
51
85.6627023
0
ARC
8
DEFAULT_255_1_234
10
21.1505562
20
52.9446221
40
0.373739
50
84.3852322
51
90.0757696
0
ARC
8
DEFAULT_255_1_234
10
21.1463234
20
53.0106839
40
0.3076997
50
89.3038458
51
109.9045693
0
ARC
8
DEFAULT_255_1_234
10
21.1370625
20
53.0489062
40
0.2686424
50
110.8228367
51
143.9179474
0
ARC
8
DEFAULT_255_1_234
10
21.2304285
20
52.9776236
40
0.3860887
50
143.5289163
51
163.2980757
0
ARC
8
DEFAULT_255_1_234
10
21.4212106
20
52.9176433
40
0.5860659
50
163.0418846
51
174.3140048
0
ARC
8
DEFAULT_255_1_234
10
21.6616218
20
52.8898854
40
0.8280531
50
174.0509143
51
179.4176892
0
ARC
8
DEFAULT_255_1_234
10
21.6111957
20
52.8081954
40
0.7775954
50
179.6930361
51
188.7906598
0
ARC
8
DEFAULT_255_1_234
10
21.3448436
20
52.7655935
40
0.5078633
50
188.6331305
51
202.5629587
0
ARC
8
DEFAULT_255_1_234
10
21.2194028
20
52.7151996
40
0.3726913
50
202.8081362
51
216.1193925
0
ARC
8
DEFAULT_255_1_234
10
21.1384598
20
52.6500676
40
0.2689577
50
215.0755913
51
264.6379694
0
ARC
8
DEFAULT_255_1_234
10
21.1511548
20
52.7331513
40
0.3528978
50
263.846392
51
270.0833719
0
ARC
8
DEFAULT_255_1_234
10
21.1552938
20
52.7073374
40
0.3271036
50
269.3649385
51
287.5152008
0
ARC
8
DEFAULT_255_1_234
10
21.1731096
20
52.6426238
40
0.2600406
50
288.0630309
51
323.8113348
0
ARC
8
DEFAULT_255_1_234
10
21.0859937
20
52.7076049
40
0.3687189
50
323.6547608
51
342.6590488
0
ARC
8
DEFAULT_255_1_234
10
20.8828552
20
52.7736952
40
0.5823286
50
342.4091907
51
353.6451149
0
ARC
8
DEFAULT_255_1_234
10
20.5997063
20
52.808919
40
0.8676442
50
353.4029884
51
359.4847795
0
LINE
8
DEFAULT_255_1_234
10
21.8520358
20
53.4348211
11
22.0512229
21
53.4348211
0
LINE
8
DEFAULT_255_1_234
10
22.0512229
20
53.4348211
11
22.4335337
21
52.4806506
0
LINE
8
DEFAULT_255_1_234
10
22.4335337
20
52.4806506
11
22.8158444
21
53.4348211
0
LINE
8
DEFAULT_255_1_234
10
22.8158444
20
53.4348211
11
23.0158347
21
53.4348211
0
LINE
8
DEFAULT_255_1_234
10
23.0158347
20
53.4348211
11
23.0158347
21
52.2654
0
LINE
8
DEFAULT_255_1_234
10
23.0158347
20
52.2654
11
22.8616253
21
52.2654
0
LINE
8
DEFAULT_255_1_234
10
22.8616253
20
52.2654
11
22.8616253
21
52.7207996
0
LINE
8
DEFAULT_255_1_234
10
22.8616253
20
52.7207996
11
22.8760825
21
53.2123419
0
LINE
8
DEFAULT_255_1_234
10
22.8760825
20
53.2123419
11
22.4921654
21
52.2654
0
LINE
8
DEFAULT_255_1_234
10
22.4921654
20
52.2654
11
22.3740988
21
52.2654
0
LINE
8
DEFAULT_255_1_234
10
22.3740988
20
52.2654
11
21.9909849
21
53.2099324
0
LINE
8
DEFAULT_255_1_234
10
21.9909849
20
53.2099324
11
22.0062452
21
52.7207996
0
LINE
8
DEFAULT_255_1_234
10
22.0062452
20
52.7207996
11
22.0062452
21
52.2654
0
LINE
8
DEFAULT_255_1_234
10
22.0062452
20
52.2654
11
21.8520358
21
52.2654
0
LINE
8
DEFAULT_255_1_234
10
21.8520358
20
52.2654
11
21.8520358
21
53.4348211
0
LINE
8
DEFAULT_255_1_234
10
23.8768371
20
53.4348211
11
23.8768371
21
52.658152
0
LINE
8
DEFAULT_255_1_234
10
23.8768371
20
52.658152
11
24.0390782
21
52.658152
0
LINE
8
DEFAULT_255_1_234
10
24.0390782
20
52.658152
11
24.0390782
21
52.5368728
0
LINE
8
DEFAULT_255_1_234
10
24.0390782
20
52.5368728
11
23.8768371
21
52.5368728
0
LINE
8
DEFAULT_255_1_234
10
23.8768371
20
52.5368728
11
23.8768371
21
52.2654
0
LINE
8
DEFAULT_255_1_234
10
23.8768371
20
52.2654
11
23.7274467
21
52.2654
0
LINE
8
DEFAULT_255_1_234
10
23.7274467
20
52.2654
11
23.7274467
21
52.5368728
0
LINE
8
DEFAULT_255_1_234
10
23.7274467
20
52.5368728
11
23.1949425
21
52.5368728
0
LINE
8
DEFAULT_255_1_234
10
23.1949425
20
52.5368728
11
23.1949425
21
52.6244187
0
LINE
8
DEFAULT_255_1_234
10
23.1949425
20
52.6244187
11
23.7186118
21
53.4348211
0
LINE
8
DEFAULT_255_1_234
10
23.7186118
20
53.4348211
11
23.8768371
21
53.4348211
0
LINE
8
DEFAULT_255_1_234
10
23.7097769
20
53.1994912
11
23.363609
21
52.658152
0
LINE
8
DEFAULT_255_1_234
10
23.363609
20
52.658152
11
23.7274467
21
52.658152
0
LINE
8
DEFAULT_255_1_234
10
23.7274467
20
52.658152
11
23.7274467
21
53.2316181
0
LINE
8
DEFAULT_255_1_234
10
23.7274467
20
53.2316181
11
23.7097769
21
53.1994912
0
LINE
8
DEFAULT_255_1_234
10
20.461523
20
60.5739663
11
20.6165355
21
60.5739663
0
LINE
8
DEFAULT_255_1_234
10
19.7161777
20
60.7329947
11
19.7161777
21
60.8454391
0
LINE
8
DEFAULT_255_1_234
10
20.6165355
20
60.9964357
11
20.461523
21
60.9964357
0
LINE
8
DEFAULT_255_1_234
10
19.8711902
20
60.8414232
11
19.8711902
21
60.7281757
0
ARC
8
DEFAULT_255_1_234
10
20.0684742
20
60.6336846
40
0.5513052
50
340.1774281
51
353.7814284
0
ARC
8
DEFAULT_255_1_234
10
20.2256095
20
60.5751582
40
0.3836379
50
311.4558989
51
340.4421614
0
ARC
8
DEFAULT_255_1_234
10
20.2222763
20
60.5862528
40
0.3941894
50
282.4333181
51
310.7513653
0
ARC
8
DEFAULT_255_1_234
10
20.1783502
20
60.7677679
40
0.5809175
50
269.9358511
51
282.809604
0
ARC
8
DEFAULT_255_1_234
10
20.1731568
20
60.9135212
40
0.7266847
50
270.0021091
51
270.3581957
0
ARC
8
DEFAULT_255_1_234
10
20.1678985
20
60.6534585
40
0.4666519
50
250.7884749
51
270.6489167
0
ARC
8
DEFAULT_255_1_234
10
20.151082
20
60.5897319
40
0.4009729
50
219.3627325
51
250.0611886
0
ARC
8
DEFAULT_255_1_234
10
20.2340031
20
60.6602042
40
0.5097822
50
193.5479632
51
219.5756669
0
ARC
8
DEFAULT_255_1_234
10
20.4711652
20
60.7217919
40
0.7547848
50
181.1218675
51
193.87563
0
ARC
8
DEFAULT_255_1_234
10
20.6781833
20
60.732858
40
0.9620055
50
179.9918545
51
181.5394234
0
ARC
8
DEFAULT_255_1_234
10
20.4930935
20
60.8491788
40
0.7769248
50
169.5837241
51
180.2757934
0
ARC
8
DEFAULT_255_1_234
10
20.3093873
20
60.8831229
40
0.590109
50
155.0365899
51
169.6003176
0
ARC
8
DEFAULT_255_1_234
10
20.1958337
20
60.9378677
40
0.4640625
50
136.783148
51
155.2472683
0
ARC
8
DEFAULT_255_1_234
10
20.1568814
20
60.9709562
40
0.4130255
50
121.7633186
51
136.428115
0
ARC
8
DEFAULT_255_1_234
10
20.1703776
20
60.9460227
40
0.4413323
50
95.6459699
51
121.5490577
0
ARC
8
DEFAULT_255_1_234
10
20.1861058
20
60.8351949
40
0.55319
50
89.924208
51
96.1377933
0
ARC
8
DEFAULT_255_1_234
10
20.1911491
20
60.8470542
40
0.5413475
50
76.6779277
51
90.4563316
0
ARC
8
DEFAULT_255_1_234
10
20.2305114
20
61.0061114
40
0.3775041
50
47.485847
51
76.9287264
0
ARC
8
DEFAULT_255_1_234
10
20.2158087
20
60.9961159
40
0.3948286
50
16.5424086
51
46.8933463
0
ARC
8
DEFAULT_255_1_234
10
20.0550244
20
60.9432861
40
0.564021
50
5.4072051
51
17.0365086
0
ARC
8
DEFAULT_255_1_234
10
19.9111261
20
60.9201679
40
0.5556559
50
7.8891745
51
15.9239216
0
ARC
8
DEFAULT_255_1_234
10
20.1098274
20
60.9778631
40
0.3487515
50
15.7653144
51
27.9410532
0
ARC
8
DEFAULT_255_1_234
10
20.2202492
20
61.036979
40
0.2235026
50
27.8166557
51
46.4008329
0
ARC
8
DEFAULT_255_1_234
10
20.2252135
20
61.0364082
40
0.2205286
50
47.4371857
51
75.0698205
0
ARC
8
DEFAULT_255_1_234
10
20.1943529
20
60.9289765
40
0.3322915
50
74.7008593
51
87.8124495
0
ARC
8
DEFAULT_255_1_234
10
20.1870217
20
60.8233844
40
0.4380987
50
87.3814673
51
90.0240855
0
ARC
8
DEFAULT_255_1_234
10
20.183176
20
60.9411291
40
0.3203749
50
89.3451631
51
108.5745436
0
ARC
8
DEFAULT_255_1_234
10
20.1694865
20
60.9924908
40
0.2673494
50
109.2998449
51
143.3037509
0
ARC
8
DEFAULT_255_1_234
10
20.2456938
20
60.9338881
40
0.3634757
50
143.0753173
51
163.1916937
0
ARC
8
DEFAULT_255_1_234
10
20.4408666
20
60.8722967
40
0.5681262
50
162.9373603
51
174.6208611
0
ARC
8
DEFAULT_255_1_234
10
20.7034708
20
60.843501
40
0.8322832
50
174.3419979
51
180.1430411
0
ARC
8
DEFAULT_255_1_234
10
20.6103864
20
60.7240698
40
0.7392076
50
179.6817502
51
189.150529
0
ARC
8
DEFAULT_255_1_234
10
20.3603112
20
60.682419
40
0.4856932
50
188.9910863
51
203.5773039
0
ARC
8
DEFAULT_255_1_234
10
20.2523445
20
60.6376211
40
0.3688271
50
203.9077269
51
215.1312379
0
ARC
8
DEFAULT_255_1_234
10
20.1600539
20
60.5660941
40
0.2522457
50
213.9071664
51
263.8849284
0
ARC
8
DEFAULT_255_1_234
10
20.1725868
20
60.6445518
40
0.3316174
50
263.1758525
51
270.1031083
0
ARC
8
DEFAULT_255_1_234
10
20.175796
20
60.7692365
40
0.4563091
50
269.6719807
51
279.0609165
0
ARC
8
DEFAULT_255_1_234
10
20.2024728
20
60.6079907
40
0.2928759
50
278.8750225
51
293.6346586
0
ARC
8
DEFAULT_255_1_234
10
20.2344936
20
60.53279
40
0.2111472
50
293.8553404
51
310.0518804
0
ARC
8
DEFAULT_255_1_234
10
20.234979
20
60.5265516
40
0.2060917
50
311.0646779
51
332.0108348
0
ARC
8
DEFAULT_255_1_234
10
20.1157517
20
60.5922978
40
0.3422352
50
331.6588543
51
343.2878891
0
ARC
8
DEFAULT_255_1_234
10
19.9095032
20
60.6556798
40
0.5580003
50
343.1446044
51
351.010618
0
ARC
8
DEFAULT_255_1_234
10
19.7553678
20
60.6837871
40
0.7146438
50
350.7157277
51
351.1602153
0
LINE
8
DEFAULT_255_1_234
10
21.7265218
20
60.8237534
11
21.7265218
21
60.7498614
0
LINE
8
DEFAULT_255_1_234
10
20.7860052
20
60.7394201
11
20.7860052
21
60.8237534
0
LINE
8
DEFAULT_255_1_234
10
21.5731156
20
60.7386169
11
21.5731156
21
60.8253597
0
LINE
8
DEFAULT_255_1_234
10
20.9394114
20
60.835801
11
20.9394114
21
60.7498614
0
ARC
8
DEFAULT_255_1_234
10
20.8623244
20
60.7459015
40
0.8642064
50
350.487711
51
0.2625388
0
ARC
8
DEFAULT_255_1_234
10
21.0916486
20
60.7064578
40
0.631518
50
336.0277639
51
350.5787438
0
ARC
8
DEFAULT_255_1_234
10
21.2261309
20
60.6456892
40
0.4839466
50
319.8877444
51
336.1328423
0
ARC
8
DEFAULT_255_1_234
10
21.286395
20
60.597458
40
0.4067874
50
302.4806467
51
319.6143626
0
ARC
8
DEFAULT_255_1_234
10
21.274896
20
60.6196202
40
0.4316636
50
275.8195682
51
302.1884709
0
ARC
8
DEFAULT_255_1_234
10
21.2582593
20
60.7338665
40
0.5470306
50
269.9171439
51
276.3397983
0
ARC
8
DEFAULT_255_1_234
10
21.2537803
20
60.6652681
40
0.4784458
50
252.5219675
51
270.4416499
0
ARC
8
DEFAULT_255_1_234
10
21.2394062
20
60.6113592
40
0.422716
50
237.5352116
51
252.1857531
0
ARC
8
DEFAULT_255_1_234
10
21.2483258
20
60.6227363
40
0.4371052
50
209.063312
51
237.3492538
0
ARC
8
DEFAULT_255_1_234
10
21.3353106
20
60.6773685
40
0.5397041
50
205.1183774
51
209.6470015
0
ARC
8
DEFAULT_255_1_234
10
21.4150143
20
60.711183
40
0.6262326
50
188.7215458
51
204.8240747
0
ARC
8
DEFAULT_255_1_234
10
21.6147671
20
60.7448067
40
0.8287794
50
180.3723947
51
188.9252049
0
ARC
8
DEFAULT_255_1_234
10
21.6120423
20
60.8277402
40
0.8260467
50
169.5253763
51
180.2765336
0
ARC
8
DEFAULT_255_1_234
10
21.4217871
20
60.8627309
40
0.6326007
50
155.8315255
51
169.5089989
0
ARC
8
DEFAULT_255_1_234
10
21.2937373
20
60.9221348
40
0.4914567
50
139.6258461
51
156.0379525
0
ARC
8
DEFAULT_255_1_234
10
21.2347706
20
60.9695799
40
0.4158054
50
122.6416387
51
139.3430715
0
ARC
8
DEFAULT_255_1_234
10
21.2448326
20
60.9512451
40
0.4366739
50
93.0223692
51
122.455762
0
ARC
8
DEFAULT_255_1_234
10
21.2556323
20
60.8547709
40
0.5336137
50
89.975342
51
93.6341897
0
ARC
8
DEFAULT_255_1_234
10
21.2595102
20
60.8946242
40
0.4937738
50
73.746375
51
90.4233405
0
ARC
8
DEFAULT_255_1_234
10
21.2770681
20
60.9626287
40
0.4235786
50
57.662753
51
73.4518111
0
ARC
8
DEFAULT_255_1_234
10
21.2762687
20
60.9647832
40
0.4221899
50
29.1440151
51
57.414694
0
ARC
8
DEFAULT_255_1_234
10
21.1827882
20
60.9064005
40
0.5322966
50
24.0982783
51
29.7323517
0
ARC
8
DEFAULT_255_1_234
10
21.0794157
20
60.8635399
40
0.6441673
50
8.6655297
51
23.8241346
0
ARC
8
DEFAULT_255_1_234
10
20.8559895
20
60.8270854
40
0.8705386
50
359.7806941
51
8.8218784
0
ARC
8
DEFAULT_255_1_234
10
20.7412893
20
60.8296345
40
0.8318373
50
359.7055579
51
8.036044
0
ARC
8
DEFAULT_255_1_234
10
21.0412899
20
60.8733239
40
0.5286768
50
7.8928306
51
20.2962107
0
ARC
8
DEFAULT_255_1_234
10
21.204047
20
60.9333395
40
0.3552073
50
20.3231126
51
36.4992797
0
ARC
8
DEFAULT_255_1_234
10
21.2726016
20
60.9861402
40
0.2686974
50
36.1437156
51
85.6627023
0
ARC
8
DEFAULT_255_1_234
10
21.2563562
20
60.8821221
40
0.373739
50
84.3852322
51
90.0757696
0
ARC
8
DEFAULT_255_1_234
10
21.2521234
20
60.9481839
40
0.3076997
50
89.3038458
51
109.9045693
0
ARC
8
DEFAULT_255_1_234
10
21.2428625
20
60.9864062
40
0.2686424
50
110.8228367
51
143.9179474
0
ARC
8
DEFAULT_255_1_234
10
21.3362285
20
60.9151236
40
0.3860887
50
143.5289163
51
163.2980757
0
ARC
8
DEFAULT_255_1_234
10
21.5270106
20
60.8551433
40
0.5860659
50
163.0418846
51
174.3140048
0
ARC
8
DEFAULT_255_1_234
10
21.7674218
20
60.8273854
40
0.8280531
50
174.0509143
51
179.4176892
0
ARC
8
DEFAULT_255_1_234
10
21.7169957
20
60.7456954
40
0.7775954
50
179.6930361
51
188.7906598
0
ARC
8
DEFAULT_255_1_234
10
21.4506436
20
60.7030935
40
0.5078633
50
188.6331305
51
202.5629587
0
ARC
8
DEFAULT_255_1_234
10
21.3252028
20
60.6526996
40
0.3726913
50
202.8081362
51
216.1193925
0
ARC
8
DEFAULT_255_1_234
10
21.2442598
20
60.5875676
40
0.2689577
50
215.0755913
51
264.6379694
0
ARC
8
DEFAULT_255_1_234
10
21.2569548
20
60.6706513
40
0.3528978
50
263.846392
51
270.0833719
0
ARC
8
DEFAULT_255_1_234
10
21.2610938
20
60.6448374
40
0.3271036
50
269.3649385
51
287.5152008
0
ARC
8
DEFAULT_255_1_234
10
21.2789096
20
60.5801238
40
0.2600406
50
288.0630309
51
323.8113348
0
ARC
8
DEFAULT_255_1_234
10
21.1917937
20
60.6451049
40
0.3687189
50
323.6547608
51
342.6590488
0
ARC
8
DEFAULT_255_1_234
10
20.9886552
20
60.7111952
40
0.5823286
50
342.4091907
51
353.6451149
0
ARC
8
DEFAULT_255_1_234
10
20.7055063
20
60.746419
40
0.8676442
50
353.4029884
51
359.4847795
0
LINE
8
DEFAULT_255_1_234
10
21.9578358
20
61.3723211
11
22.1570229
21
61.3723211
0
LINE
8
DEFAULT_255_1_234
10
22.1570229
20
61.3723211
11
22.5393337
21
60.4181506
0
LINE
8
DEFAULT_255_1_234
10
22.5393337
20
60.4181506
11
22.9216444
21
61.3723211
0
LINE
8
DEFAULT_255_1_234
10
22.9216444
20
61.3723211
11
23.1216347
21
61.3723211
0
LINE
8
DEFAULT_255_1_234
10
23.1216347
20
61.3723211
11
23.1216347
21
60.2029
0
LINE
8
DEFAULT_255_1_234
10
23.1216347
20
60.2029
11
22.9674253
21
60.2029
0
LINE
8
DEFAULT_255_1_234
10
22.9674253
20
60.2029
11
22.9674253
21
60.6582996
0
LINE
8
DEFAULT_255_1_234
10
22.9674253
20
60.6582996
11
22.9818825
21
61.1498419
0
LINE
8
DEFAULT_255_1_234
10
22.9818825
20
61.1498419
11
22.5979654
21
60.2029
0
LINE
8
DEFAULT_255_1_234
10
22.5979654
20
60.2029
11
22.4798988
21
60.2029
0
LINE
8
DEFAULT_255_1_234
10
22.4798988
20
60.2029
11
22.0967849
21
61.1474324
0
LINE
8
DEFAULT_255_1_234
10
22.0967849
20
61.1474324
11
22.1120452
21
60.6582996
0
LINE
8
DEFAULT_255_1_234
10
22.1120452
20
60.6582996
11
22.1120452
21
60.2029
0
LINE
8
DEFAULT_255_1_234
10
22.1120452
20
60.2029
11
21.9578358
21
60.2029
0
LINE
8
DEFAULT_255_1_234
10
21.9578358
20
60.2029
11
21.9578358
21
61.3723211
0
LINE
8
DEFAULT_255_1_234
10
23.5714121
20
60.7386169
11
23.5714121
21
60.8598962
0
LINE
8
DEFAULT_255_1_234
10
23.5714121
20
60.8598962
11
23.6830532
21
60.8598962
0
LINE
8
DEFAULT_255_1_234
10
23.492701
20
61.0655087
11
23.3441139
21
61.0655087
0
LINE
8
DEFAULT_255_1_234
10
23.3336726
20
60.5113188
11
23.4830629
21
60.5113188
0
LINE
8
DEFAULT_255_1_234
10
23.6830532
20
60.7386169
11
23.5714121
21
60.7386169
0
ARC
8
DEFAULT_255_1_234
10
23.6801399
20
61.1991713
40
0.3392876
50
270.4919872
51
281.8951556
0
ARC
8
DEFAULT_255_1_234
10
23.704266
20
61.0889702
40
0.2264817
50
281.6691735
51
301.2943132
0
ARC
8
DEFAULT_255_1_234
10
23.7212871
20
61.0578304
40
0.1910381
50
301.7833094
51
311.7545298
0
ARC
8
DEFAULT_255_1_234
10
23.7304446
20
61.0476748
40
0.1773635
50
311.7323931
51
354.2802411
0
ARC
8
DEFAULT_255_1_234
10
23.6578072
20
61.0601722
40
0.2509385
50
353.0937916
51
0.1181479
0
ARC
8
DEFAULT_255_1_234
10
23.6116856
20
61.0649386
40
0.2970898
50
359.1805295
51
15.0453146
0
ARC
8
DEFAULT_255_1_234
10
23.7462693
20
61.1041992
40
0.1569564
50
13.9577229
51
77.6713066
0
ARC
8
DEFAULT_255_1_234
10
23.7076223
20
60.9656949
40
0.3006298
50
76.1116566
51
90.7026153
0
ARC
8
DEFAULT_255_1_234
10
23.7017061
20
60.9930545
40
0.2732568
50
89.5324876
51
103.531937
0
ARC
8
DEFAULT_255_1_234
10
23.6816505
20
61.0729884
40
0.1908508
50
103.2931773
51
133.5619022
0
ARC
8
DEFAULT_255_1_234
10
23.6771993
20
61.0789375
40
0.1834746
50
133.8349307
51
173.5344437
0
ARC
8
DEFAULT_255_1_234
10
23.7495036
20
61.0661213
40
0.2568033
50
172.5096846
51
180.1366907
0
ARC
8
DEFAULT_255_1_234
10
23.654393
20
61.0695622
40
0.3103056
50
155.3484492
51
180.7484736
0
ARC
8
DEFAULT_255_1_234
10
23.6495019
20
61.0666846
40
0.3070957
50
131.5744599
51
154.4798489
0
ARC
8
DEFAULT_255_1_234
10
23.6808167
20
61.035031
40
0.3515643
50
96.9875458
51
131.9690667
0
ARC
8
DEFAULT_255_1_234
10
23.7027647
20
60.9104636
40
0.4779224
50
89.8596053
51
97.7825159
0
ARC
8
DEFAULT_255_1_234
10
23.707571
20
60.8842616
40
0.5041361
50
78.3655447
51
90.4131539
0
ARC
8
DEFAULT_255_1_234
10
23.7433628
20
61.0501887
40
0.3344039
50
56.6229102
51
78.638727
0
ARC
8
DEFAULT_255_1_234
10
23.7648571
20
61.0877805
40
0.2912001
50
47.0253525
51
56.0854072
0
ARC
8
DEFAULT_255_1_234
10
23.7668351
20
61.0917223
40
0.2869704
50
10.9208013
51
46.7778124
0
ARC
8
DEFAULT_255_1_234
10
23.6304418
20
61.0601857
40
0.426899
50
359.6364486
51
11.6087304
0
ARC
8
DEFAULT_255_1_234
10
23.8139262
20
61.0586752
40
0.243409
50
332.3549906
51
359.7179418
0
ARC
8
DEFAULT_255_1_234
10
23.7488863
20
61.0895142
40
0.3153459
50
325.2333722
51
332.8745602
0
ARC
8
DEFAULT_255_1_234
10
23.7641487
20
61.0788828
40
0.2967456
50
292.9802137
51
325.2392345
0
ARC
8
DEFAULT_255_1_234
10
23.7366861
20
61.1322863
40
0.3566604
50
292.5402179
51
293.6924929
0
ARC
8
DEFAULT_255_1_234
10
23.7759457
20
60.4868091
40
0.3307468
50
57.6435486
51
72.8625112
0
ARC
8
DEFAULT_255_1_234
10
23.8113957
20
60.5442549
40
0.2632492
50
36.7248896
51
57.4697979
0
ARC
8
DEFAULT_255_1_234
10
23.8102589
20
60.545522
40
0.2634081
50
8.0545065
51
36.356114
0
ARC
8
DEFAULT_255_1_234
10
23.7239775
20
60.5300174
40
0.3510261
50
359.8320645
51
8.5869982
0
ARC
8
DEFAULT_255_1_234
10
23.6864551
20
60.5252101
40
0.3885653
50
343.9829931
51
0.5571613
0
ARC
8
DEFAULT_255_1_234
10
23.7750748
20
60.5009438
40
0.2966924
50
311.6359546
51
343.7651759
0
ARC
8
DEFAULT_255_1_234
10
23.7372317
20
60.5436102
40
0.3537231
50
279.7829875
51
311.6255694
0
ARC
8
DEFAULT_255_1_234
10
23.7071093
20
60.687328
40
0.5004971
50
269.7286406
51
280.3856417
0
ARC
8
DEFAULT_255_1_234
10
23.7009166
20
60.6831996
40
0.4963778
50
256.6828919
51
270.4412052
0
ARC
8
DEFAULT_255_1_234
10
23.6670462
20
60.5447394
40
0.3538406
50
229.4223008
51
256.8556159
0
ARC
8
DEFAULT_255_1_234
10
23.6255855
20
60.4980736
40
0.2914296
50
181.818294
51
229.6455059
0
ARC
8
DEFAULT_255_1_234
10
23.7295811
20
60.5111496
40
0.3959084
50
179.9755256
51
183.2323064
0
ARC
8
DEFAULT_255_1_234
10
23.7123557
20
60.5091037
40
0.2293034
50
179.4465117
51
196.2869258
0
ARC
8
DEFAULT_255_1_234
10
23.6635965
20
60.4957651
40
0.1787621
50
196.5661473
51
227.705904
0
ARC
8
DEFAULT_255_1_234
10
23.6800059
20
60.5141155
40
0.2033784
50
227.7652068
51
257.8762805
0
ARC
8
DEFAULT_255_1_234
10
23.702503
20
60.6084156
40
0.3003081
50
257.4584385
51
270.426602
0
ARC
8
DEFAULT_255_1_234
10
23.7070596
20
60.6373996
40
0.329292
50
269.5962073
51
280.8789248
0
ARC
8
DEFAULT_255_1_234
10
23.7300125
20
60.5227685
40
0.2123908
50
280.6346389
51
299.8595945
0
ARC
8
DEFAULT_255_1_234
10
23.7491031
20
60.4865212
40
0.171457
50
300.3576302
51
314.5517981
0
ARC
8
DEFAULT_255_1_234
10
23.7408091
20
60.4925919
40
0.1816095
50
315.0728369
51
345.0431014
0
ARC
8
DEFAULT_255_1_234
10
23.6484906
20
60.5194841
40
0.2777492
50
344.5986631
51
357.9269593
0
ARC
8
DEFAULT_255_1_234
10
23.5589232
20
60.5256276
40
0.3674917
50
357.4748886
51
0.0231117
0
ARC
8
DEFAULT_255_1_234
10
23.6612341
20
60.5280679
40
0.2651907
50
359.5047933
51
13.4239635
0
ARC
8
DEFAULT_255_1_234
10
23.7478985
20
60.5502478
40
0.1757509
50
12.9498199
51
48.7551375
0
ARC
8
DEFAULT_255_1_234
10
23.7296719
20
60.52534
40
0.2065134
50
49.5088623
51
72.1836453
0
ARC
8
DEFAULT_255_1_234
10
23.6938871
20
60.4191291
40
0.3185836
50
71.9010081
51
84.3554254
0
ARC
8
DEFAULT_255_1_234
10
23.6777503
20
60.2830326
40
0.4556151
50
84.0193428
51
89.333121
0
LINE
8
DEFAULT_255_1_234
10
20.461523
20
68.5114663
11
20.6165355
21
68.5114663
0
LINE
8
DEFAULT_255_1_234
10
19.7161777
20
68.6704947
11
19.7161777
21
68.7829391
0
LINE
8
DEFAULT_255_1_234
10
20.6165355
20
68.9339357
11
20.461523
21
68.9339357
0
LINE
8
DEFAULT_255_1_234
10
19.8711902
20
68.7789232
11
19.8711902
21
68.6656757
0
ARC
8
DEFAULT_255_1_234
10
20.0684742
20
68.5711846
40
0.5513052
50
340.1774281
51
353.7814284
0
ARC
8
DEFAULT_255_1_234
10
20.2256095
20
68.5126582
40
0.3836379
50
311.4558989
51
340.4421614
0
ARC
8
DEFAULT_255_1_234
10
20.2222763
20
68.5237528
40
0.3941894
50
282.4333181
51
310.7513653
0
ARC
8
DEFAULT_255_1_234
10
20.1783502
20
68.7052679
40
0.5809175
50
269.9358511
51
282.809604
0
ARC
8
DEFAULT_255_1_234
10
20.1731568
20
68.8510212
40
0.7266847
50
270.0021091
51
270.3581957
0
ARC
8
DEFAULT_255_1_234
10
20.1678985
20
68.5909585
40
0.4666519
50
250.7884749
51
270.6489167
0
ARC
8
DEFAULT_255_1_234
10
20.151082
20
68.5272319
40
0.4009729
50
219.3627325
51
250.0611886
0
ARC
8
DEFAULT_255_1_234
10
20.2340031
20
68.5977042
40
0.5097822
50
193.5479632
51
219.5756669
0
ARC
8
DEFAULT_255_1_234
10
20.4711652
20
68.6592919
40
0.7547848
50
181.1218675
51
193.87563
0
ARC
8
DEFAULT_255_1_234
10
20.6781833
20
68.670358
40
0.9620055
50
179.9918545
51
181.5394234
0
ARC
8
DEFAULT_255_1_234
10
20.4930935
20
68.7866788
40
0.7769248
50
169.5837241
51
180.2757934
0
ARC
8
DEFAULT_255_1_234
10
20.3093873
20
68.8206229
40
0.590109
50
155.0365899
51
169.6003176
0
ARC
8
DEFAULT_255_1_234
10
20.1958337
20
68.8753677
40
0.4640625
50
136.783148
51
155.2472683
0
ARC
8
DEFAULT_255_1_234
10
20.1568814
20
68.9084562
40
0.4130255
50
121.7633186
51
136.428115
0
ARC
8
DEFAULT_255_1_234
10
20.1703776
20
68.8835227
40
0.4413323
50
95.6459699
51
121.5490577
0
ARC
8
DEFAULT_255_1_234
10
20.1861058
20
68.7726949
40
0.55319
50
89.924208
51
96.1377933
0
ARC
8
DEFAULT_255_1_234
10
20.1911491
20
68.7845542
40
0.5413475
50
76.6779277
51
90.4563316
0
ARC
8
DEFAULT_255_1_234
10
20.2305114
20
68.9436114
40
0.3775041
50
47.485847
51
76.9287264
0
ARC
8
DEFAULT_255_1_234
10
20.2158087
20
68.9336159
40
0.3948286
50
16.5424086
51
46.8933463
0
ARC
8
DEFAULT_255_1_234
10
20.0550244
20
68.8807861
40
0.564021
50
5.4072051
51
17.0365086
0
ARC
8
DEFAULT_255_1_234
10
19.9111261
20
68.8576679
40
0.5556559
50
7.8891745
51
15.9239216
0
ARC
8
DEFAULT_255_1_234
10
20.1098274
20
68.9153631
40
0.3487515
50
15.7653144
51
27.9410532
0
ARC
8
DEFAULT_255_1_234
10
20.2202492
20
68.974479
40
0.2235026
50
27.8166557
51
46.4008329
0
ARC
8
DEFAULT_255_1_234
10
20.2252135
20
68.9739082
40
0.2205286
50
47.4371857
51
75.0698205
0
ARC
8
DEFAULT_255_1_234
10
20.1943529
20
68.8664765
40
0.3322915
50
74.7008593
51
87.8124495
0
ARC
8
DEFAULT_255_1_234
10
20.1870217
20
68.7608844
40
0.4380987
50
87.3814673
51
90.0240855
0
ARC
8
DEFAULT_255_1_234
10
20.183176
20
68.8786291
40
0.3203749
50
89.3451631
51
108.5745436
0
ARC
8
DEFAULT_255_1_234
10
20.1694865
20
68.9299908
40
0.2673494
50
109.2998449
51
143.3037509
0
ARC
8
DEFAULT_255_1_234
10
20.2456938
20
68.8713881
40
0.3634757
50
143.0753173
51
163.1916937
0
ARC
8
DEFAULT_255_1_234
10
20.4408666
20
68.8097967
40
0.5681262
50
162.9373603
51
174.6208611
0
ARC
8
DEFAULT_255_1_234
10
20.7034708
20
68.781001
40
0.8322832
50
174.3419979
51
180.1430411
0
ARC
8
DEFAULT_255_1_234
10
20.6103864
20
68.6615698
40
0.7392076
50
179.6817502
51
189.150529
0
ARC
8
DEFAULT_255_1_234
10
20.3603112
20
68.619919
40
0.4856932
50
188.9910863
51
203.5773039
0
ARC
8
DEFAULT_255_1_234
10
20.2523445
20
68.5751211
40
0.3688271
50
203.9077269
51
215.1312379
0
ARC
8
DEFAULT_255_1_234
10
20.1600539
20
68.5035941
40
0.2522457
50
213.9071664
51
263.8849284
0
ARC
8
DEFAULT_255_1_234
10
20.1725868
20
68.5820518
40
0.3316174
50
263.1758525
51
270.1031083
0
ARC
8
DEFAULT_255_1_234
10
20.175796
20
68.7067365
40
0.4563091
50
269.6719807
51
279.0609165
0
ARC
8
DEFAULT_255_1_234
10
20.2024728
20
68.5454907
40
0.2928759
50
278.8750225
51
293.6346586
0
ARC
8
DEFAULT_255_1_234
10
20.2344936
20
68.47029
40
0.2111472
50
293.8553404
51
310.0518804
0
ARC
8
DEFAULT_255_1_234
10
20.234979
20
68.4640516
40
0.2060917
50
311.0646779
51
332.0108348
0
ARC
8
DEFAULT_255_1_234
10
20.1157517
20
68.5297978
40
0.3422352
50
331.6588543
51
343.2878891
0
ARC
8
DEFAULT_255_1_234
10
19.9095032
20
68.5931798
40
0.5580003
50
343.1446044
51
351.010618
0
ARC
8
DEFAULT_255_1_234
10
19.7553678
20
68.6212871
40
0.7146438
50
350.7157277
51
351.1602153
0
LINE
8
DEFAULT_255_1_234
10
21.7265218
20
68.7612534
11
21.7265218
21
68.6873614
0
LINE
8
DEFAULT_255_1_234
10
20.7860052
20
68.6769201
11
20.7860052
21
68.7612534
0
LINE
8
DEFAULT_255_1_234
10
21.5731156
20
68.6761169
11
21.5731156
21
68.7628597
0
LINE
8
DEFAULT_255_1_234
10
20.9394114
20
68.773301
11
20.9394114
21
68.6873614
0
ARC
8
DEFAULT_255_1_234
10
20.8623244
20
68.6834015
40
0.8642064
50
350.487711
51
0.2625388
0
ARC
8
DEFAULT_255_1_234
10
21.0916486
20
68.6439578
40
0.631518
50
336.0277639
51
350.5787438
0
ARC
8
DEFAULT_255_1_234
10
21.2261309
20
68.5831892
40
0.4839466
50
319.8877444
51
336.1328423
0
ARC
8
DEFAULT_255_1_234
10
21.286395
20
68.534958
40
0.4067874
50
302.4806467
51
319.6143626
0
ARC
8
DEFAULT_255_1_234
10
21.274896
20
68.5571202
40
0.4316636
50
275.8195682
51
302.1884709
0
ARC
8
DEFAULT_255_1_234
10
21.2582593
20
68.6713665
40
0.5470306
50
269.9171439
51
276.3397983
0
ARC
8
DEFAULT_255_1_234
10
21.2537803
20
68.6027681
40
0.4784458
50
252.5219675
51
270.4416499
0
ARC
8
DEFAULT_255_1_234
10
21.2394062
20
68.5488592
40
0.422716
50
237.5352116
51
252.1857531
0
ARC
8
DEFAULT_255_1_234
10
21.2483258
20
68.5602363
40
0.4371052
50
209.063312
51
237.3492538
0
ARC
8
DEFAULT_255_1_234
10
21.3353106
20
68.6148685
40
0.5397041
50
205.1183774
51
209.6470015
0
ARC
8
DEFAULT_255_1_234
10
21.4150143
20
68.648683
40
0.6262326
50
188.7215458
51
204.8240747
0
ARC
8
DEFAULT_255_1_234
10
21.6147671
20
68.6823067
40
0.8287794
50
180.3723947
51
188.9252049
0
ARC
8
DEFAULT_255_1_234
10
21.6120423
20
68.7652402
40
0.8260467
50
169.5253763
51
180.2765336
0
ARC
8
DEFAULT_255_1_234
10
21.4217871
20
68.8002309
40
0.6326007
50
155.8315255
51
169.5089989
0
ARC
8
DEFAULT_255_1_234
10
21.2937373
20
68.8596348
40
0.4914567
50
139.6258461
51
156.0379525
0
ARC
8
DEFAULT_255_1_234
10
21.2347706
20
68.9070799
40
0.4158054
50
122.6416387
51
139.3430715
0
ARC
8
DEFAULT_255_1_234
10
21.2448326
20
68.8887451
40
0.4366739
50
93.0223692
51
122.455762
0
ARC
8
DEFAULT_255_1_234
10
21.2556323
20
68.7922709
40
0.5336137
50
89.975342
51
93.6341897
0
ARC
8
DEFAULT_255_1_234
10
21.2595102
20
68.8321242
40
0.4937738
50
73.746375
51
90.4233405
0
ARC
8
DEFAULT_255_1_234
10
21.2770681
20
68.9001287
40
0.4235786
50
57.662753
51
73.4518111
0
ARC
8
DEFAULT_255_1_234
10
21.2762687
20
68.9022832
40
0.4221899
50
29.1440151
51
57.414694
0
ARC
8
DEFAULT_255_1_234
10
21.1827882
20
68.8439005
40
0.5322966
50
24.0982783
51
29.7323517
0
ARC
8
DEFAULT_255_1_234
10
21.0794157
20
68.8010399
40
0.6441673
50
8.6655297
51
23.8241346
0
ARC
8
DEFAULT_255_1_234
10
20.8559895
20
68.7645854
40
0.8705386
50
359.7806941
51
8.8218784
0
ARC
8
DEFAULT_255_1_234
10
20.7412893
20
68.7671345
40
0.8318373
50
359.7055579
51
8.036044
0
ARC
8
DEFAULT_255_1_234
10
21.0412899
20
68.8108239
40
0.5286768
50
7.8928306
51
20.2962107
0
ARC
8
DEFAULT_255_1_234
10
21.204047
20
68.8708395
40
0.3552073
50
20.3231126
51
36.4992797
0
ARC
8
DEFAULT_255_1_234
10
21.2726016
20
68.9236402
40
0.2686974
50
36.1437156
51
85.6627023
0
ARC
8
DEFAULT_255_1_234
10
21.2563562
20
68.8196221
40
0.373739
50
84.3852322
51
90.0757696
0
ARC
8
DEFAULT_255_1_234
10
21.2521234
20
68.8856839
40
0.3076997
50
89.3038458
51
109.9045693
0
ARC
8
DEFAULT_255_1_234
10
21.2428625
20
68.9239062
40
0.2686424
50
110.8228367
51
143.9179474
0
ARC
8
DEFAULT_255_1_234
10
21.3362285
20
68.8526236
40
0.3860887
50
143.5289163
51
163.2980757
0
ARC
8
DEFAULT_255_1_234
10
21.5270106
20
68.7926433
40
0.5860659
50
163.0418846
51
174.3140048
0
ARC
8
DEFAULT_255_1_234
10
21.7674218
20
68.7648854
40
0.8280531
50
174.0509143
51
179.4176892
0
ARC
8
DEFAULT_255_1_234
10
21.7169957
20
68.6831954
40
0.7775954
50
179.6930361
51
188.7906598
0
ARC
8
DEFAULT_255_1_234
10
21.4506436
20
68.6405935
40
0.5078633
50
188.6331305
51
202.5629587
0
ARC
8
DEFAULT_255_1_234
10
21.3252028
20
68.5901996
40
0.3726913
50
202.8081362
51
216.1193925
0
ARC
8
DEFAULT_255_1_234
10
21.2442598
20
68.5250676
40
0.2689577
50
215.0755913
51
264.6379694
0
ARC
8
DEFAULT_255_1_234
10
21.2569548
20
68.6081513
40
0.3528978
50
263.846392
51
270.0833719
0
ARC
8
DEFAULT_255_1_234
10
21.2610938
20
68.5823374
40
0.3271036
50
269.3649385
51
287.5152008
0
ARC
8
DEFAULT_255_1_234
10
21.2789096
20
68.5176238
40
0.2600406
50
288.0630309
51
323.8113348
0
ARC
8
DEFAULT_255_1_234
10
21.1917937
20
68.5826049
40
0.3687189
50
323.6547608
51
342.6590488
0
ARC
8
DEFAULT_255_1_234
10
20.9886552
20
68.6486952
40
0.5823286
50
342.4091907
51
353.6451149
0
ARC
8
DEFAULT_255_1_234
10
20.7055063
20
68.683919
40
0.8676442
50
353.4029884
51
359.4847795
0
LINE
8
DEFAULT_255_1_234
10
21.9578358
20
69.3098211
11
22.1570229
21
69.3098211
0
LINE
8
DEFAULT_255_1_234
10
22.1570229
20
69.3098211
11
22.5393337
21
68.3556506
0
LINE
8
DEFAULT_255_1_234
10
22.5393337
20
68.3556506
11
22.9216444
21
69.3098211
0
LINE
8
DEFAULT_255_1_234
10
22.9216444
20
69.3098211
11
23.1216347
21
69.3098211
0
LINE
8
DEFAULT_255_1_234
10
23.1216347
20
69.3098211
11
23.1216347
21
68.1404
0
LINE
8
DEFAULT_255_1_234
10
23.1216347
20
68.1404
11
22.9674253
21
68.1404
0
LINE
8
DEFAULT_255_1_234
10
22.9674253
20
68.1404
11
22.9674253
21
68.5957996
0
LINE
8
DEFAULT_255_1_234
10
22.9674253
20
68.5957996
11
22.9818825
21
69.0873419
0
LINE
8
DEFAULT_255_1_234
10
22.9818825
20
69.0873419
11
22.5979654
21
68.1404
0
LINE
8
DEFAULT_255_1_234
10
22.5979654
20
68.1404
11
22.4798988
21
68.1404
0
LINE
8
DEFAULT_255_1_234
10
22.4798988
20
68.1404
11
22.0967849
21
69.0849324
0
LINE
8
DEFAULT_255_1_234
10
22.0967849
20
69.0849324
11
22.1120452
21
68.5957996
0
LINE
8
DEFAULT_255_1_234
10
22.1120452
20
68.5957996
11
22.1120452
21
68.1404
0
LINE
8
DEFAULT_255_1_234
10
22.1120452
20
68.1404
11
21.9578358
21
68.1404
0
LINE
8
DEFAULT_255_1_234
10
21.9578358
20
68.1404
11
21.9578358
21
69.3098211
0
LINE
8
DEFAULT_255_1_234
10
24.1215861
20
68.2616792
11
24.1215861
21
68.1404
0
LINE
8
DEFAULT_255_1_234
10
24.1215861
20
68.1404
11
23.3553583
21
68.1404
0
LINE
8
DEFAULT_255_1_234
10
23.3553583
20
68.1404
11
23.3553583
21
68.2472221
0
LINE
8
DEFAULT_255_1_234
10
23.3553583
20
68.2472221
11
23.7601579
21
68.6969995
0
LINE
8
DEFAULT_255_1_234
10
23.4814566
20
68.9652595
11
23.3328694
21
68.9652595
0
LINE
8
DEFAULT_255_1_234
10
23.8477039
20
68.6014218
11
23.5344661
21
68.2616792
0
LINE
8
DEFAULT_255_1_234
10
23.5344661
20
68.2616792
11
24.1215861
21
68.2616792
0
ARC
8
DEFAULT_255_1_234
10
22.4111412
20
69.8899527
40
1.8008286
50
318.5132453
51
320.7828378
0
ARC
8
DEFAULT_255_1_234
10
22.9398387
20
69.4596426
40
1.1191493
50
320.7372736
51
323.9737074
0
ARC
8
DEFAULT_255_1_234
10
23.3318243
20
69.1756361
40
0.6350923
50
323.8961724
51
328.6421089
0
ARC
8
DEFAULT_255_1_234
10
23.5364839
20
69.0494031
40
0.3946393
50
328.8299013
51
331.789948
0
ARC
8
DEFAULT_255_1_234
10
23.6362017
20
68.9979509
40
0.2824501
50
331.4255242
51
352.9364833
0
ARC
8
DEFAULT_255_1_234
10
23.6498518
20
68.9948976
40
0.2685315
50
353.2248685
51
0.0169286
0
ARC
8
DEFAULT_255_1_234
10
23.6708394
20
68.997195
40
0.2475536
50
359.4866256
51
15.9339782
0
ARC
8
DEFAULT_255_1_234
10
23.721538
20
69.0108286
40
0.1950618
50
16.1714718
51
43.5284424
0
ARC
8
DEFAULT_255_1_234
10
23.7292688
20
69.0185573
40
0.184134
50
43.4415429
51
83.1661404
0
ARC
8
DEFAULT_255_1_234
10
23.7158607
20
68.9448771
40
0.258926
50
82.160215
51
90.1505798
0
ARC
8
DEFAULT_255_1_234
10
23.7127034
20
68.8911865
40
0.3126255
50
89.5460705
51
102.5418777
0
ARC
8
DEFAULT_255_1_234
10
23.688412
20
68.9942665
40
0.2067346
50
102.1739365
51
129.2061916
0
ARC
8
DEFAULT_255_1_234
10
23.6805192
20
69.0067094
40
0.1921118
50
129.7279328
51
135.7542026
0
ARC
8
DEFAULT_255_1_234
10
23.6926719
20
68.9970045
40
0.2075944
50
136.175737
51
166.3674722
0
ARC
8
DEFAULT_255_1_234
10
23.7933639
20
68.9700182
40
0.3118201
50
165.9092917
51
178.8683903
0
ARC
8
DEFAULT_255_1_234
10
23.87985
20
68.9653179
40
0.3983935
50
178.438168
51
180.0083905
0
ARC
8
DEFAULT_255_1_234
10
23.7397102
20
68.9692231
40
0.4068601
50
163.2878735
51
180.5581814
0
ARC
8
DEFAULT_255_1_234
10
23.6595363
20
68.991284
40
0.3237344
50
133.454115
51
162.9470031
0
ARC
8
DEFAULT_255_1_234
10
23.6773905
20
68.9723
40
0.349795
50
100.7869394
51
133.4384016
0
ARC
8
DEFAULT_255_1_234
10
23.7121676
20
68.8174319
40
0.5084616
50
89.6605301
51
101.3704185
0
ARC
8
DEFAULT_255_1_234
10
23.7188015
20
68.8235496
40
0.502348
50
78.2171172
51
90.4130393
0
ARC
8
DEFAULT_255_1_234
10
23.7543093
20
68.9859637
40
0.3361092
50
55.9268222
51
78.4888551
0
ARC
8
DEFAULT_255_1_234
10
23.7739534
20
69.0198324
40
0.2970617
50
47.9292255
51
55.4054003
0
ARC
8
DEFAULT_255_1_234
10
23.7841094
20
69.0301502
40
0.2825983
50
4.3347696
51
48.0560701
0
ARC
8
DEFAULT_255_1_234
10
23.6745488
20
69.0131601
40
0.393225
50
359.925209
51
5.5967654
0
ARC
8
DEFAULT_255_1_234
10
23.717438
20
69.0187816
40
0.3503892
50
337.8914096
51
358.9967724
0
ARC
8
DEFAULT_255_1_234
10
23.4460792
20
69.1234706
40
0.6412172
50
326.9135351
51
338.3505194
0
ARC
8
DEFAULT_255_1_234
10
23.0475095
20
69.3789284
40
1.1146189
50
319.6472867
51
327.095818
0
ARC
8
DEFAULT_255_1_234
10
22.6642099
20
69.6951
40
1.6114559
50
317.2586784
51
319.9046139
0
LINE
8
DEFAULT_255_1_234
10
20.470423
20
76.4489663
11
20.6254355
21
76.4489663
0
LINE
8
DEFAULT_255_1_234
10
19.7250777
20
76.6079947
11
19.7250777
21
76.7204391
0
LINE
8
DEFAULT_255_1_234
10
20.6254355
20
76.8714357
11
20.470423
21
76.8714357
0
LINE
8
DEFAULT_255_1_234
10
19.8800902
20
76.7164232
11
19.8800902
21
76.6031757
0
ARC
8
DEFAULT_255_1_234
10
20.0773742
20
76.5086846
40
0.5513052
50
340.1774281
51
353.7814284
0
ARC
8
DEFAULT_255_1_234
10
20.2345095
20
76.4501582
40
0.3836379
50
311.4558989
51
340.4421614
0
ARC
8
DEFAULT_255_1_234
10
20.2311763
20
76.4612528
40
0.3941894
50
282.4333181
51
310.7513653
0
ARC
8
DEFAULT_255_1_234
10
20.1872502
20
76.6427679
40
0.5809175
50
269.9358511
51
282.809604
0
ARC
8
DEFAULT_255_1_234
10
20.1820568
20
76.7885212
40
0.7266847
50
270.0021091
51
270.3581957
0
ARC
8
DEFAULT_255_1_234
10
20.1767985
20
76.5284585
40
0.4666519
50
250.7884749
51
270.6489167
0
ARC
8
DEFAULT_255_1_234
10
20.159982
20
76.4647319
40
0.4009729
50
219.3627325
51
250.0611886
0
ARC
8
DEFAULT_255_1_234
10
20.2429031
20
76.5352042
40
0.5097822
50
193.5479632
51
219.5756669
0
ARC
8
DEFAULT_255_1_234
10
20.4800652
20
76.5967919
40
0.7547848
50
181.1218675
51
193.87563
0
ARC
8
DEFAULT_255_1_234
10
20.6870833
20
76.607858
40
0.9620055
50
179.9918545
51
181.5394234
0
ARC
8
DEFAULT_255_1_234
10
20.5019935
20
76.7241788
40
0.7769248
50
169.5837241
51
180.2757934
0
ARC
8
DEFAULT_255_1_234
10
20.3182873
20
76.7581229
40
0.590109
50
155.0365899
51
169.6003176
0
ARC
8
DEFAULT_255_1_234
10
20.2047337
20
76.8128677
40
0.4640625
50
136.783148
51
155.2472683
0
ARC
8
DEFAULT_255_1_234
10
20.1657814
20
76.8459562
40
0.4130255
50
121.7633186
51
136.428115
0
ARC
8
DEFAULT_255_1_234
10
20.1792776
20
76.8210227
40
0.4413323
50
95.6459699
51
121.5490577
0
ARC
8
DEFAULT_255_1_234
10
20.1950058
20
76.7101949
40
0.55319
50
89.924208
51
96.1377933
0
ARC
8
DEFAULT_255_1_234
10
20.2000491
20
76.7220542
40
0.5413475
50
76.6779277
51
90.4563316
0
ARC
8
DEFAULT_255_1_234
10
20.2394114
20
76.8811114
40
0.3775041
50
47.485847
51
76.9287264
0
ARC
8
DEFAULT_255_1_234
10
20.2247087
20
76.8711159
40
0.3948286
50
16.5424086
51
46.8933463
0
ARC
8
DEFAULT_255_1_234
10
20.0639244
20
76.8182861
40
0.564021
50
5.4072051
51
17.0365086
0
ARC
8
DEFAULT_255_1_234
10
19.9200261
20
76.7951679
40
0.5556559
50
7.8891745
51
15.9239216
0
ARC
8
DEFAULT_255_1_234
10
20.1187274
20
76.8528631
40
0.3487515
50
15.7653144
51
27.9410532
0
ARC
8
DEFAULT_255_1_234
10
20.2291492
20
76.911979
40
0.2235026
50
27.8166557
51
46.4008329
0
ARC
8
DEFAULT_255_1_234
10
20.2341135
20
76.9114082
40
0.2205286
50
47.4371857
51
75.0698205
0
ARC
8
DEFAULT_255_1_234
10
20.2032529
20
76.8039765
40
0.3322915
50
74.7008593
51
87.8124495
0
ARC
8
DEFAULT_255_1_234
10
20.1959217
20
76.6983844
40
0.4380987
50
87.3814673
51
90.0240855
0
ARC
8
DEFAULT_255_1_234
10
20.192076
20
76.8161291
40
0.3203749
50
89.3451631
51
108.5745436
0
ARC
8
DEFAULT_255_1_234
10
20.1783865
20
76.8674908
40
0.2673494
50
109.2998449
51
143.3037509
0
ARC
8
DEFAULT_255_1_234
10
20.2545938
20
76.8088881
40
0.3634757
50
143.0753173
51
163.1916937
0
ARC
8
DEFAULT_255_1_234
10
20.4497666
20
76.7472967
40
0.5681262
50
162.9373603
51
174.6208611
0
ARC
8
DEFAULT_255_1_234
10
20.7123708
20
76.718501
40
0.8322832
50
174.3419979
51
180.1430411
0
ARC
8
DEFAULT_255_1_234
10
20.6192864
20
76.5990698
40
0.7392076
50
179.6817502
51
189.150529
0
ARC
8
DEFAULT_255_1_234
10
20.3692112
20
76.557419
40
0.4856932
50
188.9910863
51
203.5773039
0
ARC
8
DEFAULT_255_1_234
10
20.2612445
20
76.5126211
40
0.3688271
50
203.9077269
51
215.1312379
0
ARC
8
DEFAULT_255_1_234
10
20.1689539
20
76.4410941
40
0.2522457
50
213.9071664
51
263.8849284
0
ARC
8
DEFAULT_255_1_234
10
20.1814868
20
76.5195518
40
0.3316174
50
263.1758525
51
270.1031083
0
ARC
8
DEFAULT_255_1_234
10
20.184696
20
76.6442365
40
0.4563091
50
269.6719807
51
279.0609165
0
ARC
8
DEFAULT_255_1_234
10
20.2113728
20
76.4829907
40
0.2928759
50
278.8750225
51
293.6346586
0
ARC
8
DEFAULT_255_1_234
10
20.2433936
20
76.40779
40
0.2111472
50
293.8553404
51
310.0518804
0
ARC
8
DEFAULT_255_1_234
10
20.243879
20
76.4015516
40
0.2060917
50
311.0646779
51
332.0108348
0
ARC
8
DEFAULT_255_1_234
10
20.1246517
20
76.4672978
40
0.3422352
50
331.6588543
51
343.2878891
0
ARC
8
DEFAULT_255_1_234
10
19.9184032
20
76.5306798
40
0.5580003
50
343.1446044
51
351.010618
0
ARC
8
DEFAULT_255_1_234
10
19.7642678
20
76.5587871
40
0.7146438
50
350.7157277
51
351.1602153
0
LINE
8
DEFAULT_255_1_234
10
21.7354218
20
76.6987534
11
21.7354218
21
76.6248614
0
LINE
8
DEFAULT_255_1_234
10
20.7949052
20
76.6144201
11
20.7949052
21
76.6987534
0
LINE
8
DEFAULT_255_1_234
10
21.5820156
20
76.6136169
11
21.5820156
21
76.7003597
0
LINE
8
DEFAULT_255_1_234
10
20.9483114
20
76.710801
11
20.9483114
21
76.6248614
0
ARC
8
DEFAULT_255_1_234
10
20.8712244
20
76.6209015
40
0.8642064
50
350.487711
51
0.2625388
0
ARC
8
DEFAULT_255_1_234
10
21.1005486
20
76.5814578
40
0.631518
50
336.0277639
51
350.5787438
0
ARC
8
DEFAULT_255_1_234
10
21.2350309
20
76.5206892
40
0.4839466
50
319.8877444
51
336.1328423
0
ARC
8
DEFAULT_255_1_234
10
21.295295
20
76.472458
40
0.4067874
50
302.4806467
51
319.6143626
0
ARC
8
DEFAULT_255_1_234
10
21.283796
20
76.4946202
40
0.4316636
50
275.8195682
51
302.1884709
0
ARC
8
DEFAULT_255_1_234
10
21.2671593
20
76.6088665
40
0.5470306
50
269.9171439
51
276.3397983
0
ARC
8
DEFAULT_255_1_234
10
21.2626803
20
76.5402681
40
0.4784458
50
252.5219675
51
270.4416499
0
ARC
8
DEFAULT_255_1_234
10
21.2483062
20
76.4863592
40
0.422716
50
237.5352116
51
252.1857531
0
ARC
8
DEFAULT_255_1_234
10
21.2572258
20
76.4977363
40
0.4371052
50
209.063312
51
237.3492538
0
ARC
8
DEFAULT_255_1_234
10
21.3442106
20
76.5523685
40
0.5397041
50
205.1183774
51
209.6470015
0
ARC
8
DEFAULT_255_1_234
10
21.4239143
20
76.586183
40
0.6262326
50
188.7215458
51
204.8240747
0
ARC
8
DEFAULT_255_1_234
10
21.6236671
20
76.6198067
40
0.8287794
50
180.3723947
51
188.9252049
0
ARC
8
DEFAULT_255_1_234
10
21.6209423
20
76.7027402
40
0.8260467
50
169.5253763
51
180.2765336
0
ARC
8
DEFAULT_255_1_234
10
21.4306871
20
76.7377309
40
0.6326007
50
155.8315255
51
169.5089989
0
ARC
8
DEFAULT_255_1_234
10
21.3026373
20
76.7971348
40
0.4914567
50
139.6258461
51
156.0379525
0
ARC
8
DEFAULT_255_1_234
10
21.2436706
20
76.8445799
40
0.4158054
50
122.6416387
51
139.3430715
0
ARC
8
DEFAULT_255_1_234
10
21.2537326
20
76.8262451
40
0.4366739
50
93.0223692
51
122.455762
0
ARC
8
DEFAULT_255_1_234
10
21.2645323
20
76.7297709
40
0.5336137
50
89.975342
51
93.6341897
0
ARC
8
DEFAULT_255_1_234
10
21.2684102
20
76.7696242
40
0.4937738
50
73.746375
51
90.4233405
0
ARC
8
DEFAULT_255_1_234
10
21.2859681
20
76.8376287
40
0.4235786
50
57.662753
51
73.4518111
0
ARC
8
DEFAULT_255_1_234
10
21.2851687
20
76.8397832
40
0.4221899
50
29.1440151
51
57.414694
0
ARC
8
DEFAULT_255_1_234
10
21.1916882
20
76.7814005
40
0.5322966
50
24.0982783
51
29.7323517
0
ARC
8
DEFAULT_255_1_234
10
21.0883157
20
76.7385399
40
0.6441673
50
8.6655297
51
23.8241346
0
ARC
8
DEFAULT_255_1_234
10
20.8648895
20
76.7020854
40
0.8705386
50
359.7806941
51
8.8218784
0
ARC
8
DEFAULT_255_1_234
10
20.7501893
20
76.7046345
40
0.8318373
50
359.7055579
51
8.036044
0
ARC
8
DEFAULT_255_1_234
10
21.0501899
20
76.7483239
40
0.5286768
50
7.8928306
51
20.2962107
0
ARC
8
DEFAULT_255_1_234
10
21.212947
20
76.8083395
40
0.3552073
50
20.3231126
51
36.4992797
0
ARC
8
DEFAULT_255_1_234
10
21.2815016
20
76.8611402
40
0.2686974
50
36.1437156
51
85.6627023
0
ARC
8
DEFAULT_255_1_234
10
21.2652562
20
76.7571221
40
0.373739
50
84.3852322
51
90.0757696
0
ARC
8
DEFAULT_255_1_234
10
21.2610234
20
76.8231839
40
0.3076997
50
89.3038458
51
109.9045693
0
ARC
8
DEFAULT_255_1_234
10
21.2517625
20
76.8614062
40
0.2686424
50
110.8228367
51
143.9179474
0
ARC
8
DEFAULT_255_1_234
10
21.3451285
20
76.7901236
40
0.3860887
50
143.5289163
51
163.2980757
0
ARC
8
DEFAULT_255_1_234
10
21.5359106
20
76.7301433
40
0.5860659
50
163.0418846
51
174.3140048
0
ARC
8
DEFAULT_255_1_234
10
21.7763218
20
76.7023854
40
0.8280531
50
174.0509143
51
179.4176892
0
ARC
8
DEFAULT_255_1_234
10
21.7258957
20
76.6206954
40
0.7775954
50
179.6930361
51
188.7906598
0
ARC
8
DEFAULT_255_1_234
10
21.4595436
20
76.5780935
40
0.5078633
50
188.6331305
51
202.5629587
0
ARC
8
DEFAULT_255_1_234
10
21.3341028
20
76.5276996
40
0.3726913
50
202.8081362
51
216.1193925
0
ARC
8
DEFAULT_255_1_234
10
21.2531598
20
76.4625676
40
0.2689577
50
215.0755913
51
264.6379694
0
ARC
8
DEFAULT_255_1_234
10
21.2658548
20
76.5456513
40
0.3528978
50
263.846392
51
270.0833719
0
ARC
8
DEFAULT_255_1_234
10
21.2699938
20
76.5198374
40
0.3271036
50
269.3649385
51
287.5152008
0
ARC
8
DEFAULT_255_1_234
10
21.2878096
20
76.4551238
40
0.2600406
50
288.0630309
51
323.8113348
0
ARC
8
DEFAULT_255_1_234
10
21.2006937
20
76.5201049
40
0.3687189
50
323.6547608
51
342.6590488
0
ARC
8
DEFAULT_255_1_234
10
20.9975552
20
76.5861952
40
0.5823286
50
342.4091907
51
353.6451149
0
ARC
8
DEFAULT_255_1_234
10
20.7144063
20
76.621419
40
0.8676442
50
353.4029884
51
359.4847795
0
LINE
8
DEFAULT_255_1_234
10
21.9667358
20
77.2473211
11
22.1659229
21
77.2473211
0
LINE
8
DEFAULT_255_1_234
10
22.1659229
20
77.2473211
11
22.5482337
21
76.2931506
0
LINE
8
DEFAULT_255_1_234
10
22.5482337
20
76.2931506
11
22.9305444
21
77.2473211
0
LINE
8
DEFAULT_255_1_234
10
22.9305444
20
77.2473211
11
23.1305347
21
77.2473211
0
LINE
8
DEFAULT_255_1_234
10
23.1305347
20
77.2473211
11
23.1305347
21
76.0779
0
LINE
8
DEFAULT_255_1_234
10
23.1305347
20
76.0779
11
22.9763253
21
76.0779
0
LINE
8
DEFAULT_255_1_234
10
22.9763253
20
76.0779
11
22.9763253
21
76.5332996
0
LINE
8
DEFAULT_255_1_234
10
22.9763253
20
76.5332996
11
22.9907825
21
77.0248419
0
LINE
8
DEFAULT_255_1_234
10
22.9907825
20
77.0248419
11
22.6068654
21
76.0779
0
LINE
8
DEFAULT_255_1_234
10
22.6068654
20
76.0779
11
22.4887988
21
76.0779
0
LINE
8
DEFAULT_255_1_234
10
22.4887988
20
76.0779
11
22.1056849
21
77.0224324
0
LINE
8
DEFAULT_255_1_234
10
22.1056849
20
77.0224324
11
22.1209452
21
76.5332996
0
LINE
8
DEFAULT_255_1_234
10
22.1209452
20
76.5332996
11
22.1209452
21
76.0779
0
LINE
8
DEFAULT_255_1_234
10
22.1209452
20
76.0779
11
21.9667358
21
76.0779
0
LINE
8
DEFAULT_255_1_234
10
21.9667358
20
76.0779
11
21.9667358
21
77.2473211
0
LINE
8
DEFAULT_255_1_234
10
23.852588
20
77.2529433
11
23.852588
21
76.0779
0
LINE
8
DEFAULT_255_1_234
10
23.852588
20
76.0779
11
23.7031977
21
76.0779
0
LINE
8
DEFAULT_255_1_234
10
23.7031977
20
76.0779
11
23.7031977
21
77.0682133
0
LINE
8
DEFAULT_255_1_234
10
23.7031977
20
77.0682133
11
23.4036138
21
76.9581785
0
LINE
8
DEFAULT_255_1_234
10
23.4036138
20
76.9581785
11
23.4036138
21
77.0931117
0
LINE
8
DEFAULT_255_1_234
10
23.4036138
20
77.0931117
11
23.8292959
21
77.2529433
0
LINE
8
DEFAULT_255_1_234
10
23.8292959
20
77.2529433
11
23.852588
21
77.2529433
0
LINE
8
DEFAULT_255_1_234
10
20.461523
20
84.3864663
11
20.6165355
21
84.3864663
0
LINE
8
DEFAULT_255_1_234
10
19.7161777
20
84.5454947
11
19.7161777
21
84.6579391
0
LINE
8
DEFAULT_255_1_234
10
20.6165355
20
84.8089357
11
20.461523
21
84.8089357
0
LINE
8
DEFAULT_255_1_234
10
19.8711902
20
84.6539232
11
19.8711902
21
84.5406757
0
ARC
8
DEFAULT_255_1_234
10
20.0684742
20
84.4461846
40
0.5513052
50
340.1774281
51
353.7814284
0
ARC
8
DEFAULT_255_1_234
10
20.2256095
20
84.3876582
40
0.3836379
50
311.4558989
51
340.4421614
0
ARC
8
DEFAULT_255_1_234
10
20.2222763
20
84.3987528
40
0.3941894
50
282.4333181
51
310.7513653
0
ARC
8
DEFAULT_255_1_234
10
20.1783502
20
84.5802679
40
0.5809175
50
269.9358511
51
282.809604
0
ARC
8
DEFAULT_255_1_234
10
20.1731568
20
84.7260212
40
0.7266847
50
270.0021091
51
270.3581957
0
ARC
8
DEFAULT_255_1_234
10
20.1678985
20
84.4659585
40
0.4666519
50
250.7884749
51
270.6489167
0
ARC
8
DEFAULT_255_1_234
10
20.151082
20
84.4022319
40
0.4009729
50
219.3627325
51
250.0611886
0
ARC
8
DEFAULT_255_1_234
10
20.2340031
20
84.4727042
40
0.5097822
50
193.5479632
51
219.5756669
0
ARC
8
DEFAULT_255_1_234
10
20.4711652
20
84.5342919
40
0.7547848
50
181.1218675
51
193.87563
0
ARC
8
DEFAULT_255_1_234
10
20.6781833
20
84.545358
40
0.9620055
50
179.9918545
51
181.5394234
0
ARC
8
DEFAULT_255_1_234
10
20.4930935
20
84.6616788
40
0.7769248
50
169.5837241
51
180.2757934
0
ARC
8
DEFAULT_255_1_234
10
20.3093873
20
84.6956229
40
0.590109
50
155.0365899
51
169.6003176
0
ARC
8
DEFAULT_255_1_234
10
20.1958337
20
84.7503677
40
0.4640625
50
136.783148
51
155.2472683
0
ARC
8
DEFAULT_255_1_234
10
20.1568814
20
84.7834562
40
0.4130255
50
121.7633186
51
136.428115
0
ARC
8
DEFAULT_255_1_234
10
20.1703776
20
84.7585227
40
0.4413323
50
95.6459699
51
121.5490577
0
ARC
8
DEFAULT_255_1_234
10
20.1861058
20
84.6476949
40
0.55319
50
89.924208
51
96.1377933
0
ARC
8
DEFAULT_255_1_234
10
20.1911491
20
84.6595542
40
0.5413475
50
76.6779277
51
90.4563316
0
ARC
8
DEFAULT_255_1_234
10
20.2305114
20
84.8186114
40
0.3775041
50
47.485847
51
76.9287264
0
ARC
8
DEFAULT_255_1_234
10
20.2158087
20
84.8086159
40
0.3948286
50
16.5424086
51
46.8933463
0
ARC
8
DEFAULT_255_1_234
10
20.0550244
20
84.7557861
40
0.564021
50
5.4072051
51
17.0365086
0
ARC
8
DEFAULT_255_1_234
10
19.9111261
20
84.7326679
40
0.5556559
50
7.8891745
51
15.9239216
0
ARC
8
DEFAULT_255_1_234
10
20.1098274
20
84.7903631
40
0.3487515
50
15.7653144
51
27.9410532
0
ARC
8
DEFAULT_255_1_234
10
20.2202492
20
84.849479
40
0.2235026
50
27.8166557
51
46.4008329
0
ARC
8
DEFAULT_255_1_234
10
20.2252135
20
84.8489082
40
0.2205286
50
47.4371857
51
75.0698205
0
ARC
8
DEFAULT_255_1_234
10
20.1943529
20
84.7414765
40
0.3322915
50
74.7008593
51
87.8124495
0
ARC
8
DEFAULT_255_1_234
10
20.1870217
20
84.6358844
40
0.4380987
50
87.3814673
51
90.0240855
0
ARC
8
DEFAULT_255_1_234
10
20.183176
20
84.7536291
40
0.3203749
50
89.3451631
51
108.5745436
0
ARC
8
DEFAULT_255_1_234
10
20.1694865
20
84.8049908
40
0.2673494
50
109.2998449
51
143.3037509
0
ARC
8
DEFAULT_255_1_234
10
20.2456938
20
84.7463881
40
0.3634757
50
143.0753173
51
163.1916937
0
ARC
8
DEFAULT_255_1_234
10
20.4408666
20
84.6847967
40
0.5681262
50
162.9373603
51
174.6208611
0
ARC
8
DEFAULT_255_1_234
10
20.7034708
20
84.656001
40
0.8322832
50
174.3419979
51
180.1430411
0
ARC
8
DEFAULT_255_1_234
10
20.6103864
20
84.5365698
40
0.7392076
50
179.6817502
51
189.150529
0
ARC
8
DEFAULT_255_1_234
10
20.3603112
20
84.494919
40
0.4856932
50
188.9910863
51
203.5773039
0
ARC
8
DEFAULT_255_1_234
10
20.2523445
20
84.4501211
40
0.3688271
50
203.9077269
51
215.1312379
0
ARC
8
DEFAULT_255_1_234
10
20.1600539
20
84.3785941
40
0.2522457
50
213.9071664
51
263.8849284
0
ARC
8
DEFAULT_255_1_234
10
20.1725868
20
84.4570518
40
0.3316174
50
263.1758525
51
270.1031083
0
ARC
8
DEFAULT_255_1_234
10
20.175796
20
84.5817365
40
0.4563091
50
269.6719807
51
279.0609165
0
ARC
8
DEFAULT_255_1_234
10
20.2024728
20
84.4204907
40
0.2928759
50
278.8750225
51
293.6346586
0
ARC
8
DEFAULT_255_1_234
10
20.2344936
20
84.34529
40
0.2111472
50
293.8553404
51
310.0518804
0
ARC
8
DEFAULT_255_1_234
10
20.234979
20
84.3390516
40
0.2060917
50
311.0646779
51
332.0108348
0
ARC
8
DEFAULT_255_1_234
10
20.1157517
20
84.4047978
40
0.3422352
50
331.6588543
51
343.2878891
0
ARC
8
DEFAULT_255_1_234
10
19.9095032
20
84.4681798
40
0.5580003
50
343.1446044
51
351.010618
0
ARC
8
DEFAULT_255_1_234
10
19.7553678
20
84.4962871
40
0.7146438
50
350.7157277
51
351.1602153
0
LINE
8
DEFAULT_255_1_234
10
21.7265218
20
84.6362534
11
21.7265218
21
84.5623614
0
LINE
8
DEFAULT_255_1_234
10
20.7860052
20
84.5519201
11
20.7860052
21
84.6362534
0
LINE
8
DEFAULT_255_1_234
10
21.5731156
20
84.5511169
11
21.5731156
21
84.6378597
0
LINE
8
DEFAULT_255_1_234
10
20.9394114
20
84.648301
11
20.9394114
21
84.5623614
0
ARC
8
DEFAULT_255_1_234
10
20.8623244
20
84.5584015
40
0.8642064
50
350.487711
51
0.2625388
0
ARC
8
DEFAULT_255_1_234
10
21.0916486
20
84.5189578
40
0.631518
50
336.0277639
51
350.5787438
0
ARC
8
DEFAULT_255_1_234
10
21.2261309
20
84.4581892
40
0.4839466
50
319.8877444
51
336.1328423
0
ARC
8
DEFAULT_255_1_234
10
21.286395
20
84.409958
40
0.4067874
50
302.4806467
51
319.6143626
0
ARC
8
DEFAULT_255_1_234
10
21.274896
20
84.4321202
40
0.4316636
50
275.8195682
51
302.1884709
0
ARC
8
DEFAULT_255_1_234
10
21.2582593
20
84.5463665
40
0.5470306
50
269.9171439
51
276.3397983
0
ARC
8
DEFAULT_255_1_234
10
21.2537803
20
84.4777681
40
0.4784458
50
252.5219675
51
270.4416499
0
ARC
8
DEFAULT_255_1_234
10
21.2394062
20
84.4238592
40
0.422716
50
237.5352116
51
252.1857531
0
ARC
8
DEFAULT_255_1_234
10
21.2483258
20
84.4352363
40
0.4371052
50
209.063312
51
237.3492538
0
ARC
8
DEFAULT_255_1_234
10
21.3353106
20
84.4898685
40
0.5397041
50
205.1183774
51
209.6470015
0
ARC
8
DEFAULT_255_1_234
10
21.4150143
20
84.523683
40
0.6262326
50
188.7215458
51
204.8240747
0
ARC
8
DEFAULT_255_1_234
10
21.6147671
20
84.5573067
40
0.8287794
50
180.3723947
51
188.9252049
0
ARC
8
DEFAULT_255_1_234
10
21.6120423
20
84.6402402
40
0.8260467
50
169.5253763
51
180.2765336
0
ARC
8
DEFAULT_255_1_234
10
21.4217871
20
84.6752309
40
0.6326007
50
155.8315255
51
169.5089989
0
ARC
8
DEFAULT_255_1_234
10
21.2937373
20
84.7346348
40
0.4914567
50
139.6258461
51
156.0379525
0
ARC
8
DEFAULT_255_1_234
10
21.2347706
20
84.7820799
40
0.4158054
50
122.6416387
51
139.3430715
0
ARC
8
DEFAULT_255_1_234
10
21.2448326
20
84.7637451
40
0.4366739
50
93.0223692
51
122.455762
0
ARC
8
DEFAULT_255_1_234
10
21.2556323
20
84.6672709
40
0.5336137
50
89.975342
51
93.6341897
0
ARC
8
DEFAULT_255_1_234
10
21.2595102
20
84.7071242
40
0.4937738
50
73.746375
51
90.4233405
0
ARC
8
DEFAULT_255_1_234
10
21.2770681
20
84.7751287
40
0.4235786
50
57.662753
51
73.4518111
0
ARC
8
DEFAULT_255_1_234
10
21.2762687
20
84.7772832
40
0.4221899
50
29.1440151
51
57.414694
0
ARC
8
DEFAULT_255_1_234
10
21.1827882
20
84.7189005
40
0.5322966
50
24.0982783
51
29.7323517
0
ARC
8
DEFAULT_255_1_234
10
21.0794157
20
84.6760399
40
0.6441673
50
8.6655297
51
23.8241346
0
ARC
8
DEFAULT_255_1_234
10
20.8559895
20
84.6395854
40
0.8705386
50
359.7806941
51
8.8218784
0
ARC
8
DEFAULT_255_1_234
10
20.7412893
20
84.6421345
40
0.8318373
50
359.7055579
51
8.036044
0
ARC
8
DEFAULT_255_1_234
10
21.0412899
20
84.6858239
40
0.5286768
50
7.8928306
51
20.2962107
0
ARC
8
DEFAULT_255_1_234
10
21.204047
20
84.7458395
40
0.3552073
50
20.3231126
51
36.4992797
0
ARC
8
DEFAULT_255_1_234
10
21.2726016
20
84.7986402
40
0.2686974
50
36.1437156
51
85.6627023
0
ARC
8
DEFAULT_255_1_234
10
21.2563562
20
84.6946221
40
0.373739
50
84.3852322
51
90.0757696
0
ARC
8
DEFAULT_255_1_234
10
21.2521234
20
84.7606839
40
0.3076997
50
89.3038458
51
109.9045693
0
ARC
8
DEFAULT_255_1_234
10
21.2428625
20
84.7989062
40
0.2686424
50
110.8228367
51
143.9179474
0
ARC
8
DEFAULT_255_1_234
10
21.3362285
20
84.7276236
40
0.3860887
50
143.5289163
51
163.2980757
0
ARC
8
DEFAULT_255_1_234
10
21.5270106
20
84.6676433
40
0.5860659
50
163.0418846
51
174.3140048
0
ARC
8
DEFAULT_255_1_234
10
21.7674218
20
84.6398854
40
0.8280531
50
174.0509143
51
179.4176892
0
ARC
8
DEFAULT_255_1_234
10
21.7169957
20
84.5581954
40
0.7775954
50
179.6930361
51
188.7906598
0
ARC
8
DEFAULT_255_1_234
10
21.4506436
20
84.5155935
40
0.5078633
50
188.6331305
51
202.5629587
0
ARC
8
DEFAULT_255_1_234
10
21.3252028
20
84.4651996
40
0.3726913
50
202.8081362
51
216.1193925
0
ARC
8
DEFAULT_255_1_234
10
21.2442598
20
84.4000676
40
0.2689577
50
215.0755913
51
264.6379694
0
ARC
8
DEFAULT_255_1_234
10
21.2569548
20
84.4831513
40
0.3528978
50
263.846392
51
270.0833719
0
ARC
8
DEFAULT_255_1_234
10
21.2610938
20
84.4573374
40
0.3271036
50
269.3649385
51
287.5152008
0
ARC
8
DEFAULT_255_1_234
10
21.2789096
20
84.3926238
40
0.2600406
50
288.0630309
51
323.8113348
0
ARC
8
DEFAULT_255_1_234
10
21.1917937
20
84.4576049
40
0.3687189
50
323.6547608
51
342.6590488
0
ARC
8
DEFAULT_255_1_234
10
20.9886552
20
84.5236952
40
0.5823286
50
342.4091907
51
353.6451149
0
ARC
8
DEFAULT_255_1_234
10
20.7055063
20
84.558919
40
0.8676442
50
353.4029884
51
359.4847795
0
LINE
8
DEFAULT_255_1_234
10
21.9578358
20
85.1848211
11
22.1570229
21
85.1848211
0
LINE
8
DEFAULT_255_1_234
10
22.1570229
20
85.1848211
11
22.5393337
21
84.2306506
0
LINE
8
DEFAULT_255_1_234
10
22.5393337
20
84.2306506
11
22.9216444
21
85.1848211
0
LINE
8
DEFAULT_255_1_234
10
22.9216444
20
85.1848211
11
23.1216347
21
85.1848211
0
LINE
8
DEFAULT_255_1_234
10
23.1216347
20
85.1848211
11
23.1216347
21
84.0154
0
LINE
8
DEFAULT_255_1_234
10
23.1216347
20
84.0154
11
22.9674253
21
84.0154
0
LINE
8
DEFAULT_255_1_234
10
22.9674253
20
84.0154
11
22.9674253
21
84.4707996
0
LINE
8
DEFAULT_255_1_234
10
22.9674253
20
84.4707996
11
22.9818825
21
84.9623419
0
LINE
8
DEFAULT_255_1_234
10
22.9818825
20
84.9623419
11
22.5979654
21
84.0154
0
LINE
8
DEFAULT_255_1_234
10
22.5979654
20
84.0154
11
22.4798988
21
84.0154
0
LINE
8
DEFAULT_255_1_234
10
22.4798988
20
84.0154
11
22.0967849
21
84.9599324
0
LINE
8
DEFAULT_255_1_234
10
22.0967849
20
84.9599324
11
22.1120452
21
84.4707996
0
LINE
8
DEFAULT_255_1_234
10
22.1120452
20
84.4707996
11
22.1120452
21
84.0154
0
LINE
8
DEFAULT_255_1_234
10
22.1120452
20
84.0154
11
21.9578358
21
84.0154
0
LINE
8
DEFAULT_255_1_234
10
21.9578358
20
84.0154
11
21.9578358
21
85.1848211
0
LINE
8
DEFAULT_255_1_234
10
24.088656
20
84.7069327
11
24.088656
21
84.5141709
0
LINE
8
DEFAULT_255_1_234
10
23.3505393
20
84.4940916
11
23.3505393
21
84.6924755
0
LINE
8
DEFAULT_255_1_234
10
23.9400688
20
84.4740123
11
23.9400688
21
84.7173739
0
LINE
8
DEFAULT_255_1_234
10
23.4991264
20
84.7286184
11
23.4991264
21
84.4908789
0
ARC
8
DEFAULT_255_1_234
10
22.863945
20
84.5092805
40
1.2247208
50
353.8441951
51
0.2287902
0
ARC
8
DEFAULT_255_1_234
10
23.3278953
20
84.4574806
40
0.7578929
50
344.4934747
51
353.9765454
0
ARC
8
DEFAULT_255_1_234
10
23.6271543
20
84.3723981
40
0.4467846
50
329.2803592
51
344.7472793
0
ARC
8
DEFAULT_255_1_234
10
23.7264368
20
84.3179018
40
0.3336173
50
324.9352394
51
328.6160465
0
ARC
8
DEFAULT_255_1_234
10
23.7641477
20
84.2915427
40
0.2876076
50
280.580143
51
324.9173126
0
ARC
8
DEFAULT_255_1_234
10
23.724027
20
84.4586099
40
0.4592847
50
269.5977311
51
281.6734359
0
ARC
8
DEFAULT_255_1_234
10
23.7168175
20
84.4466173
40
0.4472986
50
256.6228859
51
270.51044
0
ARC
8
DEFAULT_255_1_234
10
23.6766153
20
84.2917877
40
0.2873874
50
215.8618325
51
257.2788573
0
ARC
8
DEFAULT_255_1_234
10
23.7787185
20
84.3602977
40
0.4102928
50
197.9693508
51
215.2623606
0
ARC
8
DEFAULT_255_1_234
10
24.02723
20
84.4441709
40
0.6725652
50
187.8816417
51
198.2346507
0
ARC
8
DEFAULT_255_1_234
10
24.4230509
20
84.5013079
40
1.0724845
50
180.8976217
51
188.0055519
0
ARC
8
DEFAULT_255_1_234
10
24.7030697
20
84.5116777
40
1.3526448
50
180.7449369
51
181.1510016
0
ARC
8
DEFAULT_255_1_234
10
24.5453426
20
84.6973042
40
1.1948131
50
173.7675579
51
180.231553
0
ARC
8
DEFAULT_255_1_234
10
24.0935572
20
84.7483666
40
0.7401564
50
164.3058563
51
173.9002247
0
ARC
8
DEFAULT_255_1_234
10
23.8023641
20
84.8322656
40
0.4371288
50
148.7922025
51
164.568378
0
ARC
8
DEFAULT_255_1_234
10
23.7072093
20
84.8853929
40
0.3282386
50
144.5883898
51
148.1176286
0
ARC
8
DEFAULT_255_1_234
10
23.6728991
20
84.9093315
40
0.2864044
50
101.6440918
51
144.514236
0
ARC
8
DEFAULT_255_1_234
10
23.7154058
20
84.7404069
40
0.4604934
50
89.5284041
51
102.5819763
0
ARC
8
DEFAULT_255_1_234
10
23.7233146
20
84.7365018
40
0.464401
50
77.0437873
51
90.5081339
0
ARC
8
DEFAULT_255_1_234
10
23.7635148
20
84.9007615
40
0.2953195
50
48.2778575
51
77.4994676
0
ARC
8
DEFAULT_255_1_234
10
23.7707779
20
84.9136746
40
0.2808655
50
36.3142134
51
47.6305865
0
ARC
8
DEFAULT_255_1_234
10
23.6839086
20
84.8551515
40
0.3855453
50
18.2931786
51
35.6769206
0
ARC
8
DEFAULT_255_1_234
10
23.4295845
20
84.7678593
40
0.654423
50
8.024666
51
18.5605216
0
ARC
8
DEFAULT_255_1_234
10
23.0132765
20
84.7063792
40
1.0752407
50
1.1274072
51
8.1718305
0
ARC
8
DEFAULT_255_1_234
10
22.6896955
20
84.6936885
40
1.3990231
50
0.5424119
51
1.3863029
0
ARC
8
DEFAULT_255_1_234
10
22.8718333
20
84.7209342
40
1.0682415
50
359.8090433
51
4.9407866
0
ARC
8
DEFAULT_255_1_234
10
23.2928347
20
84.7585113
40
0.6455691
50
4.8362157
51
12.2904523
0
ARC
8
DEFAULT_255_1_234
10
23.5683462
20
84.8198965
40
0.3633074
50
12.0805627
51
23.8173984
0
ARC
8
DEFAULT_255_1_234
10
23.6857167
20
84.8695919
40
0.2358723
50
24.2871213
51
31.3935614
0
ARC
8
DEFAULT_255_1_234
10
23.7381864
20
84.9039233
40
0.1732111
50
30.7407893
51
82.4657128
0
ARC
8
DEFAULT_255_1_234
10
23.7201999
20
84.8155691
40
0.263235
50
81.1060089
51
90.2184952
0
ARC
8
DEFAULT_255_1_234
10
23.7166298
20
84.8413924
40
0.2374236
50
89.3806855
51
105.6762551
0
ARC
8
DEFAULT_255_1_234
10
23.6982928
20
84.9080567
40
0.1682847
50
105.7981136
51
149.7388061
0
ARC
8
DEFAULT_255_1_234
10
23.8047007
20
84.844095
40
0.2924306
50
149.4208916
51
163.6286378
0
ARC
8
DEFAULT_255_1_234
10
24.0137895
20
84.780325
40
0.5110213
50
163.3763315
51
172.1410975
0
ARC
8
DEFAULT_255_1_234
10
24.3438614
20
84.7330518
40
0.8444586
50
172.0259487
51
178.0703232
0
ARC
8
DEFAULT_255_1_234
10
24.6468703
20
84.7186906
40
1.1477868
50
177.8631668
51
179.5044149
0
ARC
8
DEFAULT_255_1_234
10
24.5396108
20
84.4872389
40
1.0404907
50
179.7995573
51
185.2460446
0
ARC
8
DEFAULT_255_1_234
10
24.1353147
20
84.4489513
40
0.6343885
50
185.1411642
51
193.0079639
0
ARC
8
DEFAULT_255_1_234
10
23.8709619
20
84.3864641
40
0.3627568
50
192.7897626
51
205.2507664
0
ARC
8
DEFAULT_255_1_234
10
23.7663166
20
84.3397415
40
0.2481908
50
205.8005384
51
211.2537509
0
ARC
8
DEFAULT_255_1_234
10
23.7139607
20
84.304658
40
0.1852521
50
210.3789793
51
238.4008143
0
ARC
8
DEFAULT_255_1_234
10
23.7120129
20
84.3093376
40
0.1882621
50
239.6520629
51
265.9793761
0
ARC
8
DEFAULT_255_1_234
10
23.7205329
20
84.3765427
40
0.2559272
50
265.1315437
51
270.060332
0
ARC
8
DEFAULT_255_1_234
10
23.7234108
20
84.3441534
40
0.2235528
50
269.3314664
51
287.2178029
0
ARC
8
DEFAULT_255_1_234
10
23.737196
20
84.2938279
40
0.1714108
50
287.7958004
51
329.080874
0
ARC
8
DEFAULT_255_1_234
10
23.6414416
20
84.353593
40
0.2842745
50
328.6634704
51
343.3325132
0
ARC
8
DEFAULT_255_1_234
10
23.4241437
20
84.4212863
40
0.5118644
50
343.0499468
51
351.9393422
0
ARC
8
DEFAULT_255_1_234
10
23.0774736
20
84.4723949
40
0.8622784
50
351.8069023
51
357.7959224
0
ARC
8
DEFAULT_255_1_234
10
22.7539292
20
84.4891721
40
1.1862365
50
357.5871873
51
359.2677531
0
LINE
8
DEFAULT_255_1_234
10
21.5392458
20
93.1223211
11
21.8428456
21
92.535201
0
LINE
8
DEFAULT_255_1_234
10
21.8428456
20
92.535201
11
22.1480516
21
93.1223211
0
LINE
8
DEFAULT_255_1_234
10
22.1480516
20
93.1223211
11
22.3231435
21
93.1223211
0
LINE
8
DEFAULT_255_1_234
10
22.3231435
20
93.1223211
11
21.9199502
21
92.3890234
0
LINE
8
DEFAULT_255_1_234
10
21.9199502
20
92.3890234
11
21.9199502
21
91.9529
0
LINE
8
DEFAULT_255_1_234
10
21.9199502
20
91.9529
11
21.7657409
21
91.9529
0
LINE
8
DEFAULT_255_1_234
10
21.7657409
20
91.9529
11
21.7657409
21
92.3890234
0
LINE
8
DEFAULT_255_1_234
10
21.7657409
20
92.3890234
11
21.3625476
21
93.1223211
0
LINE
8
DEFAULT_255_1_234
10
21.3625476
20
93.1223211
11
21.5392458
21
93.1223211
0
LINE
8
DEFAULT_255_1_234
10
22.9239175
20
93.1279433
11
22.9239175
21
91.9529
0
LINE
8
DEFAULT_255_1_234
10
22.9239175
20
91.9529
11
22.7745272
21
91.9529
0
LINE
8
DEFAULT_255_1_234
10
22.7745272
20
91.9529
11
22.7745272
21
92.9432133
0
LINE
8
DEFAULT_255_1_234
10
22.7745272
20
92.9432133
11
22.4749434
21
92.8331785
0
LINE
8
DEFAULT_255_1_234
10
22.4749434
20
92.8331785
11
22.4749434
21
92.9681117
0
LINE
8
DEFAULT_255_1_234
10
22.4749434
20
92.9681117
11
22.9006255
21
93.1279433
0
LINE
8
DEFAULT_255_1_234
10
22.9006255
20
93.1279433
11
22.9239175
21
93.1279433
0
LINE
8
DEFAULT_255_1_234
10
24.1142211
20
93.1223211
11
24.1142211
21
93.038791
0
LINE
8
DEFAULT_255_1_234
10
24.1142211
20
93.038791
11
23.6299073
21
91.9529
0
LINE
8
DEFAULT_255_1_234
10
23.6299073
20
91.9529
11
23.4740916
21
91.9529
0
LINE
8
DEFAULT_255_1_234
10
23.4740916
20
91.9529
11
23.9567991
21
93.0002387
0
LINE
8
DEFAULT_255_1_234
10
23.9567991
20
93.0002387
11
23.3238981
21
93.0002387
0
LINE
8
DEFAULT_255_1_234
10
23.3238981
20
93.0002387
11
23.3238981
21
93.1223211
0
LINE
8
DEFAULT_255_1_234
10
23.3238981
20
93.1223211
11
24.1142211
21
93.1223211
0
LINE
8
DEFAULT_255_1_234
10
21.5392458
20
101.0598211
11
21.8428456
21
100.472701
0
LINE
8
DEFAULT_255_1_234
10
21.8428456
20
100.472701
11
22.1480516
21
101.0598211
0
LINE
8
DEFAULT_255_1_234
10
22.1480516
20
101.0598211
11
22.3231435
21
101.0598211
0
LINE
8
DEFAULT_255_1_234
10
22.3231435
20
101.0598211
11
21.9199502
21
100.3265234
0
LINE
8
DEFAULT_255_1_234
10
21.9199502
20
100.3265234
11
21.9199502
21
99.8904
0
LINE
8
DEFAULT_255_1_234
10
21.9199502
20
99.8904
11
21.7657409
21
99.8904
0
LINE
8
DEFAULT_255_1_234
10
21.7657409
20
99.8904
11
21.7657409
21
100.3265234
0
LINE
8
DEFAULT_255_1_234
10
21.7657409
20
100.3265234
11
21.3625476
21
101.0598211
0
LINE
8
DEFAULT_255_1_234
10
21.3625476
20
101.0598211
11
21.5392458
21
101.0598211
0
LINE
8
DEFAULT_255_1_234
10
22.9239175
20
101.0654433
11
22.9239175
21
99.8904
0
LINE
8
DEFAULT_255_1_234
10
22.9239175
20
99.8904
11
22.7745272
21
99.8904
0
LINE
8
DEFAULT_255_1_234
10
22.7745272
20
99.8904
11
22.7745272
21
100.8807133
0
LINE
8
DEFAULT_255_1_234
10
22.7745272
20
100.8807133
11
22.4749434
21
100.7706785
0
LINE
8
DEFAULT_255_1_234
10
22.4749434
20
100.7706785
11
22.4749434
21
100.9056117
0
LINE
8
DEFAULT_255_1_234
10
22.4749434
20
100.9056117
11
22.9006255
21
101.0654433
0
LINE
8
DEFAULT_255_1_234
10
22.9006255
20
101.0654433
11
22.9239175
21
101.0654433
0
LINE
8
DEFAULT_255_1_234
10
23.9158372
20
101.0606243
11
23.9423419
21
101.0606243
0
LINE
8
DEFAULT_255_1_234
10
23.9423419
20
101.0606243
11
23.9423419
21
100.934526
0
LINE
8
DEFAULT_255_1_234
10
23.9423419
20
100.934526
11
23.915034
21
100.934526
0
LINE
8
DEFAULT_255_1_234
10
23.3680727
20
100.3353583
11
23.3680727
21
100.3923836
0
LINE
8
DEFAULT_255_1_234
10
23.517463
20
100.3731075
11
23.517463
21
100.3184917
0
ARC
8
DEFAULT_255_1_234
10
23.9202688
20
100.4347455
40
0.4998079
50
90.6001036
51
104.514704
0
ARC
8
DEFAULT_255_1_234
10
23.8814204
20
100.5792131
40
0.3502176
50
104.2855254
51
133.862935
0
ARC
8
DEFAULT_255_1_234
10
23.8977961
20
100.568383
40
0.3693984
50
134.5302688
51
161.6210873
0
ARC
8
DEFAULT_255_1_234
10
24.063115
20
100.5100895
40
0.5446739
50
161.2849839
51
174.2076652
0
ARC
8
DEFAULT_255_1_234
10
24.2038087
20
100.4906787
40
0.6866274
50
173.7810589
51
174.9254635
0
ARC
8
DEFAULT_255_1_234
10
23.7487919
20
100.3523839
40
0.3033419
50
95.8330959
51
138.9954921
0
ARC
8
DEFAULT_255_1_234
10
23.7711275
20
100.2245375
40
0.4328947
50
89.8753725
51
97.0544009
0
ARC
8
DEFAULT_255_1_234
10
23.7758741
20
100.3080748
40
0.3493769
50
71.6407809
51
90.6240094
0
ARC
8
DEFAULT_255_1_234
10
23.7909314
20
100.3635082
40
0.2920396
50
39.6367836
51
71.019018
0
ARC
8
DEFAULT_255_1_234
10
23.7272787
20
100.3084998
40
0.3761538
50
10.658731
51
39.9043955
0
ARC
8
DEFAULT_255_1_234
10
23.572487
20
100.2748686
40
0.5345136
50
359.682601
51
11.132623
0
ARC
8
DEFAULT_255_1_234
10
23.5685001
20
100.267801
40
0.5385081
50
347.2486944
51
0.4369317
0
ARC
8
DEFAULT_255_1_234
10
23.7352478
20
100.2276807
40
0.3670249
50
318.1409698
51
347.6118597
0
ARC
8
DEFAULT_255_1_234
10
23.7677471
20
100.2009702
40
0.3250007
50
275.6342139
51
317.8248465
0
ARC
8
DEFAULT_255_1_234
10
23.7456583
20
100.3309219
40
0.4565864
50
269.8874292
51
276.7917694
0
ARC
8
DEFAULT_255_1_234
10
23.7401653
20
100.2283743
40
0.3540676
50
246.9140195
51
270.7437342
0
ARC
8
DEFAULT_255_1_234
10
23.7408043
20
100.2141384
40
0.3412781
50
218.1665114
51
245.878116
0
ARC
8
DEFAULT_255_1_234
10
23.8287504
20
100.2877279
40
0.455911
50
191.4115814
51
218.6077802
0
ARC
8
DEFAULT_255_1_234
10
24.0225593
20
100.3311833
40
0.6545001
50
179.6345085
51
191.7836486
0
ARC
8
DEFAULT_255_1_234
10
24.580793
20
100.3990697
40
1.2127388
50
171.4525249
51
180.3158839
0
ARC
8
DEFAULT_255_1_234
10
24.1412806
20
100.4674608
40
0.7679464
50
157.9802646
51
171.6246686
0
ARC
8
DEFAULT_255_1_234
10
23.9198827
20
100.5557421
40
0.5296008
50
141.4298019
51
157.854097
0
ARC
8
DEFAULT_255_1_234
10
23.8557148
20
100.6011381
40
0.4511509
50
102.8715806
51
140.8564722
0
ARC
8
DEFAULT_255_1_234
10
23.9204763
20
100.3571552
40
0.7034845
50
90.3778349
51
103.5869322
0
ARC
8
DEFAULT_255_1_234
10
23.7466539
20
100.296673
40
0.2370698
50
89.8751008
51
126.2071704
0
ARC
8
DEFAULT_255_1_234
10
23.7512329
20
100.2812303
40
0.2522934
50
124.9745049
51
144.895901
0
ARC
8
DEFAULT_255_1_234
10
23.733652
20
100.295556
40
0.2296779
50
145.2974905
51
160.2660252
0
ARC
8
DEFAULT_255_1_234
10
24.0409058
20
100.3153071
40
0.5234525
50
179.6514266
51
190.2855912
0
ARC
8
DEFAULT_255_1_234
10
23.8715196
20
100.2833786
40
0.3510893
50
190.0945431
51
207.5098196
0
ARC
8
DEFAULT_255_1_234
10
23.8149465
20
100.2564623
40
0.288489
50
207.9583163
51
216.3251085
0
ARC
8
DEFAULT_255_1_234
10
23.7809573
20
100.2285105
40
0.2445587
50
215.7661442
51
232.5456785
0
ARC
8
DEFAULT_255_1_234
10
23.7426556
20
100.1798482
40
0.1826382
50
232.8005391
51
270.6605633
0
ARC
8
DEFAULT_255_1_234
10
23.7472257
20
100.2162612
40
0.2190529
50
269.35537
51
288.4744281
0
ARC
8
DEFAULT_255_1_234
10
23.7565154
20
100.1813118
40
0.1829749
50
289.1833337
51
322.9683818
0
ARC
8
DEFAULT_255_1_234
10
23.6953676
20
100.2295391
40
0.2608399
50
322.6007884
51
346.5182367
0
ARC
8
DEFAULT_255_1_234
10
23.5796272
20
100.2590616
40
0.3802777
50
346.2582162
51
358.7741648
0
ARC
8
DEFAULT_255_1_234
10
23.4777941
20
100.2645965
40
0.4822176
50
358.3755224
51
0.0098023
0
ARC
8
DEFAULT_255_1_234
10
23.5534128
20
100.2673657
40
0.4066078
50
359.6214041
51
11.2839074
0
ARC
8
DEFAULT_255_1_234
10
23.6811275
20
100.2940066
40
0.2761514
50
11.0482309
51
31.8146458
0
ARC
8
DEFAULT_255_1_234
10
23.7120318
20
100.3107584
40
0.2410679
50
32.3035391
51
38.082671
0
ARC
8
DEFAULT_255_1_234
10
23.7540978
20
100.3488662
40
0.1844966
50
36.825067
51
85.7415724
0
ARC
8
DEFAULT_255_1_234
10
23.7473811
20
100.2988301
40
0.2349122
50
85.0140713
51
90.0513278
0
LINE
8
DEFAULT_255_1_234
10
21.5392458
20
108.9973211
11
21.8428456
21
108.410201
0
LINE
8
DEFAULT_255_1_234
10
21.8428456
20
108.410201
11
22.1480516
21
108.9973211
0
LINE
8
DEFAULT_255_1_234
10
22.1480516
20
108.9973211
11
22.3231435
21
108.9973211
0
LINE
8
DEFAULT_255_1_234
10
22.3231435
20
108.9973211
11
21.9199502
21
108.2640234
0
LINE
8
DEFAULT_255_1_234
10
21.9199502
20
108.2640234
11
21.9199502
21
107.8279
0
LINE
8
DEFAULT_255_1_234
10
21.9199502
20
107.8279
11
21.7657409
21
107.8279
0
LINE
8
DEFAULT_255_1_234
10
21.7657409
20
107.8279
11
21.7657409
21
108.2640234
0
LINE
8
DEFAULT_255_1_234
10
21.7657409
20
108.2640234
11
21.3625476
21
108.9973211
0
LINE
8
DEFAULT_255_1_234
10
21.3625476
20
108.9973211
11
21.5392458
21
108.9973211
0
LINE
8
DEFAULT_255_1_234
10
22.9239175
20
109.0029433
11
22.9239175
21
107.8279
0
LINE
8
DEFAULT_255_1_234
10
22.9239175
20
107.8279
11
22.7745272
21
107.8279
0
LINE
8
DEFAULT_255_1_234
10
22.7745272
20
107.8279
11
22.7745272
21
108.8182133
0
LINE
8
DEFAULT_255_1_234
10
22.7745272
20
108.8182133
11
22.4749434
21
108.7081785
0
LINE
8
DEFAULT_255_1_234
10
22.4749434
20
108.7081785
11
22.4749434
21
108.8431117
0
LINE
8
DEFAULT_255_1_234
10
22.4749434
20
108.8431117
11
22.9006255
21
109.0029433
0
LINE
8
DEFAULT_255_1_234
10
22.9006255
20
109.0029433
11
22.9239175
21
109.0029433
0
LINE
8
DEFAULT_255_1_234
10
23.5463772
20
108.3836963
11
23.4275075
21
108.4142169
0
LINE
8
DEFAULT_255_1_234
10
23.4275075
20
108.4142169
11
23.4869424
21
108.9973211
0
LINE
8
DEFAULT_255_1_234
10
23.4869424
20
108.9973211
11
24.0861101
21
108.9973211
0
LINE
8
DEFAULT_255_1_234
10
24.0861101
20
108.9973211
11
24.0861101
21
108.8599784
0
LINE
8
DEFAULT_255_1_234
10
24.0861101
20
108.8599784
11
23.6130407
21
108.8599784
0
LINE
8
DEFAULT_255_1_234
10
23.6130407
20
108.8599784
11
23.577701
21
108.5411184
0
LINE
8
DEFAULT_255_1_234
10
23.3857425
20
108.1355156
11
23.5262979
21
108.1355156
0
LINE
8
DEFAULT_255_1_234
10
23.5857328
20
108.4158232
11
23.5463772
21
108.3836963
0
ARC
8
DEFAULT_255_1_234
10
23.7631794
20
108.223123
40
0.3681349
50
93.7182161
51
120.2538958
0
ARC
8
DEFAULT_255_1_234
10
23.7726057
20
108.1423394
40
0.449379
50
89.9660152
51
94.2496022
0
ARC
8
DEFAULT_255_1_234
10
23.7766791
20
108.2012549
40
0.390482
50
73.8043271
51
90.5585896
0
ARC
8
DEFAULT_255_1_234
10
23.8001688
20
108.2870602
40
0.3015334
50
41.3071453
51
73.5430202
0
ARC
8
DEFAULT_255_1_234
10
23.7585515
20
108.2512324
40
0.3564457
50
13.5075983
51
41.2174222
0
ARC
8
DEFAULT_255_1_234
10
23.5943719
20
108.2082486
40
0.5261351
50
1.1331335
51
13.8829381
0
ARC
8
DEFAULT_255_1_234
10
23.4532088
20
108.2006665
40
0.6674378
50
359.9919444
51
1.544251
0
ARC
8
DEFAULT_255_1_234
10
23.5808914
20
108.196528
40
0.5397702
50
347.8572367
51
0.4293338
0
ARC
8
DEFAULT_255_1_234
10
23.7559232
20
108.1568736
40
0.3603188
50
323.673004
51
348.1672506
0
ARC
8
DEFAULT_255_1_234
10
23.785374
20
108.1389168
40
0.3259678
50
316.8171152
51
323.1492751
0
ARC
8
DEFAULT_255_1_234
10
23.7914929
20
108.135246
40
0.3189975
50
281.8396411
51
316.5457803
0
ARC
8
DEFAULT_255_1_234
10
23.7539193
20
108.2907762
40
0.4789527
50
269.5770101
51
282.4214771
0
ARC
8
DEFAULT_255_1_234
10
23.7468004
20
108.2694125
40
0.45759
50
256.2427136
51
270.4486331
0
ARC
8
DEFAULT_255_1_234
10
23.7168907
20
108.1494229
40
0.3339303
50
228.9023911
51
256.3314342
0
ARC
8
DEFAULT_255_1_234
10
23.7095139
20
108.1377746
40
0.32031
50
193.753695
51
228.5271154
0
ARC
8
DEFAULT_255_1_234
10
23.8333093
20
108.17408
40
0.4492253
50
184.924711
51
194.497588
0
ARC
8
DEFAULT_255_1_234
10
23.852566
20
108.1776591
40
0.3289787
50
187.3600538
51
198.6732863
0
ARC
8
DEFAULT_255_1_234
10
23.7475954
20
108.1412674
40
0.217884
50
198.4451669
51
217.794479
0
ARC
8
DEFAULT_255_1_234
10
23.7180129
20
108.1203085
40
0.1816698
50
218.2887171
51
228.5612368
0
ARC
8
DEFAULT_255_1_234
10
23.7277916
20
108.1334963
40
0.1980329
50
228.9654866
51
258.1234728
0
ARC
8
DEFAULT_255_1_234
10
23.7483626
20
108.2215833
40
0.2884748
50
257.7258293
51
270.401361
0
ARC
8
DEFAULT_255_1_234
10
23.7528513
20
108.1770821
40
0.2439788
50
269.4204404
51
286.4209037
0
ARC
8
DEFAULT_255_1_234
10
23.7677
20
108.1231657
40
0.1880666
50
286.7251356
51
320.600362
0
ARC
8
DEFAULT_255_1_234
10
23.7293825
20
108.1542595
40
0.2374121
50
320.6712579
51
344.5441685
0
ARC
8
DEFAULT_255_1_234
10
23.6137151
20
108.1882045
40
0.3579479
50
344.2412205
51
356.7357071
0
ARC
8
DEFAULT_255_1_234
10
23.48883
20
108.1985444
40
0.4832297
50
356.3548756
51
0.0500261
0
ARC
8
DEFAULT_255_1_234
10
23.6224809
20
108.201665
40
0.3495889
50
359.5576869
51
12.953486
0
ARC
8
DEFAULT_255_1_234
10
23.7279706
20
108.2272434
40
0.2410532
50
12.6490276
51
41.6081334
0
ARC
8
DEFAULT_255_1_234
10
23.7510077
20
108.2468321
40
0.2108218
50
41.7850273
51
85.9892764
0
ARC
8
DEFAULT_255_1_234
10
23.7386814
20
108.1655462
40
0.2928454
50
84.6957577
51
90.0676183
0
ARC
8
DEFAULT_255_1_234
10
23.7363298
20
108.0986716
40
0.3597255
50
89.6804936
51
99.1614436
0
ARC
8
DEFAULT_255_1_234
10
23.7157929
20
108.2214131
40
0.235281
50
98.9830931
51
113.8908934
0
ARC
8
DEFAULT_255_1_234
10
23.6928339
20
108.2755587
40
0.176479
50
114.1950727
51
127.3641004
0
LINE
8
DEFAULT_255_1_234
10
21.4334458
20
116.9348211
11
21.7370456
21
116.347701
0
LINE
8
DEFAULT_255_1_234
10
21.7370456
20
116.347701
11
22.0422516
21
116.9348211
0
LINE
8
DEFAULT_255_1_234
10
22.0422516
20
116.9348211
11
22.2173435
21
116.9348211
0
LINE
8
DEFAULT_255_1_234
10
22.2173435
20
116.9348211
11
21.8141502
21
116.2015234
0
LINE
8
DEFAULT_255_1_234
10
21.8141502
20
116.2015234
11
21.8141502
21
115.7654
0
LINE
8
DEFAULT_255_1_234
10
21.8141502
20
115.7654
11
21.6599409
21
115.7654
0
LINE
8
DEFAULT_255_1_234
10
21.6599409
20
115.7654
11
21.6599409
21
116.2015234
0
LINE
8
DEFAULT_255_1_234
10
21.6599409
20
116.2015234
11
21.2567476
21
116.9348211
0
LINE
8
DEFAULT_255_1_234
10
21.2567476
20
116.9348211
11
21.4334458
21
116.9348211
0
LINE
8
DEFAULT_255_1_234
10
22.8181175
20
116.9404433
11
22.8181175
21
115.7654
0
LINE
8
DEFAULT_255_1_234
10
22.8181175
20
115.7654
11
22.6687272
21
115.7654
0
LINE
8
DEFAULT_255_1_234
10
22.6687272
20
115.7654
11
22.6687272
21
116.7557133
0
LINE
8
DEFAULT_255_1_234
10
22.6687272
20
116.7557133
11
22.3691434
21
116.6456785
0
LINE
8
DEFAULT_255_1_234
10
22.3691434
20
116.6456785
11
22.3691434
21
116.7806117
0
LINE
8
DEFAULT_255_1_234
10
22.3691434
20
116.7806117
11
22.7948255
21
116.9404433
0
LINE
8
DEFAULT_255_1_234
10
22.7948255
20
116.9404433
11
22.8181175
21
116.9404433
0
LINE
8
DEFAULT_255_1_234
10
23.8807165
20
116.9348211
11
23.8807165
21
116.158152
0
LINE
8
DEFAULT_255_1_234
10
23.8807165
20
116.158152
11
24.0429576
21
116.158152
0
LINE
8
DEFAULT_255_1_234
10
24.0429576
20
116.158152
11
24.0429576
21
116.0368728
0
LINE
8
DEFAULT_255_1_234
10
24.0429576
20
116.0368728
11
23.8807165
21
116.0368728
0
LINE
8
DEFAULT_255_1_234
10
23.8807165
20
116.0368728
11
23.8807165
21
115.7654
0
LINE
8
DEFAULT_255_1_234
10
23.8807165
20
115.7654
11
23.7313262
21
115.7654
0
LINE
8
DEFAULT_255_1_234
10
23.7313262
20
115.7654
11
23.7313262
21
116.0368728
0
LINE
8
DEFAULT_255_1_234
10
23.7313262
20
116.0368728
11
23.1988219
21
116.0368728
0
LINE
8
DEFAULT_255_1_234
10
23.1988219
20
116.0368728
11
23.1988219
21
116.1244187
0
LINE
8
DEFAULT_255_1_234
10
23.1988219
20
116.1244187
11
23.7224913
21
116.9348211
0
LINE
8
DEFAULT_255_1_234
10
23.7224913
20
116.9348211
11
23.8807165
21
116.9348211
0
LINE
8
DEFAULT_255_1_234
10
23.7136563
20
116.6994912
11
23.3674884
21
116.158152
0
LINE
8
DEFAULT_255_1_234
10
23.3674884
20
116.158152
11
23.7313262
21
116.158152
0
LINE
8
DEFAULT_255_1_234
10
23.7313262
20
116.158152
11
23.7313262
21
116.7316181
0
LINE
8
DEFAULT_255_1_234
10
23.7313262
20
116.7316181
11
23.7136563
21
116.6994912
0
LINE
8
DEFAULT_255_1_234
10
21.5392458
20
124.8723211
11
21.8428456
21
124.285201
0
LINE
8
DEFAULT_255_1_234
10
21.8428456
20
124.285201
11
22.1480516
21
124.8723211
0
LINE
8
DEFAULT_255_1_234
10
22.1480516
20
124.8723211
11
22.3231435
21
124.8723211
0
LINE
8
DEFAULT_255_1_234
10
22.3231435
20
124.8723211
11
21.9199502
21
124.1390234
0
LINE
8
DEFAULT_255_1_234
10
21.9199502
20
124.1390234
11
21.9199502
21
123.7029
0
LINE
8
DEFAULT_255_1_234
10
21.9199502
20
123.7029
11
21.7657409
21
123.7029
0
LINE
8
DEFAULT_255_1_234
10
21.7657409
20
123.7029
11
21.7657409
21
124.1390234
0
LINE
8
DEFAULT_255_1_234
10
21.7657409
20
124.1390234
11
21.3625476
21
124.8723211
0
LINE
8
DEFAULT_255_1_234
10
21.3625476
20
124.8723211
11
21.5392458
21
124.8723211
0
LINE
8
DEFAULT_255_1_234
10
22.9239175
20
124.8779433
11
22.9239175
21
123.7029
0
LINE
8
DEFAULT_255_1_234
10
22.9239175
20
123.7029
11
22.7745272
21
123.7029
0
LINE
8
DEFAULT_255_1_234
10
22.7745272
20
123.7029
11
22.7745272
21
124.6932133
0
LINE
8
DEFAULT_255_1_234
10
22.7745272
20
124.6932133
11
22.4749434
21
124.5831785
0
LINE
8
DEFAULT_255_1_234
10
22.4749434
20
124.5831785
11
22.4749434
21
124.7181117
0
LINE
8
DEFAULT_255_1_234
10
22.4749434
20
124.7181117
11
22.9006255
21
124.8779433
0
LINE
8
DEFAULT_255_1_234
10
22.9006255
20
124.8779433
11
22.9239175
21
124.8779433
0
LINE
8
DEFAULT_255_1_234
10
23.5752915
20
124.2386169
11
23.5752915
21
124.3598962
0
LINE
8
DEFAULT_255_1_234
10
23.5752915
20
124.3598962
11
23.6869327
21
124.3598962
0
LINE
8
DEFAULT_255_1_234
10
23.4965805
20
124.5655087
11
23.3479933
21
124.5655087
0
LINE
8
DEFAULT_255_1_234
10
23.3375521
20
124.0113188
11
23.4869424
21
124.0113188
0
LINE
8
DEFAULT_255_1_234
10
23.6869327
20
124.2386169
11
23.5752915
21
124.2386169
0
ARC
8
DEFAULT_255_1_234
10
23.6840193
20
124.6991713
40
0.3392876
50
270.4919872
51
281.8951556
0
ARC
8
DEFAULT_255_1_234
10
23.7081455
20
124.5889702
40
0.2264817
50
281.6691735
51
301.2943132
0
ARC
8
DEFAULT_255_1_234
10
23.7251665
20
124.5578304
40
0.1910381
50
301.7833094
51
311.7545298
0
ARC
8
DEFAULT_255_1_234
10
23.7343241
20
124.5476748
40
0.1773635
50
311.7323931
51
354.2802411
0
ARC
8
DEFAULT_255_1_234
10
23.6616866
20
124.5601722
40
0.2509385
50
353.0937916
51
0.1181479
0
ARC
8
DEFAULT_255_1_234
10
23.6155651
20
124.5649386
40
0.2970898
50
359.1805295
51
15.0453146
0
ARC
8
DEFAULT_255_1_234
10
23.7501488
20
124.6041992
40
0.1569564
50
13.9577229
51
77.6713066
0
ARC
8
DEFAULT_255_1_234
10
23.7115017
20
124.4656949
40
0.3006298
50
76.1116566
51
90.7026153
0
ARC
8
DEFAULT_255_1_234
10
23.7055855
20
124.4930545
40
0.2732568
50
89.5324876
51
103.531937
0
ARC
8
DEFAULT_255_1_234
10
23.68553
20
124.5729884
40
0.1908508
50
103.2931773
51
133.5619022
0
ARC
8
DEFAULT_255_1_234
10
23.6810788
20
124.5789375
40
0.1834746
50
133.8349307
51
173.5344437
0
ARC
8
DEFAULT_255_1_234
10
23.7533831
20
124.5661213
40
0.2568033
50
172.5096846
51
180.1366907
0
ARC
8
DEFAULT_255_1_234
10
23.6582725
20
124.5695622
40
0.3103056
50
155.3484492
51
180.7484736
0
ARC
8
DEFAULT_255_1_234
10
23.6533814
20
124.5666846
40
0.3070957
50
131.5744599
51
154.4798489
0
ARC
8
DEFAULT_255_1_234
10
23.6846961
20
124.535031
40
0.3515643
50
96.9875458
51
131.9690667
0
ARC
8
DEFAULT_255_1_234
10
23.7066441
20
124.4104636
40
0.4779224
50
89.8596053
51
97.7825159
0
ARC
8
DEFAULT_255_1_234
10
23.7114504
20
124.3842616
40
0.5041361
50
78.3655447
51
90.4131539
0
ARC
8
DEFAULT_255_1_234
10
23.7472422
20
124.5501887
40
0.3344039
50
56.6229102
51
78.638727
0
ARC
8
DEFAULT_255_1_234
10
23.7687366
20
124.5877805
40
0.2912001
50
47.0253525
51
56.0854072
0
ARC
8
DEFAULT_255_1_234
10
23.7707146
20
124.5917223
40
0.2869704
50
10.9208013
51
46.7778124
0
ARC
8
DEFAULT_255_1_234
10
23.6343212
20
124.5601857
40
0.426899
50
359.6364486
51
11.6087304
0
ARC
8
DEFAULT_255_1_234
10
23.8178057
20
124.5586752
40
0.243409
50
332.3549906
51
359.7179418
0
ARC
8
DEFAULT_255_1_234
10
23.7527658
20
124.5895142
40
0.3153459
50
325.2333722
51
332.8745602
0
ARC
8
DEFAULT_255_1_234
10
23.7680282
20
124.5788828
40
0.2967456
50
292.9802137
51
325.2392345
0
ARC
8
DEFAULT_255_1_234
10
23.7405656
20
124.6322863
40
0.3566604
50
292.5402179
51
293.6924929
0
ARC
8
DEFAULT_255_1_234
10
23.7798251
20
123.9868091
40
0.3307468
50
57.6435486
51
72.8625112
0
ARC
8
DEFAULT_255_1_234
10
23.8152751
20
124.0442549
40
0.2632492
50
36.7248896
51
57.4697979
0
ARC
8
DEFAULT_255_1_234
10
23.8141384
20
124.045522
40
0.2634081
50
8.0545065
51
36.356114
0
ARC
8
DEFAULT_255_1_234
10
23.7278569
20
124.0300174
40
0.3510261
50
359.8320645
51
8.5869982
0
ARC
8
DEFAULT_255_1_234
10
23.6903345
20
124.0252101
40
0.3885653
50
343.9829931
51
0.5571613
0
ARC
8
DEFAULT_255_1_234
10
23.7789542
20
124.0009438
40
0.2966924
50
311.6359546
51
343.7651759
0
ARC
8
DEFAULT_255_1_234
10
23.7411112
20
124.0436102
40
0.3537231
50
279.7829875
51
311.6255694
0
ARC
8
DEFAULT_255_1_234
10
23.7109888
20
124.187328
40
0.5004971
50
269.7286406
51
280.3856417
0
ARC
8
DEFAULT_255_1_234
10
23.704796
20
124.1831996
40
0.4963778
50
256.6828919
51
270.4412052
0
ARC
8
DEFAULT_255_1_234
10
23.6709256
20
124.0447394
40
0.3538406
50
229.4223008
51
256.8556159
0
ARC
8
DEFAULT_255_1_234
10
23.6294649
20
123.9980736
40
0.2914296
50
181.818294
51
229.6455059
0
ARC
8
DEFAULT_255_1_234
10
23.7334605
20
124.0111496
40
0.3959084
50
179.9755256
51
183.2323064
0
ARC
8
DEFAULT_255_1_234
10
23.7162351
20
124.0091037
40
0.2293034
50
179.4465117
51
196.2869258
0
ARC
8
DEFAULT_255_1_234
10
23.6674759
20
123.9957651
40
0.1787621
50
196.5661473
51
227.705904
0
ARC
8
DEFAULT_255_1_234
10
23.6838854
20
124.0141155
40
0.2033784
50
227.7652068
51
257.8762805
0
ARC
8
DEFAULT_255_1_234
10
23.7063824
20
124.1084156
40
0.3003081
50
257.4584385
51
270.426602
0
ARC
8
DEFAULT_255_1_234
10
23.710939
20
124.1373996
40
0.329292
50
269.5962073
51
280.8789248
0
ARC
8
DEFAULT_255_1_234
10
23.7338919
20
124.0227685
40
0.2123908
50
280.6346389
51
299.8595945
0
ARC
8
DEFAULT_255_1_234
10
23.7529826
20
123.9865212
40
0.171457
50
300.3576302
51
314.5517981
0
ARC
8
DEFAULT_255_1_234
10
23.7446886
20
123.9925919
40
0.1816095
50
315.0728369
51
345.0431014
0
ARC
8
DEFAULT_255_1_234
10
23.65237
20
124.0194841
40
0.2777492
50
344.5986631
51
357.9269593
0
ARC
8
DEFAULT_255_1_234
10
23.5628027
20
124.0256276
40
0.3674917
50
357.4748886
51
0.0231117
0
ARC
8
DEFAULT_255_1_234
10
23.6651136
20
124.0280679
40
0.2651907
50
359.5047933
51
13.4239635
0
ARC
8
DEFAULT_255_1_234
10
23.751778
20
124.0502478
40
0.1757509
50
12.9498199
51
48.7551375
0
ARC
8
DEFAULT_255_1_234
10
23.7335513
20
124.02534
40
0.2065134
50
49.5088623
51
72.1836453
0
ARC
8
DEFAULT_255_1_234
10
23.6977666
20
123.9191291
40
0.3185836
50
71.9010081
51
84.3554254
0
ARC
8
DEFAULT_255_1_234
10
23.6816298
20
123.7830326
40
0.4556151
50
84.0193428
51
89.333121
0
LINE
8
DEFAULT_255_1_234
10
21.5392458
20
132.8098211
11
21.8428456
21
132.222701
0
LINE
8
DEFAULT_255_1_234
10
21.8428456
20
132.222701
11
22.1480516
21
132.8098211
0
LINE
8
DEFAULT_255_1_234
10
22.1480516
20
132.8098211
11
22.3231435
21
132.8098211
0
LINE
8
DEFAULT_255_1_234
10
22.3231435
20
132.8098211
11
21.9199502
21
132.0765234
0
LINE
8
DEFAULT_255_1_234
10
21.9199502
20
132.0765234
11
21.9199502
21
131.6404
0
LINE
8
DEFAULT_255_1_234
10
21.9199502
20
131.6404
11
21.7657409
21
131.6404
0
LINE
8
DEFAULT_255_1_234
10
21.7657409
20
131.6404
11
21.7657409
21
132.0765234
0
LINE
8
DEFAULT_255_1_234
10
21.7657409
20
132.0765234
11
21.3625476
21
132.8098211
0
LINE
8
DEFAULT_255_1_234
10
21.3625476
20
132.8098211
11
21.5392458
21
132.8098211
0
LINE
8
DEFAULT_255_1_234
10
22.9239175
20
132.8154433
11
22.9239175
21
131.6404
0
LINE
8
DEFAULT_255_1_234
10
22.9239175
20
131.6404
11
22.7745272
21
131.6404
0
LINE
8
DEFAULT_255_1_234
10
22.7745272
20
131.6404
11
22.7745272
21
132.6307133
0
LINE
8
DEFAULT_255_1_234
10
22.7745272
20
132.6307133
11
22.4749434
21
132.5206785
0
LINE
8
DEFAULT_255_1_234
10
22.4749434
20
132.5206785
11
22.4749434
21
132.6556117
0
LINE
8
DEFAULT_255_1_234
10
22.4749434
20
132.6556117
11
22.9006255
21
132.8154433
0
LINE
8
DEFAULT_255_1_234
10
22.9006255
20
132.8154433
11
22.9239175
21
132.8154433
0
LINE
8
DEFAULT_255_1_234
10
24.1254656
20
131.7616792
11
24.1254656
21
131.6404
0
LINE
8
DEFAULT_255_1_234
10
24.1254656
20
131.6404
11
23.3592377
21
131.6404
0
LINE
8
DEFAULT_255_1_234
10
23.3592377
20
131.6404
11
23.3592377
21
131.7472221
0
LINE
8
DEFAULT_255_1_234
10
23.3592377
20
131.7472221
11
23.7640374
21
132.1969995
0
LINE
8
DEFAULT_255_1_234
10
23.485336
20
132.4652595
11
23.3367489
21
132.4652595
0
LINE
8
DEFAULT_255_1_234
10
23.8515833
20
132.1014218
11
23.5383455
21
131.7616792
0
LINE
8
DEFAULT_255_1_234
10
23.5383455
20
131.7616792
11
24.1254656
21
131.7616792
0
ARC
8
DEFAULT_255_1_234
10
22.4150207
20
133.3899527
40
1.8008286
50
318.5132453
51
320.7828378
0
ARC
8
DEFAULT_255_1_234
10
22.9437181
20
132.9596426
40
1.1191493
50
320.7372736
51
323.9737074
0
ARC
8
DEFAULT_255_1_234
10
23.3357038
20
132.6756361
40
0.6350923
50
323.8961724
51
328.6421089
0
ARC
8
DEFAULT_255_1_234
10
23.5403633
20
132.5494031
40
0.3946393
50
328.8299013
51
331.789948
0
ARC
8
DEFAULT_255_1_234
10
23.6400812
20
132.4979509
40
0.2824501
50
331.4255242
51
352.9364833
0
ARC
8
DEFAULT_255_1_234
10
23.6537312
20
132.4948976
40
0.2685315
50
353.2248685
51
0.0169286
0
ARC
8
DEFAULT_255_1_234
10
23.6747189
20
132.497195
40
0.2475536
50
359.4866256
51
15.9339782
0
ARC
8
DEFAULT_255_1_234
10
23.7254174
20
132.5108286
40
0.1950618
50
16.1714718
51
43.5284424
0
ARC
8
DEFAULT_255_1_234
10
23.7331483
20
132.5185573
40
0.184134
50
43.4415429
51
83.1661404
0
ARC
8
DEFAULT_255_1_234
10
23.7197401
20
132.4448771
40
0.258926
50
82.160215
51
90.1505798
0
ARC
8
DEFAULT_255_1_234
10
23.7165828
20
132.3911865
40
0.3126255
50
89.5460705
51
102.5418777
0
ARC
8
DEFAULT_255_1_234
10
23.6922915
20
132.4942665
40
0.2067346
50
102.1739365
51
129.2061916
0
ARC
8
DEFAULT_255_1_234
10
23.6843986
20
132.5067094
40
0.1921118
50
129.7279328
51
135.7542026
0
ARC
8
DEFAULT_255_1_234
10
23.6965514
20
132.4970045
40
0.2075944
50
136.175737
51
166.3674722
0
ARC
8
DEFAULT_255_1_234
10
23.7972433
20
132.4700182
40
0.3118201
50
165.9092917
51
178.8683903
0
ARC
8
DEFAULT_255_1_234
10
23.8837295
20
132.4653179
40
0.3983935
50
178.438168
51
180.0083905
0
ARC
8
DEFAULT_255_1_234
10
23.7435897
20
132.4692231
40
0.4068601
50
163.2878735
51
180.5581814
0
ARC
8
DEFAULT_255_1_234
10
23.6634158
20
132.491284
40
0.3237344
50
133.454115
51
162.9470031
0
ARC
8
DEFAULT_255_1_234
10
23.6812699
20
132.4723
40
0.349795
50
100.7869394
51
133.4384016
0
ARC
8
DEFAULT_255_1_234
10
23.7160471
20
132.3174319
40
0.5084616
50
89.6605301
51
101.3704185
0
ARC
8
DEFAULT_255_1_234
10
23.722681
20
132.3235496
40
0.502348
50
78.2171172
51
90.4130393
0
ARC
8
DEFAULT_255_1_234
10
23.7581888
20
132.4859637
40
0.3361092
50
55.9268222
51
78.4888551
0
ARC
8
DEFAULT_255_1_234
10
23.7778328
20
132.5198324
40
0.2970617
50
47.9292255
51
55.4054003
0
ARC
8
DEFAULT_255_1_234
10
23.7879889
20
132.5301502
40
0.2825983
50
4.3347696
51
48.0560701
0
ARC
8
DEFAULT_255_1_234
10
23.6784282
20
132.5131601
40
0.393225
50
359.925209
51
5.5967654
0
ARC
8
DEFAULT_255_1_234
10
23.7213174
20
132.5187816
40
0.3503892
50
337.8914096
51
358.9967724
0
ARC
8
DEFAULT_255_1_234
10
23.4499586
20
132.6234706
40
0.6412172
50
326.9135351
51
338.3505194
0
ARC
8
DEFAULT_255_1_234
10
23.051389
20
132.8789284
40
1.1146189
50
319.6472867
51
327.095818
0
ARC
8
DEFAULT_255_1_234
10
22.6680893
20
133.1951
40
1.6114559
50
317.2586784
51
319.9046139
0
LINE
8
DEFAULT_255_1_234
10
21.5471458
20
140.7473211
11
21.8507456
21
140.160201
0
LINE
8
DEFAULT_255_1_234
10
21.8507456
20
140.160201
11
22.1559516
21
140.7473211
0
LINE
8
DEFAULT_255_1_234
10
22.1559516
20
140.7473211
11
22.3310435
21
140.7473211
0
LINE
8
DEFAULT_255_1_234
10
22.3310435
20
140.7473211
11
21.9278502
21
140.0140234
0
LINE
8
DEFAULT_255_1_234
10
21.9278502
20
140.0140234
11
21.9278502
21
139.5779
0
LINE
8
DEFAULT_255_1_234
10
21.9278502
20
139.5779
11
21.7736409
21
139.5779
0
LINE
8
DEFAULT_255_1_234
10
21.7736409
20
139.5779
11
21.7736409
21
140.0140234
0
LINE
8
DEFAULT_255_1_234
10
21.7736409
20
140.0140234
11
21.3704476
21
140.7473211
0
LINE
8
DEFAULT_255_1_234
10
21.3704476
20
140.7473211
11
21.5471458
21
140.7473211
0
LINE
8
DEFAULT_255_1_234
10
22.9318175
20
140.7529433
11
22.9318175
21
139.5779
0
LINE
8
DEFAULT_255_1_234
10
22.9318175
20
139.5779
11
22.7824272
21
139.5779
0
LINE
8
DEFAULT_255_1_234
10
22.7824272
20
139.5779
11
22.7824272
21
140.5682133
0
LINE
8
DEFAULT_255_1_234
10
22.7824272
20
140.5682133
11
22.4828434
21
140.4581785
0
LINE
8
DEFAULT_255_1_234
10
22.4828434
20
140.4581785
11
22.4828434
21
140.5931117
0
LINE
8
DEFAULT_255_1_234
10
22.4828434
20
140.5931117
11
22.9085255
21
140.7529433
0
LINE
8
DEFAULT_255_1_234
10
22.9085255
20
140.7529433
11
22.9318175
21
140.7529433
0
LINE
8
DEFAULT_255_1_234
10
23.8554674
20
140.7529433
11
23.8554674
21
139.5779
0
LINE
8
DEFAULT_255_1_234
10
23.8554674
20
139.5779
11
23.7060771
21
139.5779
0
LINE
8
DEFAULT_255_1_234
10
23.7060771
20
139.5779
11
23.7060771
21
140.5682133
0
LINE
8
DEFAULT_255_1_234
10
23.7060771
20
140.5682133
11
23.4064933
21
140.4581785
0
LINE
8
DEFAULT_255_1_234
10
23.4064933
20
140.4581785
11
23.4064933
21
140.5931117
0
LINE
8
DEFAULT_255_1_234
10
23.4064933
20
140.5931117
11
23.8321754
21
140.7529433
0
LINE
8
DEFAULT_255_1_234
10
23.8321754
20
140.7529433
11
23.8554674
21
140.7529433
0
LINE
8
DEFAULT_255_1_234
10
21.5392458
20
148.6848211
11
21.8428456
21
148.097701
0
LINE
8
DEFAULT_255_1_234
10
21.8428456
20
148.097701
11
22.1480516
21
148.6848211
0
LINE
8
DEFAULT_255_1_234
10
22.1480516
20
148.6848211
11
22.3231435
21
148.6848211
0
LINE
8
DEFAULT_255_1_234
10
22.3231435
20
148.6848211
11
21.9199502
21
147.9515234
0
LINE
8
DEFAULT_255_1_234
10
21.9199502
20
147.9515234
11
21.9199502
21
147.5154
0
LINE
8
DEFAULT_255_1_234
10
21.9199502
20
147.5154
11
21.7657409
21
147.5154
0
LINE
8
DEFAULT_255_1_234
10
21.7657409
20
147.5154
11
21.7657409
21
147.9515234
0
LINE
8
DEFAULT_255_1_234
10
21.7657409
20
147.9515234
11
21.3625476
21
148.6848211
0
LINE
8
DEFAULT_255_1_234
10
21.3625476
20
148.6848211
11
21.5392458
21
148.6848211
0
LINE
8
DEFAULT_255_1_234
10
22.9239175
20
148.6904433
11
22.9239175
21
147.5154
0
LINE
8
DEFAULT_255_1_234
10
22.9239175
20
147.5154
11
22.7745272
21
147.5154
0
LINE
8
DEFAULT_255_1_234
10
22.7745272
20
147.5154
11
22.7745272
21
148.5057133
0
LINE
8
DEFAULT_255_1_234
10
22.7745272
20
148.5057133
11
22.4749434
21
148.3956785
0
LINE
8
DEFAULT_255_1_234
10
22.4749434
20
148.3956785
11
22.4749434
21
148.5306117
0
LINE
8
DEFAULT_255_1_234
10
22.4749434
20
148.5306117
11
22.9006255
21
148.6904433
0
LINE
8
DEFAULT_255_1_234
10
22.9006255
20
148.6904433
11
22.9239175
21
148.6904433
0
LINE
8
DEFAULT_255_1_234
10
24.0925354
20
148.2069327
11
24.0925354
21
148.0141709
0
LINE
8
DEFAULT_255_1_234
10
23.3544187
20
147.9940916
11
23.3544187
21
148.1924755
0
LINE
8
DEFAULT_255_1_234
10
23.9439483
20
147.9740123
11
23.9439483
21
148.2173739
0
LINE
8
DEFAULT_255_1_234
10
23.5030059
20
148.2286184
11
23.5030059
21
147.9908789
0
ARC
8
DEFAULT_255_1_234
10
22.8678244
20
148.0092805
40
1.2247208
50
353.8441951
51
0.2287902
0
ARC
8
DEFAULT_255_1_234
10
23.3317748
20
147.9574806
40
0.7578929
50
344.4934747
51
353.9765454
0
ARC
8
DEFAULT_255_1_234
10
23.6310338
20
147.8723981
40
0.4467846
50
329.2803592
51
344.7472793
0
ARC
8
DEFAULT_255_1_234
10
23.7303163
20
147.8179018
40
0.3336173
50
324.9352394
51
328.6160465
0
ARC
8
DEFAULT_255_1_234
10
23.7680272
20
147.7915427
40
0.2876076
50
280.580143
51
324.9173126
0
ARC
8
DEFAULT_255_1_234
10
23.7279064
20
147.9586099
40
0.4592847
50
269.5977311
51
281.6734359
0
ARC
8
DEFAULT_255_1_234
10
23.720697
20
147.9466173
40
0.4472986
50
256.6228859
51
270.51044
0
ARC
8
DEFAULT_255_1_234
10
23.6804948
20
147.7917877
40
0.2873874
50
215.8618325
51
257.2788573
0
ARC
8
DEFAULT_255_1_234
10
23.7825979
20
147.8602977
40
0.4102928
50
197.9693508
51
215.2623606
0
ARC
8
DEFAULT_255_1_234
10
24.0311095
20
147.9441709
40
0.6725652
50
187.8816417
51
198.2346507
0
ARC
8
DEFAULT_255_1_234
10
24.4269303
20
148.0013079
40
1.0724845
50
180.8976217
51
188.0055519
0
ARC
8
DEFAULT_255_1_234
10
24.7069491
20
148.0116777
40
1.3526448
50
180.7449369
51
181.1510016
0
ARC
8
DEFAULT_255_1_234
10
24.549222
20
148.1973042
40
1.1948131
50
173.7675579
51
180.231553
0
ARC
8
DEFAULT_255_1_234
10
24.0974367
20
148.2483666
40
0.7401564
50
164.3058563
51
173.9002247
0
ARC
8
DEFAULT_255_1_234
10
23.8062436
20
148.3322656
40
0.4371288
50
148.7922025
51
164.568378
0
ARC
8
DEFAULT_255_1_234
10
23.7110888
20
148.3853929
40
0.3282386
50
144.5883898
51
148.1176286
0
ARC
8
DEFAULT_255_1_234
10
23.6767786
20
148.4093315
40
0.2864044
50
101.6440918
51
144.514236
0
ARC
8
DEFAULT_255_1_234
10
23.7192853
20
148.2404069
40
0.4604934
50
89.5284041
51
102.5819763
0
ARC
8
DEFAULT_255_1_234
10
23.727194
20
148.2365018
40
0.464401
50
77.0437873
51
90.5081339
0
ARC
8
DEFAULT_255_1_234
10
23.7673942
20
148.4007615
40
0.2953195
50
48.2778575
51
77.4994676
0
ARC
8
DEFAULT_255_1_234
10
23.7746573
20
148.4136746
40
0.2808655
50
36.3142134
51
47.6305865
0
ARC
8
DEFAULT_255_1_234
10
23.687788
20
148.3551515
40
0.3855453
50
18.2931786
51
35.6769206
0
ARC
8
DEFAULT_255_1_234
10
23.4334639
20
148.2678593
40
0.654423
50
8.024666
51
18.5605216
0
ARC
8
DEFAULT_255_1_234
10
23.0171559
20
148.2063792
40
1.0752407
50
1.1274072
51
8.1718305
0
ARC
8
DEFAULT_255_1_234
10
22.693575
20
148.1936885
40
1.3990231
50
0.5424119
51
1.3863029
0
ARC
8
DEFAULT_255_1_234
10
22.8757128
20
148.2209342
40
1.0682415
50
359.8090433
51
4.9407866
0
ARC
8
DEFAULT_255_1_234
10
23.2967142
20
148.2585113
40
0.6455691
50
4.8362157
51
12.2904523
0
ARC
8
DEFAULT_255_1_234
10
23.5722256
20
148.3198965
40
0.3633074
50
12.0805627
51
23.8173984
0
ARC
8
DEFAULT_255_1_234
10
23.6895962
20
148.3695919
40
0.2358723
50
24.2871213
51
31.3935614
0
ARC
8
DEFAULT_255_1_234
10
23.7420659
20
148.4039233
40
0.1732111
50
30.7407893
51
82.4657128
0
ARC
8
DEFAULT_255_1_234
10
23.7240793
20
148.3155691
40
0.263235
50
81.1060089
51
90.2184952
0
ARC
8
DEFAULT_255_1_234
10
23.7205092
20
148.3413924
40
0.2374236
50
89.3806855
51
105.6762551
0
ARC
8
DEFAULT_255_1_234
10
23.7021723
20
148.4080567
40
0.1682847
50
105.7981136
51
149.7388061
0
ARC
8
DEFAULT_255_1_234
10
23.8085801
20
148.344095
40
0.2924306
50
149.4208916
51
163.6286378
0
ARC
8
DEFAULT_255_1_234
10
24.0176689
20
148.280325
40
0.5110213
50
163.3763315
51
172.1410975
0
ARC
8
DEFAULT_255_1_234
10
24.3477408
20
148.2330518
40
0.8444586
50
172.0259487
51
178.0703232
0
ARC
8
DEFAULT_255_1_234
10
24.6507498
20
148.2186906
40
1.1477868
50
177.8631668
51
179.5044149
0
ARC
8
DEFAULT_255_1_234
10
24.5434902
20
147.9872389
40
1.0404907
50
179.7995573
51
185.2460446
0
ARC
8
DEFAULT_255_1_234
10
24.1391941
20
147.9489513
40
0.6343885
50
185.1411642
51
193.0079639
0
ARC
8
DEFAULT_255_1_234
10
23.8748414
20
147.8864641
40
0.3627568
50
192.7897626
51
205.2507664
0
ARC
8
DEFAULT_255_1_234
10
23.7701961
20
147.8397415
40
0.2481908
50
205.8005384
51
211.2537509
0
ARC
8
DEFAULT_255_1_234
10
23.7178401
20
147.804658
40
0.1852521
50
210.3789793
51
238.4008143
0
ARC
8
DEFAULT_255_1_234
10
23.7158923
20
147.8093376
40
0.1882621
50
239.6520629
51
265.9793761
0
ARC
8
DEFAULT_255_1_234
10
23.7244123
20
147.8765427
40
0.2559272
50
265.1315437
51
270.060332
0
ARC
8
DEFAULT_255_1_234
10
23.7272902
20
147.8441534
40
0.2235528
50
269.3314664
51
287.2178029
0
ARC
8
DEFAULT_255_1_234
10
23.7410754
20
147.7938279
40
0.1714108
50
287.7958004
51
329.080874
0
ARC
8
DEFAULT_255_1_234
10
23.6453211
20
147.853593
40
0.2842745
50
328.6634704
51
343.3325132
0
ARC
8
DEFAULT_255_1_234
10
23.4280231
20
147.9212863
40
0.5118644
50
343.0499468
51
351.9393422
0
ARC
8
DEFAULT_255_1_234
10
23.0813531
20
147.9723949
40
0.8622784
50
351.8069023
51
357.7959224
0
ARC
8
DEFAULT_255_1_234
10
22.7578087
20
147.9891721
40
1.1862365
50
357.5871873
51
359.2677531
0
LINE
8
DEFAULT_255_1_234
10
22.5181458
20
156.6223211
11
22.8217456
21
156.035201
0
LINE
8
DEFAULT_255_1_234
10
22.8217456
20
156.035201
11
23.1269516
21
156.6223211
0
LINE
8
DEFAULT_255_1_234
10
23.1269516
20
156.6223211
11
23.3020435
21
156.6223211
0
LINE
8
DEFAULT_255_1_234
10
23.3020435
20
156.6223211
11
22.8988502
21
155.8890234
0
LINE
8
DEFAULT_255_1_234
10
22.8988502
20
155.8890234
11
22.8988502
21
155.4529
0
LINE
8
DEFAULT_255_1_234
10
22.8988502
20
155.4529
11
22.7446409
21
155.4529
0
LINE
8
DEFAULT_255_1_234
10
22.7446409
20
155.4529
11
22.7446409
21
155.8890234
0
LINE
8
DEFAULT_255_1_234
10
22.7446409
20
155.8890234
11
22.3414476
21
156.6223211
0
LINE
8
DEFAULT_255_1_234
10
22.3414476
20
156.6223211
11
22.5181458
21
156.6223211
0
LINE
8
DEFAULT_255_1_234
10
24.1694712
20
156.6223211
11
24.1694712
21
156.538791
0
LINE
8
DEFAULT_255_1_234
10
24.1694712
20
156.538791
11
23.6851574
21
155.4529
0
LINE
8
DEFAULT_255_1_234
10
23.6851574
20
155.4529
11
23.5293417
21
155.4529
0
LINE
8
DEFAULT_255_1_234
10
23.5293417
20
155.4529
11
24.0120492
21
156.5002387
0
LINE
8
DEFAULT_255_1_234
10
24.0120492
20
156.5002387
11
23.3791482
21
156.5002387
0
LINE
8
DEFAULT_255_1_234
10
23.3791482
20
156.5002387
11
23.3791482
21
156.6223211
0
LINE
8
DEFAULT_255_1_234
10
23.3791482
20
156.6223211
11
24.1694712
21
156.6223211
0
LINE
8
DEFAULT_255_1_234
10
22.5181458
20
164.5598211
11
22.8217456
21
163.972701
0
LINE
8
DEFAULT_255_1_234
10
22.8217456
20
163.972701
11
23.1269516
21
164.5598211
0
LINE
8
DEFAULT_255_1_234
10
23.1269516
20
164.5598211
11
23.3020435
21
164.5598211
0
LINE
8
DEFAULT_255_1_234
10
23.3020435
20
164.5598211
11
22.8988502
21
163.8265234
0
LINE
8
DEFAULT_255_1_234
10
22.8988502
20
163.8265234
11
22.8988502
21
163.3904
0
LINE
8
DEFAULT_255_1_234
10
22.8988502
20
163.3904
11
22.7446409
21
163.3904
0
LINE
8
DEFAULT_255_1_234
10
22.7446409
20
163.3904
11
22.7446409
21
163.8265234
0
LINE
8
DEFAULT_255_1_234
10
22.7446409
20
163.8265234
11
22.3414476
21
164.5598211
0
LINE
8
DEFAULT_255_1_234
10
22.3414476
20
164.5598211
11
22.5181458
21
164.5598211
0
LINE
8
DEFAULT_255_1_234
10
23.9710873
20
164.5606243
11
23.997592
21
164.5606243
0
LINE
8
DEFAULT_255_1_234
10
23.997592
20
164.5606243
11
23.997592
21
164.434526
0
LINE
8
DEFAULT_255_1_234
10
23.997592
20
164.434526
11
23.9702841
21
164.434526
0
LINE
8
DEFAULT_255_1_234
10
23.4233228
20
163.8353583
11
23.4233228
21
163.8923836
0
LINE
8
DEFAULT_255_1_234
10
23.5727131
20
163.8731075
11
23.5727131
21
163.8184917
0
ARC
8
DEFAULT_255_1_234
10
23.9755189
20
163.9347455
40
0.4998079
50
90.6001036
51
104.514704
0
ARC
8
DEFAULT_255_1_234
10
23.9366705
20
164.0792131
40
0.3502176
50
104.2855254
51
133.862935
0
ARC
8
DEFAULT_255_1_234
10
23.9530462
20
164.068383
40
0.3693984
50
134.5302688
51
161.6210873
0
ARC
8
DEFAULT_255_1_234
10
24.1183651
20
164.0100895
40
0.5446739
50
161.2849839
51
174.2076652
0
ARC
8
DEFAULT_255_1_234
10
24.2590588
20
163.9906787
40
0.6866274
50
173.7810589
51
174.9254635
0
ARC
8
DEFAULT_255_1_234
10
23.804042
20
163.8523839
40
0.3033419
50
95.8330959
51
138.9954921
0
ARC
8
DEFAULT_255_1_234
10
23.8263776
20
163.7245375
40
0.4328947
50
89.8753725
51
97.0544009
0
ARC
8
DEFAULT_255_1_234
10
23.8311242
20
163.8080748
40
0.3493769
50
71.6407809
51
90.6240094
0
ARC
8
DEFAULT_255_1_234
10
23.8461815
20
163.8635082
40
0.2920396
50
39.6367836
51
71.019018
0
ARC
8
DEFAULT_255_1_234
10
23.7825288
20
163.8084998
40
0.3761538
50
10.658731
51
39.9043955
0
ARC
8
DEFAULT_255_1_234
10
23.6277371
20
163.7748686
40
0.5345136
50
359.682601
51
11.132623
0
ARC
8
DEFAULT_255_1_234
10
23.6237502
20
163.767801
40
0.5385081
50
347.2486944
51
0.4369317
0
ARC
8
DEFAULT_255_1_234
10
23.7904979
20
163.7276807
40
0.3670249
50
318.1409698
51
347.6118597
0
ARC
8
DEFAULT_255_1_234
10
23.8229972
20
163.7009702
40
0.3250007
50
275.6342139
51
317.8248465
0
ARC
8
DEFAULT_255_1_234
10
23.8009083
20
163.8309219
40
0.4565864
50
269.8874292
51
276.7917694
0
ARC
8
DEFAULT_255_1_234
10
23.7954154
20
163.7283743
40
0.3540676
50
246.9140195
51
270.7437342
0
ARC
8
DEFAULT_255_1_234
10
23.7960544
20
163.7141384
40
0.3412781
50
218.1665114
51
245.878116
0
ARC
8
DEFAULT_255_1_234
10
23.8840005
20
163.7877279
40
0.455911
50
191.4115814
51
218.6077802
0
ARC
8
DEFAULT_255_1_234
10
24.0778094
20
163.8311833
40
0.6545001
50
179.6345085
51
191.7836486
0
ARC
8
DEFAULT_255_1_234
10
24.6360431
20
163.8990697
40
1.2127388
50
171.4525249
51
180.3158839
0
ARC
8
DEFAULT_255_1_234
10
24.1965307
20
163.9674608
40
0.7679464
50
157.9802646
51
171.6246686
0
ARC
8
DEFAULT_255_1_234
10
23.9751328
20
164.0557421
40
0.5296008
50
141.4298019
51
157.854097
0
ARC
8
DEFAULT_255_1_234
10
23.9109649
20
164.1011381
40
0.4511509
50
102.8715806
51
140.8564722
0
ARC
8
DEFAULT_255_1_234
10
23.9757264
20
163.8571552
40
0.7034845
50
90.3778349
51
103.5869322
0
ARC
8
DEFAULT_255_1_234
10
23.801904
20
163.796673
40
0.2370698
50
89.8751008
51
126.2071704
0
ARC
8
DEFAULT_255_1_234
10
23.806483
20
163.7812303
40
0.2522934
50
124.9745049
51
144.895901
0
ARC
8
DEFAULT_255_1_234
10
23.7889021
20
163.795556
40
0.2296779
50
145.2974905
51
160.2660252
0
ARC
8
DEFAULT_255_1_234
10
24.0961559
20
163.8153071
40
0.5234525
50
179.6514266
51
190.2855912
0
ARC
8
DEFAULT_255_1_234
10
23.9267697
20
163.7833786
40
0.3510893
50
190.0945431
51
207.5098196
0
ARC
8
DEFAULT_255_1_234
10
23.8701966
20
163.7564623
40
0.288489
50
207.9583163
51
216.3251085
0
ARC
8
DEFAULT_255_1_234
10
23.8362074
20
163.7285105
40
0.2445587
50
215.7661442
51
232.5456785
0
ARC
8
DEFAULT_255_1_234
10
23.7979057
20
163.6798482
40
0.1826382
50
232.8005391
51
270.6605633
0
ARC
8
DEFAULT_255_1_234
10
23.8024758
20
163.7162612
40
0.2190529
50
269.35537
51
288.4744281
0
ARC
8
DEFAULT_255_1_234
10
23.8117655
20
163.6813118
40
0.1829749
50
289.1833337
51
322.9683818
0
ARC
8
DEFAULT_255_1_234
10
23.7506177
20
163.7295391
40
0.2608399
50
322.6007884
51
346.5182367
0
ARC
8
DEFAULT_255_1_234
10
23.6348773
20
163.7590616
40
0.3802777
50
346.2582162
51
358.7741648
0
ARC
8
DEFAULT_255_1_234
10
23.5330442
20
163.7645965
40
0.4822176
50
358.3755224
51
0.0098023
0
ARC
8
DEFAULT_255_1_234
10
23.6086629
20
163.7673657
40
0.4066078
50
359.6214041
51
11.2839074
0
ARC
8
DEFAULT_255_1_234
10
23.7363776
20
163.7940066
40
0.2761514
50
11.0482309
51
31.8146458
0
ARC
8
DEFAULT_255_1_234
10
23.7672819
20
163.8107584
40
0.2410679
50
32.3035391
51
38.082671
0
ARC
8
DEFAULT_255_1_234
10
23.8093479
20
163.8488662
40
0.1844966
50
36.825067
51
85.7415724
0
ARC
8
DEFAULT_255_1_234
10
23.8026312
20
163.7988301
40
0.2349122
50
85.0140713
51
90.0513278
0
LINE
8
DEFAULT_255_1_234
10
22.5181458
20
172.4973211
11
22.8217456
21
171.910201
0
LINE
8
DEFAULT_255_1_234
10
22.8217456
20
171.910201
11
23.1269516
21
172.4973211
0
LINE
8
DEFAULT_255_1_234
10
23.1269516
20
172.4973211
11
23.3020435
21
172.4973211
0
LINE
8
DEFAULT_255_1_234
10
23.3020435
20
172.4973211
11
22.8988502
21
171.7640234
0
LINE
8
DEFAULT_255_1_234
10
22.8988502
20
171.7640234
11
22.8988502
21
171.3279
0
LINE
8
DEFAULT_255_1_234
10
22.8988502
20
171.3279
11
22.7446409
21
171.3279
0
LINE
8
DEFAULT_255_1_234
10
22.7446409
20
171.3279
11
22.7446409
21
171.7640234
0
LINE
8
DEFAULT_255_1_234
10
22.7446409
20
171.7640234
11
22.3414476
21
172.4973211
0
LINE
8
DEFAULT_255_1_234
10
22.3414476
20
172.4973211
11
22.5181458
21
172.4973211
0
LINE
8
DEFAULT_255_1_234
10
23.6016273
20
171.8836963
11
23.4827576
21
171.9142169
0
LINE
8
DEFAULT_255_1_234
10
23.4827576
20
171.9142169
11
23.5421925
21
172.4973211
0
LINE
8
DEFAULT_255_1_234
10
23.5421925
20
172.4973211
11
24.1413602
21
172.4973211
0
LINE
8
DEFAULT_255_1_234
10
24.1413602
20
172.4973211
11
24.1413602
21
172.3599784
0
LINE
8
DEFAULT_255_1_234
10
24.1413602
20
172.3599784
11
23.6682908
21
172.3599784
0
LINE
8
DEFAULT_255_1_234
10
23.6682908
20
172.3599784
11
23.6329511
21
172.0411184
0
LINE
8
DEFAULT_255_1_234
10
23.4409926
20
171.6355156
11
23.581548
21
171.6355156
0
LINE
8
DEFAULT_255_1_234
10
23.6409829
20
171.9158232
11
23.6016273
21
171.8836963
0
ARC
8
DEFAULT_255_1_234
10
23.8184295
20
171.723123
40
0.3681349
50
93.7182161
51
120.2538958
0
ARC
8
DEFAULT_255_1_234
10
23.8278558
20
171.6423394
40
0.449379
50
89.9660152
51
94.2496022
0
ARC
8
DEFAULT_255_1_234
10
23.8319292
20
171.7012549
40
0.390482
50
73.8043271
51
90.5585896
0
ARC
8
DEFAULT_255_1_234
10
23.8554189
20
171.7870602
40
0.3015334
50
41.3071453
51
73.5430202
0
ARC
8
DEFAULT_255_1_234
10
23.8138016
20
171.7512324
40
0.3564457
50
13.5075983
51
41.2174222
0
ARC
8
DEFAULT_255_1_234
10
23.649622
20
171.7082486
40
0.5261351
50
1.1331335
51
13.8829381
0
ARC
8
DEFAULT_255_1_234
10
23.5084589
20
171.7006665
40
0.6674378
50
359.9919444
51
1.544251
0
ARC
8
DEFAULT_255_1_234
10
23.6361415
20
171.696528
40
0.5397702
50
347.8572367
51
0.4293338
0
ARC
8
DEFAULT_255_1_234
10
23.8111733
20
171.6568736
40
0.3603188
50
323.673004
51
348.1672506
0
ARC
8
DEFAULT_255_1_234
10
23.8406241
20
171.6389168
40
0.3259678
50
316.8171152
51
323.1492751
0
ARC
8
DEFAULT_255_1_234
10
23.846743
20
171.635246
40
0.3189975
50
281.8396411
51
316.5457803
0
ARC
8
DEFAULT_255_1_234
10
23.8091694
20
171.7907762
40
0.4789527
50
269.5770101
51
282.4214771
0
ARC
8
DEFAULT_255_1_234
10
23.8020505
20
171.7694125
40
0.45759
50
256.2427136
51
270.4486331
0
ARC
8
DEFAULT_255_1_234
10
23.7721408
20
171.6494229
40
0.3339303
50
228.9023911
51
256.3314342
0
ARC
8
DEFAULT_255_1_234
10
23.764764
20
171.6377746
40
0.32031
50
193.753695
51
228.5271154
0
ARC
8
DEFAULT_255_1_234
10
23.8885594
20
171.67408
40
0.4492253
50
184.924711
51
194.497588
0
ARC
8
DEFAULT_255_1_234
10
23.9078161
20
171.6776591
40
0.3289787
50
187.3600538
51
198.6732863
0
ARC
8
DEFAULT_255_1_234
10
23.8028455
20
171.6412674
40
0.217884
50
198.4451669
51
217.794479
0
ARC
8
DEFAULT_255_1_234
10
23.773263
20
171.6203085
40
0.1816698
50
218.2887171
51
228.5612368
0
ARC
8
DEFAULT_255_1_234
10
23.7830417
20
171.6334963
40
0.1980329
50
228.9654866
51
258.1234728
0
ARC
8
DEFAULT_255_1_234
10
23.8036127
20
171.7215833
40
0.2884748
50
257.7258293
51
270.401361
0
ARC
8
DEFAULT_255_1_234
10
23.8081014
20
171.6770821
40
0.2439788
50
269.4204404
51
286.4209037
0
ARC
8
DEFAULT_255_1_234
10
23.8229501
20
171.6231657
40
0.1880666
50
286.7251356
51
320.600362
0
ARC
8
DEFAULT_255_1_234
10
23.7846326
20
171.6542595
40
0.2374121
50
320.6712579
51
344.5441685
0
ARC
8
DEFAULT_255_1_234
10
23.6689652
20
171.6882045
40
0.3579479
50
344.2412205
51
356.7357071
0
ARC
8
DEFAULT_255_1_234
10
23.5440801
20
171.6985444
40
0.4832297
50
356.3548756
51
0.0500261
0
ARC
8
DEFAULT_255_1_234
10
23.677731
20
171.701665
40
0.3495889
50
359.5576869
51
12.953486
0
ARC
8
DEFAULT_255_1_234
10
23.7832207
20
171.7272434
40
0.2410532
50
12.6490276
51
41.6081334
0
ARC
8
DEFAULT_255_1_234
10
23.8062578
20
171.7468321
40
0.2108218
50
41.7850273
51
85.9892764
0
ARC
8
DEFAULT_255_1_234
10
23.7939315
20
171.6655462
40
0.2928454
50
84.6957577
51
90.0676183
0
ARC
8
DEFAULT_255_1_234
10
23.7915799
20
171.5986716
40
0.3597255
50
89.6804936
51
99.1614436
0
ARC
8
DEFAULT_255_1_234
10
23.771043
20
171.7214131
40
0.235281
50
98.9830931
51
113.8908934
0
ARC
8
DEFAULT_255_1_234
10
23.748084
20
171.7755587
40
0.176479
50
114.1950727
51
127.3641004
0
LINE
8
DEFAULT_255_1_234
10
22.4123458
20
180.4348211
11
22.7159456
21
179.847701
0
LINE
8
DEFAULT_255_1_234
10
22.7159456
20
179.847701
11
23.0211516
21
180.4348211
0
LINE
8
DEFAULT_255_1_234
10
23.0211516
20
180.4348211
11
23.1962435
21
180.4348211
0
LINE
8
DEFAULT_255_1_234
10
23.1962435
20
180.4348211
11
22.7930502
21
179.7015234
0
LINE
8
DEFAULT_255_1_234
10
22.7930502
20
179.7015234
11
22.7930502
21
179.2654
0
LINE
8
DEFAULT_255_1_234
10
22.7930502
20
179.2654
11
22.6388409
21
179.2654
0
LINE
8
DEFAULT_255_1_234
10
22.6388409
20
179.2654
11
22.6388409
21
179.7015234
0
LINE
8
DEFAULT_255_1_234
10
22.6388409
20
179.7015234
11
22.2356476
21
180.4348211
0
LINE
8
DEFAULT_255_1_234
10
22.2356476
20
180.4348211
11
22.4123458
21
180.4348211
0
LINE
8
DEFAULT_255_1_234
10
23.9359666
20
180.4348211
11
23.9359666
21
179.658152
0
LINE
8
DEFAULT_255_1_234
10
23.9359666
20
179.658152
11
24.0982077
21
179.658152
0
LINE
8
DEFAULT_255_1_234
10
24.0982077
20
179.658152
11
24.0982077
21
179.5368728
0
LINE
8
DEFAULT_255_1_234
10
24.0982077
20
179.5368728
11
23.9359666
21
179.5368728
0
LINE
8
DEFAULT_255_1_234
10
23.9359666
20
179.5368728
11
23.9359666
21
179.2654
0
LINE
8
DEFAULT_255_1_234
10
23.9359666
20
179.2654
11
23.7865763
21
179.2654
0
LINE
8
DEFAULT_255_1_234
10
23.7865763
20
179.2654
11
23.7865763
21
179.5368728
0
LINE
8
DEFAULT_255_1_234
10
23.7865763
20
179.5368728
11
23.254072
21
179.5368728
0
LINE
8
DEFAULT_255_1_234
10
23.254072
20
179.5368728
11
23.254072
21
179.6244187
0
LINE
8
DEFAULT_255_1_234
10
23.254072
20
179.6244187
11
23.7777414
21
180.4348211
0
LINE
8
DEFAULT_255_1_234
10
23.7777414
20
180.4348211
11
23.9359666
21
180.4348211
0
LINE
8
DEFAULT_255_1_234
10
23.7689064
20
180.1994912
11
23.4227385
21
179.658152
0
LINE
8
DEFAULT_255_1_234
10
23.4227385
20
179.658152
11
23.7865763
21
179.658152
0
LINE
8
DEFAULT_255_1_234
10
23.7865763
20
179.658152
11
23.7865763
21
180.2316181
0
LINE
8
DEFAULT_255_1_234
10
23.7865763
20
180.2316181
11
23.7689064
21
180.1994912
0
LINE
8
DEFAULT_255_1_234
10
22.5181458
20
188.3723211
11
22.8217456
21
187.785201
0
LINE
8
DEFAULT_255_1_234
10
22.8217456
20
187.785201
11
23.1269516
21
188.3723211
0
LINE
8
DEFAULT_255_1_234
10
23.1269516
20
188.3723211
11
23.3020435
21
188.3723211
0
LINE
8
DEFAULT_255_1_234
10
23.3020435
20
188.3723211
11
22.8988502
21
187.6390234
0
LINE
8
DEFAULT_255_1_234
10
22.8988502
20
187.6390234
11
22.8988502
21
187.2029
0
LINE
8
DEFAULT_255_1_234
10
22.8988502
20
187.2029
11
22.7446409
21
187.2029
0
LINE
8
DEFAULT_255_1_234
10
22.7446409
20
187.2029
11
22.7446409
21
187.6390234
0
LINE
8
DEFAULT_255_1_234
10
22.7446409
20
187.6390234
11
22.3414476
21
188.3723211
0
LINE
8
DEFAULT_255_1_234
10
22.3414476
20
188.3723211
11
22.5181458
21
188.3723211
0
LINE
8
DEFAULT_255_1_234
10
23.6305416
20
187.7386169
11
23.6305416
21
187.8598962
0
LINE
8
DEFAULT_255_1_234
10
23.6305416
20
187.8598962
11
23.7421828
21
187.8598962
0
LINE
8
DEFAULT_255_1_234
10
23.5518306
20
188.0655087
11
23.4032434
21
188.0655087
0
LINE
8
DEFAULT_255_1_234
10
23.3928021
20
187.5113188
11
23.5421925
21
187.5113188
0
LINE
8
DEFAULT_255_1_234
10
23.7421828
20
187.7386169
11
23.6305416
21
187.7386169
0
ARC
8
DEFAULT_255_1_234
10
23.7392694
20
188.1991713
40
0.3392876
50
270.4919872
51
281.8951556
0
ARC
8
DEFAULT_255_1_234
10
23.7633956
20
188.0889702
40
0.2264817
50
281.6691735
51
301.2943132
0
ARC
8
DEFAULT_255_1_234
10
23.7804166
20
188.0578304
40
0.1910381
50
301.7833094
51
311.7545298
0
ARC
8
DEFAULT_255_1_234
10
23.7895742
20
188.0476748
40
0.1773635
50
311.7323931
51
354.2802411
0
ARC
8
DEFAULT_255_1_234
10
23.7169367
20
188.0601722
40
0.2509385
50
353.0937916
51
0.1181479
0
ARC
8
DEFAULT_255_1_234
10
23.6708152
20
188.0649386
40
0.2970898
50
359.1805295
51
15.0453146
0
ARC
8
DEFAULT_255_1_234
10
23.8053989
20
188.1041992
40
0.1569564
50
13.9577229
51
77.6713066
0
ARC
8
DEFAULT_255_1_234
10
23.7667518
20
187.9656949
40
0.3006298
50
76.1116566
51
90.7026153
0
ARC
8
DEFAULT_255_1_234
10
23.7608356
20
187.9930545
40
0.2732568
50
89.5324876
51
103.531937
0
ARC
8
DEFAULT_255_1_234
10
23.7407801
20
188.0729884
40
0.1908508
50
103.2931773
51
133.5619022
0
ARC
8
DEFAULT_255_1_234
10
23.7363289
20
188.0789375
40
0.1834746
50
133.8349307
51
173.5344437
0
ARC
8
DEFAULT_255_1_234
10
23.8086332
20
188.0661213
40
0.2568033
50
172.5096846
51
180.1366907
0
ARC
8
DEFAULT_255_1_234
10
23.7135226
20
188.0695622
40
0.3103056
50
155.3484492
51
180.7484736
0
ARC
8
DEFAULT_255_1_234
10
23.7086315
20
188.0666846
40
0.3070957
50
131.5744599
51
154.4798489
0
ARC
8
DEFAULT_255_1_234
10
23.7399462
20
188.035031
40
0.3515643
50
96.9875458
51
131.9690667
0
ARC
8
DEFAULT_255_1_234
10
23.7618942
20
187.9104636
40
0.4779224
50
89.8596053
51
97.7825159
0
ARC
8
DEFAULT_255_1_234
10
23.7667005
20
187.8842616
40
0.5041361
50
78.3655447
51
90.4131539
0
ARC
8
DEFAULT_255_1_234
10
23.8024923
20
188.0501887
40
0.3344039
50
56.6229102
51
78.638727
0
ARC
8
DEFAULT_255_1_234
10
23.8239867
20
188.0877805
40
0.2912001
50
47.0253525
51
56.0854072
0
ARC
8
DEFAULT_255_1_234
10
23.8259647
20
188.0917223
40
0.2869704
50
10.9208013
51
46.7778124
0
ARC
8
DEFAULT_255_1_234
10
23.6895713
20
188.0601857
40
0.426899
50
359.6364486
51
11.6087304
0
ARC
8
DEFAULT_255_1_234
10
23.8730557
20
188.0586752
40
0.243409
50
332.3549906
51
359.7179418
0
ARC
8
DEFAULT_255_1_234
10
23.8080159
20
188.0895142
40
0.3153459
50
325.2333722
51
332.8745602
0
ARC
8
DEFAULT_255_1_234
10
23.8232783
20
188.0788828
40
0.2967456
50
292.9802137
51
325.2392345
0
ARC
8
DEFAULT_255_1_234
10
23.7958157
20
188.1322863
40
0.3566604
50
292.5402179
51
293.6924929
0
ARC
8
DEFAULT_255_1_234
10
23.8350752
20
187.4868091
40
0.3307468
50
57.6435486
51
72.8625112
0
ARC
8
DEFAULT_255_1_234
10
23.8705252
20
187.5442549
40
0.2632492
50
36.7248896
51
57.4697979
0
ARC
8
DEFAULT_255_1_234
10
23.8693885
20
187.545522
40
0.2634081
50
8.0545065
51
36.356114
0
ARC
8
DEFAULT_255_1_234
10
23.783107
20
187.5300174
40
0.3510261
50
359.8320645
51
8.5869982
0
ARC
8
DEFAULT_255_1_234
10
23.7455846
20
187.5252101
40
0.3885653
50
343.9829931
51
0.5571613
0
ARC
8
DEFAULT_255_1_234
10
23.8342043
20
187.5009438
40
0.2966924
50
311.6359546
51
343.7651759
0
ARC
8
DEFAULT_255_1_234
10
23.7963613
20
187.5436102
40
0.3537231
50
279.7829875
51
311.6255694
0
ARC
8
DEFAULT_255_1_234
10
23.7662389
20
187.687328
40
0.5004971
50
269.7286406
51
280.3856417
0
ARC
8
DEFAULT_255_1_234
10
23.7600461
20
187.6831996
40
0.4963778
50
256.6828919
51
270.4412052
0
ARC
8
DEFAULT_255_1_234
10
23.7261757
20
187.5447394
40
0.3538406
50
229.4223008
51
256.8556159
0
ARC
8
DEFAULT_255_1_234
10
23.684715
20
187.4980736
40
0.2914296
50
181.818294
51
229.6455059
0
ARC
8
DEFAULT_255_1_234
10
23.7887106
20
187.5111496
40
0.3959084
50
179.9755256
51
183.2323064
0
ARC
8
DEFAULT_255_1_234
10
23.7714852
20
187.5091037
40
0.2293034
50
179.4465117
51
196.2869258
0
ARC
8
DEFAULT_255_1_234
10
23.722726
20
187.4957651
40
0.1787621
50
196.5661473
51
227.705904
0
ARC
8
DEFAULT_255_1_234
10
23.7391355
20
187.5141155
40
0.2033784
50
227.7652068
51
257.8762805
0
ARC
8
DEFAULT_255_1_234
10
23.7616325
20
187.6084156
40
0.3003081
50
257.4584385
51
270.426602
0
ARC
8
DEFAULT_255_1_234
10
23.7661891
20
187.6373996
40
0.329292
50
269.5962073
51
280.8789248
0
ARC
8
DEFAULT_255_1_234
10
23.789142
20
187.5227685
40
0.2123908
50
280.6346389
51
299.8595945
0
ARC
8
DEFAULT_255_1_234
10
23.8082327
20
187.4865212
40
0.171457
50
300.3576302
51
314.5517981
0
ARC
8
DEFAULT_255_1_234
10
23.7999387
20
187.4925919
40
0.1816095
50
315.0728369
51
345.0431014
0
ARC
8
DEFAULT_255_1_234
10
23.7076201
20
187.5194841
40
0.2777492
50
344.5986631
51
357.9269593
0
ARC
8
DEFAULT_255_1_234
10
23.6180528
20
187.5256276
40
0.3674917
50
357.4748886
51
0.0231117
0
ARC
8
DEFAULT_255_1_234
10
23.7203637
20
187.5280679
40
0.2651907
50
359.5047933
51
13.4239635
0
ARC
8
DEFAULT_255_1_234
10
23.8070281
20
187.5502478
40
0.1757509
50
12.9498199
51
48.7551375
0
ARC
8
DEFAULT_255_1_234
10
23.7888014
20
187.52534
40
0.2065134
50
49.5088623
51
72.1836453
0
ARC
8
DEFAULT_255_1_234
10
23.7530167
20
187.4191291
40
0.3185836
50
71.9010081
51
84.3554254
0
ARC
8
DEFAULT_255_1_234
10
23.7368799
20
187.2830326
40
0.4556151
50
84.0193428
51
89.333121
0
LINE
8
DEFAULT_255_1_234
10
22.5181458
20
196.3098211
11
22.8217456
21
195.722701
0
LINE
8
DEFAULT_255_1_234
10
22.8217456
20
195.722701
11
23.1269516
21
196.3098211
0
LINE
8
DEFAULT_255_1_234
10
23.1269516
20
196.3098211
11
23.3020435
21
196.3098211
0
LINE
8
DEFAULT_255_1_234
10
23.3020435
20
196.3098211
11
22.8988502
21
195.5765234
0
LINE
8
DEFAULT_255_1_234
10
22.8988502
20
195.5765234
11
22.8988502
21
195.1404
0
LINE
8
DEFAULT_255_1_234
10
22.8988502
20
195.1404
11
22.7446409
21
195.1404
0
LINE
8
DEFAULT_255_1_234
10
22.7446409
20
195.1404
11
22.7446409
21
195.5765234
0
LINE
8
DEFAULT_255_1_234
10
22.7446409
20
195.5765234
11
22.3414476
21
196.3098211
0
LINE
8
DEFAULT_255_1_234
10
22.3414476
20
196.3098211
11
22.5181458
21
196.3098211
0
LINE
8
DEFAULT_255_1_234
10
24.1807157
20
195.2616792
11
24.1807157
21
195.1404
0
LINE
8
DEFAULT_255_1_234
10
24.1807157
20
195.1404
11
23.4144878
21
195.1404
0
LINE
8
DEFAULT_255_1_234
10
23.4144878
20
195.1404
11
23.4144878
21
195.2472221
0
LINE
8
DEFAULT_255_1_234
10
23.4144878
20
195.2472221
11
23.8192875
21
195.6969995
0
LINE
8
DEFAULT_255_1_234
10
23.5405861
20
195.9652595
11
23.391999
21
195.9652595
0
LINE
8
DEFAULT_255_1_234
10
23.9068334
20
195.6014218
11
23.5935956
21
195.2616792
0
LINE
8
DEFAULT_255_1_234
10
23.5935956
20
195.2616792
11
24.1807157
21
195.2616792
0
ARC
8
DEFAULT_255_1_234
10
22.4702708
20
196.8899527
40
1.8008286
50
318.5132453
51
320.7828378
0
ARC
8
DEFAULT_255_1_234
10
22.9989682
20
196.4596426
40
1.1191493
50
320.7372736
51
323.9737074
0
ARC
8
DEFAULT_255_1_234
10
23.3909539
20
196.1756361
40
0.6350923
50
323.8961724
51
328.6421089
0
ARC
8
DEFAULT_255_1_234
10
23.5956134
20
196.0494031
40
0.3946393
50
328.8299013
51
331.789948
0
ARC
8
DEFAULT_255_1_234
10
23.6953313
20
195.9979509
40
0.2824501
50
331.4255242
51
352.9364833
0
ARC
8
DEFAULT_255_1_234
10
23.7089813
20
195.9948976
40
0.2685315
50
353.2248685
51
0.0169286
0
ARC
8
DEFAULT_255_1_234
10
23.729969
20
195.997195
40
0.2475536
50
359.4866256
51
15.9339782
0
ARC
8
DEFAULT_255_1_234
10
23.7806675
20
196.0108286
40
0.1950618
50
16.1714718
51
43.5284424
0
ARC
8
DEFAULT_255_1_234
10
23.7883984
20
196.0185573
40
0.184134
50
43.4415429
51
83.1661404
0
ARC
8
DEFAULT_255_1_234
10
23.7749902
20
195.9448771
40
0.258926
50
82.160215
51
90.1505798
0
ARC
8
DEFAULT_255_1_234
10
23.7718329
20
195.8911865
40
0.3126255
50
89.5460705
51
102.5418777
0
ARC
8
DEFAULT_255_1_234
10
23.7475416
20
195.9942665
40
0.2067346
50
102.1739365
51
129.2061916
0
ARC
8
DEFAULT_255_1_234
10
23.7396487
20
196.0067094
40
0.1921118
50
129.7279328
51
135.7542026
0
ARC
8
DEFAULT_255_1_234
10
23.7518015
20
195.9970045
40
0.2075944
50
136.175737
51
166.3674722
0
ARC
8
DEFAULT_255_1_234
10
23.8524934
20
195.9700182
40
0.3118201
50
165.9092917
51
178.8683903
0
ARC
8
DEFAULT_255_1_234
10
23.9389795
20
195.9653179
40
0.3983935
50
178.438168
51
180.0083905
0
ARC
8
DEFAULT_255_1_234
10
23.7988398
20
195.9692231
40
0.4068601
50
163.2878735
51
180.5581814
0
ARC
8
DEFAULT_255_1_234
10
23.7186659
20
195.991284
40
0.3237344
50
133.454115
51
162.9470031
0
ARC
8
DEFAULT_255_1_234
10
23.73652
20
195.9723
40
0.349795
50
100.7869394
51
133.4384016
0
ARC
8
DEFAULT_255_1_234
10
23.7712972
20
195.8174319
40
0.5084616
50
89.6605301
51
101.3704185
0
ARC
8
DEFAULT_255_1_234
10
23.7779311
20
195.8235496
40
0.502348
50
78.2171172
51
90.4130393
0
ARC
8
DEFAULT_255_1_234
10
23.8134389
20
195.9859637
40
0.3361092
50
55.9268222
51
78.4888551
0
ARC
8
DEFAULT_255_1_234
10
23.8330829
20
196.0198324
40
0.2970617
50
47.9292255
51
55.4054003
0
ARC
8
DEFAULT_255_1_234
10
23.843239
20
196.0301502
40
0.2825983
50
4.3347696
51
48.0560701
0
ARC
8
DEFAULT_255_1_234
10
23.7336783
20
196.0131601
40
0.393225
50
359.925209
51
5.5967654
0
ARC
8
DEFAULT_255_1_234
10
23.7765675
20
196.0187816
40
0.3503892
50
337.8914096
51
358.9967724
0
ARC
8
DEFAULT_255_1_234
10
23.5052087
20
196.1234706
40
0.6412172
50
326.9135351
51
338.3505194
0
ARC
8
DEFAULT_255_1_234
10
23.1066391
20
196.3789284
40
1.1146189
50
319.6472867
51
327.095818
0
ARC
8
DEFAULT_255_1_234
10
22.7233394
20
196.6951
40
1.6114559
50
317.2586784
51
319.9046139
0
LINE
8
DEFAULT_255_1_234
10
22.5269458
20
204.2473211
11
22.8305456
21
203.660201
0
LINE
8
DEFAULT_255_1_234
10
22.8305456
20
203.660201
11
23.1357516
21
204.2473211
0
LINE
8
DEFAULT_255_1_234
10
23.1357516
20
204.2473211
11
23.3108435
21
204.2473211
0
LINE
8
DEFAULT_255_1_234
10
23.3108435
20
204.2473211
11
22.9076502
21
203.5140234
0
LINE
8
DEFAULT_255_1_234
10
22.9076502
20
203.5140234
11
22.9076502
21
203.0779
0
LINE
8
DEFAULT_255_1_234
10
22.9076502
20
203.0779
11
22.7534409
21
203.0779
0
LINE
8
DEFAULT_255_1_234
10
22.7534409
20
203.0779
11
22.7534409
21
203.5140234
0
LINE
8
DEFAULT_255_1_234
10
22.7534409
20
203.5140234
11
22.3502476
21
204.2473211
0
LINE
8
DEFAULT_255_1_234
10
22.3502476
20
204.2473211
11
22.5269458
21
204.2473211
0
LINE
8
DEFAULT_255_1_234
10
23.9116175
20
204.2529433
11
23.9116175
21
203.0779
0
LINE
8
DEFAULT_255_1_234
10
23.9116175
20
203.0779
11
23.7622272
21
203.0779
0
LINE
8
DEFAULT_255_1_234
10
23.7622272
20
203.0779
11
23.7622272
21
204.0682133
0
LINE
8
DEFAULT_255_1_234
10
23.7622272
20
204.0682133
11
23.4626434
21
203.9581785
0
LINE
8
DEFAULT_255_1_234
10
23.4626434
20
203.9581785
11
23.4626434
21
204.0931117
0
LINE
8
DEFAULT_255_1_234
10
23.4626434
20
204.0931117
11
23.8883255
21
204.2529433
0
LINE
8
DEFAULT_255_1_234
10
23.8883255
20
204.2529433
11
23.9116175
21
204.2529433
0
LINE
8
DEFAULT_255_1_234
10
22.5181458
20
212.1848211
11
22.8217456
21
211.597701
0
LINE
8
DEFAULT_255_1_234
10
22.8217456
20
211.597701
11
23.1269516
21
212.1848211
0
LINE
8
DEFAULT_255_1_234
10
23.1269516
20
212.1848211
11
23.3020435
21
212.1848211
0
LINE
8
DEFAULT_255_1_234
10
23.3020435
20
212.1848211
11
22.8988502
21
211.4515234
0
LINE
8
DEFAULT_255_1_234
10
22.8988502
20
211.4515234
11
22.8988502
21
211.0154
0
LINE
8
DEFAULT_255_1_234
10
22.8988502
20
211.0154
11
22.7446409
21
211.0154
0
LINE
8
DEFAULT_255_1_234
10
22.7446409
20
211.0154
11
22.7446409
21
211.4515234
0
LINE
8
DEFAULT_255_1_234
10
22.7446409
20
211.4515234
11
22.3414476
21
212.1848211
0
LINE
8
DEFAULT_255_1_234
10
22.3414476
20
212.1848211
11
22.5181458
21
212.1848211
0
LINE
8
DEFAULT_255_1_234
10
24.1477855
20
211.7069327
11
24.1477855
21
211.5141709
0
LINE
8
DEFAULT_255_1_234
10
23.4096688
20
211.4940916
11
23.4096688
21
211.6924755
0
LINE
8
DEFAULT_255_1_234
10
23.9991984
20
211.4740123
11
23.9991984
21
211.7173739
0
LINE
8
DEFAULT_255_1_234
10
23.558256
20
211.7286184
11
23.558256
21
211.4908789
0
ARC
8
DEFAULT_255_1_234
10
22.9230745
20
211.5092805
40
1.2247208
50
353.8441951
51
0.2287902
0
ARC
8
DEFAULT_255_1_234
10
23.3870249
20
211.4574806
40
0.7578929
50
344.4934747
51
353.9765454
0
ARC
8
DEFAULT_255_1_234
10
23.6862839
20
211.3723981
40
0.4467846
50
329.2803592
51
344.7472793
0
ARC
8
DEFAULT_255_1_234
10
23.7855664
20
211.3179018
40
0.3336173
50
324.9352394
51
328.6160465
0
ARC
8
DEFAULT_255_1_234
10
23.8232773
20
211.2915427
40
0.2876076
50
280.580143
51
324.9173126
0
ARC
8
DEFAULT_255_1_234
10
23.7831565
20
211.4586099
40
0.4592847
50
269.5977311
51
281.6734359
0
ARC
8
DEFAULT_255_1_234
10
23.7759471
20
211.4466173
40
0.4472986
50
256.6228859
51
270.51044
0
ARC
8
DEFAULT_255_1_234
10
23.7357449
20
211.2917877
40
0.2873874
50
215.8618325
51
257.2788573
0
ARC
8
DEFAULT_255_1_234
10
23.837848
20
211.3602977
40
0.4102928
50
197.9693508
51
215.2623606
0
ARC
8
DEFAULT_255_1_234
10
24.0863596
20
211.4441709
40
0.6725652
50
187.8816417
51
198.2346507
0
ARC
8
DEFAULT_255_1_234
10
24.4821804
20
211.5013079
40
1.0724845
50
180.8976217
51
188.0055519
0
ARC
8
DEFAULT_255_1_234
10
24.7621992
20
211.5116777
40
1.3526448
50
180.7449369
51
181.1510016
0
ARC
8
DEFAULT_255_1_234
10
24.6044721
20
211.6973042
40
1.1948131
50
173.7675579
51
180.231553
0
ARC
8
DEFAULT_255_1_234
10
24.1526868
20
211.7483666
40
0.7401564
50
164.3058563
51
173.9002247
0
ARC
8
DEFAULT_255_1_234
10
23.8614937
20
211.8322656
40
0.4371288
50
148.7922025
51
164.568378
0
ARC
8
DEFAULT_255_1_234
10
23.7663389
20
211.8853929
40
0.3282386
50
144.5883898
51
148.1176286
0
ARC
8
DEFAULT_255_1_234
10
23.7320287
20
211.9093315
40
0.2864044
50
101.6440918
51
144.514236
0
ARC
8
DEFAULT_255_1_234
10
23.7745354
20
211.7404069
40
0.4604934
50
89.5284041
51
102.5819763
0
ARC
8
DEFAULT_255_1_234
10
23.7824441
20
211.7365018
40
0.464401
50
77.0437873
51
90.5081339
0
ARC
8
DEFAULT_255_1_234
10
23.8226443
20
211.9007615
40
0.2953195
50
48.2778575
51
77.4994676
0
ARC
8
DEFAULT_255_1_234
10
23.8299074
20
211.9136746
40
0.2808655
50
36.3142134
51
47.6305865
0
ARC
8
DEFAULT_255_1_234
10
23.7430381
20
211.8551515
40
0.3855453
50
18.2931786
51
35.6769206
0
ARC
8
DEFAULT_255_1_234
10
23.488714
20
211.7678593
40
0.654423
50
8.024666
51
18.5605216
0
ARC
8
DEFAULT_255_1_234
10
23.072406
20
211.7063792
40
1.0752407
50
1.1274072
51
8.1718305
0
ARC
8
DEFAULT_255_1_234
10
22.7488251
20
211.6936885
40
1.3990231
50
0.5424119
51
1.3863029
0
ARC
8
DEFAULT_255_1_234
10
22.9309629
20
211.7209342
40
1.0682415
50
359.8090433
51
4.9407866
0
ARC
8
DEFAULT_255_1_234
10
23.3519643
20
211.7585113
40
0.6455691
50
4.8362157
51
12.2904523
0
ARC
8
DEFAULT_255_1_234
10
23.6274757
20
211.8198965
40
0.3633074
50
12.0805627
51
23.8173984
0
ARC
8
DEFAULT_255_1_234
10
23.7448463
20
211.8695919
40
0.2358723
50
24.2871213
51
31.3935614
0
ARC
8
DEFAULT_255_1_234
10
23.797316
20
211.9039233
40
0.1732111
50
30.7407893
51
82.4657128
0
ARC
8
DEFAULT_255_1_234
10
23.7793294
20
211.8155691
40
0.263235
50
81.1060089
51
90.2184952
0
ARC
8
DEFAULT_255_1_234
10
23.7757593
20
211.8413924
40
0.2374236
50
89.3806855
51
105.6762551
0
ARC
8
DEFAULT_255_1_234
10
23.7574224
20
211.9080567
40
0.1682847
50
105.7981136
51
149.7388061
0
ARC
8
DEFAULT_255_1_234
10
23.8638302
20
211.844095
40
0.2924306
50
149.4208916
51
163.6286378
0
ARC
8
DEFAULT_255_1_234
10
24.072919
20
211.780325
40
0.5110213
50
163.3763315
51
172.1410975
0
ARC
8
DEFAULT_255_1_234
10
24.4029909
20
211.7330518
40
0.8444586
50
172.0259487
51
178.0703232
0
ARC
8
DEFAULT_255_1_234
10
24.7059999
20
211.7186906
40
1.1477868
50
177.8631668
51
179.5044149
0
ARC
8
DEFAULT_255_1_234
10
24.5987403
20
211.4872389
40
1.0404907
50
179.7995573
51
185.2460446
0
ARC
8
DEFAULT_255_1_234
10
24.1944442
20
211.4489513
40
0.6343885
50
185.1411642
51
193.0079639
0
ARC
8
DEFAULT_255_1_234
10
23.9300915
20
211.3864641
40
0.3627568
50
192.7897626
51
205.2507664
0
ARC
8
DEFAULT_255_1_234
10
23.8254462
20
211.3397415
40
0.2481908
50
205.8005384
51
211.2537509
0
ARC
8
DEFAULT_255_1_234
10
23.7730902
20
211.304658
40
0.1852521
50
210.3789793
51
238.4008143
0
ARC
8
DEFAULT_255_1_234
10
23.7711424
20
211.3093376
40
0.1882621
50
239.6520629
51
265.9793761
0
ARC
8
DEFAULT_255_1_234
10
23.7796624
20
211.3765427
40
0.2559272
50
265.1315437
51
270.060332
0
ARC
8
DEFAULT_255_1_234
10
23.7825403
20
211.3441534
40
0.2235528
50
269.3314664
51
287.2178029
0
ARC
8
DEFAULT_255_1_234
10
23.7963255
20
211.2938279
40
0.1714108
50
287.7958004
51
329.080874
0
ARC
8
DEFAULT_255_1_234
10
23.7005712
20
211.353593
40
0.2842745
50
328.6634704
51
343.3325132
0
ARC
8
DEFAULT_255_1_234
10
23.4832732
20
211.4212863
40
0.5118644
50
343.0499468
51
351.9393422
0
ARC
8
DEFAULT_255_1_234
10
23.1366032
20
211.4723949
40
0.8622784
50
351.8069023
51
357.7959224
0
ARC
8
DEFAULT_255_1_234
10
22.8130588
20
211.4891721
40
1.1862365
50
357.5871873
51
359.2677531
0
ENDSEC
0
EOF