0
SECTION
2
HEADER
9
$MEASUREMENT
70
1
0
ENDSEC
0
SECTION
2
TABLES
0
TABLE
2
LTYPE
0
LTYPE
72
65
70
64
2
CONTINUOUS
3
______
73
0
40
0
0
ENDTAB
0
TABLE
2
LAYER
0
LAYER
2
DEFAULT_255_2_778
70
0
62
255
6
CONTINUOUS
0
ENDTAB
0
ENDSEC
0
SECTION
2
ENTITIES
0
ARC
8
DEFAULT_255_2_778
10
23.954785
20
3.118505
40
0.7002977
50
0.0161714
51
89.9838286
0
ARC
8
DEFAULT_255_2_778
10
4.3553164
20
3.1185689
40
0.7002338
50
90.0109416
51
179.9890543
0
ARC
8
DEFAULT_255_2_778
10
0.4595721
20
87.008493
40
0.1896907
50
252.5796803
51
269.8823779
0
ARC
8
DEFAULT_255_2_778
10
0.4614763
20
87.0111799
40
0.192827
50
233.686169
51
252.2788346
0
ARC
8
DEFAULT_255_2_778
10
0.4711576
20
87.0191925
40
0.2052597
50
197.110284
51
211.2521536
0
ARC
8
DEFAULT_255_2_778
10
0.4708472
20
87.0188579
40
0.2048647
50
179.9315234
51
197.0463643
0
ARC
8
DEFAULT_255_2_778
10
0.8089655
20
105.2832141
40
0.5429845
50
168.237681
51
179.8534726
0
ARC
8
DEFAULT_255_2_778
10
0.8315915
20
105.2790481
40
0.5659849
50
158.5848012
51
168.2917296
0
ARC
8
DEFAULT_255_2_778
10
0.8479155
20
105.2737586
40
0.5831142
50
143.2681005
51
158.6865945
0
ARC
8
DEFAULT_255_2_778
10
0.8485923
20
105.2702332
40
0.5857703
50
130.2665787
51
143.0313329
0
ARC
8
DEFAULT_255_2_778
10
0.8253252
20
105.2935735
40
0.5529286
50
117.995102
51
129.9901115
0
ARC
8
DEFAULT_255_2_778
10
0.7544665
20
105.3192061
40
0.499597
50
90.0669543
51
112.1895581
0
ARC
8
DEFAULT_255_2_778
10
27.5559738
20
105.3195861
40
0.4992169
50
67.8019415
51
89.9416007
0
ARC
8
DEFAULT_255_2_778
10
27.4823668
20
105.2912714
40
0.5562176
50
49.9749809
51
61.8730555
0
ARC
8
DEFAULT_255_2_778
10
27.4692969
20
105.2764025
40
0.5760094
50
36.9563079
51
49.9306239
0
ARC
8
DEFAULT_255_2_778
10
27.4621629
20
105.2722362
40
0.5842157
50
21.4315789
51
36.8621806
0
ARC
8
DEFAULT_255_2_778
10
27.4790743
20
105.2790482
40
0.5659846
50
11.7082688
51
21.4152037
0
ARC
8
DEFAULT_255_2_778
10
27.5016998
20
105.2832141
40
0.5429847
50
0.1465283
51
11.7623166
0
ARC
8
DEFAULT_255_2_778
10
27.8319518
20
87.0200319
40
0.2127329
50
343.272386
51
359.7497262
0
ARC
8
DEFAULT_255_2_778
10
27.8395025
20
87.0191948
40
0.2052654
50
328.7480555
51
342.8895337
0
ARC
8
DEFAULT_255_2_778
10
27.8480183
20
87.0134758
40
0.1953708
50
287.8432743
51
306.1917475
0
ARC
8
DEFAULT_255_2_778
10
27.851092
20
87.0085015
40
0.1896991
50
270.1180016
51
287.4199151
0
LINE
8
DEFAULT_255_2_778
10
23.9549827
20
3.8188027
11
4.3551827
21
3.8188027
0
LINE
8
DEFAULT_255_2_778
10
3.6550827
20
3.1187027
11
3.6550827
21
-0.0811973
0
LINE
8
DEFAULT_255_2_778
10
3.6550827
20
-0.0811973
11
24.6550827
21
-0.0811973
0
LINE
8
DEFAULT_255_2_778
10
24.6550827
20
-0.0811973
11
24.6550827
21
3.1187027
0
LINE
8
DEFAULT_255_2_778
10
0.2551827
20
86.6188027
11
28.0551827
21
86.6188027
0
LINE
8
DEFAULT_255_2_778
10
25.3043827
20
99.2690027
11
25.3043827
21
99.0693027
0
LINE
8
DEFAULT_255_2_778
10
25.3043827
20
99.0693027
11
3.0049827
21
99.0693027
0
LINE
8
DEFAULT_255_2_778
10
3.0049827
20
99.0693027
11
3.0049827
21
99.2690027
0
LINE
8
DEFAULT_255_2_778
10
3.0049827
20
99.2690027
11
25.3043827
21
99.2690027
0
LINE
8
DEFAULT_255_2_778
10
0.3472827
20
86.8558027
11
0.3205827
21
86.8797027
0
LINE
8
DEFAULT_255_2_778
10
0.3205827
20
86.8797027
11
0.2956827
21
86.9127027
0
LINE
8
DEFAULT_255_2_778
10
0.2659827
20
87.0191027
11
0.2659827
21
105.2846027
0
LINE
8
DEFAULT_255_2_778
10
0.7538827
20
105.8188027
11
27.5564827
21
105.8188027
0
LINE
8
DEFAULT_255_2_778
10
28.0446827
20
105.2846027
11
28.0446827
21
87.0191027
0
LINE
8
DEFAULT_255_2_778
10
28.0149827
20
86.9127027
11
27.9900827
21
86.8797027
0
LINE
8
DEFAULT_255_2_778
10
27.9900827
20
86.8797027
11
27.9633827
21
86.8558027
0
LINE
8
DEFAULT_255_2_778
10
27.8514827
20
86.8188027
11
0.4591827
21
86.8188027
0
ARC
8
DEFAULT_255_2_778
10
0.7552544
20
105.3186906
40
0.5000718
50
112.7485753
51
180.0032678
0
ARC
8
DEFAULT_255_2_778
10
0.7552584
20
0.3188378
40
0.5000758
50
180.008676
51
270.0027763
0
ARC
8
DEFAULT_255_2_778
10
27.5551284
20
0.3188163
40
0.5000542
50
270.0062229
51
359.9937886
0
ARC
8
DEFAULT_255_2_778
10
27.5550472
20
105.3186901
40
0.5001355
50
359.9967892
51
67.2341535
0
LINE
8
DEFAULT_255_2_778
10
0.2551827
20
105.3186621
11
0.2551827
21
0.3187621
0
LINE
8
DEFAULT_255_2_778
10
0.7552827
20
-0.1812379
11
27.5551827
21
-0.1812379
0
LINE
8
DEFAULT_255_2_778
10
28.0551827
20
0.3187621
11
28.0551827
21
105.3186621
0
LINE
8
DEFAULT_255_2_778
10
0.2551827
20
-0.1812379
11
0.2551827
21
0.3187621
0
ARC
8
DEFAULT_255_2_778
10
12.5276172
20
103.7071289
40
0.4465858
50
269.5855879
51
285.0746002
0
ARC
8
DEFAULT_255_2_778
10
12.5338069
20
103.9634836
40
0.7029919
50
253.9804375
51
269.2322374
0
ARC
8
DEFAULT_255_2_778
10
12.6551699
20
104.420082
40
1.1753887
50
247.0399535
51
254.4364728
0
ARC
8
DEFAULT_255_2_778
10
26.1808414
20
101.0139194
40
14.175955
50
170.5648062
51
171.8841509
0
ARC
8
DEFAULT_255_2_778
10
12.5620974
20
104.0322248
40
1.0985154
50
247.7904278
51
267.552295
0
ARC
8
DEFAULT_255_2_778
10
12.5532814
20
103.9511125
40
1.0171147
50
267.8533237
51
270.0000164
0
ARC
8
DEFAULT_255_2_778
10
12.549768
20
103.9999502
40
1.0659581
50
270.1888662
51
288.7247178
0
ARC
8
DEFAULT_255_2_778
10
12.7021487
20
103.5461379
40
0.5872495
50
288.8581968
51
331.6559306
0
ARC
8
DEFAULT_255_2_778
10
12.3008575
20
103.7850156
40
1.0540261
50
330.5839035
51
345.1761498
0
ARC
8
DEFAULT_255_2_778
10
11.5559178
20
103.9904551
40
1.826751
50
344.9249033
51
353.9306958
0
ARC
8
DEFAULT_255_2_778
10
10.3995417
20
104.1201746
40
2.9903683
50
353.8018035
51
359.8777249
0
ARC
8
DEFAULT_255_2_778
10
9.5776276
20
104.1366631
40
3.8123442
50
359.6562797
51
0.0003395
0
ARC
8
DEFAULT_255_2_778
10
9.3569456
20
104.1361796
40
4.0330261
50
0.0071899
51
1.0074471
0
ARC
8
DEFAULT_255_2_778
10
9.1364111
20
104.1328637
40
4.253585
50
0.9998754
51
1.3221623
0
ARC
8
DEFAULT_255_2_778
10
11.8922088
20
104.2432186
40
1.4967046
50
359.5326741
51
10.0473457
0
ARC
8
DEFAULT_255_2_778
10
12.5445054
20
104.3640731
40
0.8333433
50
9.6898092
51
27.9326368
0
ARC
8
DEFAULT_255_2_778
10
12.7946461
20
104.4899817
40
0.5533963
50
28.5470367
51
83.8159128
0
ARC
8
DEFAULT_255_2_778
10
12.7132464
20
104.0962523
40
0.9543805
50
81.5032219
51
90.2333892
0
ARC
8
DEFAULT_255_2_778
10
12.7096628
20
103.8725459
40
1.1780789
50
90.0147852
51
91.9943957
0
ARC
8
DEFAULT_255_2_778
10
12.7287129
20
104.1430894
40
0.9088077
50
93.7885692
51
110.4623487
0
ARC
8
DEFAULT_255_2_778
10
12.6052875
20
104.4735742
40
0.5560272
50
110.4517596
51
170.6969124
0
ARC
8
DEFAULT_255_2_778
10
13.0681657
20
104.3543122
40
1.0329865
50
168.3186273
51
179.2678917
0
ARC
8
DEFAULT_255_2_778
10
13.3188711
20
104.381291
40
1.2836814
50
180.6150652
51
191.7135638
0
ARC
8
DEFAULT_255_2_778
10
12.7060788
20
104.2484585
40
0.6567074
50
191.2199434
51
211.6214046
0
ARC
8
DEFAULT_255_2_778
10
12.5027476
20
104.1304964
40
0.4217614
50
212.4581157
51
265.541835
0
ARC
8
DEFAULT_255_2_778
10
12.5898491
20
104.5332908
40
0.8319628
50
261.7148565
51
269.3003181
0
ARC
8
DEFAULT_255_2_778
10
12.5867221
20
104.4329608
40
0.7316046
50
269.4492456
51
270.000954
0
ARC
8
DEFAULT_255_2_778
10
12.6020908
20
104.2524239
40
0.5512816
50
268.4037554
51
319.7205127
0
ARC
8
DEFAULT_255_2_778
10
12.0965798
20
103.8952556
40
0.9260841
50
343.7650588
51
0.0467426
0
ARC
8
DEFAULT_255_2_778
10
12.473903
20
103.7790963
40
0.5313662
50
288.64283
51
344.4159717
0
ARC
8
DEFAULT_255_2_778
10
12.7096999
20
104.4934758
40
0.2463636
50
90.868966
51
169.8544357
0
ARC
8
DEFAULT_255_2_778
10
13.117905
20
104.3650993
40
0.6730067
50
165.2126262
51
178.7304006
0
ARC
8
DEFAULT_255_2_778
10
13.1382614
20
104.3919696
40
0.693301
50
180.9883237
51
196.4316683
0
ARC
8
DEFAULT_255_2_778
10
12.7257697
20
104.2535549
40
0.2590023
50
192.8723694
51
265.6142631
0
ARC
8
DEFAULT_255_2_778
10
12.7111234
20
104.2591824
40
0.2639218
50
268.8797615
51
346.4240753
0
ARC
8
DEFAULT_255_2_778
10
12.3786771
20
104.3678896
40
0.6132197
50
343.841281
51
358.8059577
0
ARC
8
DEFAULT_255_2_778
10
12.3577206
20
104.3675031
40
0.6341641
50
358.8803315
51
15.7602985
0
ARC
8
DEFAULT_255_2_778
10
12.7131076
20
104.4774395
40
0.262441
50
13.7348278
51
91.473094
0
ARC
8
DEFAULT_255_2_778
10
12.6975054
20
104.5421867
40
0.1978053
50
87.4340839
51
87.5492622
0
LINE
8
DEFAULT_255_2_778
10
12.6437636
20
103.2756111
11
12.6437636
21
103.2759111
0
LINE
8
DEFAULT_255_2_778
10
12.7059636
20
104.7398111
11
12.7059636
21
104.7398111
0
LINE
8
DEFAULT_255_2_778
10
13.8100636
20
104.2151111
11
14.1884636
21
104.4845111
0
LINE
8
DEFAULT_255_2_778
10
14.1884636
20
104.4845111
11
14.1884636
21
103.0182111
0
LINE
8
DEFAULT_255_2_778
10
14.1884636
20
103.0182111
11
14.7210636
21
103.0182111
0
LINE
8
DEFAULT_255_2_778
10
14.7210636
20
103.0182111
11
14.7210636
21
105.0171111
0
LINE
8
DEFAULT_255_2_778
10
14.7210636
20
105.0171111
11
14.2511636
21
105.0171111
0
LINE
8
DEFAULT_255_2_778
10
14.2511636
20
105.0171111
11
13.5724636
21
104.5760111
0
LINE
8
DEFAULT_255_2_778
10
13.5724636
20
104.5760111
11
13.8100636
21
104.2151111
0
LINE
8
DEFAULT_255_2_778
10
10.3093636
20
104.3842111
11
10.3149636
21
104.3842111
0
LINE
8
DEFAULT_255_2_778
10
11.1912636
20
103.6598111
11
10.5152636
21
105.0171111
0
LINE
8
DEFAULT_255_2_778
10
10.5152636
20
105.0171111
11
9.8365636
21
105.0171111
0
LINE
8
DEFAULT_255_2_778
10
9.8365636
20
105.0171111
11
9.8365636
21
103.0182111
0
LINE
8
DEFAULT_255_2_778
10
9.8365636
20
103.0182111
11
10.3265636
21
103.0182111
0
LINE
8
DEFAULT_255_2_778
10
10.3265636
20
103.0182111
11
10.3093636
21
104.3842111
0
LINE
8
DEFAULT_255_2_778
10
11.1967636
20
103.6598111
11
11.1885636
21
105.0171111
0
LINE
8
DEFAULT_255_2_778
10
11.1885636
20
105.0171111
11
11.6756636
21
105.0171111
0
LINE
8
DEFAULT_255_2_778
10
11.6756636
20
105.0171111
11
11.6756636
21
103.0182111
0
LINE
8
DEFAULT_255_2_778
10
11.6756636
20
103.0182111
11
11.0134636
21
103.0182111
0
LINE
8
DEFAULT_255_2_778
10
11.0134636
20
103.0182111
11
10.3146636
21
104.3842111
0
LINE
8
DEFAULT_255_2_778
10
3.9428731
20
105.0170562
11
4.4720731
21
105.0170562
0
LINE
8
DEFAULT_255_2_778
10
4.4720731
20
105.0170562
11
4.4720731
21
103.6941562
0
ARC
8
DEFAULT_255_2_778
10
3.3013533
20
103.6814964
40
1.1707882
50
347.8247952
51
0.6195533
0
ARC
8
DEFAULT_255_2_778
10
3.8341255
20
103.5601808
40
0.6244447
50
323.280229
51
348.3959159
0
ARC
8
DEFAULT_255_2_778
10
3.9321363
20
103.5080576
40
0.5149924
50
280.0223078
51
321.4085248
0
ARC
8
DEFAULT_255_2_778
10
3.8424362
20
103.8854536
40
0.9025242
50
269.5579474
51
281.4605246
0
ARC
8
DEFAULT_255_2_778
10
3.8238304
20
105.1082044
40
2.1252801
50
265.2992795
51
270.313877
0
ARC
8
DEFAULT_255_2_778
10
3.7106542
20
103.8037713
40
0.8159811
50
255.9777906
51
265.7132767
0
ARC
8
DEFAULT_255_2_778
10
3.5629438
20
103.2345642
40
0.2280091
50
234.4490167
51
257.3326343
0
LINE
8
DEFAULT_255_2_778
10
3.4303731
20
103.0490562
11
3.4303731
21
103.4790562
0
ARC
8
DEFAULT_255_2_778
10
3.7457311
20
104.2890074
40
0.8691787
50
248.7263278
51
255.4890222
0
ARC
8
DEFAULT_255_2_778
10
3.6665936
20
103.9780632
40
0.5483262
50
255.3533049
51
265.435696
0
ARC
8
DEFAULT_255_2_778
10
3.6522237
20
103.8303312
40
0.3999274
50
265.8036127
51
269.9472074
0
ARC
8
DEFAULT_255_2_778
10
3.6644693
20
103.6721013
40
0.2420263
50
267.012479
51
338.0141119
0
ARC
8
DEFAULT_255_2_778
10
3.4243058
20
103.7867654
40
0.5079171
50
336.1622772
51
351.3706054
0
ARC
8
DEFAULT_255_2_778
10
8.4941381
20
103.6938017
40
4.5676958
50
179.3524398
51
179.789836
0
ARC
8
DEFAULT_255_2_778
10
41.765789
20
103.3659071
40
37.8409582
50
179.3335852
51
179.4253544
0
ARC
8
DEFAULT_255_2_778
10
142.6127663
20
102.2006973
40
138.6946668
50
179.2863368
51
179.3368104
0
ARC
8
DEFAULT_255_2_778
10
388.4374175
20
99.1530692
40
384.5382087
50
179.2616322
51
179.2884921
0
ARC
8
DEFAULT_255_2_778
10
783.4968615
20
94.0773543
40
779.6302576
50
179.2496903
51
179.2627843
0
ARC
8
DEFAULT_255_2_778
10
1334.0053484
20
86.8704204
40
1330.1859171
50
179.2394889
51
179.249802
0
ARC
8
DEFAULT_255_2_778
10
2052.7342303
20
77.3391796
40
2048.9779945
50
179.2332882
51
179.2397493
0
ARC
8
DEFAULT_255_2_778
10
2908.9206231
20
65.8882218
40
2905.2409586
50
179.2283023
51
179.2334245
0
ARC
8
DEFAULT_255_2_778
10
2.3539685
20
104.4236961
40
0.196428
50
359.1132603
51
75.5455553
0
ARC
8
DEFAULT_255_2_778
10
2.2081081
20
104.0526807
40
0.5941018
50
70.8499705
51
85.8521433
0
ARC
8
DEFAULT_255_2_778
10
2.1518885
20
103.5063015
40
1.143236
50
85.0225486
51
90.1767186
0
ARC
8
DEFAULT_255_2_778
10
2.1501639
20
103.0310025
40
1.6185307
50
90.0637728
51
92.82489
0
ARC
8
DEFAULT_255_2_778
10
2.1686077
20
102.6312379
40
2.0187189
50
92.788549
51
94.4188025
0
LINE
8
DEFAULT_255_2_778
10
2.0130731
20
104.6439562
11
2.0130731
21
104.1976562
0
ARC
8
DEFAULT_255_2_778
10
2.1894071
20
106.0826649
40
1.8932383
50
264.6557905
51
267.0733852
0
ARC
8
DEFAULT_255_2_778
10
2.1676974
20
105.6532209
40
1.463246
50
267.0638054
51
269.9345327
0
ARC
8
DEFAULT_255_2_778
10
2.176427
20
105.0558357
40
0.8659225
50
269.3117443
51
280.4586403
0
ARC
8
DEFAULT_255_2_778
10
2.2744307
20
104.5553894
40
0.3560433
50
279.5684259
51
302.796058
0
ARC
8
DEFAULT_255_2_778
10
2.3622672
20
104.4123957
40
0.1883004
50
303.896665
51
2.6056841
0
ARC
8
DEFAULT_255_2_778
10
2.060598
20
102.5529307
40
1.2606083
50
90.0241221
51
91.7421705
0
ARC
8
DEFAULT_255_2_778
10
2.0713285
20
103.0756509
40
0.7379739
50
78.5529684
51
90.8743462
0
ARC
8
DEFAULT_255_2_778
10
2.1738639
20
103.5476699
40
0.2550858
50
50.2994065
51
80.0845866
0
ARC
8
DEFAULT_255_2_778
10
2.2416264
20
103.63927
40
0.1414679
50
31.8661286
51
47.7162116
0
ARC
8
DEFAULT_255_2_778
10
2.608322
20
103.7339626
40
0.2892573
50
30.0606081
51
72.9833422
0
ARC
8
DEFAULT_255_2_778
10
2.5608493
20
104.594664
40
0.5988644
50
282.7456751
51
305.5006685
0
ARC
8
DEFAULT_255_2_778
10
2.6467385
20
104.452222
40
0.4332133
50
307.1931079
51
357.2805718
0
ARC
8
DEFAULT_255_2_778
10
2.3757196
20
104.4954865
40
0.7066321
50
354.8183656
51
0.0817136
0
ARC
8
DEFAULT_255_2_778
10
2.2866478
20
104.4964359
40
0.7957031
50
0.0041997
51
1.2112616
0
ARC
8
DEFAULT_255_2_778
10
2.6321841
20
104.5097903
40
0.4500023
50
0.441294
51
64.4565969
0
ARC
8
DEFAULT_255_2_778
10
2.4550025
20
104.1672833
40
0.8355209
50
63.6215734
51
79.8437985
0
ARC
8
DEFAULT_255_2_778
10
2.3179787
20
103.460206
40
1.5557139
50
79.46828
51
88.7263315
0
ARC
8
DEFAULT_255_2_778
10
2.2882097
20
102.8160282
40
2.2004484
50
88.3242206
51
90.0178051
0
ARC
8
DEFAULT_255_2_778
10
2.2879057
20
102.5619681
40
2.4545083
50
90.0088651
51
91.1796705
0
LINE
8
DEFAULT_255_2_778
10
2.2373731
20
105.0159562
11
1.4838731
21
105.0159562
0
LINE
8
DEFAULT_255_2_778
10
11.1967731
20
103.6597562
11
11.1911731
21
103.6597562
0
LINE
8
DEFAULT_255_2_778
10
6.6284731
20
104.2153562
11
7.0062731
21
104.4844562
0
LINE
8
DEFAULT_255_2_778
10
7.0062731
20
104.4844562
11
7.0062731
21
103.0181562
0
LINE
8
DEFAULT_255_2_778
10
7.0062731
20
103.0181562
11
7.5391731
21
103.0181562
0
LINE
8
DEFAULT_255_2_778
10
7.5391731
20
103.0181562
11
7.5391731
21
105.0170562
0
LINE
8
DEFAULT_255_2_778
10
7.5391731
20
105.0170562
11
7.0692731
21
105.0170562
0
LINE
8
DEFAULT_255_2_778
10
7.0692731
20
105.0170562
11
6.3908731
21
104.5759562
0
LINE
8
DEFAULT_255_2_778
10
6.3908731
20
104.5759562
11
6.6284731
21
104.2153562
0
LINE
8
DEFAULT_255_2_778
10
3.9431731
20
105.0167562
11
3.9428731
21
105.0170562
0
LINE
8
DEFAULT_255_2_778
10
2.5503731
20
104.4209562
11
2.5503731
21
104.4206562
0
LINE
8
DEFAULT_255_2_778
10
1.4838731
20
105.0165562
11
1.4838731
21
103.0218562
0
LINE
8
DEFAULT_255_2_778
10
1.4838731
20
103.0218562
11
2.0222731
21
103.0218562
0
LINE
8
DEFAULT_255_2_778
10
2.0222731
20
103.0218562
11
2.0222731
21
103.8129562
0
LINE
8
DEFAULT_255_2_778
10
2.3617731
20
103.7139562
11
2.6183731
21
103.0297562
0
LINE
8
DEFAULT_255_2_778
10
2.6183731
20
103.0297562
11
3.1732731
21
103.0215562
0
LINE
8
DEFAULT_255_2_778
10
3.1732731
20
103.0215562
11
2.8586731
21
103.8788562
0
LINE
8
DEFAULT_255_2_778
10
1.4838731
20
105.0159562
11
1.4838731
21
105.0165562
0
LINE
8
DEFAULT_255_2_778
10
4.8744731
20
103.0009562
11
5.6020731
21
104.6638562
0
LINE
8
DEFAULT_255_2_778
10
5.6020731
20
104.6638562
11
4.7286731
21
104.6638562
0
LINE
8
DEFAULT_255_2_778
10
4.7286731
20
104.6638562
11
4.7286731
21
105.0514562
0
LINE
8
DEFAULT_255_2_778
10
4.7286731
20
105.0514562
11
6.1339731
21
105.0514562
0
LINE
8
DEFAULT_255_2_778
10
6.1339731
20
105.0514562
11
6.1339731
21
104.6080562
0
LINE
8
DEFAULT_255_2_778
10
6.1339731
20
104.6080562
11
5.4340731
21
103.0009562
0
LINE
8
DEFAULT_255_2_778
10
5.4340731
20
103.0009562
11
4.8744731
21
103.0009562
0
ARC
8
DEFAULT_255_2_778
10
8.8412821
20
103.4679587
40
1.2906984
50
63.8176552
51
69.5849996
0
ARC
8
DEFAULT_255_2_778
10
8.9167082
20
103.6716021
40
1.0735356
50
69.5665487
51
76.5422694
0
ARC
8
DEFAULT_255_2_778
10
8.9568607
20
103.8400261
40
0.9003917
50
76.5329166
51
84.7125291
0
ARC
8
DEFAULT_255_2_778
10
8.9673933
20
103.9423882
40
0.7974953
50
84.7883096
51
89.9658309
0
ARC
8
DEFAULT_255_2_778
10
8.9636968
20
104.0503482
40
0.6895479
50
89.6533299
51
111.235641
0
ARC
8
DEFAULT_255_2_778
10
8.9626585
20
104.06985
40
0.6710218
50
111.7561521
51
148.4339648
0
ARC
8
DEFAULT_255_2_778
10
8.9890756
20
104.0469989
40
0.7055148
50
147.9758267
51
170.6896795
0
ARC
8
DEFAULT_255_2_778
10
8.9157923
20
104.0605497
40
0.6310065
50
170.8273708
51
179.9220464
0
ARC
8
DEFAULT_255_2_778
10
8.8700933
20
104.06126
40
0.5853069
50
179.9854904
51
183.8044379
0
ARC
8
DEFAULT_255_2_778
10
9.2911723
20
104.0765585
40
1.006553
50
183.0829624
51
195.1275412
0
ARC
8
DEFAULT_255_2_778
10
8.9735046
20
103.9885601
40
0.6769316
50
194.954225
51
213.9273078
0
ARC
8
DEFAULT_255_2_778
10
8.9179683
20
103.9773838
40
0.6249901
50
215.9192129
51
268.026727
0
ARC
8
DEFAULT_255_2_778
10
8.9825946
20
104.3639704
40
1.014869
50
265.1306097
51
270.0558664
0
ARC
8
DEFAULT_255_2_778
10
8.9789296
20
104.5983646
40
1.2492714
50
270.21347
51
279.2863944
0
ARC
8
DEFAULT_255_2_778
10
8.94434
20
104.8358134
40
1.4891958
50
279.1255471
51
282.6942586
0
ARC
8
DEFAULT_255_2_778
10
8.9053416
20
105.0047733
40
1.6625958
50
282.7258403
51
288.3396414
0
ARC
8
DEFAULT_255_2_778
10
8.910223
20
105.3051001
40
2.2606767
50
278.0285836
51
283.708833
0
ARC
8
DEFAULT_255_2_778
10
8.9449867
20
105.0551324
40
2.0083039
50
271.8962311
51
278.0425443
0
ARC
8
DEFAULT_255_2_778
10
8.9527238
20
104.8836242
40
1.8366347
50
270.0066217
51
271.8320365
0
ARC
8
DEFAULT_255_2_778
10
8.9424273
20
104.5746859
40
1.5277326
50
255.7452145
51
270.3941217
0
ARC
8
DEFAULT_255_2_778
10
8.8172326
20
104.1055211
40
1.0422021
50
232.8764998
51
256.0649318
0
ARC
8
DEFAULT_255_2_778
10
8.6903406
20
103.9249536
40
0.8216824
50
197.0908899
51
232.3323695
0
ARC
8
DEFAULT_255_2_778
10
8.9009252
20
103.9899332
40
1.0420641
50
181.327758
51
197.1030819
0
ARC
8
DEFAULT_255_2_778
10
9.1177233
20
104.0039217
40
1.2591599
50
179.9935954
51
181.7355242
0
ARC
8
DEFAULT_255_2_778
10
9.201603
20
104.0035842
40
1.3430396
50
177.0366641
51
179.9795988
0
ARC
8
DEFAULT_255_2_778
10
9.3079918
20
103.9982918
40
1.4495598
50
174.8533806
51
177.0451483
0
ARC
8
DEFAULT_255_2_778
10
8.9401178
20
104.0288094
40
1.0804344
50
158.2693079
51
174.7152092
0
ARC
8
DEFAULT_255_2_778
10
8.7762205
20
104.0924213
40
0.9046339
50
123.9156252
51
158.1685573
0
ARC
8
DEFAULT_255_2_778
10
8.8886963
20
103.9060946
40
1.1220677
50
96.3228003
51
123.3730379
0
ARC
8
DEFAULT_255_2_778
10
8.9347383
20
103.6412811
40
1.39044
50
89.9484594
51
97.0067725
0
ARC
8
DEFAULT_255_2_778
10
8.9340932
20
103.5055109
40
1.5262108
50
81.1760817
51
89.9288255
0
ARC
8
DEFAULT_255_2_778
10
8.9209005
20
103.4107978
40
1.6218273
50
77.0995163
51
81.2288
0
ARC
8
DEFAULT_255_2_778
10
8.9080917
20
103.3554572
40
1.6786308
50
71.6817699
51
77.0950713
0
ARC
8
DEFAULT_255_2_778
10
5.1931921
20
100.5179227
40
0.324825
50
61.2623442
51
94.0808709
0
ARC
8
DEFAULT_255_2_778
10
5.1989248
20
100.5818198
40
0.2672799
50
23.980953
51
55.7456634
0
ARC
8
DEFAULT_255_2_778
10
4.8596259
20
100.4053207
40
0.6494461
50
17.945612
51
26.0424151
0
ARC
8
DEFAULT_255_2_778
10
5.1087279
20
96.4359745
40
5.5727832
50
90.0006098
51
90.1989631
0
ARC
8
DEFAULT_255_2_778
10
5.1231829
20
98.1977969
40
3.8109885
50
86.2920685
51
90.2182142
0
ARC
8
DEFAULT_255_2_778
10
5.2557618
20
100.1654515
40
1.8388859
50
79.4974925
51
86.4494846
0
ARC
8
DEFAULT_255_2_778
10
5.4452351
20
101.1520665
40
0.8342879
50
65.8683803
51
79.9411679
0
ARC
8
DEFAULT_255_2_778
10
5.6295635
20
101.5504044
40
0.395438
50
5.0153764
51
66.6458367
0
ARC
8
DEFAULT_255_2_778
10
5.202149
20
101.4672691
40
0.8297299
50
0.9015341
51
8.1555033
0
ARC
8
DEFAULT_255_2_778
10
5.4641134
20
101.4665619
40
0.5678295
50
0.0027143
51
1.3887896
0
ARC
8
DEFAULT_255_2_778
10
5.5646308
20
101.4591231
40
0.4673718
50
326.401528
51
0.9152677
0
ARC
8
DEFAULT_255_2_778
10
5.5619611
20
101.4749896
40
0.4785196
50
277.5550311
51
324.9958714
0
ARC
8
DEFAULT_255_2_778
10
5.3503001
20
100.5925402
40
0.5223281
50
22.44036
51
39.5629201
0
ARC
8
DEFAULT_255_2_778
10
5.5757171
20
100.7755347
40
0.232008
50
40.1800032
51
59.1536978
0
ARC
8
DEFAULT_255_2_778
10
5.606611
20
100.8246911
40
0.1739694
50
59.5882761
51
85.0982824
0
ARC
8
DEFAULT_255_2_778
10
5.2434455
20
101.8488797
40
0.6896645
50
274.9851898
51
287.8798858
0
ARC
8
DEFAULT_255_2_778
10
5.3990781
20
101.3987768
40
0.2137483
50
285.218738
51
0.9397378
0
ARC
8
DEFAULT_255_2_778
10
5.0883113
20
101.4417089
40
0.5259661
50
355.7010715
51
0.1214848
0
ARC
8
DEFAULT_255_2_778
10
5.3360763
20
101.45605
40
0.2785141
50
357.2781538
51
359.9836639
0
ARC
8
DEFAULT_255_2_778
10
5.3881793
20
101.4517388
40
0.2264506
50
1.0707935
51
82.6387615
0
ARC
8
DEFAULT_255_2_778
10
5.2950962
20
101.1849877
40
0.5062786
50
76.0446519
51
85.7751587
0
ARC
8
DEFAULT_255_2_778
10
5.2882569
20
101.117712
40
0.5738784
50
85.5890133
51
86.851554
0
ARC
8
DEFAULT_255_2_778
10
8.4067038
20
100.8242279
40
2.0424759
50
177.9967761
51
179.2266812
0
ARC
8
DEFAULT_255_2_778
10
8.280046
20
100.8260932
40
1.9158046
50
179.2313363
51
179.996974
0
ARC
8
DEFAULT_255_2_778
10
7.8497943
20
100.8177685
40
1.4855767
50
179.6750286
51
188.368823
0
ARC
8
DEFAULT_255_2_778
10
7.2966596
20
100.7335903
40
0.9260843
50
188.1970773
51
201.3954606
0
ARC
8
DEFAULT_255_2_778
10
6.998237
20
100.6148975
40
0.6049304
50
201.2394062
51
222.8863967
0
ARC
8
DEFAULT_255_2_778
10
7.0313677
20
100.6942635
40
0.6841447
50
225.8695777
51
266.4382608
0
ARC
8
DEFAULT_255_2_778
10
7.1674788
20
101.5556218
40
1.5544772
50
263.402015
51
267.5000994
0
ARC
8
DEFAULT_255_2_778
10
7.1940943
20
101.8613916
40
1.861164
50
267.0920966
51
268.8610758
0
ARC
8
DEFAULT_255_2_778
10
7.190727
20
101.706391
40
1.7061272
50
268.8706698
51
269.9939183
0
ARC
8
DEFAULT_255_2_778
10
7.2016844
20
101.2574639
40
1.2572494
50
269.4923867
51
281.1903856
0
ARC
8
DEFAULT_255_2_778
10
7.3079979
20
100.7436372
40
0.7325736
50
280.8326439
51
301.9694819
0
ARC
8
DEFAULT_255_2_778
10
7.357028
20
100.6345268
40
0.6142651
50
303.4785347
51
345.1175314
0
ARC
8
DEFAULT_255_2_778
10
6.8369396
20
100.7994458
40
1.1595518
50
343.8421631
51
357.2661224
0
ARC
8
DEFAULT_255_2_778
10
6.2671137
20
100.8439587
40
1.7309385
50
356.6940241
51
0.0557361
0
ARC
8
DEFAULT_255_2_778
10
6.0097059
20
100.845398
40
1.9883456
50
0.0070438
51
1.1131123
0
ARC
8
DEFAULT_255_2_778
10
8.154341
20
100.8286189
40
1.3907653
50
178.8090949
51
179.9922563
0
ARC
8
DEFAULT_255_2_778
10
7.7418216
20
100.8181818
40
0.9783035
50
179.377719
51
191.755525
0
ARC
8
DEFAULT_255_2_778
10
7.2787613
20
100.7169406
40
0.5043515
50
191.2129895
51
214.0338308
0
ARC
8
DEFAULT_255_2_778
10
7.156871
20
100.6491463
40
0.365595
50
215.9207899
51
271.1449319
0
ARC
8
DEFAULT_255_2_778
10
6.1336071
20
100.83172
40
1.4616195
50
0.5689092
51
2.1723745
0
ARC
8
DEFAULT_255_2_778
10
6.2273677
20
100.8329184
40
1.3678516
50
0.0018993
51
0.5577108
0
ARC
8
DEFAULT_255_2_778
10
6.5901718
20
100.8233065
40
1.0050938
50
348.8255222
51
0.5505197
0
ARC
8
DEFAULT_255_2_778
10
7.0430324
20
100.7297631
40
0.5427051
50
329.0663907
51
349.2485466
0
ARC
8
DEFAULT_255_2_778
10
7.207542
20
100.6366702
40
0.3537722
50
267.2066831
51
328.3029753
0
ARC
8
DEFAULT_255_2_778
10
7.1903738
20
100.813081
40
0.5297628
50
268.0531128
51
269.9921843
0
LINE
8
DEFAULT_255_2_778
10
9.4388761
20
104.9519241
11
9.4107761
21
104.6262241
0
LINE
8
DEFAULT_255_2_778
10
9.4284761
20
103.4266241
11
9.4459761
21
103.1088241
0
LINE
8
DEFAULT_255_2_778
10
10.0034761
20
102.0079241
11
10.0034761
21
100.0090241
0
LINE
8
DEFAULT_255_2_778
10
10.0034761
20
100.0090241
11
9.5139761
21
100.0090241
0
LINE
8
DEFAULT_255_2_778
10
9.5139761
20
100.0090241
11
8.7490761
21
101.5041241
0
LINE
8
DEFAULT_255_2_778
10
8.7490761
20
101.5041241
11
8.7434761
21
101.5041241
0
LINE
8
DEFAULT_255_2_778
10
8.7434761
20
101.5041241
11
8.7434761
21
100.0090241
0
LINE
8
DEFAULT_255_2_778
10
8.7434761
20
100.0090241
11
8.3598761
21
100.0090241
0
LINE
8
DEFAULT_255_2_778
10
8.3598761
20
100.0090241
11
8.3598761
21
102.0079241
0
LINE
8
DEFAULT_255_2_778
10
8.3598761
20
102.0079241
11
8.8524761
21
102.0079241
0
LINE
8
DEFAULT_255_2_778
10
8.8524761
20
102.0079241
11
9.6142761
21
100.5135241
0
LINE
8
DEFAULT_255_2_778
10
9.6142761
20
100.5135241
11
9.6197761
21
100.5135241
0
LINE
8
DEFAULT_255_2_778
10
9.6197761
20
100.5135241
11
9.6197761
21
102.0079241
0
LINE
8
DEFAULT_255_2_778
10
9.6197761
20
102.0079241
11
10.0036761
21
102.0079241
0
LINE
8
DEFAULT_255_2_778
10
5.1798761
20
100.8408241
11
5.0596761
21
100.8408241
0
LINE
8
DEFAULT_255_2_778
10
5.0596761
20
100.8408241
11
5.0596761
21
100.0098241
0
LINE
8
DEFAULT_255_2_778
10
5.0596761
20
100.0098241
11
4.6588761
21
100.0098241
0
LINE
8
DEFAULT_255_2_778
10
4.6588761
20
100.0098241
11
4.6588761
21
102.0087241
0
LINE
8
DEFAULT_255_2_778
10
4.6588761
20
102.0087241
11
5.0893761
21
102.0087241
0
LINE
8
DEFAULT_255_2_778
10
5.4785761
20
100.6027241
11
5.7071761
21
100.0098241
0
LINE
8
DEFAULT_255_2_778
10
5.7071761
20
100.0098241
11
6.1537761
21
100.0098241
0
LINE
8
DEFAULT_255_2_778
10
6.1537761
20
100.0098241
11
5.8330761
21
100.7919241
0
LINE
8
DEFAULT_255_2_778
10
5.6214761
20
100.9980241
11
5.6214761
21
100.9985241
0
LINE
8
DEFAULT_255_2_778
10
5.3197761
20
101.6907241
11
5.0602761
21
101.6938241
0
LINE
8
DEFAULT_255_2_778
10
5.0602761
20
101.6938241
11
5.0602761
21
101.1565241
0
LINE
8
DEFAULT_255_2_778
10
5.0602761
20
101.1565241
11
5.2949761
21
101.1615241
0
LINE
8
DEFAULT_255_2_778
10
6.7646761
20
100.8525241
11
6.7646761
21
102.0076241
0
LINE
8
DEFAULT_255_2_778
10
6.7646761
20
102.0076241
11
6.3638761
21
102.0076241
0
LINE
8
DEFAULT_255_2_778
10
6.3638761
20
102.0076241
11
6.3638761
21
100.8525241
0
LINE
8
DEFAULT_255_2_778
10
7.9960761
20
100.8525241
11
7.9960761
21
102.0076241
0
LINE
8
DEFAULT_255_2_778
10
7.9960761
20
102.0076241
11
7.5949761
21
102.0076241
0
LINE
8
DEFAULT_255_2_778
10
7.5949761
20
102.0076241
11
7.5949761
21
100.8525241
0
ARC
8
DEFAULT_255_2_778
10
21.8588586
20
101.39027
40
0.2015625
50
357.7856309
51
78.5582684
0
ARC
8
DEFAULT_255_2_778
10
21.7352058
20
101.0209833
40
0.5899904
50
73.8975776
51
88.5618771
0
ARC
8
DEFAULT_255_2_778
10
21.7094403
20
100.6276061
40
0.9840185
50
87.6369288
51
90.0358819
0
ARC
8
DEFAULT_255_2_778
10
21.710603
20
100.3657081
40
1.2459176
50
90.0818091
51
93.4094771
0
ARC
8
DEFAULT_255_2_778
10
21.72769
20
100.0546902
40
1.5574018
50
93.3565043
51
95.0769289
0
LINE
8
DEFAULT_255_2_778
10
21.5898705
20
101.605982
11
21.5898705
21
101.158882
0
ARC
8
DEFAULT_255_2_778
10
21.7419852
20
102.5814683
40
1.4306959
50
263.896652
51
267.0267187
0
ARC
8
DEFAULT_255_2_778
10
21.7246111
20
102.2549661
40
1.1037321
50
267.0482593
51
269.9420214
0
ARC
8
DEFAULT_255_2_778
10
21.7339084
20
101.7966132
40
0.6454626
50
269.0755259
51
283.1335916
0
ARC
8
DEFAULT_255_2_778
10
21.828914
20
101.4172726
40
0.2545356
50
281.7094987
51
315.6846217
0
ARC
8
DEFAULT_255_2_778
10
21.8550304
20
101.3731427
40
0.2054525
50
319.4046714
51
2.6054026
0
ARC
8
DEFAULT_255_2_778
10
21.6313498
20
99.8076549
40
0.9668104
50
90.027943
51
91.9903978
0
ARC
8
DEFAULT_255_2_778
10
21.6420957
20
100.2265777
40
0.5480023
50
75.619134
51
91.1729042
0
ARC
8
DEFAULT_255_2_778
10
21.7413447
20
100.5808999
40
0.180316
50
31.4505561
51
78.2057013
0
ARC
8
DEFAULT_255_2_778
10
22.0925451
20
100.7247522
40
0.2644913
50
25.899881
51
69.4309188
0
ARC
8
DEFAULT_255_2_778
10
22.0720046
20
101.4238574
40
0.4655154
50
284.1075396
51
317.2672916
0
ARC
8
DEFAULT_255_2_778
10
22.063833
20
101.4038172
40
0.4583671
50
319.8012499
51
354.0568136
0
ARC
8
DEFAULT_255_2_778
10
21.761784
20
101.4565728
40
0.764549
50
352.4680839
51
0.1929453
0
ARC
8
DEFAULT_255_2_778
10
21.6113258
20
101.4590675
40
0.9150028
50
0.005001
51
1.0654743
0
ARC
8
DEFAULT_255_2_778
10
21.9893326
20
101.4644774
40
0.5369633
50
1.2383407
51
28.3988214
0
ARC
8
DEFAULT_255_2_778
10
22.0655254
20
101.4858461
40
0.4601072
50
30.5711703
51
70.7550447
0
ARC
8
DEFAULT_255_2_778
10
21.9046676
20
101.0785133
40
0.89787
50
69.6313015
51
84.749485
0
ARC
8
DEFAULT_255_2_778
10
21.8344044
20
100.4822236
40
1.4981666
50
84.1604575
51
90.1776196
0
ARC
8
DEFAULT_255_2_778
10
21.8300977
20
100.0995911
40
1.8807921
50
90.0102894
51
91.3230684
0
LINE
8
DEFAULT_255_2_778
10
21.7866705
20
101.979882
11
21.1268705
21
101.979882
0
LINE
8
DEFAULT_255_2_778
10
22.0602705
20
101.382482
11
22.0602705
21
101.382482
0
LINE
8
DEFAULT_255_2_778
10
21.1265705
20
101.979582
11
21.1265705
21
99.981182
0
LINE
8
DEFAULT_255_2_778
10
21.1265705
20
99.981182
11
21.5977705
21
99.981182
0
LINE
8
DEFAULT_255_2_778
10
21.5977705
20
99.981182
11
21.5977705
21
100.773882
0
LINE
8
DEFAULT_255_2_778
10
21.8951705
20
100.674982
11
22.1200705
21
99.989682
0
LINE
8
DEFAULT_255_2_778
10
22.1200705
20
99.989682
11
22.6058705
21
99.981482
0
LINE
8
DEFAULT_255_2_778
10
22.6058705
20
99.981482
11
22.3304705
21
100.840282
0
LINE
8
DEFAULT_255_2_778
10
21.1268705
20
101.979882
11
21.1265705
21
101.979582
0
ARC
8
DEFAULT_255_2_778
10
23.6093453
20
101.39027
40
0.2015625
50
357.7856309
51
78.5582684
0
ARC
8
DEFAULT_255_2_778
10
23.4856926
20
101.0209833
40
0.5899904
50
73.8975776
51
88.5618771
0
ARC
8
DEFAULT_255_2_778
10
23.459927
20
100.6276061
40
0.9840185
50
87.6369288
51
90.0358819
0
ARC
8
DEFAULT_255_2_778
10
23.4610898
20
100.3657081
40
1.2459176
50
90.0818091
51
93.4094771
0
ARC
8
DEFAULT_255_2_778
10
23.4781768
20
100.0546902
40
1.5574018
50
93.3565043
51
95.0769289
0
LINE
8
DEFAULT_255_2_778
10
23.3403573
20
101.605982
11
23.3403573
21
101.158882
0
ARC
8
DEFAULT_255_2_778
10
23.492472
20
102.5814683
40
1.4306959
50
263.896652
51
267.0267187
0
ARC
8
DEFAULT_255_2_778
10
23.4750979
20
102.2549661
40
1.1037321
50
267.0482593
51
269.9420214
0
ARC
8
DEFAULT_255_2_778
10
23.4843952
20
101.7966132
40
0.6454626
50
269.0755259
51
283.1335916
0
ARC
8
DEFAULT_255_2_778
10
23.5794008
20
101.4172726
40
0.2545356
50
281.7094987
51
315.6846217
0
ARC
8
DEFAULT_255_2_778
10
23.6055171
20
101.3731427
40
0.2054525
50
319.4046714
51
2.6054026
0
ARC
8
DEFAULT_255_2_778
10
23.3818366
20
99.8076549
40
0.9668104
50
90.027943
51
91.9903978
0
ARC
8
DEFAULT_255_2_778
10
23.3925825
20
100.2265777
40
0.5480023
50
75.619134
51
91.1729042
0
ARC
8
DEFAULT_255_2_778
10
23.4918315
20
100.5808999
40
0.180316
50
31.4505561
51
78.2057013
0
ARC
8
DEFAULT_255_2_778
10
23.8430319
20
100.7247522
40
0.2644913
50
25.899881
51
69.4309188
0
ARC
8
DEFAULT_255_2_778
10
23.8224914
20
101.4238574
40
0.4655154
50
284.1075396
51
317.2672916
0
ARC
8
DEFAULT_255_2_778
10
23.8143198
20
101.4038172
40
0.4583671
50
319.8012499
51
354.0568136
0
ARC
8
DEFAULT_255_2_778
10
23.5122707
20
101.4565728
40
0.764549
50
352.4680839
51
0.1929453
0
ARC
8
DEFAULT_255_2_778
10
23.3618126
20
101.4590675
40
0.9150028
50
0.005001
51
1.0654743
0
ARC
8
DEFAULT_255_2_778
10
23.7398194
20
101.4644774
40
0.5369633
50
1.2383407
51
28.3988214
0
ARC
8
DEFAULT_255_2_778
10
23.8160122
20
101.4858461
40
0.4601072
50
30.5711703
51
70.7550447
0
ARC
8
DEFAULT_255_2_778
10
23.6551543
20
101.0785133
40
0.89787
50
69.6313015
51
84.749485
0
ARC
8
DEFAULT_255_2_778
10
23.5848911
20
100.4822236
40
1.4981666
50
84.1604575
51
90.1776196
0
ARC
8
DEFAULT_255_2_778
10
23.5805845
20
100.0995911
40
1.8807921
50
90.0102894
51
91.3230684
0
LINE
8
DEFAULT_255_2_778
10
23.5371573
20
101.979882
11
22.8773573
21
101.979882
0
LINE
8
DEFAULT_255_2_778
10
23.8107573
20
101.382482
11
23.8107573
21
101.382482
0
LINE
8
DEFAULT_255_2_778
10
22.8770573
20
101.979582
11
22.8770573
21
99.981182
0
LINE
8
DEFAULT_255_2_778
10
22.8770573
20
99.981182
11
23.3482573
21
99.981182
0
LINE
8
DEFAULT_255_2_778
10
23.3482573
20
99.981182
11
23.3482573
21
100.773882
0
LINE
8
DEFAULT_255_2_778
10
23.6456573
20
100.674982
11
23.8705573
21
99.989682
0
LINE
8
DEFAULT_255_2_778
10
23.8705573
20
99.989682
11
24.3563573
21
99.981482
0
LINE
8
DEFAULT_255_2_778
10
24.3563573
20
99.981482
11
24.0809573
21
100.840282
0
LINE
8
DEFAULT_255_2_778
10
22.8773573
20
101.979882
11
22.8770573
21
101.979582
0
ARC
8
DEFAULT_255_2_778
10
20.7960519
20
5.8613591
40
0.0095036
50
291.9164797
51
349.592985
0
ARC
8
DEFAULT_255_2_778
10
22.1567181
20
6.315164
40
0.9963226
50
269.9183951
51
311.6458612
0
ARC
8
DEFAULT_255_2_778
10
22.1577376
20
6.3178261
40
0.9976376
50
311.5005114
51
358.267068
0
ARC
8
DEFAULT_255_2_778
10
22.1366399
20
6.3189327
40
1.0187592
50
358.2407388
51
0.0005446
0
ARC
8
DEFAULT_255_2_778
10
22.155233
20
41.8789601
40
1.0001661
50
359.9989884
51
44.9966071
0
ARC
8
DEFAULT_255_2_778
10
22.1552063
20
41.8789512
40
1.0001912
50
44.9958871
51
89.9946851
0
LINE
8
DEFAULT_255_2_778
10
20.7534991
20
100.2960424
11
20.7534991
21
99.9812424
0
LINE
8
DEFAULT_255_2_778
10
20.7534991
20
99.9812424
11
19.5683991
21
99.9812424
0
LINE
8
DEFAULT_255_2_778
10
19.5683991
20
99.9812424
11
19.5683991
21
101.9801424
0
LINE
8
DEFAULT_255_2_778
10
19.5683991
20
101.9801424
11
20.7479991
21
101.9801424
0
LINE
8
DEFAULT_255_2_778
10
20.7479991
20
101.9801424
11
20.7479991
21
101.6652424
0
LINE
8
DEFAULT_255_2_778
10
20.7479991
20
101.6652424
11
19.9689991
21
101.6652424
0
LINE
8
DEFAULT_255_2_778
10
19.9689991
20
101.6652424
11
19.9689991
21
101.1726424
0
LINE
8
DEFAULT_255_2_778
10
19.9689991
20
101.1726424
11
20.6820991
21
101.1726424
0
LINE
8
DEFAULT_255_2_778
10
20.6820991
20
101.1726424
11
20.6820991
21
100.8577424
0
LINE
8
DEFAULT_255_2_778
10
20.6820991
20
100.8577424
11
19.9689991
21
100.8577424
0
LINE
8
DEFAULT_255_2_778
10
19.9689991
20
100.8577424
11
19.9689991
21
100.2963424
0
LINE
8
DEFAULT_255_2_778
10
19.9689991
20
100.2963424
11
20.7534991
21
100.2963424
0
LINE
8
DEFAULT_255_2_778
10
22.0052991
20
6.3187424
11
22.0052991
21
5.5186424
0
LINE
8
DEFAULT_255_2_778
10
22.0052991
20
5.5186424
11
22.1552991
21
5.5186424
0
LINE
8
DEFAULT_255_2_778
10
20.8053991
20
5.5196424
11
20.8039991
21
5.5244424
0
LINE
8
DEFAULT_255_2_778
10
20.8039991
20
5.5244424
11
20.7997991
21
5.5292424
0
LINE
8
DEFAULT_255_2_778
10
20.7997991
20
5.5292424
11
20.7926991
21
5.5337424
0
LINE
8
DEFAULT_255_2_778
10
20.7926991
20
5.5337424
11
20.7828991
21
5.5382424
0
LINE
8
DEFAULT_255_2_778
10
20.7828991
20
5.5382424
11
20.7703991
21
5.5424424
0
LINE
8
DEFAULT_255_2_778
10
20.7703991
20
5.5424424
11
20.7553991
21
5.5464424
0
LINE
8
DEFAULT_255_2_778
10
20.7553991
20
5.5464424
11
20.7378991
21
5.5501424
0
LINE
8
DEFAULT_255_2_778
10
20.7378991
20
5.5501424
11
20.7182991
21
5.5535424
0
LINE
8
DEFAULT_255_2_778
10
20.7182991
20
5.5535424
11
20.6727991
21
5.5593424
0
LINE
8
DEFAULT_255_2_778
10
20.6727991
20
5.5593424
11
20.6209991
21
5.5638424
0
LINE
8
DEFAULT_255_2_778
10
20.6209991
20
5.5638424
11
20.5642991
21
5.5665424
0
LINE
8
DEFAULT_255_2_778
10
20.5642991
20
5.5665424
11
20.5052991
21
5.5673424
0
LINE
8
DEFAULT_255_2_778
10
20.5052991
20
5.5673424
11
12.8966991
21
5.5673424
0
LINE
8
DEFAULT_255_2_778
10
20.7995991
20
5.8525424
11
20.7923991
21
5.8490424
0
LINE
8
DEFAULT_255_2_778
10
20.7923991
20
5.8490424
11
20.7825991
21
5.8456424
0
LINE
8
DEFAULT_255_2_778
10
20.7825991
20
5.8456424
11
20.7701991
21
5.8424424
0
LINE
8
DEFAULT_255_2_778
10
20.7701991
20
5.8424424
11
20.7550991
21
5.8393424
0
LINE
8
DEFAULT_255_2_778
10
20.7550991
20
5.8393424
11
20.7375991
21
5.8363424
0
LINE
8
DEFAULT_255_2_778
10
20.7375991
20
5.8363424
11
20.7177991
21
5.8337424
0
LINE
8
DEFAULT_255_2_778
10
20.7177991
20
5.8337424
11
20.6722991
21
5.8289424
0
LINE
8
DEFAULT_255_2_778
10
20.6722991
20
5.8289424
11
20.6203991
21
5.8255424
0
LINE
8
DEFAULT_255_2_778
10
20.6203991
20
5.8255424
11
20.5052991
21
5.8226424
0
LINE
8
DEFAULT_255_2_778
10
20.5052991
20
5.8226424
11
12.6884991
21
5.8226424
0
LINE
8
DEFAULT_255_2_778
10
20.8053991
20
6.0795424
11
20.8039991
21
6.0821424
0
LINE
8
DEFAULT_255_2_778
10
20.8039991
20
6.0821424
11
20.8021991
21
6.0835424
0
LINE
8
DEFAULT_255_2_778
10
20.8021991
20
6.0835424
11
20.7997991
21
6.0848424
0
LINE
8
DEFAULT_255_2_778
10
20.7997991
20
6.0848424
11
20.7926991
21
6.0872424
0
LINE
8
DEFAULT_255_2_778
10
20.7926991
20
6.0872424
11
20.7828991
21
6.0895424
0
LINE
8
DEFAULT_255_2_778
10
20.7828991
20
6.0895424
11
20.7703991
21
6.0919424
0
LINE
8
DEFAULT_255_2_778
10
20.7703991
20
6.0919424
11
20.7553991
21
6.0940424
0
LINE
8
DEFAULT_255_2_778
10
20.7553991
20
6.0940424
11
20.7180991
21
6.0980424
0
LINE
8
DEFAULT_255_2_778
10
20.7180991
20
6.0980424
11
20.6725991
21
6.1012424
0
LINE
8
DEFAULT_255_2_778
10
20.6725991
20
6.1012424
11
20.6206991
21
6.1036424
0
LINE
8
DEFAULT_255_2_778
10
20.6206991
20
6.1036424
11
20.5642991
21
6.1049424
0
LINE
8
DEFAULT_255_2_778
10
20.5642991
20
6.1049424
11
20.5055991
21
6.1054424
0
LINE
8
DEFAULT_255_2_778
10
20.5055991
20
6.1054424
11
12.5794991
21
6.1054424
0
LINE
8
DEFAULT_255_2_778
10
20.8053991
20
6.2438424
11
20.8039991
21
6.2425424
0
LINE
8
DEFAULT_255_2_778
10
20.8039991
20
6.2425424
11
20.7997991
21
6.2412424
0
LINE
8
DEFAULT_255_2_778
10
20.7997991
20
6.2412424
11
20.7926991
21
6.2398424
0
LINE
8
DEFAULT_255_2_778
10
20.7926991
20
6.2398424
11
20.7828991
21
6.2385424
0
LINE
8
DEFAULT_255_2_778
10
20.7828991
20
6.2385424
11
20.7701991
21
6.2372424
0
LINE
8
DEFAULT_255_2_778
10
20.7701991
20
6.2372424
11
20.7550991
21
6.2359424
0
LINE
8
DEFAULT_255_2_778
10
20.7550991
20
6.2359424
11
20.7375991
21
6.2345424
0
LINE
8
DEFAULT_255_2_778
10
20.7375991
20
6.2345424
11
20.7177991
21
6.2335424
0
LINE
8
DEFAULT_255_2_778
10
20.7177991
20
6.2335424
11
20.6722991
21
6.2316424
0
LINE
8
DEFAULT_255_2_778
10
20.6722991
20
6.2316424
11
20.6203991
21
6.2300424
0
LINE
8
DEFAULT_255_2_778
10
20.6203991
20
6.2300424
11
20.5640991
21
6.2292424
0
LINE
8
DEFAULT_255_2_778
10
20.5640991
20
6.2292424
11
20.5055991
21
6.2290424
0
LINE
8
DEFAULT_255_2_778
10
20.5055991
20
6.2290424
11
12.5595991
21
6.2290424
0
LINE
8
DEFAULT_255_2_778
10
20.8053991
20
6.3113424
11
20.8050991
21
6.3115424
0
LINE
8
DEFAULT_255_2_778
10
20.8050991
20
6.3115424
11
20.8039991
21
6.3118424
0
LINE
8
DEFAULT_255_2_778
10
20.8039991
20
6.3118424
11
20.8021991
21
6.3121424
0
LINE
8
DEFAULT_255_2_778
10
20.8021991
20
6.3121424
11
20.7995991
21
6.3123424
0
LINE
8
DEFAULT_255_2_778
10
20.7995991
20
6.3123424
11
20.7963991
21
6.3123424
0
LINE
8
DEFAULT_255_2_778
10
20.7963991
20
6.3123424
11
20.7923991
21
6.3126424
0
LINE
8
DEFAULT_255_2_778
10
20.7923991
20
6.3126424
11
20.7825991
21
6.3129424
0
LINE
8
DEFAULT_255_2_778
10
20.7825991
20
6.3129424
11
20.7698991
21
6.3131424
0
LINE
8
DEFAULT_255_2_778
10
20.7698991
20
6.3131424
11
20.7547991
21
6.3134424
0
LINE
8
DEFAULT_255_2_778
10
20.7547991
20
6.3134424
11
20.7373991
21
6.3136424
0
LINE
8
DEFAULT_255_2_778
10
20.7373991
20
6.3136424
11
20.7174991
21
6.3139424
0
LINE
8
DEFAULT_255_2_778
10
20.7174991
20
6.3139424
11
20.6957991
21
6.3142424
0
LINE
8
DEFAULT_255_2_778
10
20.6957991
20
6.3142424
11
20.6722991
21
6.3144424
0
LINE
8
DEFAULT_255_2_778
10
20.6722991
20
6.3144424
11
20.6203991
21
6.3147424
0
LINE
8
DEFAULT_255_2_778
10
20.6203991
20
6.3147424
11
20.5640991
21
6.3150424
0
LINE
8
DEFAULT_255_2_778
10
20.5640991
20
6.3150424
11
20.5055991
21
6.3150424
0
LINE
8
DEFAULT_255_2_778
10
20.5055991
20
6.3150424
11
12.5556991
21
6.3150424
0
LINE
8
DEFAULT_255_2_778
10
23.1553991
20
6.3189424
11
23.1553991
21
41.8789424
0
LINE
8
DEFAULT_255_2_778
10
21.8051991
20
5.3188424
11
22.0052991
21
5.5188424
0
LINE
8
DEFAULT_255_2_778
10
13.5554991
20
10.3189424
11
12.5553991
21
10.3189424
0
LINE
8
DEFAULT_255_2_778
10
12.5553991
20
10.2189424
11
13.5554991
21
10.2189424
0
LINE
8
DEFAULT_255_2_778
10
13.5554991
20
9.7188424
11
12.5553991
21
9.7188424
0
LINE
8
DEFAULT_255_2_778
10
13.5554991
20
8.8187424
11
12.5553991
21
8.8187424
0
LINE
8
DEFAULT_255_2_778
10
23.155444
20
41.3188704
11
22.155344
21
41.3188704
0
LINE
8
DEFAULT_255_2_778
10
23.155444
20
37.3188704
11
22.155344
21
37.3188704
0
LINE
8
DEFAULT_255_2_778
10
23.155444
20
35.3188704
11
22.155344
21
35.3188704
0
LINE
8
DEFAULT_255_2_778
10
22.015344
20
11.3987704
11
22.015344
21
36.7987704
0
LINE
8
DEFAULT_255_2_778
10
22.015344
20
36.7987704
11
7.015344
21
36.7987704
0
LINE
8
DEFAULT_255_2_778
10
7.015344
20
36.7987704
11
7.015344
21
11.3987704
0
LINE
8
DEFAULT_255_2_778
10
7.015344
20
11.3987704
11
22.015344
21
11.3987704
0
ARC
8
DEFAULT_255_2_778
10
13.5517474
20
6.3173641
40
0.9963191
50
179.916016
51
221.6459452
0
ARC
8
DEFAULT_255_2_778
10
13.5543749
20
6.3163832
40
0.9976339
50
221.5035703
51
268.2692494
0
ARC
8
DEFAULT_255_2_778
10
13.5555196
20
6.3374836
40
1.0187593
50
268.2407389
51
270.0005447
0
ARC
8
DEFAULT_255_2_778
10
13.5556563
20
41.8784094
40
1.000515
50
90.0072708
51
134.9883353
0
ARC
8
DEFAULT_255_2_778
10
13.5559443
20
41.8786975
40
1.0005151
50
135.0116647
51
179.9927292
0
LINE
8
DEFAULT_255_2_778
10
13.5555293
20
5.3187245
11
22.1555293
21
5.3187245
0
LINE
8
DEFAULT_255_2_778
10
22.1555293
20
5.3187245
11
22.1555293
21
42.8789245
0
LINE
8
DEFAULT_255_2_778
10
22.1555293
20
42.8789245
11
13.5555293
21
42.8789245
0
LINE
8
DEFAULT_255_2_778
10
12.5554293
20
41.8788245
11
12.5554293
21
36.7988245
0
ARC
8
DEFAULT_255_2_778
10
20.1717928
20
7.3150805
40
0.9963191
50
269.916016
51
311.6459452
0
ARC
8
DEFAULT_255_2_778
10
20.1727737
20
7.317708
40
0.9976339
50
311.5035703
51
358.2692494
0
ARC
8
DEFAULT_255_2_778
10
20.1516733
20
7.3188527
40
1.0187593
50
358.2407389
51
0.0005447
0
ARC
8
DEFAULT_255_2_778
10
16.3665131
20
7.3174389
40
0.9962817
50
179.9181321
51
221.647603
0
ARC
8
DEFAULT_255_2_778
10
16.3692781
20
7.3165431
40
0.9977557
50
221.5036522
51
268.2691355
0
ARC
8
DEFAULT_255_2_778
10
16.3704227
20
7.3378862
40
1.0191238
50
268.2410549
51
270.0005447
0
LINE
8
DEFAULT_255_2_778
10
21.5051324
20
5.3186624
11
21.5051324
21
6.3187624
0
LINE
8
DEFAULT_255_2_778
10
20.8053324
20
5.3186624
11
20.8053324
21
6.3187624
0
LINE
8
DEFAULT_255_2_778
10
21.1704324
20
7.3188624
11
21.1704324
21
11.3987624
0
LINE
8
DEFAULT_255_2_778
10
15.3702324
20
11.3987624
11
15.3702324
21
7.3188624
0
LINE
8
DEFAULT_255_2_778
10
14.0553324
20
11.3987624
11
14.0553324
21
6.3187624
0
LINE
8
DEFAULT_255_2_778
10
13.5552324
20
11.3987624
11
13.5552324
21
6.3187624
0
ARC
8
DEFAULT_255_2_778
10
20.1699457
20
40.8785723
40
1.0005159
50
0.0072863
51
44.9883116
0
ARC
8
DEFAULT_255_2_778
10
20.1702342
20
40.8782838
40
1.0005159
50
45.0116733
51
89.9927046
0
LINE
8
DEFAULT_255_2_778
10
12.5553616
20
11.3987995
11
12.5553616
21
6.3187995
0
LINE
8
DEFAULT_255_2_778
10
12.5553616
20
6.3187995
11
22.1552616
21
6.3187995
0
LINE
8
DEFAULT_255_2_778
10
21.1704616
20
36.7987995
11
21.1704616
21
40.8786995
0
ARC
8
DEFAULT_255_2_778
10
16.3704748
20
40.8786219
40
1.0001672
50
89.9990294
51
134.9965927
0
ARC
8
DEFAULT_255_2_778
10
16.370483
20
40.8785963
40
1.0001912
50
134.9958871
51
179.9946851
0
ARC
8
DEFAULT_255_2_778
10
18.2842314
20
8.8589595
40
1.4490646
50
164.9924656
51
180.0013015
0
ARC
8
DEFAULT_255_2_778
10
18.1499774
20
8.8589266
40
1.3148107
50
180
51
180.0632055
0
ARC
8
DEFAULT_255_2_778
10
18.2850929
20
8.8589318
40
1.4499261
50
180.0575193
51
195.0030352
0
ARC
8
DEFAULT_255_2_778
10
18.2858721
20
8.8589089
40
1.4498088
50
284.9828818
51
314.9860252
0
ARC
8
DEFAULT_255_2_778
10
18.2861137
20
8.8596606
40
1.4490786
50
44.9986137
51
75.0192796
0
ARC
8
DEFAULT_255_2_778
10
18.2868932
20
8.8622195
40
1.9516044
50
156.1319169
51
180.100711
0
ARC
8
DEFAULT_255_2_778
10
18.2807759
20
8.8629223
40
1.9457268
50
100.1292829
51
156.0779549
0
ARC
8
DEFAULT_255_2_778
10
18.2843116
20
8.8319486
40
1.9768408
50
89.971592
51
100.0722797
0
ARC
8
DEFAULT_255_2_778
10
18.2887134
20
8.8574285
40
1.9513636
50
66.1304232
51
90.1004646
0
ARC
8
DEFAULT_255_2_778
10
18.2892987
20
8.8633061
40
1.9457527
50
10.1291117
51
66.0761498
0
ARC
8
DEFAULT_255_2_778
10
18.2583257
20
8.8597681
40
1.9768664
50
359.9716251
51
10.0721813
0
ARC
8
DEFAULT_255_2_778
10
18.2835608
20
8.8553609
40
1.951634
50
336.1322313
51
0.1006456
0
ARC
8
DEFAULT_255_2_778
10
18.2897242
20
8.854616
40
1.9456972
50
280.1310565
51
336.0788527
0
ARC
8
DEFAULT_255_2_778
10
18.2862703
20
8.885315
40
1.9765262
50
269.9716352
51
280.0730825
0
ARC
8
DEFAULT_255_2_778
10
18.2818614
20
8.8603905
40
1.9516044
50
246.1319169
51
270.100711
0
ARC
8
DEFAULT_255_2_778
10
18.2811585
20
8.8542732
40
1.9457268
50
190.1292829
51
246.0779549
0
ARC
8
DEFAULT_255_2_778
10
18.3121323
20
8.857809
40
1.9768408
50
179.971592
51
190.0722797
0
ARC
8
DEFAULT_255_2_778
10
18.2802852
20
8.8546351
40
1.8940708
50
194.9224853
51
217.1901411
0
ARC
8
DEFAULT_255_2_778
10
18.2872814
20
8.8627603
40
1.9045568
50
217.2576464
51
269.9072472
0
ARC
8
DEFAULT_255_2_778
10
18.2840074
20
8.8506971
40
1.8924911
50
270.0057782
51
278.6797166
0
ARC
8
DEFAULT_255_2_778
10
18.2812732
20
8.8701318
40
1.9121159
50
278.6728237
51
281.7076902
0
ARC
8
DEFAULT_255_2_778
10
18.27758
20
8.8878026
40
1.9301684
50
281.7085997
51
284.9983866
0
ARC
8
DEFAULT_255_2_778
10
18.2853166
20
8.8588248
40
1.8999134
50
74.998708
51
87.6476351
0
ARC
8
DEFAULT_255_2_778
10
18.2853319
20
8.859026
40
1.8997118
50
87.6478462
51
90.0002833
0
ARC
8
DEFAULT_255_2_778
10
18.2851902
20
8.8590966
40
1.8996412
50
89.9960085
51
120.0027109
0
ARC
8
DEFAULT_255_2_778
10
18.2851628
20
8.8589797
40
1.8997287
50
120.000233
51
165.0086344
0
ARC
8
DEFAULT_255_2_778
10
18.2861965
20
8.8601072
40
1.9003597
50
314.9504803
51
331.185101
0
ARC
8
DEFAULT_255_2_778
10
18.2863167
20
8.8572958
40
1.8989007
50
331.257677
51
0.0416629
0
LINE
8
DEFAULT_255_2_778
10
20.1852168
20
8.8586766
11
20.1852167
21
8.8591513
0
ARC
8
DEFAULT_255_2_778
10
18.286001
20
8.8600539
40
1.8992159
50
359.9727719
51
29.0987744
0
ARC
8
DEFAULT_255_2_778
10
18.2847605
20
8.8566438
40
1.9019596
50
29.1703622
51
45.0365115
0
LINE
8
DEFAULT_255_2_778
10
15.3702918
20
40.8786891
11
15.3702918
21
36.7987891
0
LINE
8
DEFAULT_255_2_778
10
14.0553918
20
41.8787891
11
14.0553918
21
36.7987891
0
LINE
8
DEFAULT_255_2_778
10
13.5552918
20
36.7987891
11
13.5552918
21
41.8787891
0
LINE
8
DEFAULT_255_2_778
10
13.5552918
20
41.8787891
11
22.1552918
21
41.8787891
0
LINE
8
DEFAULT_255_2_778
10
16.4016918
20
9.3635891
11
16.8845918
21
9.2341891
0
LINE
8
DEFAULT_255_2_778
10
16.8845918
20
8.4835891
11
16.4016918
21
8.3541891
0
LINE
8
DEFAULT_255_2_778
10
16.7172918
20
9.9319891
11
19.0315918
21
7.6175891
0
LINE
8
DEFAULT_255_2_778
10
19.8533918
20
7.7858891
11
17.2123918
21
10.4269891
0
LINE
8
DEFAULT_255_2_778
10
18.7900918
20
6.9754891
11
18.6606918
21
7.4583891
0
LINE
8
DEFAULT_255_2_778
10
19.3107918
20
7.8334891
11
19.6642918
21
7.4800891
0
LINE
8
DEFAULT_255_2_778
10
19.6642918
20
10.2377891
11
19.3107918
21
9.8842891
0
LINE
8
DEFAULT_255_2_778
10
18.6606918
20
10.2594891
11
18.7900918
21
10.7423891
0
LINE
8
DEFAULT_255_2_778
10
16.3352918
20
8.8587891
11
16.3352918
21
8.8587891
0
ARC
8
DEFAULT_255_2_778
10
18.2856698
20
39.3390138
40
1.8997387
50
314.9923477
51
0.0000753
0
ARC
8
DEFAULT_255_2_778
10
18.2856115
20
39.3390946
40
1.8997969
50
359.9976368
51
45.006925
0
ARC
8
DEFAULT_255_2_778
10
18.2850198
20
39.3391719
40
1.4499364
50
164.9970045
51
180.0002225
0
ARC
8
DEFAULT_255_2_778
10
18.2850198
20
39.3391606
40
1.4499364
50
179.9997775
51
195.0029955
0
ARC
8
DEFAULT_255_2_778
10
18.2860293
20
39.3384468
40
1.4490808
50
284.980737
51
315.0013568
0
ARC
8
DEFAULT_255_2_778
10
18.2860307
20
39.3398882
40
1.449078
50
44.9986104
51
75.0192892
0
ARC
8
DEFAULT_255_2_778
10
18.2868098
20
39.3424467
40
1.9516044
50
156.1319169
51
180.100711
0
ARC
8
DEFAULT_255_2_778
10
18.2806926
20
39.3431495
40
1.9457268
50
100.1292829
51
156.0779549
0
ARC
8
DEFAULT_255_2_778
10
18.2842283
20
39.3121758
40
1.9768408
50
89.971592
51
100.0722797
0
ARC
8
DEFAULT_255_2_778
10
18.2886388
20
39.3374149
40
1.9516044
50
66.1319169
51
90.100711
0
ARC
8
DEFAULT_255_2_778
10
18.2893417
20
39.3435321
40
1.9457268
50
10.1292829
51
66.0779549
0
ARC
8
DEFAULT_255_2_778
10
18.2583679
20
39.3399964
40
1.9768408
50
359.971592
51
10.0722797
0
ARC
8
DEFAULT_255_2_778
10
18.283607
20
39.3355859
40
1.9516044
50
336.1319169
51
0.100711
0
ARC
8
DEFAULT_255_2_778
10
18.2897243
20
39.334883
40
1.9457268
50
280.1292829
51
336.0779549
0
ARC
8
DEFAULT_255_2_778
10
18.2861886
20
39.3658568
40
1.9768408
50
269.971592
51
280.0722797
0
ARC
8
DEFAULT_255_2_778
10
18.281778
20
39.3406177
40
1.9516044
50
246.1319169
51
270.100711
0
ARC
8
DEFAULT_255_2_778
10
18.2810752
20
39.3345004
40
1.9457268
50
190.1292829
51
246.0779549
0
ARC
8
DEFAULT_255_2_778
10
18.3120489
20
39.3380361
40
1.9768408
50
179.971592
51
190.0722797
0
ARC
8
DEFAULT_255_2_778
10
18.2802366
20
39.3347058
40
1.8939417
50
194.9154964
51
217.1855514
0
ARC
8
DEFAULT_255_2_778
10
18.2872111
20
39.3428575
40
1.9044263
50
217.2541152
51
269.9087823
0
ARC
8
DEFAULT_255_2_778
10
18.2839856
20
39.3312274
40
1.8927938
50
270.0058599
51
278.6876071
0
ARC
8
DEFAULT_255_2_778
10
18.2811972
20
39.3509465
40
1.9127078
50
278.6809517
51
281.7181932
0
ARC
8
DEFAULT_255_2_778
10
18.2775471
20
39.3683916
40
1.9305307
50
281.7191137
51
284.9970274
0
ARC
8
DEFAULT_255_2_778
10
18.2852666
20
39.3398456
40
1.8991641
50
74.9905664
51
87.6182726
0
ARC
8
DEFAULT_255_2_778
10
18.2852666
20
39.3393597
40
1.8996496
50
87.6188842
51
89.9999541
0
ARC
8
DEFAULT_255_2_778
10
18.2852027
20
39.3392971
40
1.8997122
50
89.9980259
51
120.0048142
0
ARC
8
DEFAULT_255_2_778
10
18.2847559
20
39.3396142
40
1.8992141
50
119.9979249
51
165.0172009
0
LINE
8
DEFAULT_255_2_778
10
16.4016084
20
39.8438163
11
16.8845084
21
39.7145163
0
LINE
8
DEFAULT_255_2_778
10
16.8845084
20
38.9638163
11
16.4016084
21
38.8345163
0
LINE
8
DEFAULT_255_2_778
10
16.7173084
20
40.4122163
11
19.0316084
21
38.0979163
0
LINE
8
DEFAULT_255_2_778
10
19.8534084
20
38.2661163
11
17.2123084
21
40.9072163
0
LINE
8
DEFAULT_255_2_778
10
18.7900084
20
37.4557163
11
18.6606084
21
37.9386163
0
LINE
8
DEFAULT_255_2_778
10
19.3107084
20
38.3138163
11
19.6642084
21
37.9603163
0
LINE
8
DEFAULT_255_2_778
10
19.6642084
20
40.7180163
11
19.3107084
21
40.3645163
0
LINE
8
DEFAULT_255_2_778
10
18.6606084
20
40.7397163
11
18.7900084
21
41.2226163
0
LINE
8
DEFAULT_255_2_778
10
16.3352084
20
39.3390163
11
16.3352084
21
39.3390163
0
LINE
8
DEFAULT_255_2_778
10
19.1152084
20
20.6295163
11
19.5367084
21
20.8939163
0
LINE
8
DEFAULT_255_2_778
10
19.1152084
20
15.5495163
11
19.5367084
21
15.8139163
0
LINE
8
DEFAULT_255_2_778
10
19.1152084
20
30.7895163
11
19.5367084
21
31.0539163
0
LINE
8
DEFAULT_255_2_778
10
19.1152084
20
25.7095163
11
19.5367084
21
25.9739163
0
LINE
8
DEFAULT_255_2_778
10
19.9986084
20
26.0863163
11
19.9986084
21
22.1115163
0
LINE
8
DEFAULT_255_2_778
10
19.9986084
20
17.0315163
11
19.9986084
21
21.0063163
0
LINE
8
DEFAULT_255_2_778
10
13.2653084
20
35.7920163
11
15.9153084
21
35.6838163
0
LINE
8
DEFAULT_255_2_778
10
15.9153084
20
35.6838163
11
19.1152084
21
35.6838163
0
LINE
8
DEFAULT_255_2_778
10
19.1152084
20
35.6838163
11
19.9986084
21
35.8177163
0
LINE
8
DEFAULT_255_2_778
10
19.9986084
20
35.8177163
11
13.2653084
21
35.8177163
0
LINE
8
DEFAULT_255_2_778
10
13.2653084
20
35.8177163
11
13.2653084
21
32.2715163
0
LINE
8
DEFAULT_255_2_778
10
13.2653084
20
32.2715163
11
19.9986084
21
32.2715163
0
LINE
8
DEFAULT_255_2_778
10
19.9986084
20
32.2715163
11
19.5367084
21
32.3839163
0
LINE
8
DEFAULT_255_2_778
10
19.5367084
20
32.3839163
11
14.3498084
21
32.3839163
0
LINE
8
DEFAULT_255_2_778
10
13.2653084
20
31.1250163
11
14.3498084
21
31.0539163
0
LINE
8
DEFAULT_255_2_778
10
14.3498084
20
31.0539163
11
19.5367084
21
31.0539163
0
LINE
8
DEFAULT_255_2_778
10
19.5367084
20
31.0539163
11
19.9986084
21
31.1663163
0
LINE
8
DEFAULT_255_2_778
10
19.9986084
20
31.1663163
11
13.2653084
21
31.1663163
0
LINE
8
DEFAULT_255_2_778
10
13.2653084
20
31.1663163
11
13.2653084
21
27.1915163
0
LINE
8
DEFAULT_255_2_778
10
13.2653084
20
27.1915163
11
19.9986084
21
27.1915163
0
LINE
8
DEFAULT_255_2_778
10
19.9986084
20
27.1915163
11
19.5367084
21
27.3039163
0
LINE
8
DEFAULT_255_2_778
10
19.5367084
20
27.3039163
11
14.3498084
21
27.3039163
0
LINE
8
DEFAULT_255_2_778
10
14.3498084
20
31.0539163
11
15.9153084
21
30.7895163
0
LINE
8
DEFAULT_255_2_778
10
15.9153084
20
30.7895163
11
19.1152084
21
30.7895163
0
LINE
8
DEFAULT_255_2_778
10
19.1152084
20
30.7895163
11
19.1152084
21
27.5682163
0
LINE
8
DEFAULT_255_2_778
10
15.9153084
20
27.5682163
11
15.9153084
21
30.7895163
0
LINE
8
DEFAULT_255_2_778
10
19.9986084
20
35.8177163
11
19.9986084
21
32.2715163
0
LINE
8
DEFAULT_255_2_778
10
19.9986084
20
31.1663163
11
19.9986084
21
27.1915163
0
LINE
8
DEFAULT_255_2_778
10
15.9153084
20
32.6482163
11
15.9153084
21
35.6838163
0
LINE
8
DEFAULT_255_2_778
10
19.1152084
20
32.6482163
11
19.1152084
21
35.6838163
0
LINE
8
DEFAULT_255_2_778
10
13.2653084
20
26.0448163
11
14.3498084
21
25.9736163
0
LINE
8
DEFAULT_255_2_778
10
14.3498084
20
25.9736163
11
19.5367084
21
25.9736163
0
LINE
8
DEFAULT_255_2_778
10
19.5367084
20
25.9736163
11
19.9986084
21
26.0860163
0
LINE
8
DEFAULT_255_2_778
10
19.9986084
20
26.0860163
11
13.2653084
21
26.0860163
0
LINE
8
DEFAULT_255_2_778
10
13.2653084
20
26.0860163
11
13.2653084
21
22.1112163
0
LINE
8
DEFAULT_255_2_778
10
13.2653084
20
22.1112163
11
19.9986084
21
22.1112163
0
LINE
8
DEFAULT_255_2_778
10
19.9986084
20
22.1112163
11
19.5367084
21
22.2237163
0
LINE
8
DEFAULT_255_2_778
10
19.5367084
20
22.2237163
11
14.3498084
21
22.2237163
0
LINE
8
DEFAULT_255_2_778
10
14.3498084
20
25.9736163
11
15.9153084
21
25.7093163
0
LINE
8
DEFAULT_255_2_778
10
15.9153084
20
25.7093163
11
19.1152084
21
25.7093163
0
LINE
8
DEFAULT_255_2_778
10
19.1152084
20
25.7093163
11
19.1152084
21
22.4880163
0
LINE
8
DEFAULT_255_2_778
10
15.9151084
20
22.4880163
11
15.9151084
21
25.7093163
0
LINE
8
DEFAULT_255_2_778
10
13.2650084
20
15.8848163
11
14.3495084
21
15.8136163
0
LINE
8
DEFAULT_255_2_778
10
14.3495084
20
15.8136163
11
19.5364084
21
15.8136163
0
LINE
8
DEFAULT_255_2_778
10
19.5364084
20
15.8136163
11
19.9984084
21
15.9260163
0
LINE
8
DEFAULT_255_2_778
10
19.9984084
20
15.9260163
11
13.2653084
21
15.9260163
0
LINE
8
DEFAULT_255_2_778
10
13.2653084
20
15.9260163
11
13.2653084
21
12.3798163
0
LINE
8
DEFAULT_255_2_778
10
13.2653084
20
12.3798163
11
19.9986084
21
12.3798163
0
LINE
8
DEFAULT_255_2_778
10
19.9986084
20
12.3798163
11
19.1152084
21
12.5137163
0
LINE
8
DEFAULT_255_2_778
10
19.1152084
20
12.5137163
11
15.9153084
21
12.5137163
0
LINE
8
DEFAULT_255_2_778
10
15.9153084
20
12.5137163
11
13.2653084
21
12.4055163
0
LINE
8
DEFAULT_255_2_778
10
13.2653084
20
20.9648163
11
14.3498084
21
20.8936163
0
LINE
8
DEFAULT_255_2_778
10
14.3498084
20
20.8936163
11
19.5367084
21
20.8936163
0
LINE
8
DEFAULT_255_2_778
10
19.5367084
20
20.8936163
11
19.9986084
21
21.0060163
0
LINE
8
DEFAULT_255_2_778
10
19.9986084
20
21.0060163
11
13.2653084
21
21.0060163
0
LINE
8
DEFAULT_255_2_778
10
13.2653084
20
21.0060163
11
13.2653084
21
17.0312163
0
LINE
8
DEFAULT_255_2_778
10
13.2653084
20
17.0312163
11
19.9986084
21
17.0312163
0
LINE
8
DEFAULT_255_2_778
10
19.9986084
20
17.0312163
11
19.5367084
21
17.1437163
0
LINE
8
DEFAULT_255_2_778
10
19.5367084
20
17.1437163
11
14.3498084
21
17.1437163
0
LINE
8
DEFAULT_255_2_778
10
14.3498084
20
20.8936163
11
15.9153084
21
20.6293163
0
LINE
8
DEFAULT_255_2_778
10
15.9153084
20
20.6293163
11
19.1152084
21
20.6293163
0
LINE
8
DEFAULT_255_2_778
10
19.1152084
20
20.6293163
11
19.1152084
21
17.4080163
0
LINE
8
DEFAULT_255_2_778
10
15.9153084
20
17.4080163
11
15.9153084
21
20.6293163
0
LINE
8
DEFAULT_255_2_778
10
13.2653084
20
27.2325163
11
14.3498084
21
27.3037163
0
LINE
8
DEFAULT_255_2_778
10
14.3498084
20
27.3037163
11
15.9153084
21
27.5680163
0
LINE
8
DEFAULT_255_2_778
10
15.9153084
20
27.5680163
11
19.1152084
21
27.5680163
0
LINE
8
DEFAULT_255_2_778
10
19.1152084
20
27.5680163
11
19.5367084
21
27.3037163
0
LINE
8
DEFAULT_255_2_778
10
15.9153084
20
25.5235163
11
19.1152084
21
25.5235163
0
LINE
8
DEFAULT_255_2_778
10
19.1152084
20
27.7534163
11
15.9153084
21
27.7534163
0
LINE
8
DEFAULT_255_2_778
10
13.2653084
20
32.3125163
11
14.3498084
21
32.3837163
0
LINE
8
DEFAULT_255_2_778
10
14.3498084
20
32.3837163
11
15.9153084
21
32.6480163
0
LINE
8
DEFAULT_255_2_778
10
15.9153084
20
32.6480163
11
19.1152084
21
32.6480163
0
LINE
8
DEFAULT_255_2_778
10
19.1152084
20
32.6480163
11
19.5367084
21
32.3837163
0
LINE
8
DEFAULT_255_2_778
10
15.9153084
20
30.6035163
11
19.1152084
21
30.6035163
0
LINE
8
DEFAULT_255_2_778
10
19.1152084
20
32.8334163
11
15.9153084
21
32.8334163
0
LINE
8
DEFAULT_255_2_778
10
13.2653084
20
17.0725163
11
14.3498084
21
17.1437163
0
LINE
8
DEFAULT_255_2_778
10
14.3498084
20
17.1437163
11
15.9153084
21
17.4080163
0
LINE
8
DEFAULT_255_2_778
10
15.9153084
20
17.4080163
11
19.1152084
21
17.4080163
0
LINE
8
DEFAULT_255_2_778
10
19.1152084
20
17.4080163
11
19.5367084
21
17.1437163
0
LINE
8
DEFAULT_255_2_778
10
15.9153084
20
15.3635163
11
19.1152084
21
15.3635163
0
LINE
8
DEFAULT_255_2_778
10
19.1152084
20
17.5934163
11
15.9153084
21
17.5934163
0
LINE
8
DEFAULT_255_2_778
10
13.2653084
20
22.1525163
11
14.3498084
21
22.2237163
0
LINE
8
DEFAULT_255_2_778
10
14.3498084
20
22.2237163
11
15.9153084
21
22.4880163
0
LINE
8
DEFAULT_255_2_778
10
15.9153084
20
22.4880163
11
19.1152084
21
22.4880163
0
LINE
8
DEFAULT_255_2_778
10
19.1152084
20
22.4880163
11
19.5367084
21
22.2237163
0
LINE
8
DEFAULT_255_2_778
10
15.9153084
20
20.4435163
11
19.1152084
21
20.4435163
0
LINE
8
DEFAULT_255_2_778
10
19.1152084
20
22.6734163
11
15.9153084
21
22.6734163
0
LINE
8
DEFAULT_255_2_778
10
19.9986084
20
12.3796163
11
19.9986084
21
15.9258163
0
LINE
8
DEFAULT_255_2_778
10
15.9153084
20
12.5134163
11
15.9153084
21
15.5490163
0
LINE
8
DEFAULT_255_2_778
10
14.3498084
20
15.8133163
11
15.9153084
21
15.5490163
0
LINE
8
DEFAULT_255_2_778
10
15.9153084
20
15.5490163
11
19.1152084
21
15.5490163
0
LINE
8
DEFAULT_255_2_778
10
19.1152084
20
15.5490163
11
19.1152084
21
12.5134163
0
ENDSEC
0
EOF