0
SECTION
2
HEADER
9
$MEASUREMENT
70
1
0
ENDSEC
0
SECTION
2
TABLES
0
TABLE
2
LTYPE
0
LTYPE
72
65
70
64
2
CONTINUOUS
3
______
73
0
40
0
0
ENDTAB
0
TABLE
2
LAYER
0
LAYER
2
DEFAULT_255_2_778
70
0
62
255
6
CONTINUOUS
0
ENDTAB
0
ENDSEC
0
SECTION
2
ENTITIES
0
ARC
8
DEFAULT_255_2_778
10
1.8047359
20
18.2187371
40
0.6994897
50
179.9957699
51
220.1948217
0
ARC
8
DEFAULT_255_2_778
10
1.8058924
20
18.2187814
40
0.700646
50
175.1766592
51
179.9994037
0
ARC
8
DEFAULT_255_2_778
10
1.8055593
20
18.2188074
40
0.7003118
50
130.2010653
51
175.1764869
0
ARC
8
DEFAULT_255_2_778
10
1.8015143
20
18.2211205
40
0.9959461
50
130.1130964
51
156.3441602
0
ARC
8
DEFAULT_255_2_778
10
1.8089672
20
18.2186732
40
1.0037551
50
156.3868992
51
180.012682
0
ARC
8
DEFAULT_255_2_778
10
1.8101376
20
18.2184525
40
1.0049255
50
180.0000835
51
181.108298
0
ARC
8
DEFAULT_255_2_778
10
1.8006145
20
18.2174367
40
0.995385
50
181.0604425
51
211.4167576
0
ARC
8
DEFAULT_255_2_778
10
1.8105689
20
18.224107
40
1.007357
50
211.4454027
51
220.2153548
0
ARC
8
DEFAULT_255_2_778
10
60.0919664
20
-56.1823414
40
60.0011359
50
81.0000815
51
89.9999415
0
ARC
8
DEFAULT_255_2_778
10
4.5059266
20
94.1679957
40
0.1507005
50
90.2657143
51
179.7343512
0
LINE
8
DEFAULT_255_2_778
10
3.8705277
20
14.6899944
11
1.2704277
21
17.7672944
0
LINE
8
DEFAULT_255_2_778
10
1.3535277
20
18.7536944
11
2.1173277
21
19.3989944
0
LINE
8
DEFAULT_255_2_778
10
2.1173277
20
19.3989944
11
1.9236277
21
19.6281944
0
LINE
8
DEFAULT_255_2_778
10
1.9236277
20
19.6281944
11
1.1598277
21
18.9827944
0
LINE
8
DEFAULT_255_2_778
10
1.0413277
20
17.5736944
11
3.6120277
21
14.5309944
0
LINE
8
DEFAULT_255_2_778
10
19.3552277
20
94.6186944
11
84.6551277
21
104.9612944
0
LINE
8
DEFAULT_255_2_778
10
84.6551277
20
104.9612944
11
84.6551277
21
0.6762944
0
LINE
8
DEFAULT_255_2_778
10
84.6551277
20
0.6762944
11
69.4781277
21
3.0800944
0
LINE
8
DEFAULT_255_2_778
10
60.0920277
20
3.8187944
11
19.6401277
21
3.8187944
0
LINE
8
DEFAULT_255_2_778
10
2.4552277
20
28.1259944
11
2.4552277
21
24.8189944
0
LINE
8
DEFAULT_255_2_778
10
2.4552277
20
24.8189944
11
5.0553277
21
24.8189944
0
LINE
8
DEFAULT_255_2_778
10
5.0553277
20
24.8189944
11
5.0553277
21
15.4188944
0
LINE
8
DEFAULT_255_2_778
10
4.3552277
20
94.1186944
11
4.3552277
21
94.1686944
0
LINE
8
DEFAULT_255_2_778
10
4.5052277
20
94.3186944
11
8.6552277
21
94.3186944
0
ARC
8
DEFAULT_255_2_778
10
9.3560786
20
100.1544549
40
0.9357207
50
267.5913064
51
269.7580915
0
ARC
8
DEFAULT_255_2_778
10
9.5310451
20
104.4305917
40
5.2154349
50
267.1233757
51
267.6451637
0
ARC
8
DEFAULT_255_2_778
10
8.5906547
20
85.1050201
40
14.133012
50
87.2476628
51
87.2774918
0
ARC
8
DEFAULT_255_2_778
10
9.0850956
20
95.6061211
40
3.6202816
50
87.199825
51
88.0819992
0
ARC
8
DEFAULT_255_2_778
10
9.1435908
20
97.3442099
40
1.8812089
50
88.0908322
51
89.9335744
0
ARC
8
DEFAULT_255_2_778
10
9.1408239
20
98.0660766
40
1.1593514
50
89.7554734
51
95.5213787
0
ARC
8
DEFAULT_255_2_778
10
9.0452956
20
98.7675735
40
0.4527591
50
92.0278752
51
132.73431
0
ARC
8
DEFAULT_255_2_778
10
8.9659856
20
98.8890425
40
0.3106613
50
137.1974558
51
165.9177509
0
ARC
8
DEFAULT_255_2_778
10
9.0669586
20
98.8580224
40
0.416184
50
165.1578438
51
171.6107523
0
ARC
8
DEFAULT_255_2_778
10
60.0920691
20
161.8187097
40
59.9998669
50
270.0000562
51
279.0000114
0
ARC
8
DEFAULT_255_2_778
10
9.855306
20
101.3191532
40
0.4996894
50
89.9974895
51
135.0234089
0
ARC
8
DEFAULT_255_2_778
10
9.8552494
20
101.3187683
40
0.4999215
50
134.987618
51
180.0029459
0
LINE
8
DEFAULT_255_2_778
10
8.6552279
20
98.9187426
11
8.6552279
21
94.1186426
0
LINE
8
DEFAULT_255_2_778
10
19.3552279
20
94.6187426
11
15.2552279
21
94.6187426
0
LINE
8
DEFAULT_255_2_778
10
60.0921279
20
101.8188426
11
9.8553279
21
101.8188426
0
LINE
8
DEFAULT_255_2_778
10
9.3553279
20
101.3187426
11
9.3553279
21
99.2187426
0
ARC
8
DEFAULT_255_2_778
10
27.5059951
20
104.7385018
40
0.2992709
50
359.9981751
51
30.0785145
0
ARC
8
DEFAULT_255_2_778
10
27.0546059
20
105.5187013
40
0.300091
50
30.0100381
51
90.0076063
0
ARC
8
DEFAULT_255_2_778
10
22.5559259
20
105.5187019
40
0.3000904
50
89.9923441
51
149.9900357
0
ARC
8
DEFAULT_255_2_778
10
22.1044389
20
104.7387008
40
0.299173
50
149.9546517
51
180.039929
0
ARC
8
DEFAULT_255_2_778
10
1.2055671
20
4.3186388
40
1.0003119
50
135.0140784
51
180.0136584
0
ARC
8
DEFAULT_255_2_778
10
1.2046782
20
4.3183947
40
0.9994229
50
179.9996751
51
183.3035589
0
ARC
8
DEFAULT_255_2_778
10
1.2040471
20
4.3184177
40
0.9987942
50
183.3069635
51
202.5126332
0
ARC
8
DEFAULT_255_2_778
10
1.2053686
20
4.3188866
40
1.0001944
50
202.5084624
51
269.9998536
0
ARC
8
DEFAULT_255_2_778
10
6.4984178
20
3.8185516
40
0.4998593
50
269.9940647
51
314.9828922
0
ARC
8
DEFAULT_255_2_778
10
7.2051009
20
4.5257086
40
0.500265
50
315.0363451
51
359.99813
0
ARC
8
DEFAULT_255_2_778
10
8.0051513
20
6.5187172
40
0.2997853
50
134.9743446
51
180.023866
0
ARC
8
DEFAULT_255_2_778
10
8.0052069
20
6.5188893
40
0.2997029
50
89.9695787
51
135.0051204
0
ARC
8
DEFAULT_255_2_778
10
13.6502319
20
3.7187354
40
1.0001432
50
209.998117
51
269.9847705
0
ARC
8
DEFAULT_255_2_778
10
18.71683
20
3.2186327
40
0.5000404
50
269.9926657
51
329.9973272
0
ARC
8
DEFAULT_255_2_778
10
1.3624144
20
93.619033
40
0.4998593
50
89.9940878
51
134.9829085
0
ARC
8
DEFAULT_255_2_778
10
1.1554247
20
93.412044
40
0.4998587
50
135.0170498
51
180.0059268
0
ARC
8
DEFAULT_255_2_778
10
1.1554835
20
34.7259648
40
0.4999175
50
179.9853844
51
224.9801438
0
ARC
8
DEFAULT_255_2_778
10
2.8553829
20
28.4259646
40
0.4999169
50
179.985358
51
224.9801775
0
ARC
8
DEFAULT_255_2_778
10
3.5553776
20
25.3190039
40
0.5000116
50
179.9898688
51
269.9986732
0
LINE
8
DEFAULT_255_2_778
10
15.255266
20
94.6186923
11
15.255266
21
101.8187923
0
LINE
8
DEFAULT_255_2_778
10
27.805266
20
101.8187923
11
27.805266
21
104.7384923
0
LINE
8
DEFAULT_255_2_778
10
27.764966
20
104.8884923
11
27.314466
21
105.6687923
0
LINE
8
DEFAULT_255_2_778
10
27.054566
20
105.8187923
11
22.555966
21
105.8187923
0
LINE
8
DEFAULT_255_2_778
10
22.296066
20
105.6687923
11
21.845466
21
104.8884923
0
LINE
8
DEFAULT_255_2_778
10
21.805266
20
104.7384923
11
21.805266
21
101.8187923
0
LINE
8
DEFAULT_255_2_778
10
84.755166
20
20.8187923
11
82.655266
21
20.8187923
0
LINE
8
DEFAULT_255_2_778
10
82.655266
20
20.8187923
11
82.655266
21
12.8187923
0
LINE
8
DEFAULT_255_2_778
10
82.655266
20
12.8187923
11
84.755166
21
12.8187923
0
LINE
8
DEFAULT_255_2_778
10
84.755166
20
84.8187923
11
82.655266
21
84.8187923
0
LINE
8
DEFAULT_255_2_778
10
82.655266
20
84.8187923
11
82.655266
21
92.8187923
0
LINE
8
DEFAULT_255_2_778
10
82.655266
20
92.8187923
11
84.755166
21
92.8187923
0
LINE
8
DEFAULT_255_2_778
10
107.355166
20
80.3187923
11
107.355166
21
80.1187923
0
LINE
8
DEFAULT_255_2_778
10
2.455266
20
6.9828923
11
0.498066
21
5.0257923
0
LINE
8
DEFAULT_255_2_778
10
1.205366
20
3.3186923
11
6.498366
21
3.3186923
0
LINE
8
DEFAULT_255_2_778
10
6.851766
20
3.4649923
11
7.559066
21
4.1721923
0
LINE
8
DEFAULT_255_2_778
10
7.705366
20
4.5256923
11
7.705366
21
6.5185923
0
LINE
8
DEFAULT_255_2_778
10
8.005366
20
6.8185923
11
10.705466
21
6.8185923
0
LINE
8
DEFAULT_255_2_778
10
10.705466
20
6.8185923
11
12.784066
21
3.2186923
0
LINE
8
DEFAULT_255_2_778
10
13.649966
20
2.7185923
11
18.716766
21
2.7185923
0
LINE
8
DEFAULT_255_2_778
10
19.149866
20
2.9685923
11
19.640666
21
3.8187923
0
LINE
8
DEFAULT_255_2_778
10
8.655266
20
94.1188923
11
1.362466
21
94.1188923
0
LINE
8
DEFAULT_255_2_778
10
1.009066
20
93.9725923
11
0.801866
21
93.7653923
0
LINE
8
DEFAULT_255_2_778
10
0.655566
20
93.4119923
11
0.655566
21
34.7260923
0
LINE
8
DEFAULT_255_2_778
10
0.801866
20
34.3725923
11
2.355466
21
32.8188923
0
LINE
8
DEFAULT_255_2_778
10
2.355466
20
32.8188923
11
2.355466
21
28.4260923
0
LINE
8
DEFAULT_255_2_778
10
2.501766
20
28.0725923
11
3.055366
21
27.5190923
0
LINE
8
DEFAULT_255_2_778
10
3.055366
20
27.5190923
11
3.055366
21
25.3190923
0
LINE
8
DEFAULT_255_2_778
10
101.875866
20
105.1186923
11
101.376066
21
105.1186923
0
ARC
8
DEFAULT_255_2_778
10
2.9554279
20
13.5394624
40
0.4999405
50
121.6105943
51
179.9926237
0
ARC
8
DEFAULT_255_2_778
10
104.2526977
20
80.622075
40
0.2746261
50
298.0143124
51
310.2355711
0
ARC
8
DEFAULT_255_2_778
10
104.3628009
20
80.5176525
40
0.1215095
50
330.7210261
51
345.4014961
0
ARC
8
DEFAULT_255_2_778
10
104.380307
20
80.5130354
40
0.1034047
50
345.4323494
51
0.1386893
0
ARC
8
DEFAULT_255_2_778
10
104.3724422
20
80.5132709
40
0.1112693
50
0.0076442
51
2.707413
0
ARC
8
DEFAULT_255_2_778
10
-389.4438527
20
52.8098554
40
494.7040394
50
3.2108515
51
6.0889354
0
ARC
8
DEFAULT_255_2_778
10
102.2021612
20
105.2545783
40
0.2687554
50
6.3121767
51
8.062841
0
ARC
8
DEFAULT_255_2_778
10
102.1741257
20
105.249965
40
0.2971616
50
8.1853633
51
17.7839743
0
ARC
8
DEFAULT_255_2_778
10
102.1639108
20
105.2477759
40
0.3075587
50
17.5910811
51
28.3086428
0
ARC
8
DEFAULT_255_2_778
10
101.882079
20
105.0424745
40
0.6586889
50
42.2584282
51
51.8586935
0
ARC
8
DEFAULT_255_2_778
10
101.7545014
20
104.8868638
40
0.859878
50
51.5766423
51
58.8197967
0
LINE
8
DEFAULT_255_2_778
10
5.0552874
20
15.4189268
11
2.6933874
21
13.9652268
0
LINE
8
DEFAULT_255_2_778
10
2.4554874
20
13.5395268
11
2.4554874
21
6.9831268
0
LINE
8
DEFAULT_255_2_778
10
104.1043874
20
80.3188268
11
104.2181874
21
80.3275268
0
LINE
8
DEFAULT_255_2_778
10
104.2181874
20
80.3275268
11
104.2742874
21
80.3389268
0
LINE
8
DEFAULT_255_2_778
10
104.2742874
20
80.3389268
11
104.3290874
21
80.3558268
0
LINE
8
DEFAULT_255_2_778
10
104.3290874
20
80.3558268
11
104.3816874
21
80.3796268
0
LINE
8
DEFAULT_255_2_778
10
104.4300874
20
80.4124268
11
104.4512874
21
80.4333268
0
LINE
8
DEFAULT_255_2_778
10
104.4512874
20
80.4333268
11
104.4687874
21
80.4582268
0
LINE
8
DEFAULT_255_2_778
10
102.4346874
20
105.3936268
11
102.4047874
21
105.4417268
0
LINE
8
DEFAULT_255_2_778
10
102.4047874
20
105.4417268
11
102.3695874
21
105.4854268
0
LINE
8
DEFAULT_255_2_778
10
102.1996874
20
105.6225268
11
102.1530874
21
105.6494268
0
LINE
8
DEFAULT_255_2_778
10
102.1530874
20
105.6494268
11
102.0081874
21
105.7172268
0
LINE
8
DEFAULT_255_2_778
10
102.0081874
20
105.7172268
11
101.9083874
21
105.7529268
0
LINE
8
DEFAULT_255_2_778
10
101.9083874
20
105.7529268
11
101.8070874
21
105.7820268
0
ARC
8
DEFAULT_255_2_778
10
109.6866797
20
80.5198362
40
0.2011036
50
270.1186053
51
316.3928454
0
ARC
8
DEFAULT_255_2_778
10
109.6874517
20
80.5185057
40
0.1996274
50
316.5165535
51
0.1254483
0
ARC
8
DEFAULT_255_2_778
10
109.6847691
20
80.5189397
40
0.2023096
50
0.0008664
51
3.0298584
0
ARC
8
DEFAULT_255_2_778
10
-389.3952897
20
52.8150447
40
500.0506969
50
3.1771639
51
5.9989928
0
ARC
8
DEFAULT_255_2_778
10
107.4196499
20
105.023528
40
0.500089
50
6.0036259
51
87.0030353
0
ARC
8
DEFAULT_255_2_778
10
-389.3495121
20
52.8167524
40
494.0048401
50
3.1913908
51
6.1591429
0
ARC
8
DEFAULT_255_2_778
10
84.955317
20
10.0185274
40
0.300221
50
131.8291616
51
179.97983
0
LINE
8
DEFAULT_255_2_778
10
107.445796
20
105.522933
11
101.803796
21
105.818733
0
LINE
8
DEFAULT_255_2_778
10
103.889196
20
80.318733
11
109.687096
21
80.318733
0
ARC
8
DEFAULT_255_2_778
10
-389.3087125
20
52.8173505
40
499.9639722
50
353.9149441
51
358.8592873
0
ARC
8
DEFAULT_255_2_778
10
-389.3198333
20
52.8176936
40
499.9750975
50
358.8592734
51
5e-7
0
ARC
8
DEFAULT_255_2_778
10
-389.3266818
20
52.8176876
40
499.9819461
50
0.0000011
51
0.4859379
0
ARC
8
DEFAULT_255_2_778
10
-389.3267999
20
52.8176287
40
499.9820646
50
0.4859445
51
3.1352668
0
ARC
8
DEFAULT_255_2_778
10
-389.0017316
20
52.8353897
40
499.6565113
50
3.1352719
51
3.1773681
0
ARC
8
DEFAULT_255_2_778
10
94.7914382
20
59.8199756
40
60.0011666
50
261.0000851
51
269.9999404
0
ARC
8
DEFAULT_255_2_778
10
107.3554001
20
0.3188847
40
0.5000757
50
269.9972237
51
359.991324
0
ARC
8
DEFAULT_255_2_778
10
-388.9821888
20
52.8477689
40
493.1366026
50
3.1701419
51
6.1664132
0
ARC
8
DEFAULT_255_2_778
10
94.7917348
20
45.8164225
40
60.0023864
50
90.0000563
51
98.9998238
0
ARC
8
DEFAULT_255_2_778
10
84.8092635
20
97.2185457
40
0.1540879
50
179.9021133
51
180.0326275
0
ARC
8
DEFAULT_255_2_778
10
84.9543245
20
97.2184349
40
0.2991488
50
179.9955888
51
228.2625989
0
LINE
8
DEFAULT_255_2_778
10
84.7551759
20
4.8189089
11
84.6551759
21
4.8189089
0
LINE
8
DEFAULT_255_2_778
10
84.7551759
20
1.8188089
11
84.6551759
21
1.8188089
0
LINE
8
DEFAULT_255_2_778
10
94.7913759
20
-0.1811911
11
107.3553759
21
-0.1811911
0
LINE
8
DEFAULT_255_2_778
10
107.8554759
20
0.3188089
11
107.8554759
21
80.1188089
0
LINE
8
DEFAULT_255_2_778
10
107.8554759
20
80.1188089
11
103.3997759
21
80.1188089
0
LINE
8
DEFAULT_255_2_778
10
101.3011759
20
105.8188089
11
94.7916759
21
105.8188089
0
LINE
8
DEFAULT_255_2_778
10
85.4054759
20
105.0801089
11
84.7554759
21
104.9772089
0
LINE
8
DEFAULT_255_2_778
10
84.7554759
20
104.9772089
11
84.7554759
21
0.6604089
0
LINE
8
DEFAULT_255_2_778
10
84.7554759
20
0.6604089
11
85.4054759
21
0.5575089
0
ARC
8
DEFAULT_255_2_778
10
105.8553592
20
53.8186077
40
0.5000754
50
359.9971846
51
89.9913517
0
ARC
8
DEFAULT_255_2_778
10
105.8553592
20
51.8186585
40
0.5000755
50
270.0086483
51
0.0028154
0
ARC
8
DEFAULT_255_2_778
10
96.8553316
20
51.8186801
40
0.5000969
50
179.9996485
51
270.0003515
0
ARC
8
DEFAULT_255_2_778
10
96.8553316
20
53.8185862
40
0.5000969
50
89.9996485
51
180.0003515
0
ARC
8
DEFAULT_255_2_778
10
105.8553592
20
31.8185077
40
0.5000754
50
359.9971846
51
89.9913517
0
ARC
8
DEFAULT_255_2_778
10
105.8553805
20
29.8185372
40
0.5000542
50
270.0062091
51
359.9938024
0
ARC
8
DEFAULT_255_2_778
10
96.8553102
20
29.8185587
40
0.5000756
50
180.0086621
51
270.0028016
0
ARC
8
DEFAULT_255_2_778
10
96.8553316
20
31.8184862
40
0.5000969
50
89.9996485
51
180.0003515
0
ARC
8
DEFAULT_255_2_778
10
105.8553807
20
75.8184292
40
0.500054
50
0.0061838
51
89.9938162
0
ARC
8
DEFAULT_255_2_778
10
105.8553592
20
73.8184585
40
0.5000755
50
270.0086483
51
0.0028154
0
ARC
8
DEFAULT_255_2_778
10
96.8553316
20
73.8184801
40
0.5000969
50
179.9996485
51
270.0003515
0
ARC
8
DEFAULT_255_2_778
10
96.8553101
20
75.8184076
40
0.5000754
50
89.9971846
51
179.9913517
0
LINE
8
DEFAULT_255_2_778
10
84.7551347
20
103.8187831
11
84.6551347
21
103.8187831
0
LINE
8
DEFAULT_255_2_778
10
84.6551347
20
100.8186831
11
84.7551347
21
100.8186831
0
LINE
8
DEFAULT_255_2_778
10
84.6551347
20
99.5187831
11
84.7551347
21
99.5187831
0
LINE
8
DEFAULT_255_2_778
10
84.6551347
20
98.5186831
11
84.7551347
21
98.5186831
0
LINE
8
DEFAULT_255_2_778
10
88.2553347
20
91.8185831
11
90.4373347
21
91.8185831
0
LINE
8
DEFAULT_255_2_778
10
90.4373347
20
91.8185831
11
90.4373347
21
90.8184831
0
LINE
8
DEFAULT_255_2_778
10
90.4373347
20
90.8184831
11
89.2551347
21
90.8184831
0
LINE
8
DEFAULT_255_2_778
10
89.2551347
20
90.8184831
11
89.2551347
21
86.8184831
0
LINE
8
DEFAULT_255_2_778
10
89.2551347
20
86.8184831
11
90.4373347
21
86.8184831
0
LINE
8
DEFAULT_255_2_778
10
90.4373347
20
86.8184831
11
90.4373347
21
85.8183831
0
LINE
8
DEFAULT_255_2_778
10
90.4373347
20
85.8183831
11
88.2553347
21
85.8183831
0
LINE
8
DEFAULT_255_2_778
10
88.7053347
20
85.8183831
11
88.7053347
21
91.8185831
0
LINE
8
DEFAULT_255_2_778
10
90.6553347
20
92.0686831
11
88.2553347
21
92.0686831
0
LINE
8
DEFAULT_255_2_778
10
88.2553347
20
92.0686831
11
88.2553347
21
85.5685831
0
LINE
8
DEFAULT_255_2_778
10
88.2553347
20
85.5685831
11
90.6553347
21
85.5685831
0
LINE
8
DEFAULT_255_2_778
10
90.6553347
20
85.5685831
11
90.6553347
21
92.0686831
0
LINE
8
DEFAULT_255_2_778
10
103.8551347
20
99.8187831
11
103.8551347
21
102.8186831
0
LINE
8
DEFAULT_255_2_778
10
104.4552347
20
99.8185831
11
104.4552347
21
102.8186831
0
LINE
8
DEFAULT_255_2_778
10
104.5552347
20
99.8185831
11
103.6551347
21
99.8185831
0
LINE
8
DEFAULT_255_2_778
10
103.6551347
20
99.8185831
11
103.6551347
21
102.8186831
0
LINE
8
DEFAULT_255_2_778
10
103.6551347
20
102.8186831
11
104.5552347
21
102.8186831
0
LINE
8
DEFAULT_255_2_778
10
103.5553347
20
103.0186831
11
104.5555347
21
103.0186831
0
LINE
8
DEFAULT_255_2_778
10
104.5555347
20
103.0186831
11
104.5555347
21
99.6187831
0
LINE
8
DEFAULT_255_2_778
10
104.5555347
20
99.6187831
11
103.5553347
21
99.6187831
0
LINE
8
DEFAULT_255_2_778
10
103.5553347
20
99.6187831
11
103.5553347
21
103.0186831
0
LINE
8
DEFAULT_255_2_778
10
105.1553347
20
83.3188831
11
105.1553347
21
86.3186831
0
LINE
8
DEFAULT_255_2_778
10
105.7554347
20
83.3185831
11
105.7554347
21
86.3186831
0
LINE
8
DEFAULT_255_2_778
10
105.8554347
20
83.3185831
11
104.9553347
21
83.3185831
0
LINE
8
DEFAULT_255_2_778
10
104.9553347
20
83.3185831
11
104.9553347
21
86.3186831
0
LINE
8
DEFAULT_255_2_778
10
104.9553347
20
86.3186831
11
105.8554347
21
86.3186831
0
LINE
8
DEFAULT_255_2_778
10
104.8555347
20
86.5187831
11
105.8556347
21
86.5187831
0
LINE
8
DEFAULT_255_2_778
10
105.8556347
20
86.5187831
11
105.8556347
21
83.1188831
0
LINE
8
DEFAULT_255_2_778
10
105.8556347
20
83.1188831
11
104.8555347
21
83.1188831
0
LINE
8
DEFAULT_255_2_778
10
104.8555347
20
83.1188831
11
104.8555347
21
86.5187831
0
LINE
8
DEFAULT_255_2_778
10
106.3554347
20
53.8185831
11
106.3554347
21
51.8186831
0
LINE
8
DEFAULT_255_2_778
10
105.8554347
20
51.3185831
11
96.8553347
21
51.3185831
0
LINE
8
DEFAULT_255_2_778
10
96.3552347
20
51.8186831
11
96.3552347
21
53.8185831
0
LINE
8
DEFAULT_255_2_778
10
96.8553347
20
54.3186831
11
105.8554347
21
54.3186831
0
LINE
8
DEFAULT_255_2_778
10
106.3554347
20
31.8184831
11
106.3554347
21
29.8184831
0
LINE
8
DEFAULT_255_2_778
10
105.8554347
20
29.3184831
11
96.8553347
21
29.3184831
0
LINE
8
DEFAULT_255_2_778
10
96.3552347
20
29.8184831
11
96.3552347
21
31.8184831
0
LINE
8
DEFAULT_255_2_778
10
96.8553347
20
32.3185831
11
105.8554347
21
32.3185831
0
LINE
8
DEFAULT_255_2_778
10
106.3554347
20
75.8184831
11
106.3554347
21
73.8184831
0
LINE
8
DEFAULT_255_2_778
10
105.8554347
20
73.3183831
11
96.8553347
21
73.3183831
0
LINE
8
DEFAULT_255_2_778
10
96.3552347
20
73.8184831
11
96.3552347
21
75.8184831
0
LINE
8
DEFAULT_255_2_778
10
96.8553347
20
76.3184831
11
105.8554347
21
76.3184831
0
LINE
8
DEFAULT_255_2_778
10
90.6553347
20
13.5685831
11
90.6553347
21
20.0686831
0
LINE
8
DEFAULT_255_2_778
10
90.6553347
20
20.0686831
11
88.2553347
21
20.0686831
0
LINE
8
DEFAULT_255_2_778
10
88.2553347
20
20.0686831
11
88.2553347
21
13.5685831
0
LINE
8
DEFAULT_255_2_778
10
88.2553347
20
13.5685831
11
90.6553347
21
13.5685831
0
LINE
8
DEFAULT_255_2_778
10
88.2553347
20
19.8185831
11
90.4373347
21
19.8185831
0
LINE
8
DEFAULT_255_2_778
10
90.4373347
20
19.8185831
11
90.4373347
21
18.8184831
0
LINE
8
DEFAULT_255_2_778
10
90.4373347
20
18.8184831
11
89.2551347
21
18.8184831
0
LINE
8
DEFAULT_255_2_778
10
89.2551347
20
18.8184831
11
89.2551347
21
14.8184831
0
LINE
8
DEFAULT_255_2_778
10
89.2551347
20
14.8184831
11
90.4373347
21
14.8184831
0
LINE
8
DEFAULT_255_2_778
10
90.4373347
20
14.8184831
11
90.4373347
21
13.8183831
0
LINE
8
DEFAULT_255_2_778
10
90.4373347
20
13.8183831
11
88.2553347
21
13.8183831
0
LINE
8
DEFAULT_255_2_778
10
88.7053347
20
13.8183831
11
88.7053347
21
19.8185831
0
ENDSEC
0
EOF