0
SECTION
2
HEADER
9
$MEASUREMENT
70
1
0
ENDSEC
0
SECTION
2
TABLES
0
TABLE
2
LTYPE
0
LTYPE
72
65
70
64
2
CONTINUOUS
3
______
73
0
40
0
0
ENDTAB
0
TABLE
2
LAYER
0
LAYER
2
DEFAULT_255_2_778
70
0
62
255
6
CONTINUOUS
0
LAYER
2
DEFAULT_255_1_234
70
0
62
255
6
CONTINUOUS
0
ENDTAB
0
ENDSEC
0
SECTION
2
ENTITIES
0
ARC
8
DEFAULT_255_2_778
10
3.7023693
20
51.9926534
40
0.7914215
50
129.1312896
51
180.1450914
0
ARC
8
DEFAULT_255_2_778
10
3.7026345
20
51.9931405
40
0.7912112
50
89.854026
51
129.1684493
0
ARC
8
DEFAULT_255_2_778
10
25.9316937
20
51.992827
40
0.7915249
50
39.4792447
51
90.147911
0
ARC
8
DEFAULT_255_2_778
10
25.9322935
20
51.9926737
40
0.7911595
50
359.8533901
51
39.5154338
0
ARC
8
DEFAULT_255_2_778
10
25.9319693
20
-1.9863989
40
0.7914836
50
309.4761667
51
0.1482649
0
ARC
8
DEFAULT_255_2_778
10
25.931698
20
-1.98683
40
0.7913235
50
269.8517415
51
309.511178
0
ARC
8
DEFAULT_255_2_778
10
3.702642
20
-1.9867718
40
0.7913815
50
219.1282118
51
270.1454017
0
ARC
8
DEFAULT_255_2_778
10
3.7023247
20
-1.9863893
40
0.7913769
50
179.8524075
51
219.1641908
0
LINE
8
DEFAULT_255_2_778
10
3.7046503
20
52.7843492
11
25.9296503
21
52.7843492
0
LINE
8
DEFAULT_255_2_778
10
26.7234503
20
51.9906492
11
26.7234503
21
-1.9843508
0
LINE
8
DEFAULT_255_2_778
10
25.9296503
20
-2.7781508
11
3.7046503
21
-2.7781508
0
LINE
8
DEFAULT_255_2_778
10
2.9109503
20
-1.9843508
11
2.9109503
21
51.9906492
0
LINE
8
DEFAULT_255_1_234
10
8.9363341
20
-0.6513
11
8.6825312
21
-0.1782306
0
LINE
8
DEFAULT_255_1_234
10
8.6825312
20
-0.1782306
11
8.4078458
21
-0.1782306
0
LINE
8
DEFAULT_255_1_234
10
8.4078458
20
-0.1782306
11
8.4078458
21
-0.6513
0
LINE
8
DEFAULT_255_1_234
10
8.4078458
20
-0.6513
11
8.2528332
21
-0.6513
0
LINE
8
DEFAULT_255_1_234
10
8.2528332
20
-0.6513
11
8.2528332
21
0.5181211
0
LINE
8
DEFAULT_255_1_234
10
8.2528332
20
0.5181211
11
8.639963
21
0.5181211
0
LINE
8
DEFAULT_255_1_234
10
8.8271025
20
-0.1453005
11
9.1017879
21
-0.6416619
0
LINE
8
DEFAULT_255_1_234
10
9.1017879
20
-0.6416619
11
9.1017879
21
-0.6513
0
LINE
8
DEFAULT_255_1_234
10
9.1017879
20
-0.6513
11
8.9363341
21
-0.6513
0
LINE
8
DEFAULT_255_1_234
10
8.4078458
20
0.3912196
11
8.4078458
21
-0.0521323
0
LINE
8
DEFAULT_255_1_234
10
8.4078458
20
-0.0521323
11
8.644782
21
-0.0521323
0
LINE
8
DEFAULT_255_1_234
10
8.6439789
20
0.3912196
11
8.4078458
21
0.3912196
0
ARC
8
DEFAULT_255_1_234
10
8.6441269
20
-0.1780239
40
0.6961575
50
80.653586
51
90.3427061
0
ARC
8
DEFAULT_255_1_234
10
8.6860744
20
0.0682348
40
0.4463577
50
65.6987447
51
80.8329603
0
ARC
8
DEFAULT_255_1_234
10
8.7338385
20
0.1777322
40
0.3269094
50
50.0017161
51
65.4305835
0
ARC
8
DEFAULT_255_1_234
10
8.7556849
20
0.2072482
40
0.2902647
50
11.628416
51
49.5603263
0
ARC
8
DEFAULT_255_1_234
10
8.6021185
20
0.1697299
40
0.4482792
50
359.5655735
51
12.3691
0
ARC
8
DEFAULT_255_1_234
10
8.7098045
20
0.1634644
40
0.3405924
50
341.9983148
51
0.4822259
0
ARC
8
DEFAULT_255_1_234
10
8.7492885
20
0.1527471
40
0.2997359
50
323.8609373
51
341.61416
0
ARC
8
DEFAULT_255_1_234
10
8.7191129
20
0.1760484
40
0.3378487
50
296.7018614
51
323.6876402
0
ARC
8
DEFAULT_255_1_234
10
8.6750024
20
0.2549235
40
0.4281516
50
290.8086567
51
297.2323311
0
ARC
8
DEFAULT_255_1_234
10
8.6473554
20
0.3072351
40
0.3593766
50
269.589728
51
281.8058135
0
ARC
8
DEFAULT_255_1_234
10
8.6724453
20
0.1924743
40
0.2419125
50
281.5501019
51
303.9357432
0
ARC
8
DEFAULT_255_1_234
10
8.6861641
20
0.1686936
40
0.2145323
50
304.4415616
51
311.2106213
0
ARC
8
DEFAULT_255_1_234
10
8.6993746
20
0.1547632
40
0.1953505
50
310.9875673
51
356.2715578
0
ARC
8
DEFAULT_255_1_234
10
8.6237395
20
0.1660422
40
0.2716331
50
354.9348262
51
0.0609027
0
ARC
8
DEFAULT_255_1_234
10
8.6050269
20
0.1687435
40
0.2903554
50
359.5239371
51
12.8808918
0
ARC
8
DEFAULT_255_1_234
10
8.7027824
20
0.1926728
40
0.1897315
50
12.4173452
51
43.1022135
0
ARC
8
DEFAULT_255_1_234
10
8.7089429
20
0.1963724
40
0.1827118
50
43.5751728
51
48.203944
0
ARC
8
DEFAULT_255_1_234
10
8.6919921
20
0.1742302
40
0.2105272
50
48.7809703
51
72.6969569
0
ARC
8
DEFAULT_255_1_234
10
8.6565546
20
0.066682
40
0.3237537
50
72.3702241
51
84.8791103
0
ARC
8
DEFAULT_255_1_234
10
8.6418022
20
-0.0675231
40
0.4587478
50
84.5400526
51
89.7281406
0
LINE
8
DEFAULT_255_1_234
10
9.7563746
20
-0.3123606
11
9.7563746
21
0.5181211
0
LINE
8
DEFAULT_255_1_234
10
9.7563746
20
0.5181211
11
9.9113872
21
0.5181211
0
LINE
8
DEFAULT_255_1_234
10
9.9113872
20
0.5181211
11
9.9113872
21
-0.3099511
0
LINE
8
DEFAULT_255_1_234
10
9.1732704
20
-0.3284241
11
9.3274798
21
-0.3284241
0
ARC
8
DEFAULT_255_1_234
10
9.4623057
20
-0.3137911
40
0.4490979
50
346.3129415
51
0.4899112
0
ARC
8
DEFAULT_255_1_234
10
9.5991406
20
-0.3488271
40
0.3078632
50
313.3793358
51
346.6225026
0
ARC
8
DEFAULT_255_1_234
10
9.5790593
20
-0.3235478
40
0.3400404
50
281.1587967
51
312.9131091
0
ARC
8
DEFAULT_255_1_234
10
9.5450056
20
-0.1740815
40
0.4932916
50
269.6424364
51
281.6795951
0
ARC
8
DEFAULT_255_1_234
10
9.5381421
20
-0.1191618
40
0.5482147
50
258.9990078
51
270.3955952
0
ARC
8
DEFAULT_255_1_234
10
9.5006725
20
-0.3040254
40
0.359601
50
239.6256123
51
259.238693
0
ARC
8
DEFAULT_255_1_234
10
9.4717807
20
-0.3585331
40
0.2979777
50
227.4959765
51
239.1188186
0
ARC
8
DEFAULT_255_1_234
10
9.4680374
20
-0.3646311
40
0.2909561
50
191.339631
51
227.2280909
0
ARC
8
DEFAULT_255_1_234
10
9.6085014
20
-0.3313969
40
0.4352412
50
179.6086538
51
191.9934722
0
ARC
8
DEFAULT_255_1_234
10
9.6219037
20
-0.3306573
40
0.2944324
50
179.5654258
51
192.070398
0
ARC
8
DEFAULT_255_1_234
10
9.5247527
20
-0.3524921
40
0.194866
50
191.7656467
51
215.6461951
0
ARC
8
DEFAULT_255_1_234
10
9.5069027
20
-0.3632454
40
0.1741017
50
216.1938368
51
224.3931108
0
ARC
8
DEFAULT_255_1_234
10
9.5075914
20
-0.3605527
40
0.1764834
50
224.8613677
51
254.362656
0
ARC
8
DEFAULT_255_1_234
10
9.5346628
20
-0.271099
40
0.2699302
50
253.9471729
51
267.3949949
0
ARC
8
DEFAULT_255_1_234
10
9.5417134
20
-0.1786933
40
0.362572
50
266.9456419
51
270.0337791
0
ARC
8
DEFAULT_255_1_234
10
9.5442515
20
-0.294877
40
0.2463991
50
269.4595111
51
286.1822844
0
ARC
8
DEFAULT_255_1_234
10
9.5583805
20
-0.3466953
40
0.1926982
50
286.4416479
51
315.8044008
0
ARC
8
DEFAULT_255_1_234
10
9.5529612
20
-0.3424793
40
0.1995241
50
316.0212565
51
345.4794351
0
ARC
8
DEFAULT_255_1_234
10
9.4559118
20
-0.3151425
40
0.3003349
50
345.0729543
51
358.325089
0
ARC
8
DEFAULT_255_1_234
10
9.368309
20
-0.3095432
40
0.3880759
50
357.8767804
51
359.5840246
0
LINE
8
DEFAULT_255_1_234
10
10.8904561
20
0.5181211
11
10.8904561
21
0.434591
0
LINE
8
DEFAULT_255_1_234
10
10.8904561
20
0.434591
11
10.4061422
21
-0.6513
0
LINE
8
DEFAULT_255_1_234
10
10.4061422
20
-0.6513
11
10.2503265
21
-0.6513
0
LINE
8
DEFAULT_255_1_234
10
10.2503265
20
-0.6513
11
10.733034
21
0.3960387
0
LINE
8
DEFAULT_255_1_234
10
10.733034
20
0.3960387
11
10.100133
21
0.3960387
0
LINE
8
DEFAULT_255_1_234
10
10.100133
20
0.3960387
11
10.100133
21
0.5181211
0
LINE
8
DEFAULT_255_1_234
10
10.100133
20
0.5181211
11
10.8904561
21
0.5181211
0
LINE
8
DEFAULT_255_1_234
10
11.5474522
20
0.5237433
11
11.5474522
21
-0.6513
0
LINE
8
DEFAULT_255_1_234
10
11.5474522
20
-0.6513
11
11.3980619
21
-0.6513
0
LINE
8
DEFAULT_255_1_234
10
11.3980619
20
-0.6513
11
11.3980619
21
0.3390133
0
LINE
8
DEFAULT_255_1_234
10
11.3980619
20
0.3390133
11
11.0984781
21
0.2289785
0
LINE
8
DEFAULT_255_1_234
10
11.0984781
20
0.2289785
11
11.0984781
21
0.3639117
0
LINE
8
DEFAULT_255_1_234
10
11.0984781
20
0.3639117
11
11.5241602
21
0.5237433
0
LINE
8
DEFAULT_255_1_234
10
11.5241602
20
0.5237433
11
11.5474522
21
0.5237433
0
LINE
8
DEFAULT_255_1_234
10
12.8847367
20
-0.068999
11
12.8847367
21
-0.4978938
0
LINE
8
DEFAULT_255_1_234
10
11.9835756
20
-0.1228116
11
11.9835756
21
-0.0208085
0
LINE
8
DEFAULT_255_1_234
10
12.8847367
20
0.1751659
11
12.7305273
21
0.1751659
0
LINE
8
DEFAULT_255_1_234
10
12.1385882
20
-0.0167927
11
12.1385882
21
-0.1123704
0
LINE
8
DEFAULT_255_1_234
10
12.7313305
20
-0.4569319
11
12.7313305
21
-0.1942941
0
LINE
8
DEFAULT_255_1_234
10
12.7313305
20
-0.1942941
11
12.4606609
21
-0.1942941
0
LINE
8
DEFAULT_255_1_234
10
12.4606609
20
-0.1942941
11
12.4606609
21
-0.068999
0
LINE
8
DEFAULT_255_1_234
10
12.4606609
20
-0.068999
11
12.8847367
21
-0.068999
0
ARC
8
DEFAULT_255_1_234
10
12.6015873
20
-0.2985604
40
0.3462765
50
295.8437914
51
324.8549609
0
ARC
8
DEFAULT_255_1_234
10
12.559984
20
-0.2232433
40
0.4322211
50
291.5695085
51
296.4549398
0
ARC
8
DEFAULT_255_1_234
10
12.5089092
20
-0.0867725
40
0.5779178
50
278.6622409
51
291.3045483
0
ARC
8
DEFAULT_255_1_234
10
12.4749583
20
0.1280408
40
0.7953952
50
270.020006
51
278.7494541
0
ARC
8
DEFAULT_255_1_234
10
12.4711507
20
0.2597036
40
0.927067
50
269.9969998
51
270.2524872
0
ARC
8
DEFAULT_255_1_234
10
12.467322
20
-0.1486411
40
0.5187361
50
253.5786322
51
270.4175299
0
ARC
8
DEFAULT_255_1_234
10
12.4499876
20
-0.2157764
40
0.4494451
50
238.8203306
51
253.2788235
0
ARC
8
DEFAULT_255_1_234
10
12.4480249
20
-0.2208769
40
0.4440665
50
206.7883783
51
238.6962764
0
ARC
8
DEFAULT_255_1_234
10
12.525416
20
-0.1744595
40
0.5341121
50
206.1129412
51
207.4916643
0
ARC
8
DEFAULT_255_1_234
10
12.5851075
20
-0.1490512
40
0.5989041
50
188.6921119
51
205.7821245
0
ARC
8
DEFAULT_255_1_234
10
12.7707436
20
-0.117477
40
0.7871862
50
180.3882829
51
188.9219216
0
ARC
8
DEFAULT_255_1_234
10
12.8935251
20
-0.0151536
40
0.909967
50
170.2024264
51
180.3560651
0
ARC
8
DEFAULT_255_1_234
10
12.5771768
20
0.0414237
40
0.5886083
50
154.2857445
51
170.3893044
0
ARC
8
DEFAULT_255_1_234
10
12.4489972
20
0.100095
40
0.4476743
50
139.8401567
51
153.9332699
0
ARC
8
DEFAULT_255_1_234
10
12.4130707
20
0.1288577
40
0.4016697
50
98.4190291
51
139.6707122
0
ARC
8
DEFAULT_255_1_234
10
12.4510225
20
-0.0556672
40
0.5898566
50
89.7659205
51
99.4415478
0
ARC
8
DEFAULT_255_1_234
10
12.4575475
20
-0.0491156
40
0.5833147
50
78.0551672
51
90.4042112
0
ARC
8
DEFAULT_255_1_234
10
12.4979985
20
0.1327644
40
0.3970055
50
54.6380464
51
78.3339173
0
ARC
8
DEFAULT_255_1_234
10
12.517004
20
0.1647795
40
0.3599102
50
50.031736
51
54.1558201
0
ARC
8
DEFAULT_255_1_234
10
12.5062828
20
0.1551766
40
0.3741624
50
18.1092409
51
49.7180913
0
ARC
8
DEFAULT_255_1_234
10
12.3606028
20
0.1018089
40
0.5292424
50
7.9672797
51
18.6984571
0
ARC
8
DEFAULT_255_1_234
10
12.3756506
20
0.1141504
40
0.3600838
50
9.7557294
51
27.3215714
0
ARC
8
DEFAULT_255_1_234
10
12.4883978
20
0.1704912
40
0.2340608
50
27.7361077
51
84.5257964
0
ARC
8
DEFAULT_255_1_234
10
12.4556365
20
0.006164
40
0.4011215
50
82.106034
51
90.2001166
0
ARC
8
DEFAULT_255_1_234
10
12.4506582
20
0.0569215
40
0.3503799
50
89.4150119
51
105.5823402
0
ARC
8
DEFAULT_255_1_234
10
12.424958
20
0.1504867
40
0.2533503
50
105.6678618
51
144.2648758
0
ARC
8
DEFAULT_255_1_234
10
12.5142836
20
0.0869289
40
0.3629787
50
144.3561283
51
162.8564086
0
ARC
8
DEFAULT_255_1_234
10
12.7226745
20
0.0200017
40
0.5818441
50
162.6076014
51
173.6780284
0
ARC
8
DEFAULT_255_1_234
10
13.0287888
20
-0.017211
40
0.8902007
50
173.4670142
51
179.9730753
0
ARC
8
DEFAULT_255_1_234
10
12.8379559
20
-0.116574
40
0.6993804
50
179.6556203
51
190.0080463
0
ARC
8
DEFAULT_255_1_234
10
12.6063388
20
-0.1590625
40
0.4639066
50
189.8116607
51
206.6796816
0
ARC
8
DEFAULT_255_1_234
10
12.5218541
20
-0.1984497
40
0.3707421
50
207.1031645
51
217.7074368
0
ARC
8
DEFAULT_255_1_234
10
12.4584229
20
-0.2536441
40
0.2868417
50
216.7345547
51
265.6812148
0
ARC
8
DEFAULT_255_1_234
10
12.471502
20
-0.1632145
40
0.3780509
50
264.7366618
51
270.0611241
0
ARC
8
DEFAULT_255_1_234
10
12.4738283
20
0.1208111
40
0.662079
50
269.8335834
51
276.0539546
0
ARC
8
DEFAULT_255_1_234
10
12.4945288
20
-0.069344
40
0.4708016
50
275.9894168
51
284.4615085
0
ARC
8
DEFAULT_255_1_234
10
12.5143295
20
-0.1526337
40
0.3852094
50
284.7034461
51
286.4953897
0
ARC
8
DEFAULT_255_1_234
10
12.5550308
20
-0.2837035
40
0.2479842
50
286.0770838
51
304.2625829
0
ARC
8
DEFAULT_255_1_234
10
12.5683722
20
-0.3055406
40
0.2224291
50
304.5891602
51
317.1073298
0
LINE
8
DEFAULT_255_1_234
10
13.5714503
20
-0.1934909
11
13.2959617
21
-0.1934909
0
LINE
8
DEFAULT_255_1_234
10
13.2959617
20
-0.1934909
11
13.2959617
21
-0.6513
0
LINE
8
DEFAULT_255_1_234
10
13.2959617
20
-0.6513
11
13.1417523
21
-0.6513
0
LINE
8
DEFAULT_255_1_234
10
13.1417523
20
-0.6513
11
13.1417523
21
0.5181211
0
LINE
8
DEFAULT_255_1_234
10
13.1417523
20
0.5181211
11
13.5730566
21
0.5181211
0
LINE
8
DEFAULT_255_1_234
10
13.2959617
20
0.3912196
11
13.2959617
21
-0.0673926
0
LINE
8
DEFAULT_255_1_234
10
13.2959617
20
-0.0673926
11
13.5730566
21
-0.0673926
0
LINE
8
DEFAULT_255_1_234
10
13.5818916
20
0.3912196
11
13.2959617
21
0.3912196
0
ARC
8
DEFAULT_255_1_234
10
13.5772693
20
-0.0877805
40
0.6059162
50
78.8378113
51
90.3983573
0
ARC
8
DEFAULT_255_1_234
10
13.6188707
20
0.1142879
40
0.3996205
50
58.9632738
51
79.0810598
0
ARC
8
DEFAULT_255_1_234
10
13.6490249
20
0.1702721
40
0.3361177
50
48.0197965
51
58.447194
0
ARC
8
DEFAULT_255_1_234
10
13.657911
20
0.1788225
40
0.3238191
50
3.3375044
51
48.1766626
0
ARC
8
DEFAULT_255_1_234
10
13.534895
20
0.1611171
40
0.4477806
50
359.9477528
51
4.6829065
0
ARC
8
DEFAULT_255_1_234
10
13.5472267
20
0.1568628
40
0.4354656
50
346.1877825
51
0.5060252
0
ARC
8
DEFAULT_255_1_234
10
13.6831134
20
0.1215731
40
0.295089
50
310.8831995
51
346.5426355
0
ARC
8
DEFAULT_255_1_234
10
13.6522554
20
0.1632695
40
0.3468331
50
286.6925341
51
310.2288297
0
ARC
8
DEFAULT_255_1_234
10
13.5953385
20
0.3422882
40
0.5346654
50
274.6850312
51
287.0245141
0
ARC
8
DEFAULT_255_1_234
10
13.5728108
20
0.5631932
40
0.7566852
50
269.8969846
51
275.018904
0
ARC
8
DEFAULT_255_1_234
10
13.5755699
20
0.3552707
40
0.4226708
50
269.6593078
51
279.4153575
0
ARC
8
DEFAULT_255_1_234
10
13.6012974
20
0.2062133
40
0.2714146
50
279.2049762
51
294.9900808
0
ARC
8
DEFAULT_255_1_234
10
13.63033
20
0.1414508
40
0.2004525
50
295.2888114
51
311.2911209
0
ARC
8
DEFAULT_255_1_234
10
13.6374194
20
0.130922
40
0.1878703
50
311.7854996
51
347.2861051
0
ARC
8
DEFAULT_255_1_234
10
13.5390353
20
0.1562092
40
0.2894234
50
346.6893224
51
0.1059443
0
ARC
8
DEFAULT_255_1_234
10
13.4635248
20
0.1590685
40
0.3649409
50
359.6350983
51
0.0053152
0
ARC
8
DEFAULT_255_1_234
10
13.5605576
20
0.1615937
40
0.2679199
50
359.4672059
51
15.5933957
0
ARC
8
DEFAULT_255_1_234
10
13.6230465
20
0.1784779
40
0.2031932
50
15.7442113
51
46.6203375
0
ARC
8
DEFAULT_255_1_234
10
13.6082686
20
0.1614484
40
0.2257226
50
46.8628658
51
75.6676503
0
ARC
8
DEFAULT_255_1_234
10
13.5788506
20
0.0555718
40
0.3355939
50
75.276167
51
88.2915297
0
ARC
8
DEFAULT_255_1_234
10
13.5730213
20
-0.0322476
40
0.4235602
50
87.8575022
51
88.8000139
0
LINE
8
DEFAULT_255_1_234
10
14.9071284
20
-0.5300208
11
14.9071284
21
-0.6513
0
LINE
8
DEFAULT_255_1_234
10
14.9071284
20
-0.6513
11
14.1409005
21
-0.6513
0
LINE
8
DEFAULT_255_1_234
10
14.1409005
20
-0.6513
11
14.1409005
21
-0.5444779
0
LINE
8
DEFAULT_255_1_234
10
14.1409005
20
-0.5444779
11
14.5457001
21
-0.0947005
0
LINE
8
DEFAULT_255_1_234
10
14.2669988
20
0.1735595
11
14.1184117
21
0.1735595
0
LINE
8
DEFAULT_255_1_234
10
14.6332461
20
-0.1902782
11
14.3200083
21
-0.5300208
0
LINE
8
DEFAULT_255_1_234
10
14.3200083
20
-0.5300208
11
14.9071284
21
-0.5300208
0
ARC
8
DEFAULT_255_1_234
10
13.1966835
20
1.0982527
40
1.8008286
50
318.5132453
51
320.7828378
0
ARC
8
DEFAULT_255_1_234
10
13.7253809
20
0.6679426
40
1.1191493
50
320.7372736
51
323.9737074
0
ARC
8
DEFAULT_255_1_234
10
14.1173666
20
0.3839361
40
0.6350923
50
323.8961724
51
328.6421089
0
ARC
8
DEFAULT_255_1_234
10
14.3220261
20
0.2577031
40
0.3946393
50
328.8299013
51
331.789948
0
ARC
8
DEFAULT_255_1_234
10
14.421744
20
0.2062509
40
0.2824501
50
331.4255242
51
352.9364833
0
ARC
8
DEFAULT_255_1_234
10
14.435394
20
0.2031976
40
0.2685315
50
353.2248685
51
0.0169286
0
ARC
8
DEFAULT_255_1_234
10
14.4563817
20
0.205495
40
0.2475536
50
359.4866256
51
15.9339782
0
ARC
8
DEFAULT_255_1_234
10
14.5070802
20
0.2191286
40
0.1950618
50
16.1714718
51
43.5284424
0
ARC
8
DEFAULT_255_1_234
10
14.5148111
20
0.2268573
40
0.184134
50
43.4415429
51
83.1661404
0
ARC
8
DEFAULT_255_1_234
10
14.5014029
20
0.1531771
40
0.258926
50
82.160215
51
90.1505798
0
ARC
8
DEFAULT_255_1_234
10
14.4982456
20
0.0994865
40
0.3126255
50
89.5460705
51
102.5418777
0
ARC
8
DEFAULT_255_1_234
10
14.4739543
20
0.2025665
40
0.2067346
50
102.1739365
51
129.2061916
0
ARC
8
DEFAULT_255_1_234
10
14.4660614
20
0.2150094
40
0.1921118
50
129.7279328
51
135.7542026
0
ARC
8
DEFAULT_255_1_234
10
14.4782142
20
0.2053045
40
0.2075944
50
136.175737
51
166.3674722
0
ARC
8
DEFAULT_255_1_234
10
14.5789061
20
0.1783182
40
0.3118201
50
165.9092917
51
178.8683903
0
ARC
8
DEFAULT_255_1_234
10
14.6653922
20
0.1736179
40
0.3983935
50
178.438168
51
180.0083905
0
ARC
8
DEFAULT_255_1_234
10
14.5252525
20
0.1775231
40
0.4068601
50
163.2878735
51
180.5581814
0
ARC
8
DEFAULT_255_1_234
10
14.4450786
20
0.199584
40
0.3237344
50
133.454115
51
162.9470031
0
ARC
8
DEFAULT_255_1_234
10
14.4629327
20
0.1806
40
0.349795
50
100.7869394
51
133.4384016
0
ARC
8
DEFAULT_255_1_234
10
14.4977099
20
0.0257319
40
0.5084616
50
89.6605301
51
101.3704185
0
ARC
8
DEFAULT_255_1_234
10
14.5043438
20
0.0318496
40
0.502348
50
78.2171172
51
90.4130393
0
ARC
8
DEFAULT_255_1_234
10
14.5398516
20
0.1942637
40
0.3361092
50
55.9268222
51
78.4888551
0
ARC
8
DEFAULT_255_1_234
10
14.5594956
20
0.2281324
40
0.2970617
50
47.9292255
51
55.4054003
0
ARC
8
DEFAULT_255_1_234
10
14.5696517
20
0.2384502
40
0.2825983
50
4.3347696
51
48.0560701
0
ARC
8
DEFAULT_255_1_234
10
14.460091
20
0.2214601
40
0.393225
50
359.925209
51
5.5967654
0
ARC
8
DEFAULT_255_1_234
10
14.5029802
20
0.2270816
40
0.3503892
50
337.8914096
51
358.9967724
0
ARC
8
DEFAULT_255_1_234
10
14.2316214
20
0.3317706
40
0.6412172
50
326.9135351
51
338.3505194
0
ARC
8
DEFAULT_255_1_234
10
13.8330518
20
0.5872284
40
1.1146189
50
319.6472867
51
327.095818
0
ARC
8
DEFAULT_255_1_234
10
13.4497521
20
0.9034
40
1.6114559
50
317.2586784
51
319.9046139
0
LINE
8
DEFAULT_255_1_234
10
15.5528801
20
0.5237433
11
15.5528801
21
-0.6513
0
LINE
8
DEFAULT_255_1_234
10
15.5528801
20
-0.6513
11
15.4034898
21
-0.6513
0
LINE
8
DEFAULT_255_1_234
10
15.4034898
20
-0.6513
11
15.4034898
21
0.3390133
0
LINE
8
DEFAULT_255_1_234
10
15.4034898
20
0.3390133
11
15.103906
21
0.2289785
0
LINE
8
DEFAULT_255_1_234
10
15.103906
20
0.2289785
11
15.103906
21
0.3639117
0
LINE
8
DEFAULT_255_1_234
10
15.103906
20
0.3639117
11
15.5295881
21
0.5237433
0
LINE
8
DEFAULT_255_1_234
10
15.5295881
20
0.5237433
11
15.5528801
21
0.5237433
0
LINE
8
DEFAULT_255_1_234
10
16.3913936
20
0.6683146
11
16.4219142
21
0.5703274
0
LINE
8
DEFAULT_255_1_234
10
16.1472288
20
-0.1179926
11
16.1464256
21
-0.1862624
0
LINE
8
DEFAULT_255_1_234
10
16.4219142
20
-0.9380331
11
16.3913936
21
-1.0287917
0
ARC
8
DEFAULT_255_1_234
10
17.2395946
20
-0.1720506
40
1.2417646
50
163.9170839
51
180.2110331
0
ARC
8
DEFAULT_255_1_234
10
17.0199855
20
-0.1065188
40
1.0125987
50
144.9122985
51
164.0375551
0
ARC
8
DEFAULT_255_1_234
10
16.9152718
20
-0.0313298
40
0.8836943
50
138.0038339
51
144.9986965
0
ARC
8
DEFAULT_255_1_234
10
16.6974976
20
0.1664193
40
0.589538
50
127.770941
51
138.1259546
0
ARC
8
DEFAULT_255_1_234
10
16.5940071
20
0.2977496
40
0.4223396
50
118.6684796
51
127.585755
0
ARC
8
DEFAULT_255_1_234
10
16.7322311
20
0.1724905
40
0.50455
50
127.9546008
51
144.5438639
0
ARC
8
DEFAULT_255_1_234
10
16.9243576
20
0.0331059
40
0.7419056
50
144.3825757
51
154.8226449
0
ARC
8
DEFAULT_255_1_234
10
17.1388728
20
-0.0731802
40
0.9812698
50
154.5348438
51
157.9223943
0
ARC
8
DEFAULT_255_1_234
10
17.258063
20
-0.1170173
40
1.108205
50
158.1383137
51
172.1594982
0
ARC
8
DEFAULT_255_1_234
10
17.5297076
20
-0.159386
40
1.3830985
50
171.9558493
51
178.2849928
0
ARC
8
DEFAULT_255_1_234
10
17.5752692
20
-0.1935745
40
1.4288623
50
179.7067903
51
190.3547646
0
ARC
8
DEFAULT_255_1_234
10
17.2015204
20
-0.2632504
40
1.0486776
50
190.2803198
51
206.0868623
0
ARC
8
DEFAULT_255_1_234
10
16.9675008
20
-0.3744172
40
0.7896203
50
206.3092011
51
215.4198865
0
ARC
8
DEFAULT_255_1_234
10
16.7829187
20
-0.5069083
40
0.5624133
50
215.3186798
51
228.7427908
0
ARC
8
DEFAULT_255_1_234
10
16.7266833
20
-0.5666323
40
0.4804401
50
229.0875508
51
230.6279109
0
ARC
8
DEFAULT_255_1_234
10
16.6285488
20
-0.6103106
40
0.4810083
50
226.8805158
51
240.4595666
0
ARC
8
DEFAULT_255_1_234
10
16.792777
20
-0.4322286
40
0.7232516
50
218.0955553
51
227.026903
0
ARC
8
DEFAULT_255_1_234
10
16.9897225
20
-0.2728547
40
0.9765819
50
214.7572437
51
218.3251998
0
ARC
8
DEFAULT_255_1_234
10
17.0587459
20
-0.2314971
40
1.0568813
50
187.0158204
51
214.4660175
0
ARC
8
DEFAULT_255_1_234
10
17.3749098
20
-0.1796207
40
1.3770744
50
179.8753267
51
187.5513367
0
LINE
8
DEFAULT_255_1_234
10
17.3648403
20
0.1799849
11
17.2098277
21
0.1799849
0
LINE
8
DEFAULT_255_1_234
10
16.5174919
20
-0.3123606
11
16.6725044
21
-0.3123606
0
ARC
8
DEFAULT_255_1_234
10
17.275709
20
1.0746768
40
1.252368
50
248.9199003
51
254.1439814
0
ARC
8
DEFAULT_255_1_234
10
17.1076585
20
0.6420234
40
0.788226
50
241.633709
51
249.0064503
0
ARC
8
DEFAULT_255_1_234
10
16.9547979
20
0.3619317
40
0.4691427
50
230.498225
51
241.8087113
0
ARC
8
DEFAULT_255_1_234
10
16.8763554
20
0.2619906
40
0.3421437
50
227.4064532
51
229.9881192
0
ARC
8
DEFAULT_255_1_234
10
16.8276074
20
0.2144088
40
0.2741476
50
200.6781896
51
228.1763934
0
ARC
8
DEFAULT_255_1_234
10
16.8348385
20
0.2129077
40
0.2804109
50
179.5061581
51
199.8694617
0
ARC
8
DEFAULT_255_1_234
10
16.8339137
20
0.220321
40
0.2795204
50
132.4834203
51
181.0242172
0
ARC
8
DEFAULT_255_1_234
10
16.8934719
20
0.1640704
40
0.3612768
50
129.2532479
51
133.4242687
0
ARC
8
DEFAULT_255_1_234
10
16.9081169
20
0.1420965
40
0.3875675
50
101.98776
51
128.8742646
0
ARC
8
DEFAULT_255_1_234
10
16.9479779
20
-0.0300259
40
0.5642249
50
89.5906553
51
102.3169264
0
ARC
8
DEFAULT_255_1_234
10
16.9550271
20
0.0018148
40
0.5323783
50
77.2360837
51
90.3248275
0
ARC
8
DEFAULT_255_1_234
10
16.975735
20
0.09854
40
0.4334697
50
63.837784
51
77.0809408
0
ARC
8
DEFAULT_255_1_234
10
17.0035112
20
0.1502911
40
0.3747796
50
45.9864267
51
64.1607727
0
ARC
8
DEFAULT_255_1_234
10
17.0295993
20
0.1800866
40
0.3352302
50
32.2747395
51
45.6547121
0
ARC
8
DEFAULT_255_1_234
10
17.0362434
20
0.181988
40
0.328603
50
359.6507365
51
32.6130309
0
ARC
8
DEFAULT_255_1_234
10
16.9419529
20
0.182466
40
0.2678863
50
359.469343
51
14.9832209
0
ARC
8
DEFAULT_255_1_234
10
17.0124592
20
0.2013539
40
0.1948938
50
14.9781179
51
48.2004265
0
ARC
8
DEFAULT_255_1_234
10
16.9960236
20
0.1806983
40
0.2212521
50
48.5927837
51
74.1241538
0
ARC
8
DEFAULT_255_1_234
10
16.9626726
20
0.0706248
40
0.3362561
50
73.7888341
51
86.6652678
0
ARC
8
DEFAULT_255_1_234
10
16.9524291
20
-0.0501119
40
0.4573953
50
86.2640471
51
90.0526343
0
ARC
8
DEFAULT_255_1_234
10
16.9496004
20
-0.0105808
40
0.4178709
50
89.6697524
51
99.2309573
0
ARC
8
DEFAULT_255_1_234
10
16.9253455
20
0.1338964
40
0.2713749
50
99.069534
51
113.7658566
0
ARC
8
DEFAULT_255_1_234
10
16.8979646
20
0.1984677
40
0.2012469
50
114.0401004
51
127.9850673
0
ARC
8
DEFAULT_255_1_234
10
16.873921
20
0.228073
40
0.1631167
50
127.7287463
51
176.7105154
0
ARC
8
DEFAULT_255_1_234
10
16.9417927
20
0.2179693
40
0.2315392
50
175.1779447
51
180.0581938
0
ARC
8
DEFAULT_255_1_234
10
16.8574774
20
0.2167428
40
0.1472271
50
179.6142195
51
228.1246017
0
ARC
8
DEFAULT_255_1_234
10
16.9016443
20
0.2576308
40
0.2072299
50
226.5779593
51
230.8800004
0
ARC
8
DEFAULT_255_1_234
10
16.9487521
20
0.3201636
40
0.2854818
50
231.4635071
51
241.9260842
0
ARC
8
DEFAULT_255_1_234
10
17.0684699
20
0.54048
40
0.53622
50
241.7178533
51
248.3259551
0
ARC
8
DEFAULT_255_1_234
10
17.2070071
20
0.8837064
40
0.9063478
50
248.2007737
51
252.4528373
0
ARC
8
DEFAULT_255_1_234
10
17.3273796
20
1.2558441
40
1.2974635
50
252.3391078
51
254.3469452
0
ARC
8
DEFAULT_255_1_234
10
16.5731499
20
-1.4418852
40
1.5037162
50
71.0197183
51
74.4087047
0
ARC
8
DEFAULT_255_1_234
10
16.7426184
20
-0.9526889
40
0.9859993
50
66.1847285
51
71.086374
0
ARC
8
DEFAULT_255_1_234
10
16.8982496
20
-0.60228
40
0.6025855
50
59.3536294
51
66.2691831
0
ARC
8
DEFAULT_255_1_234
10
16.9871149
20
-0.4519391
40
0.4279449
50
49.1020879
51
59.3293958
0
ARC
8
DEFAULT_255_1_234
10
17.0689888
20
-0.3586166
40
0.3038015
50
32.7919921
51
49.2505539
0
ARC
8
DEFAULT_255_1_234
10
17.1010978
20
-0.3357809
40
0.264448
50
31.1181161
51
32.4005348
0
ARC
8
DEFAULT_255_1_234
10
17.0922516
20
-0.3393221
40
0.2738556
50
8.1116974
51
30.7958831
0
ARC
8
DEFAULT_255_1_234
10
17.0112184
20
-0.3531247
40
0.3560327
50
359.8389159
51
8.4706516
0
ARC
8
DEFAULT_255_1_234
10
17.0737976
20
-0.3579863
40
0.2934776
50
337.4731098
51
0.7537279
0
ARC
8
DEFAULT_255_1_234
10
17.0916671
20
-0.3599613
40
0.2762607
50
307.5917067
51
336.4315538
0
ARC
8
DEFAULT_255_1_234
10
17.0456499
20
-0.3086898
40
0.3449979
50
307.6551545
51
308.4529766
0
ARC
8
DEFAULT_255_1_234
10
17.0226217
20
-0.273175
40
0.3871988
50
284.3734338
51
307.1424381
0
ARC
8
DEFAULT_255_1_234
10
16.9731048
20
-0.0910068
40
0.5759636
50
272.4382747
51
284.646547
0
ARC
8
DEFAULT_255_1_234
10
16.9604256
20
0.0889893
40
0.7563528
50
269.9708387
51
272.8178037
0
ARC
8
DEFAULT_255_1_234
10
16.9561296
20
-0.1148284
40
0.5525489
50
248.2707594
51
270.4055579
0
ARC
8
DEFAULT_255_1_234
10
16.9507037
20
-0.1338808
40
0.5328452
50
246.1383403
51
248.0542782
0
ARC
8
DEFAULT_255_1_234
10
16.9088416
20
-0.2218157
40
0.4355005
50
233.1670131
51
246.4950969
0
ARC
8
DEFAULT_255_1_234
10
16.8534321
20
-0.2966188
40
0.3424126
50
215.3403242
51
233.0843104
0
ARC
8
DEFAULT_255_1_234
10
16.8261752
20
-0.3164451
40
0.3087104
50
179.2419209
51
215.2648451
0
ARC
8
DEFAULT_255_1_234
10
16.9029346
20
-0.3150334
40
0.2304457
50
179.335461
51
199.1045811
0
ARC
8
DEFAULT_255_1_234
10
16.8697023
20
-0.3237234
40
0.1962176
50
199.8828939
51
232.7063202
0
ARC
8
DEFAULT_255_1_234
10
16.9169291
20
-0.2643212
40
0.2720938
50
232.3738199
51
255.5136649
0
ARC
8
DEFAULT_255_1_234
10
16.9510158
20
-0.1399165
40
0.4010747
50
255.2446292
51
267.5320849
0
ARC
8
DEFAULT_255_1_234
10
16.9597781
20
-0.0166298
40
0.5246356
50
267.1557994
51
270.0286766
0
ARC
8
DEFAULT_255_1_234
10
16.9625553
20
-0.061005
40
0.4802668
50
269.7000017
51
278.1660162
0
ARC
8
DEFAULT_255_1_234
10
16.9881558
20
-0.2340485
40
0.3053425
50
278.0231263
51
290.625471
0
ARC
8
DEFAULT_255_1_234
10
17.0229245
20
-0.3267975
40
0.206291
50
290.6619762
51
307.0370976
0
ARC
8
DEFAULT_255_1_234
10
17.0529634
20
-0.3636496
40
0.1587906
50
306.3943566
51
355.3030547
0
ARC
8
DEFAULT_255_1_234
10
17.0017566
20
-0.3559887
40
0.2104809
50
354.3660432
51
0.0698737
0
ARC
8
DEFAULT_255_1_234
10
17.0159911
20
-0.3537383
40
0.1962563
50
359.417946
51
16.1971788
0
ARC
8
DEFAULT_255_1_234
10
17.0615221
20
-0.3412582
40
0.149053
50
16.4723299
51
52.6262157
0
ARC
8
DEFAULT_255_1_234
10
16.9794275
20
-0.4496567
40
0.2850296
50
52.7386432
51
62.4979148
0
ARC
8
DEFAULT_255_1_234
10
16.8409352
20
-0.7102717
40
0.5801521
50
62.2515216
51
68.1220564
0
ARC
8
DEFAULT_255_1_234
10
16.6689263
20
-1.1330128
40
1.0365451
50
68.0062803
51
71.8053402
0
ARC
8
DEFAULT_255_1_234
10
16.4893635
20
-1.6715242
40
1.6042013
50
71.7183119
51
73.9258742
0
LINE
8
DEFAULT_255_1_234
10
17.4909386
20
-1.0287917
11
17.4596148
21
-0.9380331
0
LINE
8
DEFAULT_255_1_234
10
17.7351034
20
-0.2007195
11
17.7351034
21
-0.1750179
0
LINE
8
DEFAULT_255_1_234
10
17.4596148
20
0.577556
11
17.4909386
21
0.6683146
0
ARC
8
DEFAULT_255_1_234
10
16.6421388
20
-0.189543
40
1.2423645
50
344.1904868
51
0.2253822
0
ARC
8
DEFAULT_255_1_234
10
16.8608474
20
-0.2505921
40
1.0152972
50
325.119213
51
344.1427908
0
ARC
8
DEFAULT_255_1_234
10
16.9670154
20
-0.3293866
40
0.8831513
50
317.967044
51
325.3737994
0
ARC
8
DEFAULT_255_1_234
10
17.18404
20
-0.526591
40
0.5899155
50
307.3100287
51
318.080194
0
ARC
8
DEFAULT_255_1_234
10
17.280144
20
-0.6497745
40
0.4336916
50
299.0811021
51
307.0757797
0
ARC
8
DEFAULT_255_1_234
10
17.1499434
20
-0.5411546
40
0.5033973
50
307.9637665
51
325.5180304
0
ARC
8
DEFAULT_255_1_234
10
16.9499428
20
-0.400494
40
0.7478983
50
325.3098476
51
335.8020149
0
ARC
8
DEFAULT_255_1_234
10
16.7179007
20
-0.2909354
40
1.0044704
50
335.5270628
51
339.4414387
0
ARC
8
DEFAULT_255_1_234
10
16.538724
20
-0.2282655
40
1.1942511
50
339.6449462
51
354.0466371
0
ARC
8
DEFAULT_255_1_234
10
16.2566484
20
-0.1929949
40
1.4784752
50
353.8209444
51
359.7006447
0
ARC
8
DEFAULT_255_1_234
10
16.3168416
20
-0.1708828
40
1.4182678
50
359.8329482
51
8.0023648
0
ARC
8
DEFAULT_255_1_234
10
16.5507454
20
-0.1402887
40
1.1823848
50
8.1121946
51
13.6439622
0
ARC
8
DEFAULT_255_1_234
10
16.5835472
20
-0.1298086
40
1.1480393
50
13.5218466
51
21.9948433
0
ARC
8
DEFAULT_255_1_234
10
16.7717787
20
-0.0555466
40
0.9456962
50
22.0942023
51
28.6895864
0
ARC
8
DEFAULT_255_1_234
10
16.9375305
20
0.0374231
40
0.7556643
50
28.5391103
51
36.447286
0
ARC
8
DEFAULT_255_1_234
10
17.1182377
20
0.1718625
40
0.5304353
50
36.3621167
51
47.5145612
0
ARC
8
DEFAULT_255_1_234
10
17.1848215
20
0.2411215
40
0.4343954
50
47.8211516
51
50.7587028
0
ARC
8
DEFAULT_255_1_234
10
17.2569074
20
0.2526164
40
0.4770488
50
47.0772164
51
60.6212093
0
ARC
8
DEFAULT_255_1_234
10
17.0971657
20
0.0784916
40
0.7133435
50
38.1086579
51
47.2062706
0
ARC
8
DEFAULT_255_1_234
10
16.9066013
20
-0.0760862
40
0.9586945
50
34.8936831
51
38.3489414
0
ARC
8
DEFAULT_255_1_234
10
16.8582469
20
-0.1095002
40
1.0174702
50
15.9174809
51
34.8793398
0
ARC
8
DEFAULT_255_1_234
10
16.6515663
20
-0.1683426
40
1.2323639
50
3.0303294
51
15.9129975
0
ARC
8
DEFAULT_255_1_234
10
16.4512175
20
-0.1841246
40
1.4332762
50
359.9787551
51
3.2369421
0
LINE
8
DEFAULT_255_1_234
10
18.4226202
20
-0.0938974
11
18.4226202
21
-0.2151766
0
LINE
8
DEFAULT_255_1_234
10
18.4226202
20
-0.2151766
11
18.0306714
21
-0.2151766
0
LINE
8
DEFAULT_255_1_234
10
18.0306714
20
-0.2151766
11
18.0306714
21
-0.0938974
0
LINE
8
DEFAULT_255_1_234
10
18.0306714
20
-0.0938974
11
18.4226202
21
-0.0938974
0
LINE
8
DEFAULT_255_1_234
10
19.3663495
20
0.1799849
11
19.2113369
21
0.1799849
0
LINE
8
DEFAULT_255_1_234
10
18.5190011
20
-0.3123606
11
18.6740136
21
-0.3123606
0
ARC
8
DEFAULT_255_1_234
10
19.2772182
20
1.0746768
40
1.252368
50
248.9199003
51
254.1439814
0
ARC
8
DEFAULT_255_1_234
10
19.1091677
20
0.6420234
40
0.788226
50
241.633709
51
249.0064503
0
ARC
8
DEFAULT_255_1_234
10
18.9563071
20
0.3619317
40
0.4691427
50
230.498225
51
241.8087113
0
ARC
8
DEFAULT_255_1_234
10
18.8778645
20
0.2619906
40
0.3421437
50
227.4064532
51
229.9881192
0
ARC
8
DEFAULT_255_1_234
10
18.8291166
20
0.2144088
40
0.2741476
50
200.6781896
51
228.1763934
0
ARC
8
DEFAULT_255_1_234
10
18.8363477
20
0.2129077
40
0.2804109
50
179.5061581
51
199.8694617
0
ARC
8
DEFAULT_255_1_234
10
18.8354228
20
0.220321
40
0.2795204
50
132.4834203
51
181.0242172
0
ARC
8
DEFAULT_255_1_234
10
18.8949811
20
0.1640704
40
0.3612768
50
129.2532479
51
133.4242687
0
ARC
8
DEFAULT_255_1_234
10
18.909626
20
0.1420965
40
0.3875675
50
101.98776
51
128.8742646
0
ARC
8
DEFAULT_255_1_234
10
18.9494871
20
-0.0300259
40
0.5642249
50
89.5906553
51
102.3169264
0
ARC
8
DEFAULT_255_1_234
10
18.9565363
20
0.0018148
40
0.5323783
50
77.2360837
51
90.3248275
0
ARC
8
DEFAULT_255_1_234
10
18.9772442
20
0.09854
40
0.4334697
50
63.837784
51
77.0809408
0
ARC
8
DEFAULT_255_1_234
10
19.0050204
20
0.1502911
40
0.3747796
50
45.9864267
51
64.1607727
0
ARC
8
DEFAULT_255_1_234
10
19.0311085
20
0.1800866
40
0.3352302
50
32.2747395
51
45.6547121
0
ARC
8
DEFAULT_255_1_234
10
19.0377526
20
0.181988
40
0.328603
50
359.6507365
51
32.6130309
0
ARC
8
DEFAULT_255_1_234
10
18.9434621
20
0.182466
40
0.2678863
50
359.469343
51
14.9832209
0
ARC
8
DEFAULT_255_1_234
10
19.0139684
20
0.2013539
40
0.1948938
50
14.9781179
51
48.2004265
0
ARC
8
DEFAULT_255_1_234
10
18.9975328
20
0.1806983
40
0.2212521
50
48.5927837
51
74.1241538
0
ARC
8
DEFAULT_255_1_234
10
18.9641817
20
0.0706248
40
0.3362561
50
73.7888341
51
86.6652678
0
ARC
8
DEFAULT_255_1_234
10
18.9539383
20
-0.0501119
40
0.4573953
50
86.2640471
51
90.0526343
0
ARC
8
DEFAULT_255_1_234
10
18.9511096
20
-0.0105808
40
0.4178709
50
89.6697524
51
99.2309573
0
ARC
8
DEFAULT_255_1_234
10
18.9268546
20
0.1338964
40
0.2713749
50
99.069534
51
113.7658566
0
ARC
8
DEFAULT_255_1_234
10
18.8994738
20
0.1984677
40
0.2012469
50
114.0401004
51
127.9850673
0
ARC
8
DEFAULT_255_1_234
10
18.8754302
20
0.228073
40
0.1631167
50
127.7287463
51
176.7105154
0
ARC
8
DEFAULT_255_1_234
10
18.9433019
20
0.2179693
40
0.2315392
50
175.1779447
51
180.0581938
0
ARC
8
DEFAULT_255_1_234
10
18.8589866
20
0.2167428
40
0.1472271
50
179.6142195
51
228.1246017
0
ARC
8
DEFAULT_255_1_234
10
18.9031534
20
0.2576308
40
0.2072299
50
226.5779593
51
230.8800004
0
ARC
8
DEFAULT_255_1_234
10
18.9502613
20
0.3201636
40
0.2854818
50
231.4635071
51
241.9260842
0
ARC
8
DEFAULT_255_1_234
10
19.0699791
20
0.54048
40
0.53622
50
241.7178533
51
248.3259551
0
ARC
8
DEFAULT_255_1_234
10
19.2085163
20
0.8837064
40
0.9063478
50
248.2007737
51
252.4528373
0
ARC
8
DEFAULT_255_1_234
10
19.3288888
20
1.2558441
40
1.2974635
50
252.3391078
51
254.3469452
0
ARC
8
DEFAULT_255_1_234
10
18.574659
20
-1.4418852
40
1.5037162
50
71.0197183
51
74.4087047
0
ARC
8
DEFAULT_255_1_234
10
18.7441276
20
-0.9526889
40
0.9859993
50
66.1847285
51
71.086374
0
ARC
8
DEFAULT_255_1_234
10
18.8997588
20
-0.60228
40
0.6025855
50
59.3536294
51
66.2691831
0
ARC
8
DEFAULT_255_1_234
10
18.988624
20
-0.4519391
40
0.4279449
50
49.1020879
51
59.3293958
0
ARC
8
DEFAULT_255_1_234
10
19.070498
20
-0.3586166
40
0.3038015
50
32.7919921
51
49.2505539
0
ARC
8
DEFAULT_255_1_234
10
19.102607
20
-0.3357809
40
0.264448
50
31.1181161
51
32.4005348
0
ARC
8
DEFAULT_255_1_234
10
19.0937608
20
-0.3393221
40
0.2738556
50
8.1116974
51
30.7958831
0
ARC
8
DEFAULT_255_1_234
10
19.0127276
20
-0.3531247
40
0.3560327
50
359.8389159
51
8.4706516
0
ARC
8
DEFAULT_255_1_234
10
19.0753068
20
-0.3579863
40
0.2934776
50
337.4731098
51
0.7537279
0
ARC
8
DEFAULT_255_1_234
10
19.0931762
20
-0.3599613
40
0.2762607
50
307.5917067
51
336.4315538
0
ARC
8
DEFAULT_255_1_234
10
19.047159
20
-0.3086898
40
0.3449979
50
307.6551545
51
308.4529766
0
ARC
8
DEFAULT_255_1_234
10
19.0241309
20
-0.273175
40
0.3871988
50
284.3734338
51
307.1424381
0
ARC
8
DEFAULT_255_1_234
10
18.9746139
20
-0.0910068
40
0.5759636
50
272.4382747
51
284.646547
0
ARC
8
DEFAULT_255_1_234
10
18.9619348
20
0.0889893
40
0.7563528
50
269.9708387
51
272.8178037
0
ARC
8
DEFAULT_255_1_234
10
18.9576388
20
-0.1148284
40
0.5525489
50
248.2707594
51
270.4055579
0
ARC
8
DEFAULT_255_1_234
10
18.9522129
20
-0.1338808
40
0.5328452
50
246.1383403
51
248.0542782
0
ARC
8
DEFAULT_255_1_234
10
18.9103508
20
-0.2218157
40
0.4355005
50
233.1670131
51
246.4950969
0
ARC
8
DEFAULT_255_1_234
10
18.8549413
20
-0.2966188
40
0.3424126
50
215.3403242
51
233.0843104
0
ARC
8
DEFAULT_255_1_234
10
18.8276844
20
-0.3164451
40
0.3087104
50
179.2419209
51
215.2648451
0
ARC
8
DEFAULT_255_1_234
10
18.9044438
20
-0.3150334
40
0.2304457
50
179.335461
51
199.1045811
0
ARC
8
DEFAULT_255_1_234
10
18.8712114
20
-0.3237234
40
0.1962176
50
199.8828939
51
232.7063202
0
ARC
8
DEFAULT_255_1_234
10
18.9184383
20
-0.2643212
40
0.2720938
50
232.3738199
51
255.5136649
0
ARC
8
DEFAULT_255_1_234
10
18.9525249
20
-0.1399165
40
0.4010747
50
255.2446292
51
267.5320849
0
ARC
8
DEFAULT_255_1_234
10
18.9612873
20
-0.0166298
40
0.5246356
50
267.1557994
51
270.0286766
0
ARC
8
DEFAULT_255_1_234
10
18.9640645
20
-0.061005
40
0.4802668
50
269.7000017
51
278.1660162
0
ARC
8
DEFAULT_255_1_234
10
18.989665
20
-0.2340485
40
0.3053425
50
278.0231263
51
290.625471
0
ARC
8
DEFAULT_255_1_234
10
19.0244337
20
-0.3267975
40
0.206291
50
290.6619762
51
307.0370976
0
ARC
8
DEFAULT_255_1_234
10
19.0544726
20
-0.3636496
40
0.1587906
50
306.3943566
51
355.3030547
0
ARC
8
DEFAULT_255_1_234
10
19.0032658
20
-0.3559887
40
0.2104809
50
354.3660432
51
0.0698737
0
ARC
8
DEFAULT_255_1_234
10
19.0175003
20
-0.3537383
40
0.1962563
50
359.417946
51
16.1971788
0
ARC
8
DEFAULT_255_1_234
10
19.0630313
20
-0.3412582
40
0.149053
50
16.4723299
51
52.6262157
0
ARC
8
DEFAULT_255_1_234
10
18.9809367
20
-0.4496567
40
0.2850296
50
52.7386432
51
62.4979148
0
ARC
8
DEFAULT_255_1_234
10
18.8424444
20
-0.7102717
40
0.5801521
50
62.2515216
51
68.1220564
0
ARC
8
DEFAULT_255_1_234
10
18.6704355
20
-1.1330128
40
1.0365451
50
68.0062803
51
71.8053402
0
ARC
8
DEFAULT_255_1_234
10
18.4908726
20
-1.6715242
40
1.6042013
50
71.7183119
51
73.9258742
0
LINE
8
DEFAULT_255_1_234
10
19.6659333
20
0.5181211
11
19.9478473
21
0.0699501
0
LINE
8
DEFAULT_255_1_234
10
19.9478473
20
0.0699501
11
20.228155
21
0.5181211
0
LINE
8
DEFAULT_255_1_234
10
20.228155
20
0.5181211
11
20.4096723
21
0.5181211
0
LINE
8
DEFAULT_255_1_234
10
20.4096723
20
0.5181211
11
20.0402123
21
-0.0617704
0
LINE
8
DEFAULT_255_1_234
10
20.0402123
20
-0.0617704
11
20.4185072
21
-0.6513
0
LINE
8
DEFAULT_255_1_234
10
20.4185072
20
-0.6513
11
20.2353835
21
-0.6513
0
LINE
8
DEFAULT_255_1_234
10
20.2353835
20
-0.6513
11
19.9478473
21
-0.1950973
0
LINE
8
DEFAULT_255_1_234
10
19.9478473
20
-0.1950973
11
19.6587047
21
-0.6513
0
LINE
8
DEFAULT_255_1_234
10
19.6587047
20
-0.6513
11
19.4763843
21
-0.6513
0
LINE
8
DEFAULT_255_1_234
10
19.4763843
20
-0.6513
11
19.8554823
21
-0.0617704
0
LINE
8
DEFAULT_255_1_234
10
19.8554823
20
-0.0617704
11
19.4852192
21
0.5181211
0
LINE
8
DEFAULT_255_1_234
10
19.4852192
20
0.5181211
11
19.6659333
21
0.5181211
0
LINE
8
DEFAULT_255_2_778
10
10.7061396
20
48.8368073
11
9.5255396
21
48.8368073
0
LINE
8
DEFAULT_255_2_778
10
9.5255396
20
48.8368073
11
10.1160396
21
49.8594073
0
LINE
8
DEFAULT_255_2_778
10
10.1160396
20
49.8594073
11
11.2966396
21
49.8594073
0
LINE
8
DEFAULT_255_2_778
10
11.2966396
20
49.8594073
11
10.7061396
21
48.8368073
0
LINE
8
DEFAULT_255_2_778
10
10.7061396
20
48.8368073
11
10.7061396
21
48.8368073
0
LINE
8
DEFAULT_255_2_778
10
11.8869396
20
48.8368073
11
13.0677396
21
48.8368073
0
LINE
8
DEFAULT_255_2_778
10
13.0677396
20
48.8368073
11
12.4774396
21
49.8594073
0
LINE
8
DEFAULT_255_2_778
10
12.4774396
20
49.8594073
11
11.2966396
21
49.8594073
0
LINE
8
DEFAULT_255_2_778
10
11.2966396
20
49.8594073
11
11.8869396
21
48.8368073
0
LINE
8
DEFAULT_255_2_778
10
11.8869396
20
48.8368073
11
11.8869396
21
48.8368073
0
LINE
8
DEFAULT_255_2_778
10
11.8868823
20
50.8820146
11
11.2965823
21
51.9046146
0
LINE
8
DEFAULT_255_2_778
10
11.2965823
20
51.9046146
11
10.7060823
21
50.8820146
0
LINE
8
DEFAULT_255_2_778
10
10.7060823
20
50.8820146
11
11.2965823
21
49.8594146
0
LINE
8
DEFAULT_255_2_778
10
11.2965823
20
49.8594146
11
11.8868823
21
50.8820146
0
LINE
8
DEFAULT_255_2_778
10
11.8868823
20
50.8820146
11
11.8868823
21
50.8820146
0
ARC
8
DEFAULT_255_2_778
10
16.6506731
20
50.5282426
40
0.5650491
50
268.7543645
51
289.1417717
0
ARC
8
DEFAULT_255_2_778
10
16.738508
20
50.2730531
40
0.2951681
50
289.2776255
51
3.7648372
0
ARC
8
DEFAULT_255_2_778
10
16.5224618
20
50.2996085
40
0.5106278
50
359.1949826
51
0.0020862
0
ARC
8
DEFAULT_255_2_778
10
16.679749
20
50.2855832
40
0.1541914
50
280.2616216
51
358.5297855
0
ARC
8
DEFAULT_255_2_778
10
16.6403075
20
50.398155
40
0.2726346
50
269.5969454
51
284.2065679
0
ARC
8
DEFAULT_255_2_778
10
16.6304967
20
50.3825316
40
0.2571258
50
246.5290903
51
271.7590909
0
ARC
8
DEFAULT_255_2_778
10
16.5850148
20
50.2745009
40
0.1399248
50
188.1071678
51
245.9934684
0
ARC
8
DEFAULT_255_2_778
10
16.6152007
20
50.2814617
40
0.1708111
50
179.9445314
51
188.990814
0
ARC
8
DEFAULT_255_2_778
10
16.6247507
20
50.2882849
40
0.3763411
50
178.2272621
51
205.8283807
0
ARC
8
DEFAULT_255_2_778
10
16.5455476
20
50.2705833
40
0.2979176
50
209.4028057
51
263.0375728
0
ARC
8
DEFAULT_255_2_778
10
16.6328111
20
50.6452629
40
0.6816586
50
259.5722942
51
270.4689037
0
ARC
8
DEFAULT_255_2_778
10
17.543552
20
50.7014767
40
0.1217154
50
2.0482843
51
87.015299
0
ARC
8
DEFAULT_255_2_778
10
17.5383617
20
50.7058852
40
0.126828
50
353.0600847
51
359.9737428
0
ARC
8
DEFAULT_255_2_778
10
17.5433442
20
50.7027555
40
0.1215295
50
270.5739762
51
354.2410513
0
ARC
8
DEFAULT_255_2_778
10
17.5388059
20
50.7389297
40
0.1578027
50
269.9941256
51
272.0902921
0
ARC
8
DEFAULT_255_2_778
10
17.546384
20
50.2880295
40
0.1400686
50
358.2807293
51
95.6106825
0
ARC
8
DEFAULT_255_2_778
10
17.5426233
20
50.2841963
40
0.1437669
50
266.9962473
51
359.8528392
0
ARC
8
DEFAULT_255_2_778
10
17.6048249
20
50.3244988
40
0.3335288
50
268.2414507
51
302.0223478
0
ARC
8
DEFAULT_255_2_778
10
17.6414261
20
50.249183
40
0.2504234
50
304.0600275
51
2.0468005
0
ARC
8
DEFAULT_255_2_778
10
17.6155788
20
50.2558521
40
0.2761203
50
0.4720601
51
65.8403529
0
ARC
8
DEFAULT_255_2_778
10
17.6514655
20
50.3206061
40
0.2024466
50
67.606893
51
75.8693222
0
ARC
8
DEFAULT_255_2_778
10
17.6365026
20
50.728222
40
0.2208874
50
286.9473417
51
358.0074963
0
ARC
8
DEFAULT_255_2_778
10
17.6033866
20
50.7370045
40
0.2544031
50
356.2897886
51
0.0050857
0
ARC
8
DEFAULT_255_2_778
10
17.629562
20
50.7420946
40
0.2282839
50
358.7280137
51
81.8073164
0
ARC
8
DEFAULT_255_2_778
10
17.5539369
20
50.4906283
40
0.4895182
50
77.2355086
51
90.5088275
0
ARC
8
DEFAULT_255_2_778
10
17.7165747
20
49.5260989
40
0.1302704
50
89.9972707
51
92.6773048
0
ARC
8
DEFAULT_255_2_778
10
17.7167071
20
49.52687
40
0.1294993
50
45.0546048
51
90.0558451
0
ARC
8
DEFAULT_255_2_778
10
17.7167118
20
49.526719
40
0.1296029
50
0.001866
51
45.1031959
0
ARC
8
DEFAULT_255_2_778
10
17.7168123
20
49.5267202
40
0.1295026
50
357.4803735
51
0.0013544
0
ARC
8
DEFAULT_255_2_778
10
17.7224979
20
49.5228512
40
0.1237052
50
339.8672523
51
359.1550732
0
ARC
8
DEFAULT_255_2_778
10
17.7117513
20
49.5200079
40
0.1329691
50
272.0853006
51
342.6124646
0
ARC
8
DEFAULT_255_2_778
10
17.7919145
20
49.5582661
40
0.2575135
50
286.787355
51
290.6121696
0
ARC
8
DEFAULT_255_2_778
10
17.8012461
20
49.5439533
40
0.24086
50
289.7330405
51
342.3216972
0
ARC
8
DEFAULT_255_2_778
10
17.773561
20
49.5487954
40
0.268735
50
343.130572
51
0.3905272
0
ARC
8
DEFAULT_255_2_778
10
17.7901783
20
49.5661767
40
0.2525904
50
356.4706028
51
80.1788963
0
ARC
8
DEFAULT_255_2_778
10
17.7244649
20
49.3392163
40
0.4881286
50
77.1212301
51
90.4900821
0
ARC
8
DEFAULT_255_2_778
10
17.6489337
20
49.041536
40
0.1865405
50
50.1507009
51
92.9634648
0
ARC
8
DEFAULT_255_2_778
10
17.6624354
20
49.0698678
40
0.1563319
50
12.621233
51
47.2950617
0
ARC
8
DEFAULT_255_2_778
10
16.9808884
20
48.9369726
40
0.8506657
50
2.8173892
51
11.3253986
0
ARC
8
DEFAULT_255_2_778
10
-29.0972733
20
45.4406175
40
47.060992
50
4.3048394
51
4.3117143
0
ARC
8
DEFAULT_255_2_778
10
18.6823859
20
49.013084
40
0.8523717
50
182.6850102
51
191.2954256
0
ARC
8
DEFAULT_255_2_778
10
18.0979837
20
48.9067399
40
0.2586603
50
193.5512904
51
195.3825538
0
ARC
8
DEFAULT_255_2_778
10
19.4830425
20
49.1656408
40
1.4700994
50
182.6283124
51
192.8725697
0
ARC
8
DEFAULT_255_2_778
10
17.7530606
20
49.0927215
40
0.261487
50
1.2064311
51
30.4123358
0
ARC
8
DEFAULT_255_2_778
10
17.7986626
20
49.107776
40
0.2147766
50
33.1081154
51
71.7312197
0
LINE
8
DEFAULT_255_2_778
10
13.5980897
20
49.2723271
11
14.0708897
21
49.2723271
0
LINE
8
DEFAULT_255_2_778
10
14.0708897
20
49.2723271
11
14.0708897
21
49.4437271
0
LINE
8
DEFAULT_255_2_778
10
14.0708897
20
49.4437271
11
13.5980897
21
49.4437271
0
LINE
8
DEFAULT_255_2_778
10
13.5980897
20
49.4437271
11
13.5980897
21
49.6546271
0
LINE
8
DEFAULT_255_2_778
10
13.5980897
20
49.6546271
11
14.1300897
21
49.6546271
0
LINE
8
DEFAULT_255_2_778
10
14.1300897
20
49.6546271
11
14.1300897
21
49.8260271
0
LINE
8
DEFAULT_255_2_778
10
14.1300897
20
49.8260271
11
13.5980897
21
49.8260271
0
LINE
8
DEFAULT_255_2_778
10
13.5980897
20
49.8260271
11
13.3974897
21
49.8260271
0
LINE
8
DEFAULT_255_2_778
10
13.3974897
20
49.8260271
11
13.3974897
21
49.6546271
0
LINE
8
DEFAULT_255_2_778
10
13.3974897
20
49.6546271
11
13.3974897
21
49.0082271
0
LINE
8
DEFAULT_255_2_778
10
13.3974897
20
49.0082271
11
13.3974897
21
48.8367271
0
LINE
8
DEFAULT_255_2_778
10
13.3974897
20
48.8367271
11
13.5980897
21
48.8367271
0
LINE
8
DEFAULT_255_2_778
10
13.5980897
20
48.8367271
11
14.1441897
21
48.8367271
0
LINE
8
DEFAULT_255_2_778
10
14.1441897
20
48.8367271
11
14.1441897
21
49.0082271
0
LINE
8
DEFAULT_255_2_778
10
14.1441897
20
49.0082271
11
13.5980897
21
49.0082271
0
LINE
8
DEFAULT_255_2_778
10
13.5980897
20
49.0082271
11
13.5980897
21
49.2720271
0
LINE
8
DEFAULT_255_2_778
10
13.5980897
20
49.2720271
11
13.5980897
21
49.2723271
0
LINE
8
DEFAULT_255_2_778
10
13.5842897
20
50.7264271
11
13.7943897
21
49.9911271
0
LINE
8
DEFAULT_255_2_778
10
13.7943897
20
49.9911271
11
13.8027897
21
49.9911271
0
LINE
8
DEFAULT_255_2_778
10
13.8027897
20
49.9911271
11
13.9787897
21
49.9911271
0
LINE
8
DEFAULT_255_2_778
10
13.9787897
20
49.9911271
11
13.9869897
21
49.9911271
0
LINE
8
DEFAULT_255_2_778
10
13.9869897
20
49.9911271
11
14.1970897
21
50.7264271
0
LINE
8
DEFAULT_255_2_778
10
14.1970897
20
50.7264271
11
14.1970897
21
49.9911271
0
LINE
8
DEFAULT_255_2_778
10
14.1970897
20
49.9911271
11
14.3838897
21
49.9911271
0
LINE
8
DEFAULT_255_2_778
10
14.3838897
20
49.9911271
11
14.3838897
21
50.9804271
0
LINE
8
DEFAULT_255_2_778
10
14.3838897
20
50.9804271
11
14.2819897
21
50.9804271
0
LINE
8
DEFAULT_255_2_778
10
14.2819897
20
50.9804271
11
14.1938897
21
50.9804271
0
LINE
8
DEFAULT_255_2_778
10
14.1938897
20
50.9804271
11
14.0978897
21
50.9804271
0
LINE
8
DEFAULT_255_2_778
10
14.0978897
20
50.9804271
11
13.8906897
21
50.2861271
0
LINE
8
DEFAULT_255_2_778
10
13.8906897
20
50.2861271
11
13.6834897
21
50.9804271
0
LINE
8
DEFAULT_255_2_778
10
13.6834897
20
50.9804271
11
13.5874897
21
50.9804271
0
LINE
8
DEFAULT_255_2_778
10
13.5874897
20
50.9804271
11
13.4993897
21
50.9804271
0
LINE
8
DEFAULT_255_2_778
10
13.4993897
20
50.9804271
11
13.3974897
21
50.9804271
0
LINE
8
DEFAULT_255_2_778
10
13.3974897
20
50.9804271
11
13.3974897
21
49.9911271
0
LINE
8
DEFAULT_255_2_778
10
13.3974897
20
49.9911271
11
13.5842897
21
49.9911271
0
LINE
8
DEFAULT_255_2_778
10
13.5842897
20
49.9911271
11
13.5842897
21
50.7264271
0
LINE
8
DEFAULT_255_2_778
10
13.5842897
20
50.7264271
11
13.5842897
21
50.7264271
0
LINE
8
DEFAULT_255_2_778
10
18.1379897
20
50.9804271
11
17.9387897
21
50.9804271
0
LINE
8
DEFAULT_255_2_778
10
17.9387897
20
50.9804271
11
17.9387897
21
49.9911271
0
LINE
8
DEFAULT_255_2_778
10
17.9387897
20
49.9911271
11
18.1379897
21
49.9911271
0
LINE
8
DEFAULT_255_2_778
10
18.1379897
20
49.9911271
11
18.1379897
21
50.9804271
0
LINE
8
DEFAULT_255_2_778
10
18.1379897
20
50.9804271
11
18.1379897
21
50.9804271
0
LINE
8
DEFAULT_255_2_778
10
18.3004897
20
49.8263271
11
18.1012897
21
49.8263271
0
LINE
8
DEFAULT_255_2_778
10
18.1012897
20
49.8263271
11
18.1012897
21
48.8370271
0
LINE
8
DEFAULT_255_2_778
10
18.1012897
20
48.8370271
11
18.3004897
21
48.8370271
0
LINE
8
DEFAULT_255_2_778
10
18.3004897
20
48.8370271
11
18.3004897
21
49.8263271
0
LINE
8
DEFAULT_255_2_778
10
18.3004897
20
49.8263271
11
18.3004897
21
49.8263271
0
LINE
8
DEFAULT_255_2_778
10
20.1088897
20
50.9804271
11
19.9096897
21
50.9804271
0
LINE
8
DEFAULT_255_2_778
10
19.9096897
20
50.9804271
11
19.9096897
21
49.9911271
0
LINE
8
DEFAULT_255_2_778
10
19.9096897
20
49.9911271
11
20.1088897
21
49.9911271
0
LINE
8
DEFAULT_255_2_778
10
20.1088897
20
49.9911271
11
20.1088897
21
50.9804271
0
LINE
8
DEFAULT_255_2_778
10
20.1088897
20
50.9804271
11
20.1088897
21
50.9804271
0
LINE
8
DEFAULT_255_2_778
10
14.6621897
20
50.9804271
11
14.4629897
21
50.9804271
0
LINE
8
DEFAULT_255_2_778
10
14.4629897
20
50.9804271
11
14.4629897
21
49.9911271
0
LINE
8
DEFAULT_255_2_778
10
14.4629897
20
49.9911271
11
14.6621897
21
49.9911271
0
LINE
8
DEFAULT_255_2_778
10
14.6621897
20
49.9911271
11
14.6621897
21
50.9804271
0
LINE
8
DEFAULT_255_2_778
10
14.6621897
20
50.9804271
11
14.6621897
21
50.9804271
0
LINE
8
DEFAULT_255_2_778
10
19.6312897
20
50.5944271
11
19.2352897
21
50.5944271
0
LINE
8
DEFAULT_255_2_778
10
19.2352897
20
50.5944271
11
19.2352897
21
50.9801271
0
LINE
8
DEFAULT_255_2_778
10
19.2352897
20
50.9801271
11
19.0391897
21
50.9801271
0
LINE
8
DEFAULT_255_2_778
10
19.0391897
20
50.9801271
11
19.0391897
21
49.9911271
0
LINE
8
DEFAULT_255_2_778
10
19.0391897
20
49.9911271
11
19.2352897
21
49.9911271
0
LINE
8
DEFAULT_255_2_778
10
19.2352897
20
49.9911271
11
19.2352897
21
50.4229271
0
LINE
8
DEFAULT_255_2_778
10
19.2352897
20
50.4229271
11
19.6312897
21
50.4229271
0
LINE
8
DEFAULT_255_2_778
10
19.6312897
20
50.4229271
11
19.6312897
21
49.9911271
0
LINE
8
DEFAULT_255_2_778
10
19.6312897
20
49.9911271
11
19.8273897
21
49.9911271
0
LINE
8
DEFAULT_255_2_778
10
19.8273897
20
49.9911271
11
19.8273897
21
50.9801271
0
LINE
8
DEFAULT_255_2_778
10
19.8273897
20
50.9801271
11
19.6312897
21
50.9801271
0
LINE
8
DEFAULT_255_2_778
10
19.6312897
20
50.9801271
11
19.6312897
21
50.5944271
0
LINE
8
DEFAULT_255_2_778
10
19.6312897
20
50.5944271
11
19.6312897
21
50.5944271
0
LINE
8
DEFAULT_255_2_778
10
14.9569897
20
49.9911271
11
15.1603897
21
49.9911271
0
LINE
8
DEFAULT_255_2_778
10
15.1603897
20
49.9911271
11
15.1603897
21
50.8090271
0
LINE
8
DEFAULT_255_2_778
10
15.1603897
20
50.8090271
11
15.4019897
21
50.8090271
0
LINE
8
DEFAULT_255_2_778
10
15.4019897
20
50.8090271
11
15.4019897
21
50.9804271
0
LINE
8
DEFAULT_255_2_778
10
15.4019897
20
50.9804271
11
15.1603897
21
50.9804271
0
LINE
8
DEFAULT_255_2_778
10
15.1603897
20
50.9804271
11
14.9569897
21
50.9804271
0
LINE
8
DEFAULT_255_2_778
10
14.9569897
20
50.9804271
11
14.7153897
21
50.9804271
0
LINE
8
DEFAULT_255_2_778
10
14.7153897
20
50.9804271
11
14.7153897
21
50.8090271
0
LINE
8
DEFAULT_255_2_778
10
14.7153897
20
50.8090271
11
14.9569897
21
50.8090271
0
LINE
8
DEFAULT_255_2_778
10
14.9569897
20
50.8090271
11
14.9569897
21
49.9911271
0
LINE
8
DEFAULT_255_2_778
10
14.9569897
20
49.9911271
11
14.9569897
21
49.9911271
0
LINE
8
DEFAULT_255_2_778
10
16.7745897
20
48.8370271
11
16.9777897
21
48.8370271
0
LINE
8
DEFAULT_255_2_778
10
16.9777897
20
48.8370271
11
16.9777897
21
49.6548271
0
LINE
8
DEFAULT_255_2_778
10
16.9777897
20
49.6548271
11
17.2196897
21
49.6548271
0
LINE
8
DEFAULT_255_2_778
10
17.2196897
20
49.6548271
11
17.2196897
21
49.8266271
0
LINE
8
DEFAULT_255_2_778
10
17.2196897
20
49.8266271
11
16.9777897
21
49.8266271
0
LINE
8
DEFAULT_255_2_778
10
16.9777897
20
49.8266271
11
16.7745897
21
49.8266271
0
LINE
8
DEFAULT_255_2_778
10
16.7745897
20
49.8266271
11
16.5327897
21
49.8266271
0
LINE
8
DEFAULT_255_2_778
10
16.5327897
20
49.8266271
11
16.5327897
21
49.6548271
0
LINE
8
DEFAULT_255_2_778
10
16.5327897
20
49.6548271
11
16.7745897
21
49.6548271
0
LINE
8
DEFAULT_255_2_778
10
16.7745897
20
49.6548271
11
16.7745897
21
48.8370271
0
LINE
8
DEFAULT_255_2_778
10
16.7745897
20
48.8370271
11
16.7745897
21
48.8370271
0
LINE
8
DEFAULT_255_2_778
10
17.0330897
20
50.2996271
11
17.0330897
21
50.9801271
0
LINE
8
DEFAULT_255_2_778
10
17.0330897
20
50.9801271
11
16.8338897
21
50.9801271
0
LINE
8
DEFAULT_255_2_778
10
16.8338897
20
50.9801271
11
16.8338897
21
50.2816271
0
LINE
8
DEFAULT_255_2_778
10
16.4443897
20
50.2816271
11
16.4443897
21
50.9801271
0
LINE
8
DEFAULT_255_2_778
10
16.4443897
20
50.9801271
11
16.2485897
21
50.9801271
0
LINE
8
DEFAULT_255_2_778
10
16.2485897
20
50.9801271
11
16.2485897
21
50.2999271
0
LINE
8
DEFAULT_255_2_778
10
15.1323897
20
49.2723271
11
15.6053897
21
49.2723271
0
LINE
8
DEFAULT_255_2_778
10
15.6053897
20
49.2723271
11
15.6053897
21
49.4437271
0
LINE
8
DEFAULT_255_2_778
10
15.6053897
20
49.4437271
11
15.1323897
21
49.4437271
0
LINE
8
DEFAULT_255_2_778
10
15.1323897
20
49.4437271
11
15.1323897
21
49.6546271
0
LINE
8
DEFAULT_255_2_778
10
15.1323897
20
49.6546271
11
15.6643897
21
49.6546271
0
LINE
8
DEFAULT_255_2_778
10
15.6643897
20
49.6546271
11
15.6643897
21
49.8260271
0
LINE
8
DEFAULT_255_2_778
10
15.6643897
20
49.8260271
11
15.1323897
21
49.8260271
0
LINE
8
DEFAULT_255_2_778
10
15.1323897
20
49.8260271
11
14.9320897
21
49.8260271
0
LINE
8
DEFAULT_255_2_778
10
14.9320897
20
49.8260271
11
14.9320897
21
49.6546271
0
LINE
8
DEFAULT_255_2_778
10
14.9320897
20
49.6546271
11
14.9320897
21
49.0082271
0
LINE
8
DEFAULT_255_2_778
10
14.9320897
20
49.0082271
11
14.9320897
21
48.8367271
0
LINE
8
DEFAULT_255_2_778
10
14.9320897
20
48.8367271
11
15.1323897
21
48.8367271
0
LINE
8
DEFAULT_255_2_778
10
15.1323897
20
48.8367271
11
15.6784897
21
48.8367271
0
LINE
8
DEFAULT_255_2_778
10
15.6784897
20
48.8367271
11
15.6784897
21
49.0082271
0
LINE
8
DEFAULT_255_2_778
10
15.6784897
20
49.0082271
11
15.1323897
21
49.0082271
0
LINE
8
DEFAULT_255_2_778
10
15.1323897
20
49.0082271
11
15.1323897
21
49.2720271
0
LINE
8
DEFAULT_255_2_778
10
15.1323897
20
49.2720271
11
15.1323897
21
49.2723271
0
LINE
8
DEFAULT_255_2_778
10
17.5387897
20
50.5811271
11
17.3013897
21
50.5811271
0
LINE
8
DEFAULT_255_2_778
10
17.3013897
20
50.5811271
11
17.3013897
21
50.8227271
0
LINE
8
DEFAULT_255_2_778
10
17.3013897
20
50.8227271
11
17.5498897
21
50.8227271
0
LINE
8
DEFAULT_255_2_778
10
17.5498897
20
50.8227271
11
17.5498897
21
50.8230271
0
LINE
8
DEFAULT_255_2_778
10
17.5350897
20
50.1403271
11
17.3013897
21
50.1403271
0
LINE
8
DEFAULT_255_2_778
10
17.3013897
20
50.1403271
11
17.3013897
21
50.4274271
0
LINE
8
DEFAULT_255_2_778
10
17.3013897
20
50.4274271
11
17.5326897
21
50.4274271
0
LINE
8
DEFAULT_255_2_778
10
17.3090897
20
49.9911271
11
17.5945897
21
49.9911271
0
LINE
8
DEFAULT_255_2_778
10
17.5495897
20
50.9801271
11
17.3093897
21
50.9801271
0
LINE
8
DEFAULT_255_2_778
10
17.3093897
20
50.9801271
11
17.1045897
21
50.9801271
0
LINE
8
DEFAULT_255_2_778
10
17.1045897
20
50.9801271
11
17.1034897
21
50.9801271
0
LINE
8
DEFAULT_255_2_778
10
17.1034897
20
50.9801271
11
17.1034897
21
49.9911271
0
LINE
8
DEFAULT_255_2_778
10
17.1034897
20
49.9911271
11
17.1045897
21
49.9911271
0
LINE
8
DEFAULT_255_2_778
10
17.1045897
20
49.9911271
11
17.3093897
21
49.9911271
0
LINE
8
DEFAULT_255_2_778
10
17.3093897
20
49.9911271
11
17.3090897
21
49.9911271
0
LINE
8
DEFAULT_255_2_778
10
17.4691897
20
49.3868271
11
17.4691897
21
49.6562271
0
LINE
8
DEFAULT_255_2_778
10
17.4691897
20
49.6562271
11
17.7104897
21
49.6562271
0
LINE
8
DEFAULT_255_2_778
10
17.7165897
20
49.3871271
11
17.4693897
21
49.3871271
0
LINE
8
DEFAULT_255_2_778
10
17.4693897
20
49.3871271
11
17.4691897
21
49.3868271
0
LINE
8
DEFAULT_255_2_778
10
17.7202897
20
49.8273271
11
17.4691897
21
49.8273271
0
LINE
8
DEFAULT_255_2_778
10
17.4691897
20
49.8273271
11
17.2706897
21
49.8273271
0
LINE
8
DEFAULT_255_2_778
10
17.2706897
20
49.8273271
11
17.2685897
21
49.8273271
0
LINE
8
DEFAULT_255_2_778
10
17.2685897
20
49.8273271
11
17.2685897
21
48.8381271
0
LINE
8
DEFAULT_255_2_778
10
17.2685897
20
48.8381271
11
17.4691897
21
48.8381271
0
LINE
8
DEFAULT_255_2_778
10
17.4691897
20
48.8381271
11
17.4691897
21
49.2278271
0
LINE
8
DEFAULT_255_2_778
10
17.4691897
20
49.2278271
11
17.6392897
21
49.2278271
0
LINE
8
DEFAULT_255_2_778
10
17.8485897
20
48.8381271
11
18.0498897
21
48.8381271
0
LINE
8
DEFAULT_255_2_778
10
14.4086897
20
49.8263271
11
14.2083897
21
49.8263271
0
LINE
8
DEFAULT_255_2_778
10
14.2083897
20
49.8263271
11
14.2083897
21
49.0085271
0
LINE
8
DEFAULT_255_2_778
10
14.2083897
20
49.0085271
11
14.2083897
21
48.8370271
0
LINE
8
DEFAULT_255_2_778
10
14.2083897
20
48.8370271
11
14.4086897
21
48.8370271
0
LINE
8
DEFAULT_255_2_778
10
14.4086897
20
48.8370271
11
14.8751897
21
48.8370271
0
LINE
8
DEFAULT_255_2_778
10
14.8751897
20
48.8370271
11
14.8751897
21
49.0085271
0
LINE
8
DEFAULT_255_2_778
10
14.8751897
20
49.0085271
11
14.4086897
21
49.0085271
0
LINE
8
DEFAULT_255_2_778
10
14.4086897
20
49.0085271
11
14.4086897
21
49.8263271
0
LINE
8
DEFAULT_255_2_778
10
14.4086897
20
49.8263271
11
14.4086897
21
49.8263271
0
ARC
8
DEFAULT_255_2_778
10
15.5907271
20
49.4521969
40
0.9681224
50
72.4822103
51
81.3184214
0
ARC
8
DEFAULT_255_2_778
10
15.8483297
20
50.2288918
40
0.1503783
50
28.8883513
51
77.0092434
0
ARC
8
DEFAULT_255_2_778
10
15.8755379
20
50.2578196
40
0.113238
50
358.9917455
51
22.7117017
0
ARC
8
DEFAULT_255_2_778
10
15.8717861
20
50.2619918
40
0.1171346
50
289.2958104
51
356.9831562
0
ARC
8
DEFAULT_255_2_778
10
15.7991261
20
50.4194882
40
0.2902651
50
268.4665462
51
292.5613311
0
ARC
8
DEFAULT_255_2_778
10
15.7819856
20
50.3604179
40
0.2312808
50
236.4956947
51
272.3225735
0
ARC
8
DEFAULT_255_2_778
10
15.7429646
20
50.2921839
40
0.1529307
50
178.9722202
51
234.5742435
0
ARC
8
DEFAULT_255_2_778
10
15.6979113
20
50.2826079
40
0.3002058
50
177.6481608
51
245.5596397
0
ARC
8
DEFAULT_255_2_778
10
15.7732971
20
50.4548561
40
0.488217
50
245.8690375
51
267.169035
0
ARC
8
DEFAULT_255_2_778
10
15.7994503
20
50.7058916
40
0.7403648
50
266.1069867
51
270.0547972
0
ARC
8
DEFAULT_255_2_778
10
15.8095894
20
50.5371135
40
0.5716642
50
269.0547216
51
287.7147747
0
ARC
8
DEFAULT_255_2_778
10
15.8921889
20
50.2914091
40
0.3125017
50
286.995984
51
325.1221533
0
ARC
8
DEFAULT_255_2_778
10
15.9001294
20
50.274861
40
0.2966627
50
326.8673922
51
0.8625726
0
ARC
8
DEFAULT_255_2_778
10
15.9221286
20
50.2834409
40
0.2746606
50
359.1417932
51
76.9739731
0
ARC
8
DEFAULT_255_2_778
10
15.8028461
20
50.0025719
40
0.577616
50
71.7185727
51
79.1315439
0
ARC
8
DEFAULT_255_2_778
10
14.3815968
20
42.648967
40
8.0673056
50
79.0662148
51
79.6216572
0
ARC
8
DEFAULT_255_2_778
10
16.5679585
20
54.5266581
40
4.0099443
50
259.1227669
51
259.4665204
0
ARC
8
DEFAULT_255_2_778
10
15.9159732
20
51.2316142
40
0.6513291
50
249.9945768
51
260.7485895
0
ARC
8
DEFAULT_255_2_778
10
15.7203401
20
50.7205999
40
0.1046098
50
178.6705173
51
254.9333545
0
ARC
8
DEFAULT_255_2_778
10
15.7372957
20
50.7171688
40
0.1216785
50
93.288632
51
177.2403935
0
ARC
8
DEFAULT_255_2_778
10
15.7908677
20
50.5301752
40
0.3143588
50
89.6189463
51
101.1057977
0
ARC
8
DEFAULT_255_2_778
10
15.8045733
20
50.642016
40
0.2028439
50
53.5634072
51
93.2825843
0
ARC
8
DEFAULT_255_2_778
10
15.8341505
20
50.7002144
40
0.1388739
50
357.1985816
51
49.1152298
0
ARC
8
DEFAULT_255_2_778
10
15.8577907
20
50.6934274
40
0.3087677
50
359.9999335
51
2.3703878
0
ARC
8
DEFAULT_255_2_778
10
15.8676555
20
50.6949337
40
0.298851
50
2.1600756
51
60.1092229
0
ARC
8
DEFAULT_255_2_778
10
15.8089212
20
50.5883133
40
0.4205645
50
60.4106856
51
86.1444419
0
ARC
8
DEFAULT_255_2_778
10
15.7859151
20
50.4116228
40
0.5985046
50
85.0843314
51
90.0628677
0
ARC
8
DEFAULT_255_2_778
10
15.7852718
20
50.5350466
40
0.4750804
50
90.001616
51
92.2300394
0
ARC
8
DEFAULT_255_2_778
10
15.7604193
20
50.640187
40
0.3696351
50
89.0131319
51
149.6364996
0
ARC
8
DEFAULT_255_2_778
10
15.6828461
20
50.7124055
40
0.2671974
50
154.5962367
51
180.4885883
0
ARC
8
DEFAULT_255_2_778
10
15.6974524
20
50.710884
40
0.281795
50
180.1539064
51
255.1120325
0
ARC
8
DEFAULT_255_2_778
10
15.8417242
20
51.033732
40
0.6333958
50
249.9962237
51
260.4976723
0
ARC
8
DEFAULT_255_2_778
10
18.3793963
20
49.4533351
40
0.967002
50
72.4685023
51
81.3064395
0
ARC
8
DEFAULT_255_2_778
10
18.6368397
20
50.228927
40
0.1503535
50
28.8782248
51
76.9904304
0
ARC
8
DEFAULT_255_2_778
10
18.6640197
20
50.2578189
40
0.1132561
50
358.9922779
51
22.7082666
0
ARC
8
DEFAULT_255_2_778
10
18.6603402
20
50.2619088
40
0.1170763
50
289.2761556
51
357.0223042
0
ARC
8
DEFAULT_255_2_778
10
18.5876612
20
50.4197836
40
0.2905613
50
268.4611814
51
292.5289055
0
ARC
8
DEFAULT_255_2_778
10
18.5704801
20
50.3613175
40
0.2321799
50
236.6698634
51
272.3149402
0
ARC
8
DEFAULT_255_2_778
10
18.53108
20
50.2921762
40
0.1528464
50
178.9687581
51
234.7686008
0
ARC
8
DEFAULT_255_2_778
10
18.4863113
20
50.2826079
40
0.3002058
50
177.6481608
51
245.5596397
0
ARC
8
DEFAULT_255_2_778
10
18.5616971
20
50.4548561
40
0.488217
50
245.8690375
51
267.169035
0
ARC
8
DEFAULT_255_2_778
10
18.5878503
20
50.7058916
40
0.7403648
50
266.1069867
51
270.0547972
0
ARC
8
DEFAULT_255_2_778
10
18.5979836
20
50.5377451
40
0.5722957
50
269.0563423
51
287.7048702
0
ARC
8
DEFAULT_255_2_778
10
18.680644
20
50.2917682
40
0.312856
50
286.9832601
51
325.0871916
0
ARC
8
DEFAULT_255_2_778
10
18.6890708
20
50.2748856
40
0.2964208
50
326.8311942
51
0.8585267
0
ARC
8
DEFAULT_255_2_778
10
18.7108756
20
50.2835282
40
0.2746149
50
359.1234265
51
76.9343785
0
ARC
8
DEFAULT_255_2_778
10
18.5919421
20
50.0036965
40
0.5764934
50
71.6999697
51
79.1198353
0
ARC
8
DEFAULT_255_2_778
10
17.1496657
20
42.5269392
40
8.1910887
50
79.0843627
51
79.6321368
0
ARC
8
DEFAULT_255_2_778
10
19.3523266
20
54.5064177
40
3.9892176
50
259.1314419
51
259.4772924
0
ARC
8
DEFAULT_255_2_778
10
18.7046251
20
51.2310131
40
0.6507003
50
249.9919323
51
260.7592458
0
ARC
8
DEFAULT_255_2_778
10
18.509201
20
50.7205546
40
0.1045718
50
178.6452075
51
254.9151907
0
ARC
8
DEFAULT_255_2_778
10
18.5262581
20
50.7171016
40
0.121744
50
93.2745253
51
177.21023
0
ARC
8
DEFAULT_255_2_778
10
18.5798726
20
50.5300052
40
0.3145287
50
89.6200387
51
101.1027534
0
ARC
8
DEFAULT_255_2_778
10
18.5936489
20
50.6433453
40
0.2015212
50
53.1490002
51
93.3256649
0
ARC
8
DEFAULT_255_2_778
10
18.6225753
20
50.7001519
40
0.1391457
50
357.2298288
51
48.6469881
0
ARC
8
DEFAULT_255_2_778
10
18.6460232
20
50.6934226
40
0.3092351
50
0.0008291
51
2.3676985
0
ARC
8
DEFAULT_255_2_778
10
18.6563744
20
50.6949868
40
0.2988304
50
2.1500394
51
60.0956838
0
ARC
8
DEFAULT_255_2_778
10
18.5977399
20
50.5884909
40
0.4203859
50
60.40452
51
86.1455285
0
ARC
8
DEFAULT_255_2_778
10
18.5747157
20
50.4116686
40
0.5984588
50
85.0841409
51
90.0629301
0
ARC
8
DEFAULT_255_2_778
10
18.5740778
20
50.5346392
40
0.4754878
50
90.0023409
51
92.3231329
0
ARC
8
DEFAULT_255_2_778
10
18.5490555
20
50.6399604
40
0.3698206
50
89.1093915
51
149.6400816
0
ARC
8
DEFAULT_255_2_778
10
18.471061
20
50.7123917
40
0.2669122
50
154.6001925
51
180.486137
0
ARC
8
DEFAULT_255_2_778
10
18.4860607
20
50.7110152
40
0.2819037
50
180.1805176
51
255.132702
0
ARC
8
DEFAULT_255_2_778
10
18.6305264
20
51.0342784
40
0.6339516
50
250.0026216
51
260.4967164
0
ARC
8
DEFAULT_255_2_778
10
16.141217
20
49.2414283
40
0.2519711
50
190.2626864
51
267.3480013
0
ARC
8
DEFAULT_255_2_778
10
16.3766543
20
49.3327548
40
0.5022041
50
179.6723028
51
195.7380858
0
ARC
8
DEFAULT_255_2_778
10
16.3113511
20
49.3482671
40
0.4370755
50
148.7005643
51
181.6572045
0
ARC
8
DEFAULT_255_2_778
10
16.1280576
20
49.4583723
40
0.2232598
50
89.6148479
51
148.4074796
0
ARC
8
DEFAULT_255_2_778
10
16.1383936
20
49.480449
40
0.201372
50
41.9769772
51
92.5146611
0
ARC
8
DEFAULT_255_2_778
10
16.0845078
20
49.4427523
40
0.2667646
50
15.1848537
51
40.2549591
0
ARC
8
DEFAULT_255_2_778
10
16.160423
20
49.4530326
40
0.3935735
50
8.7091682
51
82.0550801
0
ARC
8
DEFAULT_255_2_778
10
16.1254241
20
49.3065871
40
0.543642
50
80.5350289
51
90.1544743
0
ARC
8
DEFAULT_255_2_778
10
16.1141804
20
49.3952192
40
0.4551129
50
88.7689246
51
119.6437418
0
ARC
8
DEFAULT_255_2_778
10
16.1400717
20
49.3989647
40
0.4653013
50
122.644121
51
173.3997839
0
ARC
8
DEFAULT_255_2_778
10
16.4034934
20
49.3346568
40
0.7351371
50
170.7798304
51
180.1348114
0
ARC
8
DEFAULT_255_2_778
10
16.2700257
20
49.3192615
40
0.6018225
50
178.6988735
51
210.5289552
0
ARC
8
DEFAULT_255_2_778
10
16.102625
20
49.2284953
40
0.4115783
50
211.4828222
51
265.8686737
0
ARC
8
DEFAULT_255_2_778
10
16.1232864
20
49.3532011
40
0.5375742
50
264.6297133
51
270.0503073
0
ARC
8
DEFAULT_255_2_778
10
16.1343995
20
49.2850749
40
0.4695684
50
268.7014824
51
300.1403067
0
ARC
8
DEFAULT_255_2_778
10
16.1673333
20
49.2066852
40
0.385394
50
301.7580058
51
353.77968
0
ARC
8
DEFAULT_255_2_778
10
16.1335256
20
49.2010219
40
0.2113379
50
268.8430278
51
350.1661143
0
ARC
8
DEFAULT_255_2_778
10
18.8219799
20
49.2413824
40
0.2519281
50
190.2538303
51
267.3332171
0
ARC
8
DEFAULT_255_2_778
10
19.0575249
20
49.3327581
40
0.5022746
50
179.672724
51
195.7362088
0
ARC
8
DEFAULT_255_2_778
10
18.9923432
20
49.3482917
40
0.4372682
50
148.7196987
51
181.6596982
0
ARC
8
DEFAULT_255_2_778
10
18.808743
20
49.4584906
40
0.2231415
50
89.6108896
51
148.4244661
0
ARC
8
DEFAULT_255_2_778
10
18.819176
20
49.480467
40
0.2013576
50
42.5913083
51
92.5383066
0
ARC
8
DEFAULT_255_2_778
10
18.7668542
20
49.4440973
40
0.2646316
50
15.0085433
51
40.7215892
0
ARC
8
DEFAULT_255_2_778
10
18.840923
20
49.4530326
40
0.3935735
50
8.7091682
51
82.0550801
0
ARC
8
DEFAULT_255_2_778
10
18.8059241
20
49.3065871
40
0.543642
50
80.5350289
51
90.1544743
0
ARC
8
DEFAULT_255_2_778
10
18.7946804
20
49.3952192
40
0.4551129
50
88.7689246
51
119.6437418
0
ARC
8
DEFAULT_255_2_778
10
18.8205717
20
49.3989647
40
0.4653013
50
122.644121
51
173.3997839
0
ARC
8
DEFAULT_255_2_778
10
19.0839934
20
49.3346568
40
0.7351371
50
170.7798304
51
180.1348114
0
ARC
8
DEFAULT_255_2_778
10
18.9500822
20
49.31932
40
0.6013778
50
178.7034849
51
210.5604279
0
ARC
8
DEFAULT_255_2_778
10
18.7834312
20
49.2288377
40
0.4119265
50
211.5090145
51
265.8592607
0
ARC
8
DEFAULT_255_2_778
10
18.8039883
20
49.3529521
40
0.5373252
50
264.628472
51
270.0501277
0
ARC
8
DEFAULT_255_2_778
10
18.815137
20
49.2848685
40
0.4693629
50
268.6963312
51
300.2191972
0
ARC
8
DEFAULT_255_2_778
10
18.8478684
20
49.2069124
40
0.3856821
50
301.8465101
51
353.7503927
0
ARC
8
DEFAULT_255_2_778
10
18.8143648
20
49.2008604
40
0.2111733
50
268.8857714
51
350.2028431
0
LINE
8
DEFAULT_255_2_778
10
15.5900584
20
50.2949271
11
15.3979584
21
50.2949271
0
LINE
8
DEFAULT_255_2_778
10
15.9728584
20
50.6934271
11
16.1665584
21
50.6934271
0
LINE
8
DEFAULT_255_2_778
10
18.3782584
20
50.2949271
11
18.1863584
21
50.2949271
0
LINE
8
DEFAULT_255_2_778
10
18.7615584
20
50.6934271
11
18.9552584
21
50.6934271
0
LINE
8
DEFAULT_255_2_778
10
16.3419584
20
49.5126271
11
16.5494584
21
49.5126271
0
LINE
8
DEFAULT_255_2_778
10
16.5504584
20
49.1649271
11
16.3417584
21
49.1649271
0
LINE
8
DEFAULT_255_2_778
10
19.0224584
20
49.5126271
11
19.2299584
21
49.5126271
0
LINE
8
DEFAULT_255_2_778
10
19.2312584
20
49.1649271
11
19.0224584
21
49.1649271
0
LINE
8
DEFAULT_255_1_234
10
10.5993823
20
47.1812341
11
10.5993823
21
46.3122
0
LINE
8
DEFAULT_255_1_234
10
10.5993823
20
46.3122
11
10.4507951
21
46.3122
0
LINE
8
DEFAULT_255_1_234
10
10.4507951
20
46.3122
11
10.4507951
21
47.1812341
0
LINE
8
DEFAULT_255_1_234
10
10.4507951
20
47.1812341
11
10.5993823
21
47.1812341
0
ARC
8
DEFAULT_255_1_234
10
10.53661
20
47.4126889
40
0.097867
50
161.415052
51
180.5526306
0
ARC
8
DEFAULT_255_1_234
10
10.5241878
20
47.4161077
40
0.0850062
50
138.1827368
51
160.9307106
0
ARC
8
DEFAULT_255_1_234
10
10.5131824
20
47.4256588
40
0.0704362
50
104.6368899
51
138.0039868
0
ARC
8
DEFAULT_255_1_234
10
10.5238978
20
47.3889963
40
0.1086221
50
92.0600725
51
105.2189128
0
ARC
8
DEFAULT_255_1_234
10
10.5262327
20
47.3547117
40
0.1429728
50
89.9756393
51
92.5012496
0
ARC
8
DEFAULT_255_1_234
10
10.5272346
20
47.3772731
40
0.1204151
50
78.0235316
51
90.4478182
0
ARC
8
DEFAULT_255_1_234
10
10.5364438
20
47.4186295
40
0.0780493
50
55.051506
51
78.3369085
0
ARC
8
DEFAULT_255_1_234
10
10.5414712
20
47.4270711
40
0.0682538
50
42.0501187
51
54.4513741
0
ARC
8
DEFAULT_255_1_234
10
10.527958
20
47.4146798
40
0.0865878
50
1.7497075
51
42.1496013
0
ARC
8
DEFAULT_255_1_234
10
10.5024912
20
47.4117738
40
0.1121515
50
359.9852656
51
2.8364544
0
ARC
8
DEFAULT_255_1_234
10
10.5190905
20
47.4108229
40
0.0955566
50
342.1070653
51
0.552888
0
ARC
8
DEFAULT_255_1_234
10
10.5333602
20
47.4068904
40
0.0807713
50
316.7107116
51
341.6516965
0
ARC
8
DEFAULT_255_1_234
10
10.5400639
20
47.4008823
40
0.0717724
50
285.4397031
51
316.5324284
0
ARC
8
DEFAULT_255_1_234
10
10.5290556
20
47.4374554
40
0.1099597
50
272.3547054
51
285.8953117
0
ARC
8
DEFAULT_255_1_234
10
10.5263714
20
47.4740048
40
0.1465932
50
269.9695369
51
272.8160237
0
ARC
8
DEFAULT_255_1_234
10
10.5253896
20
47.4520863
40
0.1246779
50
258.8431134
51
270.4153935
0
ARC
8
DEFAULT_255_1_234
10
10.5163938
20
47.4085414
40
0.0802162
50
238.5431189
51
259.1288175
0
ARC
8
DEFAULT_255_1_234
10
10.5095823
20
47.3961856
40
0.0661247
50
222.5062634
51
237.9906969
0
ARC
8
DEFAULT_255_1_234
10
10.522341
20
47.4077889
40
0.0833707
50
184.1069131
51
222.460413
0
ARC
8
DEFAULT_255_1_234
10
10.5492651
20
47.4116349
40
0.1105176
50
179.9429482
51
185.0960898
0
LINE
8
DEFAULT_255_1_234
10
11.7535431
20
46.9338565
11
11.7535431
21
46.8591614
0
LINE
8
DEFAULT_255_1_234
10
11.5487337
20
46.3756507
11
11.7575589
21
46.2118033
0
LINE
8
DEFAULT_255_1_234
10
11.7575589
20
46.2118033
11
11.6523432
21
46.1146192
0
LINE
8
DEFAULT_255_1_234
10
11.6523432
20
46.1146192
11
11.4057688
21
46.3105937
0
LINE
8
DEFAULT_255_1_234
10
10.8122233
20
46.8487201
11
10.8122233
21
46.9330534
0
LINE
8
DEFAULT_255_1_234
10
11.5993337
20
46.8479169
11
11.5993337
21
46.9346597
0
LINE
8
DEFAULT_255_1_234
10
10.9664327
20
46.945101
11
10.9664327
21
46.8591614
0
ARC
8
DEFAULT_255_1_234
10
10.8581682
20
46.8552707
40
0.8953833
50
351.453011
51
0.2489685
0
ARC
8
DEFAULT_255_1_234
10
11.1166483
20
46.8152933
40
0.6338333
50
338.6861641
51
351.5540711
0
ARC
8
DEFAULT_255_1_234
10
11.2100367
20
46.7822828
40
0.5348431
50
336.2887631
51
338.3442418
0
ARC
8
DEFAULT_255_1_234
10
11.2439989
20
46.7636698
40
0.4962747
50
321.1170344
51
336.6795229
0
ARC
8
DEFAULT_255_1_234
10
11.3071818
20
46.7150206
40
0.4165565
50
305.4419708
51
320.8705636
0
ARC
8
DEFAULT_255_1_234
10
11.2875288
20
46.7897707
40
0.4935497
50
271.6373023
51
283.8611969
0
ARC
8
DEFAULT_255_1_234
10
11.2837541
20
46.8553572
40
0.5592206
50
269.9930596
51
271.8318864
0
ARC
8
DEFAULT_255_1_234
10
11.2799984
20
46.7745681
40
0.4784458
50
252.5219675
51
270.4416499
0
ARC
8
DEFAULT_255_1_234
10
11.2656243
20
46.7206592
40
0.422716
50
237.5352116
51
252.1857531
0
ARC
8
DEFAULT_255_1_234
10
11.2745439
20
46.7320363
40
0.4371052
50
209.063312
51
237.3492538
0
ARC
8
DEFAULT_255_1_234
10
11.3615287
20
46.7866685
40
0.5397041
50
205.1183774
51
209.6470015
0
ARC
8
DEFAULT_255_1_234
10
11.4412324
20
46.820483
40
0.6262326
50
188.7215458
51
204.8240747
0
ARC
8
DEFAULT_255_1_234
10
11.6409852
20
46.8541067
40
0.8287794
50
180.3723947
51
188.9252049
0
ARC
8
DEFAULT_255_1_234
10
11.6382604
20
46.9370402
40
0.8260467
50
169.5253763
51
180.2765336
0
ARC
8
DEFAULT_255_1_234
10
11.4480053
20
46.9720309
40
0.6326007
50
155.8315255
51
169.5089989
0
ARC
8
DEFAULT_255_1_234
10
11.3199554
20
47.0314348
40
0.4914567
50
139.6258461
51
156.0379525
0
ARC
8
DEFAULT_255_1_234
10
11.2609887
20
47.0788799
40
0.4158054
50
122.6416387
51
139.3430715
0
ARC
8
DEFAULT_255_1_234
10
11.2710507
20
47.0605451
40
0.4366739
50
93.0223692
51
122.455762
0
ARC
8
DEFAULT_255_1_234
10
11.2818504
20
46.9640709
40
0.5336137
50
89.975342
51
93.6341897
0
ARC
8
DEFAULT_255_1_234
10
11.285739
20
47.0020375
40
0.4956606
50
73.9665422
51
90.4229648
0
ARC
8
DEFAULT_255_1_234
10
11.3041037
20
47.0735451
40
0.4218674
50
57.5178019
51
73.6813337
0
ARC
8
DEFAULT_255_1_234
10
11.299682
20
47.0699462
40
0.4272816
50
28.7261108
51
57.2767933
0
ARC
8
DEFAULT_255_1_234
10
11.2086152
20
47.0136688
40
0.534218
50
24.2448911
51
29.3248482
0
ARC
8
DEFAULT_255_1_234
10
11.1160253
20
46.9753819
40
0.6343711
50
9.064382
51
23.9639114
0
ARC
8
DEFAULT_255_1_234
10
10.8904581
20
46.9374925
40
0.8630926
50
359.7586264
51
9.1891435
0
ARC
8
DEFAULT_255_1_234
10
10.7650061
20
46.9388343
40
0.834338
50
359.7133237
51
7.96545
0
ARC
8
DEFAULT_255_1_234
10
11.0612278
20
46.9815681
40
0.5350538
50
7.8291991
51
20.0421623
0
ARC
8
DEFAULT_255_1_234
10
11.2236841
20
47.0406606
40
0.3621841
50
20.0677553
51
35.9161685
0
ARC
8
DEFAULT_255_1_234
10
11.3011879
20
47.098267
40
0.2656263
50
35.6594382
51
85.1578074
0
ARC
8
DEFAULT_255_1_234
10
11.2827135
20
46.9867378
40
0.3784238
50
83.7959068
51
90.095906
0
ARC
8
DEFAULT_255_1_234
10
11.2784069
20
47.0600601
40
0.3051229
50
89.3102392
51
109.9889877
0
ARC
8
DEFAULT_255_1_234
10
11.2701552
20
47.0956433
40
0.2688988
50
110.9285147
51
143.9411762
0
ARC
8
DEFAULT_255_1_234
10
11.3632498
20
47.0244236
40
0.3860887
50
143.5289163
51
163.2980757
0
ARC
8
DEFAULT_255_1_234
10
11.5540319
20
46.9644433
40
0.5860659
50
163.0418846
51
174.3140048
0
ARC
8
DEFAULT_255_1_234
10
11.7944431
20
46.9366854
40
0.8280531
50
174.0509143
51
179.4176892
0
ARC
8
DEFAULT_255_1_234
10
11.7430766
20
46.8548634
40
0.7766558
50
179.6829237
51
188.9631324
0
ARC
8
DEFAULT_255_1_234
10
11.4760327
20
46.8113752
40
0.5060992
50
188.8100743
51
202.9300012
0
ARC
8
DEFAULT_255_1_234
10
11.3543956
20
46.7618855
40
0.3747967
50
203.2069261
51
215.7876482
0
ARC
8
DEFAULT_255_1_234
10
11.2695353
20
46.6947671
40
0.2667526
50
214.7521006
51
264.2834488
0
ARC
8
DEFAULT_255_1_234
10
11.2831008
20
46.780278
40
0.3532247
50
263.4755397
51
270.0949833
0
ARC
8
DEFAULT_255_1_234
10
11.2873119
20
46.7541374
40
0.3271036
50
269.3649385
51
287.5152008
0
ARC
8
DEFAULT_255_1_234
10
11.3051277
20
46.6894238
40
0.2600406
50
288.0630309
51
323.8113348
0
ARC
8
DEFAULT_255_1_234
10
11.2180119
20
46.7544049
40
0.3687189
50
323.6547608
51
342.6590488
0
ARC
8
DEFAULT_255_1_234
10
11.0148734
20
46.8204952
40
0.5823286
50
342.4091907
51
353.6451149
0
ARC
8
DEFAULT_255_1_234
10
10.7317244
20
46.855719
40
0.8676442
50
353.4029884
51
359.4847795
0
LINE
8
DEFAULT_255_1_234
10
12.2772124
20
46.8696026
11
12.2772124
21
46.7483234
0
LINE
8
DEFAULT_255_1_234
10
12.2772124
20
46.7483234
11
11.8852636
21
46.7483234
0
LINE
8
DEFAULT_255_1_234
10
11.8852636
20
46.7483234
11
11.8852636
21
46.8696026
0
LINE
8
DEFAULT_255_1_234
10
11.8852636
20
46.8696026
11
12.2772124
21
46.8696026
0
LINE
8
DEFAULT_255_1_234
10
13.1277735
20
46.3122
11
12.8739706
21
46.7852694
0
LINE
8
DEFAULT_255_1_234
10
12.8739706
20
46.7852694
11
12.5992851
21
46.7852694
0
LINE
8
DEFAULT_255_1_234
10
12.5992851
20
46.7852694
11
12.5992851
21
46.3122
0
LINE
8
DEFAULT_255_1_234
10
12.5992851
20
46.3122
11
12.4442726
21
46.3122
0
LINE
8
DEFAULT_255_1_234
10
12.4442726
20
46.3122
11
12.4442726
21
47.4816211
0
LINE
8
DEFAULT_255_1_234
10
12.4442726
20
47.4816211
11
12.8314023
21
47.4816211
0
LINE
8
DEFAULT_255_1_234
10
13.0185418
20
46.8181995
11
13.2932273
21
46.3218381
0
LINE
8
DEFAULT_255_1_234
10
13.2932273
20
46.3218381
11
13.2932273
21
46.3122
0
LINE
8
DEFAULT_255_1_234
10
13.2932273
20
46.3122
11
13.1277735
21
46.3122
0
LINE
8
DEFAULT_255_1_234
10
12.5992851
20
47.3547196
11
12.5992851
21
46.9113677
0
LINE
8
DEFAULT_255_1_234
10
12.5992851
20
46.9113677
11
12.8362214
21
46.9113677
0
LINE
8
DEFAULT_255_1_234
10
12.8354182
20
47.3547196
11
12.5992851
21
47.3547196
0
ARC
8
DEFAULT_255_1_234
10
12.8355663
20
46.7854761
40
0.6961575
50
80.653586
51
90.3427061
0
ARC
8
DEFAULT_255_1_234
10
12.8775138
20
47.0317348
40
0.4463577
50
65.6987447
51
80.8329603
0
ARC
8
DEFAULT_255_1_234
10
12.9252778
20
47.1412322
40
0.3269094
50
50.0017161
51
65.4305835
0
ARC
8
DEFAULT_255_1_234
10
12.9471243
20
47.1707482
40
0.2902647
50
11.628416
51
49.5603263
0
ARC
8
DEFAULT_255_1_234
10
12.7935579
20
47.1332299
40
0.4482792
50
359.5655735
51
12.3691
0
ARC
8
DEFAULT_255_1_234
10
12.9012438
20
47.1269644
40
0.3405924
50
341.9983148
51
0.4822259
0
ARC
8
DEFAULT_255_1_234
10
12.9407278
20
47.1162471
40
0.2997359
50
323.8609373
51
341.61416
0
ARC
8
DEFAULT_255_1_234
10
12.9105522
20
47.1395484
40
0.3378487
50
296.7018614
51
323.6876402
0
ARC
8
DEFAULT_255_1_234
10
12.8664418
20
47.2184235
40
0.4281516
50
290.8086567
51
297.2323311
0
ARC
8
DEFAULT_255_1_234
10
12.8387947
20
47.2707351
40
0.3593766
50
269.589728
51
281.8058135
0
ARC
8
DEFAULT_255_1_234
10
12.8638846
20
47.1559743
40
0.2419125
50
281.5501019
51
303.9357432
0
ARC
8
DEFAULT_255_1_234
10
12.8776034
20
47.1321936
40
0.2145323
50
304.4415616
51
311.2106213
0
ARC
8
DEFAULT_255_1_234
10
12.890814
20
47.1182632
40
0.1953505
50
310.9875673
51
356.2715578
0
ARC
8
DEFAULT_255_1_234
10
12.8151788
20
47.1295422
40
0.2716331
50
354.9348262
51
0.0609027
0
ARC
8
DEFAULT_255_1_234
10
12.7964663
20
47.1322435
40
0.2903554
50
359.5239371
51
12.8808918
0
ARC
8
DEFAULT_255_1_234
10
12.8942218
20
47.1561728
40
0.1897315
50
12.4173452
51
43.1022135
0
ARC
8
DEFAULT_255_1_234
10
12.9003823
20
47.1598724
40
0.1827118
50
43.5751728
51
48.203944
0
ARC
8
DEFAULT_255_1_234
10
12.8834315
20
47.1377302
40
0.2105272
50
48.7809703
51
72.6969569
0
ARC
8
DEFAULT_255_1_234
10
12.8479939
20
47.030182
40
0.3237537
50
72.3702241
51
84.8791103
0
ARC
8
DEFAULT_255_1_234
10
12.8332415
20
46.8959769
40
0.4587478
50
84.5400526
51
89.7281406
0
LINE
8
DEFAULT_255_1_234
10
14.640953
20
47.1434849
11
14.4859404
21
47.1434849
0
LINE
8
DEFAULT_255_1_234
10
13.7936046
20
46.6511394
11
13.9486171
21
46.6511394
0
ARC
8
DEFAULT_255_1_234
10
14.5518217
20
48.0381768
40
1.252368
50
248.9199003
51
254.1439814
0
ARC
8
DEFAULT_255_1_234
10
14.3837712
20
47.6055234
40
0.788226
50
241.633709
51
249.0064503
0
ARC
8
DEFAULT_255_1_234
10
14.2309106
20
47.3254317
40
0.4691427
50
230.498225
51
241.8087113
0
ARC
8
DEFAULT_255_1_234
10
14.1524681
20
47.2254906
40
0.3421437
50
227.4064532
51
229.9881192
0
ARC
8
DEFAULT_255_1_234
10
14.1037201
20
47.1779088
40
0.2741476
50
200.6781896
51
228.1763934
0
ARC
8
DEFAULT_255_1_234
10
14.1109512
20
47.1764077
40
0.2804109
50
179.5061581
51
199.8694617
0
ARC
8
DEFAULT_255_1_234
10
14.1100264
20
47.183821
40
0.2795204
50
132.4834203
51
181.0242172
0
ARC
8
DEFAULT_255_1_234
10
14.1695846
20
47.1275704
40
0.3612768
50
129.2532479
51
133.4242687
0
ARC
8
DEFAULT_255_1_234
10
14.1842296
20
47.1055965
40
0.3875675
50
101.98776
51
128.8742646
0
ARC
8
DEFAULT_255_1_234
10
14.2240906
20
46.9334741
40
0.5642249
50
89.5906553
51
102.3169264
0
ARC
8
DEFAULT_255_1_234
10
14.2311398
20
46.9653148
40
0.5323783
50
77.2360837
51
90.3248275
0
ARC
8
DEFAULT_255_1_234
10
14.2518477
20
47.06204
40
0.4334697
50
63.837784
51
77.0809408
0
ARC
8
DEFAULT_255_1_234
10
14.2796239
20
47.1137911
40
0.3747796
50
45.9864267
51
64.1607727
0
ARC
8
DEFAULT_255_1_234
10
14.305712
20
47.1435866
40
0.3352302
50
32.2747395
51
45.6547121
0
ARC
8
DEFAULT_255_1_234
10
14.3123561
20
47.145488
40
0.328603
50
359.6507365
51
32.6130309
0
ARC
8
DEFAULT_255_1_234
10
14.2180656
20
47.145966
40
0.2678863
50
359.469343
51
14.9832209
0
ARC
8
DEFAULT_255_1_234
10
14.2885719
20
47.1648539
40
0.1948938
50
14.9781179
51
48.2004265
0
ARC
8
DEFAULT_255_1_234
10
14.2721363
20
47.1441983
40
0.2212521
50
48.5927837
51
74.1241538
0
ARC
8
DEFAULT_255_1_234
10
14.2387853
20
47.0341248
40
0.3362561
50
73.7888341
51
86.6652678
0
ARC
8
DEFAULT_255_1_234
10
14.2285418
20
46.9133881
40
0.4573953
50
86.2640471
51
90.0526343
0
ARC
8
DEFAULT_255_1_234
10
14.2257131
20
46.9529192
40
0.4178709
50
89.6697524
51
99.2309573
0
ARC
8
DEFAULT_255_1_234
10
14.2014582
20
47.0973964
40
0.2713749
50
99.069534
51
113.7658566
0
ARC
8
DEFAULT_255_1_234
10
14.1740773
20
47.1619677
40
0.2012469
50
114.0401004
51
127.9850673
0
ARC
8
DEFAULT_255_1_234
10
14.1500337
20
47.191573
40
0.1631167
50
127.7287463
51
176.7105154
0
ARC
8
DEFAULT_255_1_234
10
14.2179054
20
47.1814693
40
0.2315392
50
175.1779447
51
180.0581938
0
ARC
8
DEFAULT_255_1_234
10
14.1335901
20
47.1802428
40
0.1472271
50
179.6142195
51
228.1246017
0
ARC
8
DEFAULT_255_1_234
10
14.177757
20
47.2211308
40
0.2072299
50
226.5779593
51
230.8800004
0
ARC
8
DEFAULT_255_1_234
10
14.2248648
20
47.2836636
40
0.2854818
50
231.4635071
51
241.9260842
0
ARC
8
DEFAULT_255_1_234
10
14.3445826
20
47.50398
40
0.53622
50
241.7178533
51
248.3259551
0
ARC
8
DEFAULT_255_1_234
10
14.4831198
20
47.8472064
40
0.9063478
50
248.2007737
51
252.4528373
0
ARC
8
DEFAULT_255_1_234
10
14.6034923
20
48.2193441
40
1.2974635
50
252.3391078
51
254.3469452
0
ARC
8
DEFAULT_255_1_234
10
13.8492626
20
45.5216148
40
1.5037162
50
71.0197183
51
74.4087047
0
ARC
8
DEFAULT_255_1_234
10
14.0187311
20
46.0108111
40
0.9859993
50
66.1847285
51
71.086374
0
ARC
8
DEFAULT_255_1_234
10
14.1743623
20
46.36122
40
0.6025855
50
59.3536294
51
66.2691831
0
ARC
8
DEFAULT_255_1_234
10
14.2632276
20
46.5115609
40
0.4279449
50
49.1020879
51
59.3293958
0
ARC
8
DEFAULT_255_1_234
10
14.3451015
20
46.6048834
40
0.3038015
50
32.7919921
51
49.2505539
0
ARC
8
DEFAULT_255_1_234
10
14.3772105
20
46.6277191
40
0.264448
50
31.1181161
51
32.4005348
0
ARC
8
DEFAULT_255_1_234
10
14.3683643
20
46.6241779
40
0.2738556
50
8.1116974
51
30.7958831
0
ARC
8
DEFAULT_255_1_234
10
14.2873311
20
46.6103753
40
0.3560327
50
359.8389159
51
8.4706516
0
ARC
8
DEFAULT_255_1_234
10
14.3499103
20
46.6055137
40
0.2934776
50
337.4731098
51
0.7537279
0
ARC
8
DEFAULT_255_1_234
10
14.3677798
20
46.6035387
40
0.2762607
50
307.5917067
51
336.4315538
0
ARC
8
DEFAULT_255_1_234
10
14.3217626
20
46.6548102
40
0.3449979
50
307.6551545
51
308.4529766
0
ARC
8
DEFAULT_255_1_234
10
14.2987344
20
46.690325
40
0.3871988
50
284.3734338
51
307.1424381
0
ARC
8
DEFAULT_255_1_234
10
14.2492175
20
46.8724932
40
0.5759636
50
272.4382747
51
284.646547
0
ARC
8
DEFAULT_255_1_234
10
14.2365383
20
47.0524893
40
0.7563528
50
269.9708387
51
272.8178037
0
ARC
8
DEFAULT_255_1_234
10
14.2322423
20
46.8486716
40
0.5525489
50
248.2707594
51
270.4055579
0
ARC
8
DEFAULT_255_1_234
10
14.2268164
20
46.8296192
40
0.5328452
50
246.1383403
51
248.0542782
0
ARC
8
DEFAULT_255_1_234
10
14.1849543
20
46.7416843
40
0.4355005
50
233.1670131
51
246.4950969
0
ARC
8
DEFAULT_255_1_234
10
14.1295448
20
46.6668812
40
0.3424126
50
215.3403242
51
233.0843104
0
ARC
8
DEFAULT_255_1_234
10
14.1022879
20
46.6470549
40
0.3087104
50
179.2419209
51
215.2648451
0
ARC
8
DEFAULT_255_1_234
10
14.1790473
20
46.6484666
40
0.2304457
50
179.335461
51
199.1045811
0
ARC
8
DEFAULT_255_1_234
10
14.145815
20
46.6397766
40
0.1962176
50
199.8828939
51
232.7063202
0
ARC
8
DEFAULT_255_1_234
10
14.1930418
20
46.6991788
40
0.2720938
50
232.3738199
51
255.5136649
0
ARC
8
DEFAULT_255_1_234
10
14.2271285
20
46.8235835
40
0.4010747
50
255.2446292
51
267.5320849
0
ARC
8
DEFAULT_255_1_234
10
14.2358908
20
46.9468702
40
0.5246356
50
267.1557994
51
270.0286766
0
ARC
8
DEFAULT_255_1_234
10
14.238668
20
46.902495
40
0.4802668
50
269.7000017
51
278.1660162
0
ARC
8
DEFAULT_255_1_234
10
14.2642685
20
46.7294515
40
0.3053425
50
278.0231263
51
290.625471
0
ARC
8
DEFAULT_255_1_234
10
14.2990372
20
46.6367025
40
0.206291
50
290.6619762
51
307.0370976
0
ARC
8
DEFAULT_255_1_234
10
14.3290761
20
46.5998504
40
0.1587906
50
306.3943566
51
355.3030547
0
ARC
8
DEFAULT_255_1_234
10
14.2778693
20
46.6075113
40
0.2104809
50
354.3660432
51
0.0698737
0
ARC
8
DEFAULT_255_1_234
10
14.2921038
20
46.6097617
40
0.1962563
50
359.417946
51
16.1971788
0
ARC
8
DEFAULT_255_1_234
10
14.3376348
20
46.6222418
40
0.149053
50
16.4723299
51
52.6262157
0
ARC
8
DEFAULT_255_1_234
10
14.2555402
20
46.5138433
40
0.2850296
50
52.7386432
51
62.4979148
0
ARC
8
DEFAULT_255_1_234
10
14.1170479
20
46.2532283
40
0.5801521
50
62.2515216
51
68.1220564
0
ARC
8
DEFAULT_255_1_234
10
13.945039
20
45.8304872
40
1.0365451
50
68.0062803
51
71.8053402
0
ARC
8
DEFAULT_255_1_234
10
13.7654762
20
45.2919758
40
1.6042013
50
71.7183119
51
73.9258742
0
LINE
8
DEFAULT_255_1_234
10
14.7799021
20
46.7226218
11
14.7799021
21
46.7499297
0
LINE
8
DEFAULT_255_1_234
10
15.5172156
20
46.7659932
11
15.5172156
21
46.7041488
0
LINE
8
DEFAULT_255_1_234
10
15.5172156
20
46.7041488
11
14.9284892
21
46.7041488
0
LINE
8
DEFAULT_255_1_234
10
15.4152125
20
46.5346792
11
15.5059712
21
46.4639999
0
LINE
8
DEFAULT_255_1_234
10
14.9333083
20
46.8262313
11
15.3686285
21
46.8262313
0
LINE
8
DEFAULT_255_1_234
10
15.3686285
20
46.8262313
11
15.3686285
21
46.8374757
0
ARC
8
DEFAULT_255_1_234
10
15.1738386
20
46.7337332
40
0.4376191
50
252.3266134
51
270.5810217
0
ARC
8
DEFAULT_255_1_234
10
15.1533475
20
46.6596644
40
0.3608374
50
223.3000567
51
251.8561855
0
ARC
8
DEFAULT_255_1_234
10
15.1744835
20
46.6801937
40
0.3902993
50
190.9374509
51
223.3654032
0
ARC
8
DEFAULT_255_1_234
10
15.3469808
20
46.7191885
40
0.5670891
50
179.6531105
51
191.4989439
0
ARC
8
DEFAULT_255_1_234
10
15.359182
20
46.7531417
40
0.5792888
50
167.4007466
51
180.3176909
0
ARC
8
DEFAULT_255_1_234
10
15.2539881
20
46.7753885
40
0.471777
50
154.1835823
51
167.250763
0
ARC
8
DEFAULT_255_1_234
10
15.1908349
20
46.8086417
40
0.4004528
50
134.3149965
51
154.5315275
0
ARC
8
DEFAULT_255_1_234
10
15.1690844
20
46.8277228
40
0.371612
50
122.8616532
51
133.9707695
0
ARC
8
DEFAULT_255_1_234
10
15.1587418
20
46.8499703
40
0.3473289
50
89.8249009
51
123.4199222
0
ARC
8
DEFAULT_255_1_234
10
15.1637459
20
46.7852967
40
0.4120197
50
74.7876118
51
90.5482747
0
ARC
8
DEFAULT_255_1_234
10
15.1931202
20
46.893803
40
0.2996077
50
39.8178249
51
74.7633718
0
ARC
8
DEFAULT_255_1_234
10
15.1418523
20
46.8538351
40
0.3645855
50
16.8990863
51
39.4829761
0
ARC
8
DEFAULT_255_1_234
10
14.9523819
20
46.7931526
40
0.5635218
50
4.9636328
51
17.2026414
0
ARC
8
DEFAULT_255_1_234
10
14.7105889
20
46.767634
40
0.8066286
50
359.8834553
51
5.2834307
0
ARC
8
DEFAULT_255_1_234
10
15.3143414
20
46.7107803
40
0.3859091
50
180.9846213
51
194.9401313
0
ARC
8
DEFAULT_255_1_234
10
15.2093691
20
46.6820849
40
0.2770883
50
194.80314
51
222.0412631
0
ARC
8
DEFAULT_255_1_234
10
15.1789573
20
46.6519116
40
0.2343055
50
221.5417084
51
268.8614402
0
ARC
8
DEFAULT_255_1_234
10
15.1862568
20
46.7195686
40
0.3021528
50
267.732405
51
270.0097136
0
ARC
8
DEFAULT_255_1_234
10
15.1880378
20
46.7397105
40
0.3222994
50
269.6924892
51
280.4117579
0
ARC
8
DEFAULT_255_1_234
10
15.2056785
20
46.6478193
40
0.2287344
50
280.2255091
51
298.6338936
0
ARC
8
DEFAULT_255_1_234
10
15.2173577
20
46.6234223
40
0.2017294
50
299.0430333
51
300.4643464
0
ARC
8
DEFAULT_255_1_234
10
15.1493582
20
46.7368038
40
0.3339357
50
300.6577328
51
322.0378878
0
ARC
8
DEFAULT_255_1_234
10
15.1143121
20
46.7672021
40
0.3802736
50
321.6750233
51
322.3046845
0
ARC
8
DEFAULT_255_1_234
10
15.2074083
20
46.650537
40
0.3520454
50
276.9728461
51
328.0035423
0
ARC
8
DEFAULT_255_1_234
10
15.1797135
20
46.7985841
40
0.5024498
50
269.8361028
51
278.0581756
0
ARC
8
DEFAULT_255_1_234
10
15.1569873
20
46.8730757
40
0.202159
50
89.2018686
51
117.2851756
0
ARC
8
DEFAULT_255_1_234
10
15.1623042
20
46.8688752
40
0.2083484
50
118.0551165
51
137.4540413
0
ARC
8
DEFAULT_255_1_234
10
15.1997782
20
46.8348304
40
0.2589774
50
137.5109581
51
158.8516286
0
ARC
8
DEFAULT_255_1_234
10
15.3135617
20
46.7889074
40
0.38167
50
158.5845963
51
170.1721436
0
ARC
8
DEFAULT_255_1_234
10
15.4305007
20
46.7656823
40
0.5008657
50
169.8376422
51
173.0566086
0
ARC
8
DEFAULT_255_1_234
10
14.9608081
20
46.8167509
40
0.4083467
50
2.9091802
51
12.8847116
0
ARC
8
DEFAULT_255_1_234
10
15.0978757
20
46.8490101
40
0.2675383
50
12.6957781
51
28.6404489
0
ARC
8
DEFAULT_255_1_234
10
15.1520428
20
46.8770458
40
0.2065654
50
29.0169854
51
41.1487595
0
ARC
8
DEFAULT_255_1_234
10
15.1723213
20
46.8947003
40
0.1796786
50
41.1646065
51
85.0013516
0
ARC
8
DEFAULT_255_1_234
10
15.160231
20
46.8212431
40
0.2539726
50
83.7280015
51
90.0964893
0
LINE
8
DEFAULT_255_1_234
10
16.1091547
20
47.1860531
11
16.1091547
21
47.0479072
0
LINE
8
DEFAULT_255_1_234
10
15.837682
20
46.9290375
11
15.837682
21
46.3122
0
LINE
8
DEFAULT_255_1_234
10
15.837682
20
46.3122
11
15.6890948
21
46.3122
0
LINE
8
DEFAULT_255_1_234
10
15.6890948
20
46.3122
11
15.6890948
21
47.1812341
0
LINE
8
DEFAULT_255_1_234
10
15.6890948
20
47.1812341
11
15.8336661
21
47.1812341
0
LINE
8
DEFAULT_255_1_234
10
15.8336661
20
47.1812341
11
15.8360756
21
47.0808374
0
ARC
8
DEFAULT_255_1_234
10
16.0424953
20
46.6419342
40
0.4114092
50
80.6754243
51
86.8932892
0
ARC
8
DEFAULT_255_1_234
10
16.0364487
20
46.54517
40
0.5083596
50
86.8038578
51
90.0431435
0
ARC
8
DEFAULT_255_1_234
10
16.0327468
20
46.7908866
40
0.2626638
50
89.2759698
51
106.6213787
0
ARC
8
DEFAULT_255_1_234
10
16.0123032
20
46.865183
40
0.1856317
50
107.1346045
51
157.6458115
0
ARC
8
DEFAULT_255_1_234
10
16.0814633
20
46.8268311
40
0.2643398
50
155.6586782
51
157.2539184
0
ARC
8
DEFAULT_255_1_234
10
16.0609836
20
46.9437157
40
0.2634121
50
127.8165941
51
148.6302098
0
ARC
8
DEFAULT_255_1_234
10
16.0356305
20
46.9697218
40
0.2273596
50
91.3329982
51
126.7875809
0
ARC
8
DEFAULT_255_1_234
10
16.0432245
20
46.8982195
40
0.299078
50
89.986594
51
92.4688449
0
ARC
8
DEFAULT_255_1_234
10
16.044064
20
46.9257078
40
0.2715908
50
85.3589899
51
90.1623399
0
ARC
8
DEFAULT_255_1_234
10
16.0525156
20
47.0261164
40
0.1708278
50
78.401942
51
85.4594656
0
ARC
8
DEFAULT_255_1_234
10
16.067004
20
47.0952236
40
0.1002194
50
67.7858312
51
78.5728455
0
ARC
8
DEFAULT_255_1_234
10
16.0777892
20
47.1231887
40
0.0702548
50
63.4835954
51
67.3062642
0
LINE
8
DEFAULT_255_1_234
10
16.4071322
20
47.1812341
11
16.4071322
21
46.3122
0
LINE
8
DEFAULT_255_1_234
10
16.4071322
20
46.3122
11
16.2585451
21
46.3122
0
LINE
8
DEFAULT_255_1_234
10
16.2585451
20
46.3122
11
16.2585451
21
47.1812341
0
LINE
8
DEFAULT_255_1_234
10
16.2585451
20
47.1812341
11
16.4071322
21
47.1812341
0
ARC
8
DEFAULT_255_1_234
10
16.3443599
20
47.4126889
40
0.097867
50
161.415052
51
180.5526306
0
ARC
8
DEFAULT_255_1_234
10
16.3319378
20
47.4161077
40
0.0850062
50
138.1827368
51
160.9307106
0
ARC
8
DEFAULT_255_1_234
10
16.3209323
20
47.4256588
40
0.0704362
50
104.6368899
51
138.0039868
0
ARC
8
DEFAULT_255_1_234
10
16.3316478
20
47.3889963
40
0.1086221
50
92.0600725
51
105.2189128
0
ARC
8
DEFAULT_255_1_234
10
16.3339826
20
47.3547117
40
0.1429728
50
89.9756393
51
92.5012496
0
ARC
8
DEFAULT_255_1_234
10
16.3349846
20
47.3772731
40
0.1204151
50
78.0235316
51
90.4478182
0
ARC
8
DEFAULT_255_1_234
10
16.3441937
20
47.4186295
40
0.0780493
50
55.051506
51
78.3369085
0
ARC
8
DEFAULT_255_1_234
10
16.3492212
20
47.4270711
40
0.0682538
50
42.0501187
51
54.4513741
0
ARC
8
DEFAULT_255_1_234
10
16.3357079
20
47.4146798
40
0.0865878
50
1.7497075
51
42.1496013
0
ARC
8
DEFAULT_255_1_234
10
16.3102412
20
47.4117738
40
0.1121515
50
359.9852656
51
2.8364544
0
ARC
8
DEFAULT_255_1_234
10
16.3268404
20
47.4108229
40
0.0955566
50
342.1070653
51
0.552888
0
ARC
8
DEFAULT_255_1_234
10
16.3411101
20
47.4068904
40
0.0807713
50
316.7107116
51
341.6516965
0
ARC
8
DEFAULT_255_1_234
10
16.3478138
20
47.4008823
40
0.0717724
50
285.4397031
51
316.5324284
0
ARC
8
DEFAULT_255_1_234
10
16.3368056
20
47.4374554
40
0.1099597
50
272.3547054
51
285.8953117
0
ARC
8
DEFAULT_255_1_234
10
16.3341213
20
47.4740048
40
0.1465932
50
269.9695369
51
272.8160237
0
ARC
8
DEFAULT_255_1_234
10
16.3331395
20
47.4520863
40
0.1246779
50
258.8431134
51
270.4153935
0
ARC
8
DEFAULT_255_1_234
10
16.3241437
20
47.4085414
40
0.0802162
50
238.5431189
51
259.1288175
0
ARC
8
DEFAULT_255_1_234
10
16.3173322
20
47.3961856
40
0.0661247
50
222.5062634
51
237.9906969
0
ARC
8
DEFAULT_255_1_234
10
16.330091
20
47.4077889
40
0.0833707
50
184.1069131
51
222.460413
0
ARC
8
DEFAULT_255_1_234
10
16.357015
20
47.4116349
40
0.1105176
50
179.9429482
51
185.0960898
0
LINE
8
DEFAULT_255_1_234
10
16.6071225
20
46.7226218
11
16.6071225
21
46.7499297
0
LINE
8
DEFAULT_255_1_234
10
17.3444361
20
46.7659932
11
17.3444361
21
46.7041488
0
LINE
8
DEFAULT_255_1_234
10
17.3444361
20
46.7041488
11
16.7557097
21
46.7041488
0
LINE
8
DEFAULT_255_1_234
10
17.242433
20
46.5346792
11
17.3331917
21
46.4639999
0
LINE
8
DEFAULT_255_1_234
10
16.7605287
20
46.8262313
11
17.1958489
21
46.8262313
0
LINE
8
DEFAULT_255_1_234
10
17.1958489
20
46.8262313
11
17.1958489
21
46.8374757
0
ARC
8
DEFAULT_255_1_234
10
17.001059
20
46.7337332
40
0.4376191
50
252.3266134
51
270.5810217
0
ARC
8
DEFAULT_255_1_234
10
16.9805679
20
46.6596644
40
0.3608374
50
223.3000567
51
251.8561855
0
ARC
8
DEFAULT_255_1_234
10
17.001704
20
46.6801937
40
0.3902993
50
190.9374509
51
223.3654032
0
ARC
8
DEFAULT_255_1_234
10
17.1742012
20
46.7191885
40
0.5670891
50
179.6531105
51
191.4989439
0
ARC
8
DEFAULT_255_1_234
10
17.1864024
20
46.7531417
40
0.5792888
50
167.4007466
51
180.3176909
0
ARC
8
DEFAULT_255_1_234
10
17.0812086
20
46.7753885
40
0.471777
50
154.1835823
51
167.250763
0
ARC
8
DEFAULT_255_1_234
10
17.0180553
20
46.8086417
40
0.4004528
50
134.3149965
51
154.5315275
0
ARC
8
DEFAULT_255_1_234
10
16.9963048
20
46.8277228
40
0.371612
50
122.8616532
51
133.9707695
0
ARC
8
DEFAULT_255_1_234
10
16.9859623
20
46.8499703
40
0.3473289
50
89.8249009
51
123.4199222
0
ARC
8
DEFAULT_255_1_234
10
16.9909664
20
46.7852967
40
0.4120197
50
74.7876118
51
90.5482747
0
ARC
8
DEFAULT_255_1_234
10
17.0203407
20
46.893803
40
0.2996077
50
39.8178249
51
74.7633718
0
ARC
8
DEFAULT_255_1_234
10
16.9690727
20
46.8538351
40
0.3645855
50
16.8990863
51
39.4829761
0
ARC
8
DEFAULT_255_1_234
10
16.7796024
20
46.7931526
40
0.5635218
50
4.9636328
51
17.2026414
0
ARC
8
DEFAULT_255_1_234
10
16.5378094
20
46.767634
40
0.8066286
50
359.8834553
51
5.2834307
0
ARC
8
DEFAULT_255_1_234
10
17.1415618
20
46.7107803
40
0.3859091
50
180.9846213
51
194.9401313
0
ARC
8
DEFAULT_255_1_234
10
17.0365896
20
46.6820849
40
0.2770883
50
194.80314
51
222.0412631
0
ARC
8
DEFAULT_255_1_234
10
17.0061778
20
46.6519116
40
0.2343055
50
221.5417084
51
268.8614402
0
ARC
8
DEFAULT_255_1_234
10
17.0134772
20
46.7195686
40
0.3021528
50
267.732405
51
270.0097136
0
ARC
8
DEFAULT_255_1_234
10
17.0152583
20
46.7397105
40
0.3222994
50
269.6924892
51
280.4117579
0
ARC
8
DEFAULT_255_1_234
10
17.0328989
20
46.6478193
40
0.2287344
50
280.2255091
51
298.6338936
0
ARC
8
DEFAULT_255_1_234
10
17.0445781
20
46.6234223
40
0.2017294
50
299.0430333
51
300.4643464
0
ARC
8
DEFAULT_255_1_234
10
16.9765787
20
46.7368038
40
0.3339357
50
300.6577328
51
322.0378878
0
ARC
8
DEFAULT_255_1_234
10
16.9415326
20
46.7672021
40
0.3802736
50
321.6750233
51
322.3046845
0
ARC
8
DEFAULT_255_1_234
10
17.0346287
20
46.650537
40
0.3520454
50
276.9728461
51
328.0035423
0
ARC
8
DEFAULT_255_1_234
10
17.006934
20
46.7985841
40
0.5024498
50
269.8361028
51
278.0581756
0
ARC
8
DEFAULT_255_1_234
10
16.9842077
20
46.8730757
40
0.202159
50
89.2018686
51
117.2851756
0
ARC
8
DEFAULT_255_1_234
10
16.9895246
20
46.8688752
40
0.2083484
50
118.0551165
51
137.4540413
0
ARC
8
DEFAULT_255_1_234
10
17.0269986
20
46.8348304
40
0.2589774
50
137.5109581
51
158.8516286
0
ARC
8
DEFAULT_255_1_234
10
17.1407822
20
46.7889074
40
0.38167
50
158.5845963
51
170.1721436
0
ARC
8
DEFAULT_255_1_234
10
17.2577211
20
46.7656823
40
0.5008657
50
169.8376422
51
173.0566086
0
ARC
8
DEFAULT_255_1_234
10
16.7880285
20
46.8167509
40
0.4083467
50
2.9091802
51
12.8847116
0
ARC
8
DEFAULT_255_1_234
10
16.9250962
20
46.8490101
40
0.2675383
50
12.6957781
51
28.6404489
0
ARC
8
DEFAULT_255_1_234
10
16.9792632
20
46.8770458
40
0.2065654
50
29.0169854
51
41.1487595
0
ARC
8
DEFAULT_255_1_234
10
16.9995418
20
46.8947003
40
0.1796786
50
41.1646065
51
85.0013516
0
ARC
8
DEFAULT_255_1_234
10
16.9874514
20
46.8212431
40
0.2539726
50
83.7280015
51
90.0964893
0
LINE
8
DEFAULT_255_1_234
10
18.1628702
20
46.9258248
11
18.0134799
21
46.9258248
0
LINE
8
DEFAULT_255_1_234
10
17.4801725
20
46.5796569
11
17.6287596
21
46.5796569
0
ARC
8
DEFAULT_255_1_234
10
17.8946617
20
46.5441959
40
0.1276617
50
359.3334982
51
18.5871358
0
ARC
8
DEFAULT_255_1_234
10
17.9155255
20
46.5497133
40
0.1061371
50
19.3540742
51
54.6485071
0
ARC
8
DEFAULT_255_1_234
10
17.8651157
20
46.4801919
40
0.1920087
50
54.3827097
51
65.0622807
0
ARC
8
DEFAULT_255_1_234
10
17.7882553
20
46.31849
40
0.3710447
50
64.8282493
51
71.4200025
0
ARC
8
DEFAULT_255_1_234
10
17.6980428
20
46.0538107
40
0.6506741
50
71.3164301
51
75.8006402
0
ARC
8
DEFAULT_255_1_234
10
17.6139248
20
45.7297561
40
0.9854641
50
75.6809531
51
78.0061883
0
ARC
8
DEFAULT_255_1_234
10
18.0587782
20
47.827677
40
1.1591028
50
254.6901892
51
258.0466452
0
ARC
8
DEFAULT_255_1_234
10
17.954969
20
47.4517781
40
0.7691345
50
249.9010773
51
254.755261
0
ARC
8
DEFAULT_255_1_234
10
17.8546032
20
47.1791982
40
0.478665
50
243.3097214
51
249.9709442
0
ARC
8
DEFAULT_255_1_234
10
17.7917053
20
47.0537778
40
0.3383568
50
234.4047477
51
243.2862168
0
ARC
8
DEFAULT_255_1_234
10
17.7294577
20
46.9678232
40
0.2322322
50
220.8667099
51
234.5493881
0
ARC
8
DEFAULT_255_1_234
10
17.6952518
20
46.9366817
40
0.1859923
50
214.3062465
51
220.5065136
0
ARC
8
DEFAULT_255_1_234
10
17.6926597
20
46.933588
40
0.1821108
50
186.912965
51
213.9618616
0
ARC
8
DEFAULT_255_1_234
10
17.7458692
20
46.9422009
40
0.2359799
50
179.8808832
51
187.4339886
0
ARC
8
DEFAULT_255_1_234
10
17.7303825
20
46.9442088
40
0.2204978
50
132.005434
51
180.3942919
0
ARC
8
DEFAULT_255_1_234
10
17.7960439
20
46.8836083
40
0.3095791
50
129.2319861
51
133.5302299
0
ARC
8
DEFAULT_255_1_234
10
17.8013947
20
46.8741928
40
0.3202615
50
100.4410011
51
128.9081242
0
ARC
8
DEFAULT_255_1_234
10
17.828783
20
46.7456455
40
0.4516583
50
89.6985377
51
100.9026564
0
ARC
8
DEFAULT_255_1_234
10
17.8344872
20
46.7296166
40
0.4676928
50
77.6965325
51
90.4076836
0
ARC
8
DEFAULT_255_1_234
10
17.8675857
20
46.8723413
40
0.3211988
50
50.7276602
51
78.0399361
0
ARC
8
DEFAULT_255_1_234
10
17.9120315
20
46.9241296
40
0.2529778
50
25.7545084
51
51.0957453
0
ARC
8
DEFAULT_255_1_234
10
17.912154
20
46.9291206
40
0.250738
50
359.2468627
51
24.7394243
0
ARC
8
DEFAULT_255_1_234
10
17.8836992
20
46.9262664
40
0.1297815
50
359.8050318
51
45.1544908
0
ARC
8
DEFAULT_255_1_234
10
17.8430133
20
46.8914794
40
0.1831883
50
43.8047702
51
49.6271585
0
ARC
8
DEFAULT_255_1_234
10
17.8438035
20
46.8915678
40
0.18261
50
49.7980766
51
82.1218353
0
ARC
8
DEFAULT_255_1_234
10
17.8319007
20
46.8268998
40
0.2483163
50
81.4465357
51
90.1710293
0
ARC
8
DEFAULT_255_1_234
10
17.829461
20
46.774288
40
0.300932
50
89.6766211
51
99.1264602
0
ARC
8
DEFAULT_255_1_234
10
17.8123071
20
46.8776537
40
0.1961547
50
98.968313
51
113.4570237
0
ARC
8
DEFAULT_255_1_234
10
17.7927156
20
46.9244965
40
0.1453859
50
113.722589
51
127.4763106
0
ARC
8
DEFAULT_255_1_234
10
17.7758803
20
46.9445124
40
0.1192639
50
126.9083309
51
150.3165862
0
ARC
8
DEFAULT_255_1_234
10
17.7711135
20
46.9495981
40
0.112623
50
151.3635175
51
180.0701457
0
ARC
8
DEFAULT_255_1_234
10
17.801992
20
46.947499
40
0.1435149
50
179.2169974
51
179.9954013
0
ARC
8
DEFAULT_255_1_234
10
17.7658977
20
46.9462056
40
0.1074286
50
179.3040112
51
198.4225446
0
ARC
8
DEFAULT_255_1_234
10
17.7467111
20
46.9412127
40
0.0876573
50
199.2895851
51
238.6034594
0
ARC
8
DEFAULT_255_1_234
10
17.8069957
20
47.035845
40
0.1998512
50
237.9846301
51
246.8744712
0
ARC
8
DEFAULT_255_1_234
10
17.8927902
20
47.2321205
40
0.4140547
50
246.6234531
51
251.8168941
0
ARC
8
DEFAULT_255_1_234
10
17.9958446
20
47.5415905
40
0.7402308
50
251.713434
51
255.0778414
0
ARC
8
DEFAULT_255_1_234
10
18.1157709
20
47.9882563
40
1.2027155
50
255.0367487
51
257.4705983
0
ARC
8
DEFAULT_255_1_234
10
17.6049718
20
45.6868863
40
1.1546601
50
73.6837552
51
77.5016755
0
ARC
8
DEFAULT_255_1_234
10
17.7138493
20
46.0568581
40
0.7690009
50
68.7044154
51
73.7249639
0
ARC
8
DEFAULT_255_1_234
10
17.8041514
20
46.2895654
40
0.5193873
50
63.590599
51
68.6626804
0
ARC
8
DEFAULT_255_1_234
10
17.8812533
20
46.4433123
40
0.3473927
50
54.7106439
51
63.7013633
0
ARC
8
DEFAULT_255_1_234
10
17.9436987
20
46.53054
40
0.2401192
50
41.0622434
51
54.8487496
0
ARC
8
DEFAULT_255_1_234
10
17.9778374
20
46.5618592
40
0.1938094
50
34.4950568
51
40.7105546
0
ARC
8
DEFAULT_255_1_234
10
17.9825181
20
46.5667078
40
0.1872106
50
9.3763373
51
34.0833615
0
ARC
8
DEFAULT_255_1_234
10
17.9172052
20
46.5541728
40
0.2536988
50
359.7694872
51
9.7663171
0
ARC
8
DEFAULT_255_1_234
10
17.9369552
20
46.5498764
40
0.2339696
50
335.8654732
51
0.8022045
0
ARC
8
DEFAULT_255_1_234
10
17.9444597
20
46.5512197
40
0.2277108
50
307.7357725
51
334.7849066
0
ARC
8
DEFAULT_255_1_234
10
17.9043773
20
46.5962645
40
0.2878951
50
307.0241536
51
308.5578354
0
ARC
8
DEFAULT_255_1_234
10
17.8786104
20
46.6348801
40
0.3342515
50
282.9362969
51
306.5646424
0
ARC
8
DEFAULT_255_1_234
10
17.8424401
20
46.7816108
40
0.4853615
50
271.1026298
51
283.2200835
0
ARC
8
DEFAULT_255_1_234
10
17.8360645
20
46.9057418
40
0.6096052
50
269.9919117
51
271.4772449
0
ARC
8
DEFAULT_255_1_234
10
17.83344
20
46.7979436
40
0.5018135
50
259.0723564
51
270.289833
0
ARC
8
DEFAULT_255_1_234
10
17.8122133
20
46.6862271
40
0.388099
50
245.4963068
51
259.0227342
0
ARC
8
DEFAULT_255_1_234
10
17.7844089
20
46.6280615
40
0.3236422
50
228.9684658
51
245.7044727
0
ARC
8
DEFAULT_255_1_234
10
17.7578533
20
46.5953575
40
0.2815426
50
214.4011705
51
228.6759915
0
ARC
8
DEFAULT_255_1_234
10
17.7289273
20
46.579529
40
0.2487548
50
179.9705531
51
215.1572795
0
ARC
8
DEFAULT_255_1_234
10
17.7989873
20
46.5868806
40
0.1703809
50
182.4299387
51
203.0329699
0
ARC
8
DEFAULT_255_1_234
10
17.7805531
20
46.5812396
40
0.1512226
50
203.798802
51
232.548466
0
ARC
8
DEFAULT_255_1_234
10
17.8082052
20
46.6163826
40
0.1959374
50
232.3782728
51
256.3934612
0
ARC
8
DEFAULT_255_1_234
10
17.8312414
20
46.7053842
40
0.2878639
50
256.104506
51
268.4626716
0
ARC
8
DEFAULT_255_1_234
10
17.8358898
20
46.7850487
40
0.3676329
50
268.0715632
51
270.0138206
0
ARC
8
DEFAULT_255_1_234
10
17.8377423
20
46.7578083
40
0.3403971
50
269.7031147
51
278.8341955
0
ARC
8
DEFAULT_255_1_234
10
17.8559516
20
46.6447876
40
0.2259217
50
278.6728789
51
292.8232582
0
ARC
8
DEFAULT_255_1_234
10
17.8760054
20
46.5946449
40
0.171929
50
293.1452328
51
303.6655899
0
ARC
8
DEFAULT_255_1_234
10
17.9024933
20
46.5570204
40
0.1259367
50
303.1248165
51
321.742847
0
ARC
8
DEFAULT_255_1_234
10
17.9210813
20
46.5407156
40
0.1012531
50
322.4748573
51
1.1291126
0
LINE
8
DEFAULT_255_1_234
10
5.0597119
20
44.4491792
11
5.0597119
21
44.3279
0
LINE
8
DEFAULT_255_1_234
10
5.0597119
20
44.3279
11
4.293484
21
44.3279
0
LINE
8
DEFAULT_255_1_234
10
4.293484
20
44.3279
11
4.293484
21
44.4347221
0
LINE
8
DEFAULT_255_1_234
10
4.293484
20
44.4347221
11
4.6982836
21
44.8844995
0
LINE
8
DEFAULT_255_1_234
10
4.4195823
20
45.1527595
11
4.2709952
21
45.1527595
0
LINE
8
DEFAULT_255_1_234
10
4.7858296
20
44.7889218
11
4.4725918
21
44.4491792
0
LINE
8
DEFAULT_255_1_234
10
4.4725918
20
44.4491792
11
5.0597119
21
44.4491792
0
ARC
8
DEFAULT_255_1_234
10
3.349267
20
46.0774527
40
1.8008286
50
318.5132453
51
320.7828378
0
ARC
8
DEFAULT_255_1_234
10
3.8779644
20
45.6471426
40
1.1191493
50
320.7372736
51
323.9737074
0
ARC
8
DEFAULT_255_1_234
10
4.2699501
20
45.3631361
40
0.6350923
50
323.8961724
51
328.6421089
0
ARC
8
DEFAULT_255_1_234
10
4.4746096
20
45.2369031
40
0.3946393
50
328.8299013
51
331.789948
0
ARC
8
DEFAULT_255_1_234
10
4.5743274
20
45.1854509
40
0.2824501
50
331.4255242
51
352.9364833
0
ARC
8
DEFAULT_255_1_234
10
4.5879775
20
45.1823976
40
0.2685315
50
353.2248685
51
0.0169286
0
ARC
8
DEFAULT_255_1_234
10
4.6089652
20
45.184695
40
0.2475536
50
359.4866256
51
15.9339782
0
ARC
8
DEFAULT_255_1_234
10
4.6596637
20
45.1983286
40
0.1950618
50
16.1714718
51
43.5284424
0
ARC
8
DEFAULT_255_1_234
10
4.6673946
20
45.2060573
40
0.184134
50
43.4415429
51
83.1661404
0
ARC
8
DEFAULT_255_1_234
10
4.6539864
20
45.1323771
40
0.258926
50
82.160215
51
90.1505798
0
ARC
8
DEFAULT_255_1_234
10
4.6508291
20
45.0786865
40
0.3126255
50
89.5460705
51
102.5418777
0
ARC
8
DEFAULT_255_1_234
10
4.6265377
20
45.1817665
40
0.2067346
50
102.1739365
51
129.2061916
0
ARC
8
DEFAULT_255_1_234
10
4.6186449
20
45.1942094
40
0.1921118
50
129.7279328
51
135.7542026
0
ARC
8
DEFAULT_255_1_234
10
4.6307977
20
45.1845045
40
0.2075944
50
136.175737
51
166.3674722
0
ARC
8
DEFAULT_255_1_234
10
4.7314896
20
45.1575182
40
0.3118201
50
165.9092917
51
178.8683903
0
ARC
8
DEFAULT_255_1_234
10
4.8179757
20
45.1528179
40
0.3983935
50
178.438168
51
180.0083905
0
ARC
8
DEFAULT_255_1_234
10
4.6778359
20
45.1567231
40
0.4068601
50
163.2878735
51
180.5581814
0
ARC
8
DEFAULT_255_1_234
10
4.5976621
20
45.178784
40
0.3237344
50
133.454115
51
162.9470031
0
ARC
8
DEFAULT_255_1_234
10
4.6155162
20
45.1598
40
0.349795
50
100.7869394
51
133.4384016
0
ARC
8
DEFAULT_255_1_234
10
4.6502934
20
45.0049319
40
0.5084616
50
89.6605301
51
101.3704185
0
ARC
8
DEFAULT_255_1_234
10
4.6569273
20
45.0110496
40
0.502348
50
78.2171172
51
90.4130393
0
ARC
8
DEFAULT_255_1_234
10
4.6924351
20
45.1734637
40
0.3361092
50
55.9268222
51
78.4888551
0
ARC
8
DEFAULT_255_1_234
10
4.7120791
20
45.2073324
40
0.2970617
50
47.9292255
51
55.4054003
0
ARC
8
DEFAULT_255_1_234
10
4.7222352
20
45.2176502
40
0.2825983
50
4.3347696
51
48.0560701
0
ARC
8
DEFAULT_255_1_234
10
4.6126745
20
45.2006601
40
0.393225
50
359.925209
51
5.5967654
0
ARC
8
DEFAULT_255_1_234
10
4.6555637
20
45.2062816
40
0.3503892
50
337.8914096
51
358.9967724
0
ARC
8
DEFAULT_255_1_234
10
4.3842049
20
45.3109706
40
0.6412172
50
326.9135351
51
338.3505194
0
ARC
8
DEFAULT_255_1_234
10
3.9856353
20
45.5664284
40
1.1146189
50
319.6472867
51
327.095818
0
ARC
8
DEFAULT_255_1_234
10
3.6023356
20
45.8826
40
1.6114559
50
317.2586784
51
319.9046139
0
LINE
8
DEFAULT_255_1_234
10
5.8444127
20
45.4973211
11
5.8444127
21
44.720652
0
LINE
8
DEFAULT_255_1_234
10
5.8444127
20
44.720652
11
6.0066538
21
44.720652
0
LINE
8
DEFAULT_255_1_234
10
6.0066538
20
44.720652
11
6.0066538
21
44.5993728
0
LINE
8
DEFAULT_255_1_234
10
6.0066538
20
44.5993728
11
5.8444127
21
44.5993728
0
LINE
8
DEFAULT_255_1_234
10
5.8444127
20
44.5993728
11
5.8444127
21
44.3279
0
LINE
8
DEFAULT_255_1_234
10
5.8444127
20
44.3279
11
5.6950224
21
44.3279
0
LINE
8
DEFAULT_255_1_234
10
5.6950224
20
44.3279
11
5.6950224
21
44.5993728
0
LINE
8
DEFAULT_255_1_234
10
5.6950224
20
44.5993728
11
5.1625181
21
44.5993728
0
LINE
8
DEFAULT_255_1_234
10
5.1625181
20
44.5993728
11
5.1625181
21
44.6869187
0
LINE
8
DEFAULT_255_1_234
10
5.1625181
20
44.6869187
11
5.6861875
21
45.4973211
0
LINE
8
DEFAULT_255_1_234
10
5.6861875
20
45.4973211
11
5.8444127
21
45.4973211
0
LINE
8
DEFAULT_255_1_234
10
5.6773525
20
45.2619912
11
5.3311846
21
44.720652
0
LINE
8
DEFAULT_255_1_234
10
5.3311846
20
44.720652
11
5.6950224
21
44.720652
0
LINE
8
DEFAULT_255_1_234
10
5.6950224
20
44.720652
11
5.6950224
21
45.2941181
0
LINE
8
DEFAULT_255_1_234
10
5.6950224
20
45.2941181
11
5.6773525
21
45.2619912
0
LINE
8
DEFAULT_255_1_234
10
6.233952
20
45.4973211
11
6.566466
21
44.5327093
0
LINE
8
DEFAULT_255_1_234
10
6.566466
20
44.5327093
11
6.9005863
21
45.4973211
0
LINE
8
DEFAULT_255_1_234
10
6.9005863
20
45.4973211
11
7.0692528
21
45.4973211
0
LINE
8
DEFAULT_255_1_234
10
7.0692528
20
45.4973211
11
6.6355389
21
44.3279
0
LINE
8
DEFAULT_255_1_234
10
6.6355389
20
44.3279
11
6.4989994
21
44.3279
0
LINE
8
DEFAULT_255_1_234
10
6.4989994
20
44.3279
11
6.0660887
21
45.4973211
0
LINE
8
DEFAULT_255_1_234
10
6.0660887
20
45.4973211
11
6.233952
21
45.4973211
0
LINE
8
DEFAULT_255_1_234
10
5.2076482
20
5.222701
11
5.2076482
21
4.7938062
0
LINE
8
DEFAULT_255_1_234
10
4.3064872
20
5.1688884
11
4.3064872
21
5.2708915
0
LINE
8
DEFAULT_255_1_234
10
5.2076482
20
5.4668659
11
5.0534389
21
5.4668659
0
LINE
8
DEFAULT_255_1_234
10
4.4614998
20
5.2749073
11
4.4614998
21
5.1793296
0
LINE
8
DEFAULT_255_1_234
10
5.054242
20
4.8347681
11
5.054242
21
5.0974059
0
LINE
8
DEFAULT_255_1_234
10
5.054242
20
5.0974059
11
4.7835725
21
5.0974059
0
LINE
8
DEFAULT_255_1_234
10
4.7835725
20
5.0974059
11
4.7835725
21
5.222701
0
LINE
8
DEFAULT_255_1_234
10
4.7835725
20
5.222701
11
5.2076482
21
5.222701
0
ARC
8
DEFAULT_255_1_234
10
4.9244989
20
4.9931396
40
0.3462765
50
295.8437914
51
324.8549609
0
ARC
8
DEFAULT_255_1_234
10
4.8828956
20
5.0684567
40
0.4322211
50
291.5695085
51
296.4549398
0
ARC
8
DEFAULT_255_1_234
10
4.8318207
20
5.2049275
40
0.5779178
50
278.6622409
51
291.3045483
0
ARC
8
DEFAULT_255_1_234
10
4.7978699
20
5.4197408
40
0.7953952
50
270.020006
51
278.7494541
0
ARC
8
DEFAULT_255_1_234
10
4.7940623
20
5.5514036
40
0.927067
50
269.9969998
51
270.2524872
0
ARC
8
DEFAULT_255_1_234
10
4.7902336
20
5.1430589
40
0.5187361
50
253.5786322
51
270.4175299
0
ARC
8
DEFAULT_255_1_234
10
4.7728992
20
5.0759236
40
0.4494451
50
238.8203306
51
253.2788235
0
ARC
8
DEFAULT_255_1_234
10
4.7709365
20
5.0708231
40
0.4440665
50
206.7883783
51
238.6962764
0
ARC
8
DEFAULT_255_1_234
10
4.8483275
20
5.1172405
40
0.5341121
50
206.1129412
51
207.4916643
0
ARC
8
DEFAULT_255_1_234
10
4.908019
20
5.1426488
40
0.5989041
50
188.6921119
51
205.7821245
0
ARC
8
DEFAULT_255_1_234
10
5.0936552
20
5.174223
40
0.7871862
50
180.3882829
51
188.9219216
0
ARC
8
DEFAULT_255_1_234
10
5.2164366
20
5.2765464
40
0.909967
50
170.2024264
51
180.3560651
0
ARC
8
DEFAULT_255_1_234
10
4.9000884
20
5.3331237
40
0.5886083
50
154.2857445
51
170.3893044
0
ARC
8
DEFAULT_255_1_234
10
4.7719087
20
5.391795
40
0.4476743
50
139.8401567
51
153.9332699
0
ARC
8
DEFAULT_255_1_234
10
4.7359823
20
5.4205577
40
0.4016697
50
98.4190291
51
139.6707122
0
ARC
8
DEFAULT_255_1_234
10
4.7739341
20
5.2360328
40
0.5898566
50
89.7659205
51
99.4415478
0
ARC
8
DEFAULT_255_1_234
10
4.780459
20
5.2425844
40
0.5833147
50
78.0551672
51
90.4042112
0
ARC
8
DEFAULT_255_1_234
10
4.82091
20
5.4244644
40
0.3970055
50
54.6380464
51
78.3339173
0
ARC
8
DEFAULT_255_1_234
10
4.8399156
20
5.4564795
40
0.3599102
50
50.031736
51
54.1558201
0
ARC
8
DEFAULT_255_1_234
10
4.8291944
20
5.4468766
40
0.3741624
50
18.1092409
51
49.7180913
0
ARC
8
DEFAULT_255_1_234
10
4.6835144
20
5.3935089
40
0.5292424
50
7.9672797
51
18.6984571
0
ARC
8
DEFAULT_255_1_234
10
4.6985622
20
5.4058504
40
0.3600838
50
9.7557294
51
27.3215714
0
ARC
8
DEFAULT_255_1_234
10
4.8113094
20
5.4621912
40
0.2340608
50
27.7361077
51
84.5257964
0
ARC
8
DEFAULT_255_1_234
10
4.7785481
20
5.297864
40
0.4011215
50
82.106034
51
90.2001166
0
ARC
8
DEFAULT_255_1_234
10
4.7735698
20
5.3486215
40
0.3503799
50
89.4150119
51
105.5823402
0
ARC
8
DEFAULT_255_1_234
10
4.7478696
20
5.4421867
40
0.2533503
50
105.6678618
51
144.2648758
0
ARC
8
DEFAULT_255_1_234
10
4.8371951
20
5.3786289
40
0.3629787
50
144.3561283
51
162.8564086
0
ARC
8
DEFAULT_255_1_234
10
5.045586
20
5.3117017
40
0.5818441
50
162.6076014
51
173.6780284
0
ARC
8
DEFAULT_255_1_234
10
5.3517004
20
5.274489
40
0.8902007
50
173.4670142
51
179.9730753
0
ARC
8
DEFAULT_255_1_234
10
5.1608675
20
5.175126
40
0.6993804
50
179.6556203
51
190.0080463
0
ARC
8
DEFAULT_255_1_234
10
4.9292504
20
5.1326375
40
0.4639066
50
189.8116607
51
206.6796816
0
ARC
8
DEFAULT_255_1_234
10
4.8447656
20
5.0932503
40
0.3707421
50
207.1031645
51
217.7074368
0
ARC
8
DEFAULT_255_1_234
10
4.7813345
20
5.0380559
40
0.2868417
50
216.7345547
51
265.6812148
0
ARC
8
DEFAULT_255_1_234
10
4.7944136
20
5.1284855
40
0.3780509
50
264.7366618
51
270.0611241
0
ARC
8
DEFAULT_255_1_234
10
4.7967399
20
5.4125111
40
0.662079
50
269.8335834
51
276.0539546
0
ARC
8
DEFAULT_255_1_234
10
4.8174404
20
5.222356
40
0.4708016
50
275.9894168
51
284.4615085
0
ARC
8
DEFAULT_255_1_234
10
4.8372411
20
5.1390663
40
0.3852094
50
284.7034461
51
286.4953897
0
ARC
8
DEFAULT_255_1_234
10
4.8779424
20
5.0079965
40
0.2479842
50
286.0770838
51
304.2625829
0
ARC
8
DEFAULT_255_1_234
10
4.8912838
20
4.9861594
40
0.2224291
50
304.5891602
51
317.1073298
0
LINE
8
DEFAULT_255_1_234
10
6.3634154
20
5.8098211
11
6.3634154
21
4.6404
0
LINE
8
DEFAULT_255_1_234
10
6.3634154
20
4.6404
11
6.2084028
21
4.6404
0
LINE
8
DEFAULT_255_1_234
10
6.2084028
20
4.6404
11
5.6196764
21
5.541561
0
LINE
8
DEFAULT_255_1_234
10
5.6196764
20
5.541561
11
5.6196764
21
4.6404
0
LINE
8
DEFAULT_255_1_234
10
5.6196764
20
4.6404
11
5.4646639
21
4.6404
0
LINE
8
DEFAULT_255_1_234
10
5.4646639
20
4.6404
11
5.4646639
21
5.8098211
0
LINE
8
DEFAULT_255_1_234
10
5.4646639
20
5.8098211
11
5.6196764
21
5.8098211
0
LINE
8
DEFAULT_255_1_234
10
5.6196764
20
5.8098211
11
6.2100092
21
4.9046442
0
LINE
8
DEFAULT_255_1_234
10
6.2100092
20
4.9046442
11
6.2100092
21
5.8098211
0
LINE
8
DEFAULT_255_1_234
10
6.2100092
20
5.8098211
11
6.3634154
21
5.8098211
0
LINE
8
DEFAULT_255_1_234
10
6.9609767
20
4.6404
11
6.6372977
21
4.6404
0
LINE
8
DEFAULT_255_1_234
10
6.6372977
20
4.6404
11
6.6372977
21
5.8098211
0
LINE
8
DEFAULT_255_1_234
10
6.6372977
20
5.8098211
11
6.9674021
21
5.8098211
0
LINE
8
DEFAULT_255_1_234
10
7.4830397
20
5.2644661
11
7.4830397
21
5.1897709
0
LINE
8
DEFAULT_255_1_234
10
6.971418
20
5.6829196
11
6.791507
21
5.6829196
0
LINE
8
DEFAULT_255_1_234
10
6.791507
20
5.6829196
11
6.791507
21
4.7664983
0
LINE
8
DEFAULT_255_1_234
10
6.791507
20
4.7664983
11
6.9537481
21
4.7664983
0
LINE
8
DEFAULT_255_1_234
10
7.3304367
20
5.1929836
11
7.3304367
21
5.2612534
0
ARC
8
DEFAULT_255_1_234
10
6.9712963
20
5.2232894
40
0.5865446
50
75.4101064
51
90.3804066
0
ARC
8
DEFAULT_255_1_234
10
6.9942477
20
5.3189492
40
0.4881916
50
60.145586
51
75.1888407
0
ARC
8
DEFAULT_255_1_234
10
7.0101252
20
5.3466199
40
0.4562893
50
26.5253612
51
60.1450928
0
ARC
8
DEFAULT_255_1_234
10
6.8981002
20
5.2872158
40
0.5830602
50
7.4030428
51
26.8320788
0
ARC
8
DEFAULT_255_1_234
10
6.7386758
20
5.2623804
40
0.7443669
50
0.1605367
51
7.7176192
0
ARC
8
DEFAULT_255_1_234
10
6.7550663
20
5.1859434
40
0.7279835
50
348.7289388
51
0.3012466
0
ARC
8
DEFAULT_255_1_234
10
6.9207093
20
5.1530386
40
0.559104
50
333.0706509
51
348.7181832
0
ARC
8
DEFAULT_255_1_234
10
7.0173851
20
5.1005319
40
0.4491417
50
299.2531685
51
333.4571258
0
ARC
8
DEFAULT_255_1_234
10
6.9812991
20
5.1690828
40
0.5265881
50
278.107187
51
299.0339503
0
ARC
8
DEFAULT_255_1_234
10
6.955707
20
5.3198216
40
0.679442
50
270.4443897
51
278.4511052
0
ARC
8
DEFAULT_255_1_234
10
6.95779
20
5.2269213
40
0.4604407
50
269.4970433
51
284.0205042
0
ARC
8
DEFAULT_255_1_234
10
6.9933201
20
5.0903978
40
0.3193797
50
283.7700273
51
318.1555492
0
ARC
8
DEFAULT_255_1_234
10
6.9595959
20
5.1156367
40
0.3613588
50
318.7415601
51
343.6873628
0
ARC
8
DEFAULT_255_1_234
10
6.7791982
20
5.1719832
40
0.5503313
50
343.3325091
51
355.8548958
0
ARC
8
DEFAULT_255_1_234
10
6.5693666
20
5.1919319
40
0.7610708
50
355.4988528
51
0.0791727
0
ARC
8
DEFAULT_255_1_234
10
6.6476289
20
5.265478
40
0.6828208
50
359.6455037
51
9.8607896
0
ARC
8
DEFAULT_255_1_234
10
6.8836987
20
5.3081099
40
0.4429406
50
9.6571907
51
26.1932807
0
ARC
8
DEFAULT_255_1_234
10
6.9764975
20
5.3512118
40
0.3406537
50
26.5777228
51
40.1532208
0
ARC
8
DEFAULT_255_1_234
10
7.0020702
20
5.3711619
40
0.308246
50
40.3840491
51
80.1431104
0
ARC
8
DEFAULT_255_1_234
10
6.969382
20
5.2262333
40
0.4566909
50
79.2152159
51
89.7445637
0
LINE
8
DEFAULT_255_1_234
10
5.0928023
20
13.4091849
11
4.9377897
21
13.4091849
0
LINE
8
DEFAULT_255_1_234
10
4.2454539
20
12.9168394
11
4.4004665
21
12.9168394
0
ARC
8
DEFAULT_255_1_234
10
5.003671
20
14.3038768
40
1.252368
50
248.9199003
51
254.1439814
0
ARC
8
DEFAULT_255_1_234
10
4.8356205
20
13.8712234
40
0.788226
50
241.633709
51
249.0064503
0
ARC
8
DEFAULT_255_1_234
10
4.68276
20
13.5911317
40
0.4691427
50
230.498225
51
241.8087113
0
ARC
8
DEFAULT_255_1_234
10
4.6043174
20
13.4911906
40
0.3421437
50
227.4064532
51
229.9881192
0
ARC
8
DEFAULT_255_1_234
10
4.5555694
20
13.4436088
40
0.2741476
50
200.6781896
51
228.1763934
0
ARC
8
DEFAULT_255_1_234
10
4.5628005
20
13.4421077
40
0.2804109
50
179.5061581
51
199.8694617
0
ARC
8
DEFAULT_255_1_234
10
4.5618757
20
13.449521
40
0.2795204
50
132.4834203
51
181.0242172
0
ARC
8
DEFAULT_255_1_234
10
4.6214339
20
13.3932704
40
0.3612768
50
129.2532479
51
133.4242687
0
ARC
8
DEFAULT_255_1_234
10
4.6360789
20
13.3712965
40
0.3875675
50
101.98776
51
128.8742646
0
ARC
8
DEFAULT_255_1_234
10
4.6759399
20
13.1991741
40
0.5642249
50
89.5906553
51
102.3169264
0
ARC
8
DEFAULT_255_1_234
10
4.6829891
20
13.2310148
40
0.5323783
50
77.2360837
51
90.3248275
0
ARC
8
DEFAULT_255_1_234
10
4.7036971
20
13.32774
40
0.4334697
50
63.837784
51
77.0809408
0
ARC
8
DEFAULT_255_1_234
10
4.7314732
20
13.3794911
40
0.3747796
50
45.9864267
51
64.1607727
0
ARC
8
DEFAULT_255_1_234
10
4.7575614
20
13.4092866
40
0.3352302
50
32.2747395
51
45.6547121
0
ARC
8
DEFAULT_255_1_234
10
4.7642054
20
13.411188
40
0.328603
50
359.6507365
51
32.6130309
0
ARC
8
DEFAULT_255_1_234
10
4.669915
20
13.411666
40
0.2678863
50
359.469343
51
14.9832209
0
ARC
8
DEFAULT_255_1_234
10
4.7404212
20
13.4305539
40
0.1948938
50
14.9781179
51
48.2004265
0
ARC
8
DEFAULT_255_1_234
10
4.7239856
20
13.4098983
40
0.2212521
50
48.5927837
51
74.1241538
0
ARC
8
DEFAULT_255_1_234
10
4.6906346
20
13.2998248
40
0.3362561
50
73.7888341
51
86.6652678
0
ARC
8
DEFAULT_255_1_234
10
4.6803911
20
13.1790881
40
0.4573953
50
86.2640471
51
90.0526343
0
ARC
8
DEFAULT_255_1_234
10
4.6775624
20
13.2186192
40
0.4178709
50
89.6697524
51
99.2309573
0
ARC
8
DEFAULT_255_1_234
10
4.6533075
20
13.3630964
40
0.2713749
50
99.069534
51
113.7658566
0
ARC
8
DEFAULT_255_1_234
10
4.6259266
20
13.4276677
40
0.2012469
50
114.0401004
51
127.9850673
0
ARC
8
DEFAULT_255_1_234
10
4.601883
20
13.457273
40
0.1631167
50
127.7287463
51
176.7105154
0
ARC
8
DEFAULT_255_1_234
10
4.6697547
20
13.4471693
40
0.2315392
50
175.1779447
51
180.0581938
0
ARC
8
DEFAULT_255_1_234
10
4.5854394
20
13.4459428
40
0.1472271
50
179.6142195
51
228.1246017
0
ARC
8
DEFAULT_255_1_234
10
4.6296063
20
13.4868308
40
0.2072299
50
226.5779593
51
230.8800004
0
ARC
8
DEFAULT_255_1_234
10
4.6767141
20
13.5493636
40
0.2854818
50
231.4635071
51
241.9260842
0
ARC
8
DEFAULT_255_1_234
10
4.7964319
20
13.76968
40
0.53622
50
241.7178533
51
248.3259551
0
ARC
8
DEFAULT_255_1_234
10
4.9349691
20
14.1129064
40
0.9063478
50
248.2007737
51
252.4528373
0
ARC
8
DEFAULT_255_1_234
10
5.0553416
20
14.4850441
40
1.2974635
50
252.3391078
51
254.3469452
0
ARC
8
DEFAULT_255_1_234
10
4.3011119
20
11.7873148
40
1.5037162
50
71.0197183
51
74.4087047
0
ARC
8
DEFAULT_255_1_234
10
4.4705804
20
12.2765111
40
0.9859993
50
66.1847285
51
71.086374
0
ARC
8
DEFAULT_255_1_234
10
4.6262116
20
12.62692
40
0.6025855
50
59.3536294
51
66.2691831
0
ARC
8
DEFAULT_255_1_234
10
4.7150769
20
12.7772609
40
0.4279449
50
49.1020879
51
59.3293958
0
ARC
8
DEFAULT_255_1_234
10
4.7969509
20
12.8705834
40
0.3038015
50
32.7919921
51
49.2505539
0
ARC
8
DEFAULT_255_1_234
10
4.8290599
20
12.8934191
40
0.264448
50
31.1181161
51
32.4005348
0
ARC
8
DEFAULT_255_1_234
10
4.8202136
20
12.8898779
40
0.2738556
50
8.1116974
51
30.7958831
0
ARC
8
DEFAULT_255_1_234
10
4.7391804
20
12.8760753
40
0.3560327
50
359.8389159
51
8.4706516
0
ARC
8
DEFAULT_255_1_234
10
4.8017596
20
12.8712137
40
0.2934776
50
337.4731098
51
0.7537279
0
ARC
8
DEFAULT_255_1_234
10
4.8196291
20
12.8692387
40
0.2762607
50
307.5917067
51
336.4315538
0
ARC
8
DEFAULT_255_1_234
10
4.7736119
20
12.9205102
40
0.3449979
50
307.6551545
51
308.4529766
0
ARC
8
DEFAULT_255_1_234
10
4.7505838
20
12.956025
40
0.3871988
50
284.3734338
51
307.1424381
0
ARC
8
DEFAULT_255_1_234
10
4.7010668
20
13.1381932
40
0.5759636
50
272.4382747
51
284.646547
0
ARC
8
DEFAULT_255_1_234
10
4.6883876
20
13.3181893
40
0.7563528
50
269.9708387
51
272.8178037
0
ARC
8
DEFAULT_255_1_234
10
4.6840916
20
13.1143716
40
0.5525489
50
248.2707594
51
270.4055579
0
ARC
8
DEFAULT_255_1_234
10
4.6786657
20
13.0953192
40
0.5328452
50
246.1383403
51
248.0542782
0
ARC
8
DEFAULT_255_1_234
10
4.6368036
20
13.0073843
40
0.4355005
50
233.1670131
51
246.4950969
0
ARC
8
DEFAULT_255_1_234
10
4.5813941
20
12.9325812
40
0.3424126
50
215.3403242
51
233.0843104
0
ARC
8
DEFAULT_255_1_234
10
4.5541372
20
12.9127549
40
0.3087104
50
179.2419209
51
215.2648451
0
ARC
8
DEFAULT_255_1_234
10
4.6308966
20
12.9141666
40
0.2304457
50
179.335461
51
199.1045811
0
ARC
8
DEFAULT_255_1_234
10
4.5976643
20
12.9054766
40
0.1962176
50
199.8828939
51
232.7063202
0
ARC
8
DEFAULT_255_1_234
10
4.6448911
20
12.9648788
40
0.2720938
50
232.3738199
51
255.5136649
0
ARC
8
DEFAULT_255_1_234
10
4.6789778
20
13.0892835
40
0.4010747
50
255.2446292
51
267.5320849
0
ARC
8
DEFAULT_255_1_234
10
4.6877401
20
13.2125702
40
0.5246356
50
267.1557994
51
270.0286766
0
ARC
8
DEFAULT_255_1_234
10
4.6905173
20
13.168195
40
0.4802668
50
269.7000017
51
278.1660162
0
ARC
8
DEFAULT_255_1_234
10
4.7161178
20
12.9951515
40
0.3053425
50
278.0231263
51
290.625471
0
ARC
8
DEFAULT_255_1_234
10
4.7508865
20
12.9024025
40
0.206291
50
290.6619762
51
307.0370976
0
ARC
8
DEFAULT_255_1_234
10
4.7809254
20
12.8655504
40
0.1587906
50
306.3943566
51
355.3030547
0
ARC
8
DEFAULT_255_1_234
10
4.7297186
20
12.8732113
40
0.2104809
50
354.3660432
51
0.0698737
0
ARC
8
DEFAULT_255_1_234
10
4.7439531
20
12.8754617
40
0.1962563
50
359.417946
51
16.1971788
0
ARC
8
DEFAULT_255_1_234
10
4.7894841
20
12.8879418
40
0.149053
50
16.4723299
51
52.6262157
0
ARC
8
DEFAULT_255_1_234
10
4.7073895
20
12.7795433
40
0.2850296
50
52.7386432
51
62.4979148
0
ARC
8
DEFAULT_255_1_234
10
4.5688972
20
12.5189283
40
0.5801521
50
62.2515216
51
68.1220564
0
ARC
8
DEFAULT_255_1_234
10
4.3968883
20
12.0961872
40
1.0365451
50
68.0062803
51
71.8053402
0
ARC
8
DEFAULT_255_1_234
10
4.2173255
20
11.5576758
40
1.6042013
50
71.7183119
51
73.9258742
0
LINE
8
DEFAULT_255_1_234
10
5.4478051
20
13.7473211
11
5.4478051
21
12.7039983
0
LINE
8
DEFAULT_255_1_234
10
5.4478051
20
12.7039983
11
6.0019951
21
12.7039983
0
LINE
8
DEFAULT_255_1_234
10
6.0019951
20
12.7039983
11
6.0019951
21
12.5779
0
LINE
8
DEFAULT_255_1_234
10
6.0019951
20
12.5779
11
5.2927926
21
12.5779
0
LINE
8
DEFAULT_255_1_234
10
5.2927926
20
12.5779
11
5.2927926
21
13.7473211
0
LINE
8
DEFAULT_255_1_234
10
5.2927926
20
13.7473211
11
5.4478051
21
13.7473211
0
LINE
8
DEFAULT_255_1_234
10
6.5015692
20
12.5779
11
6.1778901
21
12.5779
0
LINE
8
DEFAULT_255_1_234
10
6.1778901
20
12.5779
11
6.1778901
21
13.7473211
0
LINE
8
DEFAULT_255_1_234
10
6.1778901
20
13.7473211
11
6.5079946
21
13.7473211
0
LINE
8
DEFAULT_255_1_234
10
7.0236322
20
13.2019661
11
7.0236322
21
13.1272709
0
LINE
8
DEFAULT_255_1_234
10
6.5120104
20
13.6204196
11
6.3320995
21
13.6204196
0
LINE
8
DEFAULT_255_1_234
10
6.3320995
20
13.6204196
11
6.3320995
21
12.7039983
0
LINE
8
DEFAULT_255_1_234
10
6.3320995
20
12.7039983
11
6.4943406
21
12.7039983
0
LINE
8
DEFAULT_255_1_234
10
6.8710292
20
13.1304836
11
6.8710292
21
13.1987534
0
ARC
8
DEFAULT_255_1_234
10
6.5118888
20
13.1607894
40
0.5865446
50
75.4101064
51
90.3804066
0
ARC
8
DEFAULT_255_1_234
10
6.5348402
20
13.2564492
40
0.4881916
50
60.145586
51
75.1888407
0
ARC
8
DEFAULT_255_1_234
10
6.5507177
20
13.2841199
40
0.4562893
50
26.5253612
51
60.1450928
0
ARC
8
DEFAULT_255_1_234
10
6.4386927
20
13.2247158
40
0.5830602
50
7.4030428
51
26.8320788
0
ARC
8
DEFAULT_255_1_234
10
6.2792683
20
13.1998804
40
0.7443669
50
0.1605367
51
7.7176192
0
ARC
8
DEFAULT_255_1_234
10
6.2956588
20
13.1234434
40
0.7279835
50
348.7289388
51
0.3012466
0
ARC
8
DEFAULT_255_1_234
10
6.4613018
20
13.0905386
40
0.559104
50
333.0706509
51
348.7181832
0
ARC
8
DEFAULT_255_1_234
10
6.5579776
20
13.0380319
40
0.4491417
50
299.2531685
51
333.4571258
0
ARC
8
DEFAULT_255_1_234
10
6.5218916
20
13.1065828
40
0.5265881
50
278.107187
51
299.0339503
0
ARC
8
DEFAULT_255_1_234
10
6.4962994
20
13.2573216
40
0.679442
50
270.4443897
51
278.4511052
0
ARC
8
DEFAULT_255_1_234
10
6.4983824
20
13.1644213
40
0.4604407
50
269.4970433
51
284.0205042
0
ARC
8
DEFAULT_255_1_234
10
6.5339125
20
13.0278978
40
0.3193797
50
283.7700273
51
318.1555492
0
ARC
8
DEFAULT_255_1_234
10
6.5001884
20
13.0531367
40
0.3613588
50
318.7415601
51
343.6873628
0
ARC
8
DEFAULT_255_1_234
10
6.3197907
20
13.1094832
40
0.5503313
50
343.3325091
51
355.8548958
0
ARC
8
DEFAULT_255_1_234
10
6.1099591
20
13.1294319
40
0.7610708
50
355.4988528
51
0.0791727
0
ARC
8
DEFAULT_255_1_234
10
6.1882214
20
13.202978
40
0.6828208
50
359.6455037
51
9.8607896
0
ARC
8
DEFAULT_255_1_234
10
6.4242912
20
13.2456099
40
0.4429406
50
9.6571907
51
26.1932807
0
ARC
8
DEFAULT_255_1_234
10
6.51709
20
13.2887118
40
0.3406537
50
26.5777228
51
40.1532208
0
ARC
8
DEFAULT_255_1_234
10
6.5426627
20
13.3086619
40
0.308246
50
40.3840491
51
80.1431104
0
ARC
8
DEFAULT_255_1_234
10
6.5099744
20
13.1637333
40
0.4566909
50
79.2152159
51
89.7445637
0
LINE
8
DEFAULT_255_1_234
10
4.5702154
20
20.5154
11
4.2465364
21
20.5154
0
LINE
8
DEFAULT_255_1_234
10
4.2465364
20
20.5154
11
4.2465364
21
21.6848211
0
LINE
8
DEFAULT_255_1_234
10
4.2465364
20
21.6848211
11
4.5766408
21
21.6848211
0
LINE
8
DEFAULT_255_1_234
10
5.0922784
20
21.1394661
11
5.0922784
21
21.0647709
0
LINE
8
DEFAULT_255_1_234
10
4.5806567
20
21.5579196
11
4.4007458
21
21.5579196
0
LINE
8
DEFAULT_255_1_234
10
4.4007458
20
21.5579196
11
4.4007458
21
20.6414983
0
LINE
8
DEFAULT_255_1_234
10
4.4007458
20
20.6414983
11
4.5629869
21
20.6414983
0
LINE
8
DEFAULT_255_1_234
10
4.9396754
20
21.0679836
11
4.9396754
21
21.1362534
0
ARC
8
DEFAULT_255_1_234
10
4.5805351
20
21.0982894
40
0.5865446
50
75.4101064
51
90.3804066
0
ARC
8
DEFAULT_255_1_234
10
4.6034864
20
21.1939492
40
0.4881916
50
60.145586
51
75.1888407
0
ARC
8
DEFAULT_255_1_234
10
4.619364
20
21.2216199
40
0.4562893
50
26.5253612
51
60.1450928
0
ARC
8
DEFAULT_255_1_234
10
4.5073389
20
21.1622158
40
0.5830602
50
7.4030428
51
26.8320788
0
ARC
8
DEFAULT_255_1_234
10
4.3479146
20
21.1373804
40
0.7443669
50
0.1605367
51
7.7176192
0
ARC
8
DEFAULT_255_1_234
10
4.364305
20
21.0609434
40
0.7279835
50
348.7289388
51
0.3012466
0
ARC
8
DEFAULT_255_1_234
10
4.5299481
20
21.0280386
40
0.559104
50
333.0706509
51
348.7181832
0
ARC
8
DEFAULT_255_1_234
10
4.6266238
20
20.9755319
40
0.4491417
50
299.2531685
51
333.4571258
0
ARC
8
DEFAULT_255_1_234
10
4.5905378
20
21.0440828
40
0.5265881
50
278.107187
51
299.0339503
0
ARC
8
DEFAULT_255_1_234
10
4.5649457
20
21.1948216
40
0.679442
50
270.4443897
51
278.4511052
0
ARC
8
DEFAULT_255_1_234
10
4.5670287
20
21.1019213
40
0.4604407
50
269.4970433
51
284.0205042
0
ARC
8
DEFAULT_255_1_234
10
4.6025588
20
20.9653978
40
0.3193797
50
283.7700273
51
318.1555492
0
ARC
8
DEFAULT_255_1_234
10
4.5688346
20
20.9906367
40
0.3613588
50
318.7415601
51
343.6873628
0
ARC
8
DEFAULT_255_1_234
10
4.3884369
20
21.0469832
40
0.5503313
50
343.3325091
51
355.8548958
0
ARC
8
DEFAULT_255_1_234
10
4.1786054
20
21.0669319
40
0.7610708
50
355.4988528
51
0.0791727
0
ARC
8
DEFAULT_255_1_234
10
4.2568676
20
21.140478
40
0.6828208
50
359.6455037
51
9.8607896
0
ARC
8
DEFAULT_255_1_234
10
4.4929374
20
21.1831099
40
0.4429406
50
9.6571907
51
26.1932807
0
ARC
8
DEFAULT_255_1_234
10
4.5857363
20
21.2262118
40
0.3406537
50
26.5777228
51
40.1532208
0
ARC
8
DEFAULT_255_1_234
10
4.6113089
20
21.2461619
40
0.308246
50
40.3840491
51
80.1431104
0
ARC
8
DEFAULT_255_1_234
10
4.5786207
20
21.1012333
40
0.4566909
50
79.2152159
51
89.7445637
0
LINE
8
DEFAULT_255_1_234
10
6.1886107
20
21.097701
11
6.1886107
21
20.6688062
0
LINE
8
DEFAULT_255_1_234
10
5.2874497
20
21.0438884
11
5.2874497
21
21.1458915
0
LINE
8
DEFAULT_255_1_234
10
6.1886107
20
21.3418659
11
6.0344013
21
21.3418659
0
LINE
8
DEFAULT_255_1_234
10
5.4424622
20
21.1499073
11
5.4424622
21
21.0543296
0
LINE
8
DEFAULT_255_1_234
10
6.0352045
20
20.7097681
11
6.0352045
21
20.9724059
0
LINE
8
DEFAULT_255_1_234
10
6.0352045
20
20.9724059
11
5.7645349
21
20.9724059
0
LINE
8
DEFAULT_255_1_234
10
5.7645349
20
20.9724059
11
5.7645349
21
21.097701
0
LINE
8
DEFAULT_255_1_234
10
5.7645349
20
21.097701
11
6.1886107
21
21.097701
0
ARC
8
DEFAULT_255_1_234
10
5.9054613
20
20.8681396
40
0.3462765
50
295.8437914
51
324.8549609
0
ARC
8
DEFAULT_255_1_234
10
5.863858
20
20.9434567
40
0.4322211
50
291.5695085
51
296.4549398
0
ARC
8
DEFAULT_255_1_234
10
5.8127832
20
21.0799275
40
0.5779178
50
278.6622409
51
291.3045483
0
ARC
8
DEFAULT_255_1_234
10
5.7788323
20
21.2947408
40
0.7953952
50
270.020006
51
278.7494541
0
ARC
8
DEFAULT_255_1_234
10
5.7750247
20
21.4264036
40
0.927067
50
269.9969998
51
270.2524872
0
ARC
8
DEFAULT_255_1_234
10
5.771196
20
21.0180589
40
0.5187361
50
253.5786322
51
270.4175299
0
ARC
8
DEFAULT_255_1_234
10
5.7538616
20
20.9509236
40
0.4494451
50
238.8203306
51
253.2788235
0
ARC
8
DEFAULT_255_1_234
10
5.751899
20
20.9458231
40
0.4440665
50
206.7883783
51
238.6962764
0
ARC
8
DEFAULT_255_1_234
10
5.82929
20
20.9922405
40
0.5341121
50
206.1129412
51
207.4916643
0
ARC
8
DEFAULT_255_1_234
10
5.8889815
20
21.0176488
40
0.5989041
50
188.6921119
51
205.7821245
0
ARC
8
DEFAULT_255_1_234
10
6.0746176
20
21.049223
40
0.7871862
50
180.3882829
51
188.9219216
0
ARC
8
DEFAULT_255_1_234
10
6.1973991
20
21.1515464
40
0.909967
50
170.2024264
51
180.3560651
0
ARC
8
DEFAULT_255_1_234
10
5.8810509
20
21.2081237
40
0.5886083
50
154.2857445
51
170.3893044
0
ARC
8
DEFAULT_255_1_234
10
5.7528712
20
21.266795
40
0.4476743
50
139.8401567
51
153.9332699
0
ARC
8
DEFAULT_255_1_234
10
5.7169447
20
21.2955577
40
0.4016697
50
98.4190291
51
139.6707122
0
ARC
8
DEFAULT_255_1_234
10
5.7548965
20
21.1110328
40
0.5898566
50
89.7659205
51
99.4415478
0
ARC
8
DEFAULT_255_1_234
10
5.7614215
20
21.1175844
40
0.5833147
50
78.0551672
51
90.4042112
0
ARC
8
DEFAULT_255_1_234
10
5.8018725
20
21.2994644
40
0.3970055
50
54.6380464
51
78.3339173
0
ARC
8
DEFAULT_255_1_234
10
5.8208781
20
21.3314795
40
0.3599102
50
50.031736
51
54.1558201
0
ARC
8
DEFAULT_255_1_234
10
5.8101568
20
21.3218766
40
0.3741624
50
18.1092409
51
49.7180913
0
ARC
8
DEFAULT_255_1_234
10
5.6644768
20
21.2685089
40
0.5292424
50
7.9672797
51
18.6984571
0
ARC
8
DEFAULT_255_1_234
10
5.6795246
20
21.2808504
40
0.3600838
50
9.7557294
51
27.3215714
0
ARC
8
DEFAULT_255_1_234
10
5.7922718
20
21.3371912
40
0.2340608
50
27.7361077
51
84.5257964
0
ARC
8
DEFAULT_255_1_234
10
5.7595105
20
21.172864
40
0.4011215
50
82.106034
51
90.2001166
0
ARC
8
DEFAULT_255_1_234
10
5.7545322
20
21.2236215
40
0.3503799
50
89.4150119
51
105.5823402
0
ARC
8
DEFAULT_255_1_234
10
5.728832
20
21.3171867
40
0.2533503
50
105.6678618
51
144.2648758
0
ARC
8
DEFAULT_255_1_234
10
5.8181576
20
21.2536289
40
0.3629787
50
144.3561283
51
162.8564086
0
ARC
8
DEFAULT_255_1_234
10
6.0265485
20
21.1867017
40
0.5818441
50
162.6076014
51
173.6780284
0
ARC
8
DEFAULT_255_1_234
10
6.3326628
20
21.149489
40
0.8902007
50
173.4670142
51
179.9730753
0
ARC
8
DEFAULT_255_1_234
10
6.14183
20
21.050126
40
0.6993804
50
179.6556203
51
190.0080463
0
ARC
8
DEFAULT_255_1_234
10
5.9102128
20
21.0076375
40
0.4639066
50
189.8116607
51
206.6796816
0
ARC
8
DEFAULT_255_1_234
10
5.8257281
20
20.9682503
40
0.3707421
50
207.1031645
51
217.7074368
0
ARC
8
DEFAULT_255_1_234
10
5.7622969
20
20.9130559
40
0.2868417
50
216.7345547
51
265.6812148
0
ARC
8
DEFAULT_255_1_234
10
5.775376
20
21.0034855
40
0.3780509
50
264.7366618
51
270.0611241
0
ARC
8
DEFAULT_255_1_234
10
5.7777024
20
21.2875111
40
0.662079
50
269.8335834
51
276.0539546
0
ARC
8
DEFAULT_255_1_234
10
5.7984028
20
21.097356
40
0.4708016
50
275.9894168
51
284.4615085
0
ARC
8
DEFAULT_255_1_234
10
5.8182035
20
21.0140663
40
0.3852094
50
284.7034461
51
286.4953897
0
ARC
8
DEFAULT_255_1_234
10
5.8589049
20
20.8829965
40
0.2479842
50
286.0770838
51
304.2625829
0
ARC
8
DEFAULT_255_1_234
10
5.8722462
20
20.8611594
40
0.2224291
50
304.5891602
51
317.1073298
0
LINE
8
DEFAULT_255_1_234
10
4.6188154
20
28.4529
11
4.2951364
21
28.4529
0
LINE
8
DEFAULT_255_1_234
10
4.2951364
20
28.4529
11
4.2951364
21
29.6223211
0
LINE
8
DEFAULT_255_1_234
10
4.2951364
20
29.6223211
11
4.6252408
21
29.6223211
0
LINE
8
DEFAULT_255_1_234
10
5.1408784
20
29.0769661
11
5.1408784
21
29.0022709
0
LINE
8
DEFAULT_255_1_234
10
4.6292567
20
29.4954196
11
4.4493458
21
29.4954196
0
LINE
8
DEFAULT_255_1_234
10
4.4493458
20
29.4954196
11
4.4493458
21
28.5789983
0
LINE
8
DEFAULT_255_1_234
10
4.4493458
20
28.5789983
11
4.6115869
21
28.5789983
0
LINE
8
DEFAULT_255_1_234
10
4.9882754
20
29.0054836
11
4.9882754
21
29.0737534
0
ARC
8
DEFAULT_255_1_234
10
4.6291351
20
29.0357894
40
0.5865446
50
75.4101064
51
90.3804066
0
ARC
8
DEFAULT_255_1_234
10
4.6520864
20
29.1314492
40
0.4881916
50
60.145586
51
75.1888407
0
ARC
8
DEFAULT_255_1_234
10
4.667964
20
29.1591199
40
0.4562893
50
26.5253612
51
60.1450928
0
ARC
8
DEFAULT_255_1_234
10
4.5559389
20
29.0997158
40
0.5830602
50
7.4030428
51
26.8320788
0
ARC
8
DEFAULT_255_1_234
10
4.3965146
20
29.0748804
40
0.7443669
50
0.1605367
51
7.7176192
0
ARC
8
DEFAULT_255_1_234
10
4.412905
20
28.9984434
40
0.7279835
50
348.7289388
51
0.3012466
0
ARC
8
DEFAULT_255_1_234
10
4.5785481
20
28.9655386
40
0.559104
50
333.0706509
51
348.7181832
0
ARC
8
DEFAULT_255_1_234
10
4.6752238
20
28.9130319
40
0.4491417
50
299.2531685
51
333.4571258
0
ARC
8
DEFAULT_255_1_234
10
4.6391378
20
28.9815828
40
0.5265881
50
278.107187
51
299.0339503
0
ARC
8
DEFAULT_255_1_234
10
4.6135457
20
29.1323216
40
0.679442
50
270.4443897
51
278.4511052
0
ARC
8
DEFAULT_255_1_234
10
4.6156287
20
29.0394213
40
0.4604407
50
269.4970433
51
284.0205042
0
ARC
8
DEFAULT_255_1_234
10
4.6511588
20
28.9028978
40
0.3193797
50
283.7700273
51
318.1555492
0
ARC
8
DEFAULT_255_1_234
10
4.6174346
20
28.9281367
40
0.3613588
50
318.7415601
51
343.6873628
0
ARC
8
DEFAULT_255_1_234
10
4.4370369
20
28.9844832
40
0.5503313
50
343.3325091
51
355.8548958
0
ARC
8
DEFAULT_255_1_234
10
4.2272054
20
29.0044319
40
0.7610708
50
355.4988528
51
0.0791727
0
ARC
8
DEFAULT_255_1_234
10
4.3054676
20
29.077978
40
0.6828208
50
359.6455037
51
9.8607896
0
ARC
8
DEFAULT_255_1_234
10
4.5415374
20
29.1206099
40
0.4429406
50
9.6571907
51
26.1932807
0
ARC
8
DEFAULT_255_1_234
10
4.6343363
20
29.1637118
40
0.3406537
50
26.5777228
51
40.1532208
0
ARC
8
DEFAULT_255_1_234
10
4.6599089
20
29.1836619
40
0.308246
50
40.3840491
51
80.1431104
0
ARC
8
DEFAULT_255_1_234
10
4.6272207
20
29.0387333
40
0.4566909
50
79.2152159
51
89.7445637
0
LINE
8
DEFAULT_255_1_234
10
5.7794016
20
28.4529
11
5.3737988
21
28.4529
0
LINE
8
DEFAULT_255_1_234
10
5.3737988
20
28.4529
11
5.3737988
21
29.6223211
0
LINE
8
DEFAULT_255_1_234
10
5.3737988
20
29.6223211
11
5.7561096
21
29.6223211
0
LINE
8
DEFAULT_255_1_234
10
5.7850238
20
28.9998614
11
5.5280082
21
28.9998614
0
LINE
8
DEFAULT_255_1_234
10
5.5280082
20
28.9998614
11
5.5280082
21
28.5789983
0
LINE
8
DEFAULT_255_1_234
10
5.5280082
20
28.5789983
11
5.7826143
21
28.5789983
0
LINE
8
DEFAULT_255_1_234
10
5.5280082
20
29.4954196
11
5.5280082
21
29.1235501
0
LINE
8
DEFAULT_255_1_234
10
5.5280082
20
29.1235501
11
5.7609286
21
29.1235501
0
LINE
8
DEFAULT_255_1_234
10
5.7561096
20
29.4954196
11
5.5280082
21
29.4954196
0
ARC
8
DEFAULT_255_1_234
10
5.7598805
20
28.8855901
40
0.7367406
50
82.1257326
51
90.2932599
0
ARC
8
DEFAULT_255_1_234
10
5.7987759
20
29.1574013
40
0.4621653
50
69.9044149
51
82.2857423
0
ARC
8
DEFAULT_255_1_234
10
5.8558437
20
29.3116637
40
0.2976871
50
51.1838526
51
70.0181538
0
ARC
8
DEFAULT_255_1_234
10
5.8813403
20
29.348724
40
0.2528517
50
12.1017251
51
50.4214761
0
ARC
8
DEFAULT_255_1_234
10
5.7429277
20
29.3139676
40
0.3955061
50
359.5251267
51
12.8211707
0
ARC
8
DEFAULT_255_1_234
10
5.9009204
20
29.3070344
40
0.2375281
50
323.4908128
51
0.8817314
0
ARC
8
DEFAULT_255_1_234
10
5.859089
20
29.339355
40
0.2903817
50
298.6825083
51
323.2756573
0
ARC
8
DEFAULT_255_1_234
10
5.8229253
20
29.3994649
40
0.3604842
50
293.1999386
51
299.1396394
0
ARC
8
DEFAULT_255_1_234
10
5.8902226
20
28.7909126
40
0.2871098
50
54.0011765
51
74.9167975
0
ARC
8
DEFAULT_255_1_234
10
5.9018586
20
28.8106332
40
0.2643248
50
36.3580696
51
53.5291921
0
ARC
8
DEFAULT_255_1_234
10
5.8891828
20
28.8015998
40
0.2798884
50
4.8189881
51
36.3089977
0
ARC
8
DEFAULT_255_1_234
10
5.8112663
20
28.790627
40
0.358478
50
359.9370252
51
5.5204067
0
ARC
8
DEFAULT_255_1_234
10
5.7788184
20
28.7865667
40
0.3909429
50
344.7478609
51
0.5373281
0
ARC
8
DEFAULT_255_1_234
10
5.8779156
20
28.7598544
40
0.2883093
50
311.1786488
51
344.6886812
0
ARC
8
DEFAULT_255_1_234
10
5.8487203
20
28.7961987
40
0.3348923
50
286.0418249
51
310.8441291
0
ARC
8
DEFAULT_255_1_234
10
5.7980035
20
28.9608807
40
0.5071869
50
274.1042341
51
286.4071509
0
ARC
8
DEFAULT_255_1_234
10
5.780329
20
29.1492229
40
0.6963234
50
269.9236873
51
274.445647
0
ARC
8
DEFAULT_255_1_234
10
5.7849291
20
28.9152537
40
0.3362634
50
269.6055768
51
281.3740047
0
ARC
8
DEFAULT_255_1_234
10
5.8079929
20
28.8059353
40
0.224546
50
281.1055983
51
302.5132223
0
ARC
8
DEFAULT_255_1_234
10
5.8226829
20
28.7795823
40
0.1944357
50
303.0368945
51
311.8811219
0
ARC
8
DEFAULT_255_1_234
10
5.8298235
20
28.771089
40
0.1833454
50
311.9916004
51
351.7143462
0
ARC
8
DEFAULT_255_1_234
10
5.7481465
20
28.787593
40
0.2665871
50
350.7339597
51
0.2221581
0
ARC
8
DEFAULT_255_1_234
10
5.7373911
20
28.7932467
40
0.2773789
50
359.0456241
51
17.2296242
0
ARC
8
DEFAULT_255_1_234
10
5.8413028
20
28.8241163
40
0.1689915
50
17.6685481
51
78.9940892
0
ARC
8
DEFAULT_255_1_234
10
5.7896192
20
28.6386224
40
0.3612658
50
76.5635957
51
90.6980921
0
LINE
8
DEFAULT_255_1_234
10
5.7852177
20
28.9998613
11
5.7850238
21
28.9998614
0
ARC
8
DEFAULT_255_1_234
10
5.7631853
20
29.4521036
40
0.3285612
50
269.6064736
51
281.4533503
0
ARC
8
DEFAULT_255_1_234
10
5.7854672
20
29.3469688
40
0.2210975
50
281.2041486
51
302.5148063
0
ARC
8
DEFAULT_255_1_234
10
5.7991522
20
29.3223241
40
0.1929674
50
303.021671
51
309.8369575
0
ARC
8
DEFAULT_255_1_234
10
5.8174984
20
29.3017488
40
0.1654181
50
309.5228395
51
356.9509836
0
ARC
8
DEFAULT_255_1_234
10
5.7511566
20
29.3112932
40
0.2322512
50
355.4701227
51
0.0492546
0
ARC
8
DEFAULT_255_1_234
10
5.7232657
20
29.3135094
40
0.2601498
50
359.5558597
51
11.2096359
0
ARC
8
DEFAULT_255_1_234
10
5.8189947
20
29.333323
40
0.1623975
50
10.9182341
51
31.3230275
0
ARC
8
DEFAULT_255_1_234
10
5.8475681
20
29.3492214
40
0.1297302
50
31.8852677
51
52.1412565
0
ARC
8
DEFAULT_255_1_234
10
5.8201413
20
29.310475
40
0.1771663
50
52.8285564
51
71.9850297
0
ARC
8
DEFAULT_255_1_234
10
5.782559
20
29.1998664
40
0.2939794
50
71.6863486
51
82.8455995
0
ARC
8
DEFAULT_255_1_234
10
5.7586126
20
29.0189149
40
0.476506
50
82.6984714
51
90.1729175
0
ARC
8
DEFAULT_255_1_234
10
5.7563761
20
29.1412623
40
0.3541573
50
89.8708275
51
90.0431131
0
LINE
8
DEFAULT_255_1_234
10
4.6986154
20
36.3904
11
4.3749364
21
36.3904
0
LINE
8
DEFAULT_255_1_234
10
4.3749364
20
36.3904
11
4.3749364
21
37.5598211
0
LINE
8
DEFAULT_255_1_234
10
4.3749364
20
37.5598211
11
4.7050408
21
37.5598211
0
LINE
8
DEFAULT_255_1_234
10
5.2206784
20
37.0144661
11
5.2206784
21
36.9397709
0
LINE
8
DEFAULT_255_1_234
10
4.7090567
20
37.4329196
11
4.5291458
21
37.4329196
0
LINE
8
DEFAULT_255_1_234
10
4.5291458
20
37.4329196
11
4.5291458
21
36.5164983
0
LINE
8
DEFAULT_255_1_234
10
4.5291458
20
36.5164983
11
4.6913869
21
36.5164983
0
LINE
8
DEFAULT_255_1_234
10
5.0680754
20
36.9429836
11
5.0680754
21
37.0112534
0
ARC
8
DEFAULT_255_1_234
10
4.7089351
20
36.9732894
40
0.5865446
50
75.4101064
51
90.3804066
0
ARC
8
DEFAULT_255_1_234
10
4.7318864
20
37.0689492
40
0.4881916
50
60.145586
51
75.1888407
0
ARC
8
DEFAULT_255_1_234
10
4.747764
20
37.0966199
40
0.4562893
50
26.5253612
51
60.1450928
0
ARC
8
DEFAULT_255_1_234
10
4.6357389
20
37.0372158
40
0.5830602
50
7.4030428
51
26.8320788
0
ARC
8
DEFAULT_255_1_234
10
4.4763146
20
37.0123804
40
0.7443669
50
0.1605367
51
7.7176192
0
ARC
8
DEFAULT_255_1_234
10
4.492705
20
36.9359434
40
0.7279835
50
348.7289388
51
0.3012466
0
ARC
8
DEFAULT_255_1_234
10
4.6583481
20
36.9030386
40
0.559104
50
333.0706509
51
348.7181832
0
ARC
8
DEFAULT_255_1_234
10
4.7550238
20
36.8505319
40
0.4491417
50
299.2531685
51
333.4571258
0
ARC
8
DEFAULT_255_1_234
10
4.7189378
20
36.9190828
40
0.5265881
50
278.107187
51
299.0339503
0
ARC
8
DEFAULT_255_1_234
10
4.6933457
20
37.0698216
40
0.679442
50
270.4443897
51
278.4511052
0
ARC
8
DEFAULT_255_1_234
10
4.6954287
20
36.9769213
40
0.4604407
50
269.4970433
51
284.0205042
0
ARC
8
DEFAULT_255_1_234
10
4.7309588
20
36.8403978
40
0.3193797
50
283.7700273
51
318.1555492
0
ARC
8
DEFAULT_255_1_234
10
4.6972346
20
36.8656367
40
0.3613588
50
318.7415601
51
343.6873628
0
ARC
8
DEFAULT_255_1_234
10
4.5168369
20
36.9219832
40
0.5503313
50
343.3325091
51
355.8548958
0
ARC
8
DEFAULT_255_1_234
10
4.3070054
20
36.9419319
40
0.7610708
50
355.4988528
51
0.0791727
0
ARC
8
DEFAULT_255_1_234
10
4.3852676
20
37.015478
40
0.6828208
50
359.6455037
51
9.8607896
0
ARC
8
DEFAULT_255_1_234
10
4.6213374
20
37.0581099
40
0.4429406
50
9.6571907
51
26.1932807
0
ARC
8
DEFAULT_255_1_234
10
4.7141363
20
37.1012118
40
0.3406537
50
26.5777228
51
40.1532208
0
ARC
8
DEFAULT_255_1_234
10
4.7397089
20
37.1211619
40
0.308246
50
40.3840491
51
80.1431104
0
ARC
8
DEFAULT_255_1_234
10
4.7070207
20
36.9762333
40
0.4566909
50
79.2152159
51
89.7445637
0
LINE
8
DEFAULT_255_1_234
10
6.1941251
20
36.3904
11
6.0824839
21
36.6956061
0
LINE
8
DEFAULT_255_1_234
10
6.0824839
20
36.6956061
11
5.5925479
21
36.6956061
0
LINE
8
DEFAULT_255_1_234
10
5.5925479
20
36.6956061
11
5.4825131
21
36.3904
0
LINE
8
DEFAULT_255_1_234
10
5.4825131
20
36.3904
11
5.3234847
21
36.3904
0
LINE
8
DEFAULT_255_1_234
10
5.3234847
20
36.3904
11
5.7700493
21
37.5598211
0
LINE
8
DEFAULT_255_1_234
10
5.7700493
20
37.5598211
11
5.9049825
21
37.5598211
0
LINE
8
DEFAULT_255_1_234
10
5.9049825
20
37.5598211
11
6.3523503
21
36.3904
0
LINE
8
DEFAULT_255_1_234
10
6.3523503
20
36.3904
11
6.1941251
21
36.3904
0
LINE
8
DEFAULT_255_1_234
10
5.8375159
20
37.3694689
11
5.639132
21
36.8225075
0
LINE
8
DEFAULT_255_1_234
10
5.639132
20
36.8225075
11
6.036703
21
36.8225075
0
LINE
8
DEFAULT_255_1_234
10
6.036703
20
36.8225075
11
5.8375159
21
37.3694689
0
LINE
8
DEFAULT_255_1_234
10
23.2983817
20
45.0194327
11
23.2983817
21
44.8266709
0
LINE
8
DEFAULT_255_1_234
10
22.560265
20
44.8065916
11
22.560265
21
45.0049755
0
LINE
8
DEFAULT_255_1_234
10
23.1497946
20
44.7865123
11
23.1497946
21
45.0298739
0
LINE
8
DEFAULT_255_1_234
10
22.7088521
20
45.0411184
11
22.7088521
21
44.8033789
0
ARC
8
DEFAULT_255_1_234
10
22.0736707
20
44.8217805
40
1.2247208
50
353.8441951
51
0.2287902
0
ARC
8
DEFAULT_255_1_234
10
22.5376211
20
44.7699806
40
0.7578929
50
344.4934747
51
353.9765454
0
ARC
8
DEFAULT_255_1_234
10
22.8368801
20
44.6848981
40
0.4467846
50
329.2803592
51
344.7472793
0
ARC
8
DEFAULT_255_1_234
10
22.9361626
20
44.6304018
40
0.3336173
50
324.9352394
51
328.6160465
0
ARC
8
DEFAULT_255_1_234
10
22.9738734
20
44.6040427
40
0.2876076
50
280.580143
51
324.9173126
0
ARC
8
DEFAULT_255_1_234
10
22.9337527
20
44.7711099
40
0.4592847
50
269.5977311
51
281.6734359
0
ARC
8
DEFAULT_255_1_234
10
22.9265433
20
44.7591173
40
0.4472986
50
256.6228859
51
270.51044
0
ARC
8
DEFAULT_255_1_234
10
22.886341
20
44.6042877
40
0.2873874
50
215.8618325
51
257.2788573
0
ARC
8
DEFAULT_255_1_234
10
22.9884442
20
44.6727977
40
0.4102928
50
197.9693508
51
215.2623606
0
ARC
8
DEFAULT_255_1_234
10
23.2369558
20
44.7566709
40
0.6725652
50
187.8816417
51
198.2346507
0
ARC
8
DEFAULT_255_1_234
10
23.6327766
20
44.8138079
40
1.0724845
50
180.8976217
51
188.0055519
0
ARC
8
DEFAULT_255_1_234
10
23.9127954
20
44.8241777
40
1.3526448
50
180.7449369
51
181.1510016
0
ARC
8
DEFAULT_255_1_234
10
23.7550683
20
45.0098042
40
1.1948131
50
173.7675579
51
180.231553
0
ARC
8
DEFAULT_255_1_234
10
23.303283
20
45.0608666
40
0.7401564
50
164.3058563
51
173.9002247
0
ARC
8
DEFAULT_255_1_234
10
23.0120899
20
45.1447656
40
0.4371288
50
148.7922025
51
164.568378
0
ARC
8
DEFAULT_255_1_234
10
22.9169351
20
45.1978929
40
0.3282386
50
144.5883898
51
148.1176286
0
ARC
8
DEFAULT_255_1_234
10
22.8826249
20
45.2218315
40
0.2864044
50
101.6440918
51
144.514236
0
ARC
8
DEFAULT_255_1_234
10
22.9251315
20
45.0529069
40
0.4604934
50
89.5284041
51
102.5819763
0
ARC
8
DEFAULT_255_1_234
10
22.9330403
20
45.0490018
40
0.464401
50
77.0437873
51
90.5081339
0
ARC
8
DEFAULT_255_1_234
10
22.9732405
20
45.2132615
40
0.2953195
50
48.2778575
51
77.4994676
0
ARC
8
DEFAULT_255_1_234
10
22.9805036
20
45.2261746
40
0.2808655
50
36.3142134
51
47.6305865
0
ARC
8
DEFAULT_255_1_234
10
22.8936343
20
45.1676515
40
0.3855453
50
18.2931786
51
35.6769206
0
ARC
8
DEFAULT_255_1_234
10
22.6393102
20
45.0803593
40
0.654423
50
8.024666
51
18.5605216
0
ARC
8
DEFAULT_255_1_234
10
22.2230022
20
45.0188792
40
1.0752407
50
1.1274072
51
8.1718305
0
ARC
8
DEFAULT_255_1_234
10
21.8994213
20
45.0061885
40
1.3990231
50
0.5424119
51
1.3863029
0
ARC
8
DEFAULT_255_1_234
10
22.081559
20
45.0334342
40
1.0682415
50
359.8090433
51
4.9407866
0
ARC
8
DEFAULT_255_1_234
10
22.5025604
20
45.0710113
40
0.6455691
50
4.8362157
51
12.2904523
0
ARC
8
DEFAULT_255_1_234
10
22.7780719
20
45.1323965
40
0.3633074
50
12.0805627
51
23.8173984
0
ARC
8
DEFAULT_255_1_234
10
22.8954425
20
45.1820919
40
0.2358723
50
24.2871213
51
31.3935614
0
ARC
8
DEFAULT_255_1_234
10
22.9479122
20
45.2164233
40
0.1732111
50
30.7407893
51
82.4657128
0
ARC
8
DEFAULT_255_1_234
10
22.9299256
20
45.1280691
40
0.263235
50
81.1060089
51
90.2184952
0
ARC
8
DEFAULT_255_1_234
10
22.9263555
20
45.1538924
40
0.2374236
50
89.3806855
51
105.6762551
0
ARC
8
DEFAULT_255_1_234
10
22.9080186
20
45.2205567
40
0.1682847
50
105.7981136
51
149.7388061
0
ARC
8
DEFAULT_255_1_234
10
23.0144264
20
45.156595
40
0.2924306
50
149.4208916
51
163.6286378
0
ARC
8
DEFAULT_255_1_234
10
23.2235152
20
45.092825
40
0.5110213
50
163.3763315
51
172.1410975
0
ARC
8
DEFAULT_255_1_234
10
23.5535871
20
45.0455518
40
0.8444586
50
172.0259487
51
178.0703232
0
ARC
8
DEFAULT_255_1_234
10
23.856596
20
45.0311906
40
1.1477868
50
177.8631668
51
179.5044149
0
ARC
8
DEFAULT_255_1_234
10
23.7493365
20
44.7997389
40
1.0404907
50
179.7995573
51
185.2460446
0
ARC
8
DEFAULT_255_1_234
10
23.3450404
20
44.7614513
40
0.6343885
50
185.1411642
51
193.0079639
0
ARC
8
DEFAULT_255_1_234
10
23.0806877
20
44.6989641
40
0.3627568
50
192.7897626
51
205.2507664
0
ARC
8
DEFAULT_255_1_234
10
22.9760424
20
44.6522415
40
0.2481908
50
205.8005384
51
211.2537509
0
ARC
8
DEFAULT_255_1_234
10
22.9236864
20
44.617158
40
0.1852521
50
210.3789793
51
238.4008143
0
ARC
8
DEFAULT_255_1_234
10
22.9217386
20
44.6218376
40
0.1882621
50
239.6520629
51
265.9793761
0
ARC
8
DEFAULT_255_1_234
10
22.9302586
20
44.6890427
40
0.2559272
50
265.1315437
51
270.060332
0
ARC
8
DEFAULT_255_1_234
10
22.9331365
20
44.6566534
40
0.2235528
50
269.3314664
51
287.2178029
0
ARC
8
DEFAULT_255_1_234
10
22.9469217
20
44.6063279
40
0.1714108
50
287.7958004
51
329.080874
0
ARC
8
DEFAULT_255_1_234
10
22.8511674
20
44.666093
40
0.2842745
50
328.6634704
51
343.3325132
0
ARC
8
DEFAULT_255_1_234
10
22.6338694
20
44.7337863
40
0.5118644
50
343.0499468
51
351.9393422
0
ARC
8
DEFAULT_255_1_234
10
22.2871994
20
44.7848949
40
0.8622784
50
351.8069023
51
357.7959224
0
ARC
8
DEFAULT_255_1_234
10
21.963655
20
44.8016721
40
1.1862365
50
357.5871873
51
359.2677531
0
LINE
8
DEFAULT_255_1_234
10
23.5819021
20
45.4973211
11
23.9144161
21
44.5327093
0
LINE
8
DEFAULT_255_1_234
10
23.9144161
20
44.5327093
11
24.2485364
21
45.4973211
0
LINE
8
DEFAULT_255_1_234
10
24.2485364
20
45.4973211
11
24.4172029
21
45.4973211
0
LINE
8
DEFAULT_255_1_234
10
24.4172029
20
45.4973211
11
23.983489
21
44.3279
0
LINE
8
DEFAULT_255_1_234
10
23.983489
20
44.3279
11
23.8469495
21
44.3279
0
LINE
8
DEFAULT_255_1_234
10
23.8469495
20
44.3279
11
23.4140388
21
45.4973211
0
LINE
8
DEFAULT_255_1_234
10
23.4140388
20
45.4973211
11
23.5819021
21
45.4973211
0
ENDSEC
0
EOF