0
SECTION
2
HEADER
9
$MEASUREMENT
70
1
0
ENDSEC
0
SECTION
2
TABLES
0
TABLE
2
LTYPE
0
LTYPE
72
65
70
64
2
CONTINUOUS
3
______
73
0
40
0
0
ENDTAB
0
TABLE
2
LAYER
0
LAYER
2
DEFAULT_255_2_778
70
0
62
255
6
CONTINUOUS
0
LAYER
2
DEFAULT_255_1_234
70
0
62
255
6
CONTINUOUS
0
ENDTAB
0
ENDSEC
0
SECTION
2
ENTITIES
0
ARC
8
DEFAULT_255_2_778
10
3.7023693
20
20.2426538
40
0.7914215
50
129.1312896
51
180.1450914
0
ARC
8
DEFAULT_255_2_778
10
3.7026345
20
20.2431409
40
0.7912112
50
89.854026
51
129.1684493
0
ARC
8
DEFAULT_255_2_778
10
25.9316937
20
20.2428275
40
0.7915249
50
39.4792447
51
90.147911
0
ARC
8
DEFAULT_255_2_778
10
25.9322935
20
20.2426741
40
0.7911595
50
359.8533901
51
39.5154338
0
ARC
8
DEFAULT_255_2_778
10
25.9319693
20
-1.9863985
40
0.7914836
50
309.4761667
51
0.1482649
0
ARC
8
DEFAULT_255_2_778
10
25.931698
20
-1.9868295
40
0.7913235
50
269.8517415
51
309.511178
0
ARC
8
DEFAULT_255_2_778
10
3.702642
20
-1.9867714
40
0.7913815
50
219.1282118
51
270.1454017
0
ARC
8
DEFAULT_255_2_778
10
3.7023247
20
-1.9863889
40
0.7913769
50
179.8524075
51
219.1641908
0
LINE
8
DEFAULT_255_2_778
10
3.7046503
20
21.0343497
11
25.9296503
21
21.0343497
0
LINE
8
DEFAULT_255_2_778
10
26.7234503
20
20.2406497
11
26.7234503
21
-1.9843503
0
LINE
8
DEFAULT_255_2_778
10
25.9296503
20
-2.7781503
11
3.7046503
21
-2.7781503
0
LINE
8
DEFAULT_255_2_778
10
2.9109503
20
-1.9843503
11
2.9109503
21
20.2406497
0
LINE
8
DEFAULT_255_1_234
10
11.0892341
20
-0.6513
11
10.8354312
21
-0.1782306
0
LINE
8
DEFAULT_255_1_234
10
10.8354312
20
-0.1782306
11
10.5607458
21
-0.1782306
0
LINE
8
DEFAULT_255_1_234
10
10.5607458
20
-0.1782306
11
10.5607458
21
-0.6513
0
LINE
8
DEFAULT_255_1_234
10
10.5607458
20
-0.6513
11
10.4057332
21
-0.6513
0
LINE
8
DEFAULT_255_1_234
10
10.4057332
20
-0.6513
11
10.4057332
21
0.5181211
0
LINE
8
DEFAULT_255_1_234
10
10.4057332
20
0.5181211
11
10.792863
21
0.5181211
0
LINE
8
DEFAULT_255_1_234
10
10.9800025
20
-0.1453005
11
11.2546879
21
-0.6416619
0
LINE
8
DEFAULT_255_1_234
10
11.2546879
20
-0.6416619
11
11.2546879
21
-0.6513
0
LINE
8
DEFAULT_255_1_234
10
11.2546879
20
-0.6513
11
11.0892341
21
-0.6513
0
LINE
8
DEFAULT_255_1_234
10
10.5607458
20
0.3912196
11
10.5607458
21
-0.0521323
0
LINE
8
DEFAULT_255_1_234
10
10.5607458
20
-0.0521323
11
10.797682
21
-0.0521323
0
LINE
8
DEFAULT_255_1_234
10
10.7968789
20
0.3912196
11
10.5607458
21
0.3912196
0
ARC
8
DEFAULT_255_1_234
10
10.7970269
20
-0.1780239
40
0.6961575
50
80.653586
51
90.3427061
0
ARC
8
DEFAULT_255_1_234
10
10.8389744
20
0.0682348
40
0.4463577
50
65.6987447
51
80.8329603
0
ARC
8
DEFAULT_255_1_234
10
10.8867385
20
0.1777322
40
0.3269094
50
50.0017161
51
65.4305835
0
ARC
8
DEFAULT_255_1_234
10
10.9085849
20
0.2072482
40
0.2902647
50
11.628416
51
49.5603263
0
ARC
8
DEFAULT_255_1_234
10
10.7550185
20
0.1697299
40
0.4482792
50
359.5655735
51
12.3691
0
ARC
8
DEFAULT_255_1_234
10
10.8627045
20
0.1634644
40
0.3405924
50
341.9983148
51
0.4822259
0
ARC
8
DEFAULT_255_1_234
10
10.9021885
20
0.1527471
40
0.2997359
50
323.8609373
51
341.61416
0
ARC
8
DEFAULT_255_1_234
10
10.8720129
20
0.1760484
40
0.3378487
50
296.7018614
51
323.6876402
0
ARC
8
DEFAULT_255_1_234
10
10.8279024
20
0.2549235
40
0.4281516
50
290.8086567
51
297.2323311
0
ARC
8
DEFAULT_255_1_234
10
10.8002554
20
0.3072351
40
0.3593766
50
269.589728
51
281.8058135
0
ARC
8
DEFAULT_255_1_234
10
10.8253453
20
0.1924743
40
0.2419125
50
281.5501019
51
303.9357432
0
ARC
8
DEFAULT_255_1_234
10
10.8390641
20
0.1686936
40
0.2145323
50
304.4415616
51
311.2106213
0
ARC
8
DEFAULT_255_1_234
10
10.8522746
20
0.1547632
40
0.1953505
50
310.9875673
51
356.2715578
0
ARC
8
DEFAULT_255_1_234
10
10.7766395
20
0.1660422
40
0.2716331
50
354.9348262
51
0.0609027
0
ARC
8
DEFAULT_255_1_234
10
10.7579269
20
0.1687435
40
0.2903554
50
359.5239371
51
12.8808918
0
ARC
8
DEFAULT_255_1_234
10
10.8556824
20
0.1926728
40
0.1897315
50
12.4173452
51
43.1022135
0
ARC
8
DEFAULT_255_1_234
10
10.8618429
20
0.1963724
40
0.1827118
50
43.5751728
51
48.203944
0
ARC
8
DEFAULT_255_1_234
10
10.8448921
20
0.1742302
40
0.2105272
50
48.7809703
51
72.6969569
0
ARC
8
DEFAULT_255_1_234
10
10.8094546
20
0.066682
40
0.3237537
50
72.3702241
51
84.8791103
0
ARC
8
DEFAULT_255_1_234
10
10.7947022
20
-0.0675231
40
0.4587478
50
84.5400526
51
89.7281406
0
LINE
8
DEFAULT_255_1_234
10
11.9092746
20
-0.3123606
11
11.9092746
21
0.5181211
0
LINE
8
DEFAULT_255_1_234
10
11.9092746
20
0.5181211
11
12.0642872
21
0.5181211
0
LINE
8
DEFAULT_255_1_234
10
12.0642872
20
0.5181211
11
12.0642872
21
-0.3099511
0
LINE
8
DEFAULT_255_1_234
10
11.3261704
20
-0.3284241
11
11.4803798
21
-0.3284241
0
ARC
8
DEFAULT_255_1_234
10
11.6152057
20
-0.3137911
40
0.4490979
50
346.3129415
51
0.4899112
0
ARC
8
DEFAULT_255_1_234
10
11.7520406
20
-0.3488271
40
0.3078632
50
313.3793358
51
346.6225026
0
ARC
8
DEFAULT_255_1_234
10
11.7319593
20
-0.3235478
40
0.3400404
50
281.1587967
51
312.9131091
0
ARC
8
DEFAULT_255_1_234
10
11.6979056
20
-0.1740815
40
0.4932916
50
269.6424364
51
281.6795951
0
ARC
8
DEFAULT_255_1_234
10
11.6910421
20
-0.1191618
40
0.5482147
50
258.9990078
51
270.3955952
0
ARC
8
DEFAULT_255_1_234
10
11.6535725
20
-0.3040254
40
0.359601
50
239.6256123
51
259.238693
0
ARC
8
DEFAULT_255_1_234
10
11.6246807
20
-0.3585331
40
0.2979777
50
227.4959765
51
239.1188186
0
ARC
8
DEFAULT_255_1_234
10
11.6209374
20
-0.3646311
40
0.2909561
50
191.339631
51
227.2280909
0
ARC
8
DEFAULT_255_1_234
10
11.7614014
20
-0.3313969
40
0.4352412
50
179.6086538
51
191.9934722
0
ARC
8
DEFAULT_255_1_234
10
11.7748037
20
-0.3306573
40
0.2944324
50
179.5654258
51
192.070398
0
ARC
8
DEFAULT_255_1_234
10
11.6776527
20
-0.3524921
40
0.194866
50
191.7656467
51
215.6461951
0
ARC
8
DEFAULT_255_1_234
10
11.6598027
20
-0.3632454
40
0.1741017
50
216.1938368
51
224.3931108
0
ARC
8
DEFAULT_255_1_234
10
11.6604914
20
-0.3605527
40
0.1764834
50
224.8613677
51
254.362656
0
ARC
8
DEFAULT_255_1_234
10
11.6875628
20
-0.271099
40
0.2699302
50
253.9471729
51
267.3949949
0
ARC
8
DEFAULT_255_1_234
10
11.6946134
20
-0.1786933
40
0.362572
50
266.9456419
51
270.0337791
0
ARC
8
DEFAULT_255_1_234
10
11.6971515
20
-0.294877
40
0.2463991
50
269.4595111
51
286.1822844
0
ARC
8
DEFAULT_255_1_234
10
11.7112805
20
-0.3466953
40
0.1926982
50
286.4416479
51
315.8044008
0
ARC
8
DEFAULT_255_1_234
10
11.7058612
20
-0.3424793
40
0.1995241
50
316.0212565
51
345.4794351
0
ARC
8
DEFAULT_255_1_234
10
11.6088118
20
-0.3151425
40
0.3003349
50
345.0729543
51
358.325089
0
ARC
8
DEFAULT_255_1_234
10
11.521209
20
-0.3095432
40
0.3880759
50
357.8767804
51
359.5840246
0
LINE
8
DEFAULT_255_1_234
10
13.0433561
20
0.5181211
11
13.0433561
21
0.434591
0
LINE
8
DEFAULT_255_1_234
10
13.0433561
20
0.434591
11
12.5590422
21
-0.6513
0
LINE
8
DEFAULT_255_1_234
10
12.5590422
20
-0.6513
11
12.4032265
21
-0.6513
0
LINE
8
DEFAULT_255_1_234
10
12.4032265
20
-0.6513
11
12.885934
21
0.3960387
0
LINE
8
DEFAULT_255_1_234
10
12.885934
20
0.3960387
11
12.253033
21
0.3960387
0
LINE
8
DEFAULT_255_1_234
10
12.253033
20
0.3960387
11
12.253033
21
0.5181211
0
LINE
8
DEFAULT_255_1_234
10
12.253033
20
0.5181211
11
13.0433561
21
0.5181211
0
LINE
8
DEFAULT_255_1_234
10
13.7003522
20
0.5237433
11
13.7003522
21
-0.6513
0
LINE
8
DEFAULT_255_1_234
10
13.7003522
20
-0.6513
11
13.5509619
21
-0.6513
0
LINE
8
DEFAULT_255_1_234
10
13.5509619
20
-0.6513
11
13.5509619
21
0.3390133
0
LINE
8
DEFAULT_255_1_234
10
13.5509619
20
0.3390133
11
13.2513781
21
0.2289785
0
LINE
8
DEFAULT_255_1_234
10
13.2513781
20
0.2289785
11
13.2513781
21
0.3639117
0
LINE
8
DEFAULT_255_1_234
10
13.2513781
20
0.3639117
11
13.6770602
21
0.5237433
0
LINE
8
DEFAULT_255_1_234
10
13.6770602
20
0.5237433
11
13.7003522
21
0.5237433
0
LINE
8
DEFAULT_255_1_234
10
14.8352369
20
0.0153343
11
14.8352369
21
-0.110764
0
LINE
8
DEFAULT_255_1_234
10
14.8352369
20
-0.110764
11
14.3284342
21
-0.110764
0
LINE
8
DEFAULT_255_1_234
10
14.3284342
20
-0.110764
11
14.3284342
21
-0.5252017
0
LINE
8
DEFAULT_255_1_234
10
14.3284342
20
-0.5252017
11
14.9171606
21
-0.5252017
0
LINE
8
DEFAULT_255_1_234
10
14.9171606
20
-0.5252017
11
14.9171606
21
-0.6513
0
LINE
8
DEFAULT_255_1_234
10
14.9171606
20
-0.6513
11
14.1742248
21
-0.6513
0
LINE
8
DEFAULT_255_1_234
10
14.1742248
20
-0.6513
11
14.1742248
21
0.5181211
0
LINE
8
DEFAULT_255_1_234
10
14.1742248
20
0.5181211
11
14.9091289
21
0.5181211
0
LINE
8
DEFAULT_255_1_234
10
14.9091289
20
0.5181211
11
14.9091289
21
0.3912196
0
LINE
8
DEFAULT_255_1_234
10
14.9091289
20
0.3912196
11
14.3284342
21
0.3912196
0
LINE
8
DEFAULT_255_1_234
10
14.3284342
20
0.3912196
11
14.3284342
21
0.0153343
0
LINE
8
DEFAULT_255_1_234
10
14.3284342
20
0.0153343
11
14.8352369
21
0.0153343
0
LINE
8
DEFAULT_255_1_234
10
15.2745729
20
0.5181211
11
15.2745729
21
-0.6513
0
LINE
8
DEFAULT_255_1_234
10
15.2745729
20
-0.6513
11
15.1203636
21
-0.6513
0
LINE
8
DEFAULT_255_1_234
10
15.1203636
20
-0.6513
11
15.1203636
21
0.5181211
0
LINE
8
DEFAULT_255_1_234
10
15.1203636
20
0.5181211
11
15.2745729
21
0.5181211
0
LINE
8
DEFAULT_255_1_234
10
15.986185
20
-0.1934909
11
15.7106963
21
-0.1934909
0
LINE
8
DEFAULT_255_1_234
10
15.7106963
20
-0.1934909
11
15.7106963
21
-0.6513
0
LINE
8
DEFAULT_255_1_234
10
15.7106963
20
-0.6513
11
15.556487
21
-0.6513
0
LINE
8
DEFAULT_255_1_234
10
15.556487
20
-0.6513
11
15.556487
21
0.5181211
0
LINE
8
DEFAULT_255_1_234
10
15.556487
20
0.5181211
11
15.9877913
21
0.5181211
0
LINE
8
DEFAULT_255_1_234
10
15.7106963
20
0.3912196
11
15.7106963
21
-0.0673926
0
LINE
8
DEFAULT_255_1_234
10
15.7106963
20
-0.0673926
11
15.9877913
21
-0.0673926
0
LINE
8
DEFAULT_255_1_234
10
15.9966262
20
0.3912196
11
15.7106963
21
0.3912196
0
ARC
8
DEFAULT_255_1_234
10
15.992004
20
-0.0877805
40
0.6059162
50
78.8378113
51
90.3983573
0
ARC
8
DEFAULT_255_1_234
10
16.0336053
20
0.1142879
40
0.3996205
50
58.9632738
51
79.0810598
0
ARC
8
DEFAULT_255_1_234
10
16.0637596
20
0.1702721
40
0.3361177
50
48.0197965
51
58.447194
0
ARC
8
DEFAULT_255_1_234
10
16.0726457
20
0.1788225
40
0.3238191
50
3.3375044
51
48.1766626
0
ARC
8
DEFAULT_255_1_234
10
15.9496296
20
0.1611171
40
0.4477806
50
359.9477528
51
4.6829065
0
ARC
8
DEFAULT_255_1_234
10
15.9619613
20
0.1568628
40
0.4354656
50
346.1877825
51
0.5060252
0
ARC
8
DEFAULT_255_1_234
10
16.0978481
20
0.1215731
40
0.295089
50
310.8831995
51
346.5426355
0
ARC
8
DEFAULT_255_1_234
10
16.0669901
20
0.1632695
40
0.3468331
50
286.6925341
51
310.2288297
0
ARC
8
DEFAULT_255_1_234
10
16.0100731
20
0.3422882
40
0.5346654
50
274.6850312
51
287.0245141
0
ARC
8
DEFAULT_255_1_234
10
15.9875454
20
0.5631932
40
0.7566852
50
269.8969846
51
275.018904
0
ARC
8
DEFAULT_255_1_234
10
15.9903046
20
0.3552707
40
0.4226708
50
269.6593078
51
279.4153575
0
ARC
8
DEFAULT_255_1_234
10
16.0160321
20
0.2062133
40
0.2714146
50
279.2049762
51
294.9900808
0
ARC
8
DEFAULT_255_1_234
10
16.0450647
20
0.1414508
40
0.2004525
50
295.2888114
51
311.2911209
0
ARC
8
DEFAULT_255_1_234
10
16.0521541
20
0.130922
40
0.1878703
50
311.7854996
51
347.2861051
0
ARC
8
DEFAULT_255_1_234
10
15.95377
20
0.1562092
40
0.2894234
50
346.6893224
51
0.1059443
0
ARC
8
DEFAULT_255_1_234
10
15.8782595
20
0.1590685
40
0.3649409
50
359.6350983
51
0.0053152
0
ARC
8
DEFAULT_255_1_234
10
15.9752923
20
0.1615937
40
0.2679199
50
359.4672059
51
15.5933957
0
ARC
8
DEFAULT_255_1_234
10
16.0377812
20
0.1784779
40
0.2031932
50
15.7442113
51
46.6203375
0
ARC
8
DEFAULT_255_1_234
10
16.0230032
20
0.1614484
40
0.2257226
50
46.8628658
51
75.6676503
0
ARC
8
DEFAULT_255_1_234
10
15.9935853
20
0.0555718
40
0.3355939
50
75.276167
51
88.2915297
0
ARC
8
DEFAULT_255_1_234
10
15.9877559
20
-0.0322476
40
0.4235602
50
87.8575022
51
88.8000139
0
LINE
8
DEFAULT_255_1_234
10
17.2744758
20
0.0506739
11
17.2744758
21
0.0073025
0
LINE
8
DEFAULT_255_1_234
10
16.7323334
20
-0.6521032
11
16.7034192
21
-0.6521032
0
LINE
8
DEFAULT_255_1_234
10
16.7034192
20
-0.6521032
11
16.7034192
21
-0.5268081
0
LINE
8
DEFAULT_255_1_234
10
16.7034192
20
-0.5268081
11
16.734743
21
-0.5268081
0
LINE
8
DEFAULT_255_1_234
10
17.1258886
20
0.0217597
11
17.1258886
21
0.0811945
0
ARC
8
DEFAULT_255_1_234
10
16.8465156
20
0.0963403
40
0.3635579
50
297.4037347
51
320.016758
0
ARC
8
DEFAULT_255_1_234
10
16.8755105
20
0.040624
40
0.3007486
50
270.2633101
51
297.3851877
0
ARC
8
DEFAULT_255_1_234
10
16.872106
20
0.0869904
40
0.3471448
50
269.9966443
51
270.7900392
0
ARC
8
DEFAULT_255_1_234
10
16.8695541
20
0.0868143
40
0.3469779
50
254.5999133
51
270.4180344
0
ARC
8
DEFAULT_255_1_234
10
16.8552901
20
0.0303647
40
0.2887697
50
236.4717942
51
254.3541279
0
ARC
8
DEFAULT_255_1_234
10
16.8709119
20
0.0513711
40
0.3149125
50
208.4727207
51
236.2134933
0
ARC
8
DEFAULT_255_1_234
10
16.9347894
20
0.0904455
40
0.3897115
50
204.3447514
51
209.0453999
0
ARC
8
DEFAULT_255_1_234
10
17.0027469
20
0.1192656
40
0.4635101
50
183.9375985
51
204.1276318
0
ARC
8
DEFAULT_255_1_234
10
17.0935721
20
0.1290482
40
0.5548037
50
179.9652252
51
184.3013875
0
ARC
8
DEFAULT_255_1_234
10
17.0695767
20
0.1323507
40
0.5308164
50
166.7585989
51
180.3201225
0
ARC
8
DEFAULT_255_1_234
10
16.984938
20
0.1507488
40
0.4442163
50
154.6955053
51
166.5679793
0
ARC
8
DEFAULT_255_1_234
10
16.8996251
20
0.193721
40
0.3487299
50
136.3324195
51
155.0871442
0
ARC
8
DEFAULT_255_1_234
10
16.8715323
20
0.2177954
40
0.3117924
50
121.236733
51
135.9680508
0
ARC
8
DEFAULT_255_1_234
10
16.8855821
20
0.1917743
40
0.3413302
50
96.845628
51
120.9881519
0
ARC
8
DEFAULT_255_1_234
10
16.9001403
20
0.0982515
40
0.4359341
50
89.8870174
51
97.2802754
0
ARC
8
DEFAULT_255_1_234
10
16.9053842
20
0.1620095
40
0.3722009
50
70.6505584
51
90.6749113
0
ARC
8
DEFAULT_255_1_234
10
16.9185121
20
0.2133361
40
0.3194571
50
36.7492984
51
69.8219918
0
ARC
8
DEFAULT_255_1_234
10
16.8186285
20
0.1354993
40
0.4460685
50
15.39587
51
37.0840084
0
ARC
8
DEFAULT_255_1_234
10
16.6056719
20
0.0734242
40
0.6678714
50
3.9488873
51
15.6798563
0
ARC
8
DEFAULT_255_1_234
10
16.3655347
20
0.0517964
40
0.9089418
50
359.929245
51
4.2665314
0
ARC
8
DEFAULT_255_1_234
10
15.9049784
20
0.0006513
40
1.3695135
50
352.8366322
51
0.2782669
0
ARC
8
DEFAULT_255_1_234
10
16.4337463
20
-0.0680371
40
0.8363105
50
341.8359505
51
352.9884176
0
ARC
8
DEFAULT_255_1_234
10
16.7556182
20
-0.17653
40
0.4966642
50
322.8578092
51
342.1527901
0
ARC
8
DEFAULT_255_1_234
10
16.8420138
20
-0.2354616
40
0.3922466
50
319.334325
51
322.0998941
0
ARC
8
DEFAULT_255_1_234
10
16.8110474
20
-0.2043791
40
0.4360033
50
285.9541367
51
318.8878087
0
ARC
8
DEFAULT_255_1_234
10
16.7383736
20
0.02666
40
0.678149
50
272.9281676
51
286.4922826
0
ARC
8
DEFAULT_255_1_234
10
16.7193854
20
0.2517587
40
0.9039547
50
270.8207226
51
273.4012994
0
ARC
8
DEFAULT_255_1_234
10
16.7282705
20
0.0698666
40
0.5967098
50
270.6214993
51
281.4062806
0
ARC
8
DEFAULT_255_1_234
10
16.7712685
20
-0.1357167
40
0.3866861
50
281.1852553
51
299.0621114
0
ARC
8
DEFAULT_255_1_234
10
16.8086257
20
-0.2078202
40
0.3055236
50
299.5067782
51
313.1200873
0
ARC
8
DEFAULT_255_1_234
10
16.8108223
20
-0.2157446
40
0.2982623
50
313.8526205
51
338.5989322
0
ARC
8
DEFAULT_255_1_234
10
16.6484298
20
-0.1490219
40
0.4738131
50
338.2523585
51
351.2430902
0
ARC
8
DEFAULT_255_1_234
10
16.4073593
20
-0.1080553
40
0.7183203
50
350.9409515
51
357.6691871
0
ARC
8
DEFAULT_255_1_234
10
16.8964024
20
0.0921764
40
0.2294452
50
269.9447023
51
306.8248917
0
ARC
8
DEFAULT_255_1_234
10
16.8726938
20
0.1344898
40
0.2775994
50
305.5072438
51
327.0773448
0
ARC
8
DEFAULT_255_1_234
10
16.884538
20
0.1250025
40
0.2625056
50
327.4104943
51
336.840169
0
ARC
8
DEFAULT_255_1_234
10
16.5751444
20
0.0844302
40
0.5507537
50
359.6633817
51
10.117533
0
ARC
8
DEFAULT_255_1_234
10
16.7505242
20
0.1168777
40
0.372403
50
9.9430141
51
26.7700076
0
ARC
8
DEFAULT_255_1_234
10
16.8102455
20
0.1444187
40
0.3066865
50
27.2015464
51
34.6829435
0
ARC
8
DEFAULT_255_1_234
10
16.8591935
20
0.1811977
40
0.245519
50
34.1250343
51
50.3070065
0
ARC
8
DEFAULT_255_1_234
10
16.9038615
20
0.2346385
40
0.1758693
50
50.3851167
51
90.6705993
0
ARC
8
DEFAULT_255_1_234
10
16.8991848
20
0.2041799
40
0.2063326
50
89.272901
51
111.9140407
0
ARC
8
DEFAULT_255_1_234
10
16.8972375
20
0.218244
40
0.1925887
50
112.9382311
51
142.5320782
0
ARC
8
DEFAULT_255_1_234
10
16.9518556
20
0.1738969
40
0.2629232
50
142.1021256
51
166.3835592
0
ARC
8
DEFAULT_255_1_234
10
17.0699861
20
0.1433915
40
0.3849193
50
166.1100289
51
178.665427
0
ARC
8
DEFAULT_255_1_234
10
17.174745
20
0.1375117
40
0.4897989
50
178.2632126
51
180.0111093
0
ARC
8
DEFAULT_255_1_234
10
17.094557
20
0.1346728
40
0.40962
50
179.6161962
51
191.8787166
0
ARC
8
DEFAULT_255_1_234
10
16.9725409
20
0.1076896
40
0.2846655
50
191.6191692
51
215.2972286
0
ARC
8
DEFAULT_255_1_234
10
16.9528601
20
0.0961918
40
0.2619665
50
215.7320102
51
216.5355409
0
ARC
8
DEFAULT_255_1_234
10
16.8989687
20
0.0529647
40
0.1929497
50
215.7486685
51
239.9727502
0
ARC
8
DEFAULT_255_1_234
10
16.8919602
20
0.0478894
40
0.1850822
50
241.0650169
51
269.2810483
0
ARC
8
DEFAULT_255_1_234
10
16.8961517
20
0.0969371
40
0.2342059
50
268.4062526
51
270.0071348
0
LINE
8
DEFAULT_255_1_234
10
17.9676148
20
0.5237433
11
17.9676148
21
-0.6513
0
LINE
8
DEFAULT_255_1_234
10
17.9676148
20
-0.6513
11
17.8182245
21
-0.6513
0
LINE
8
DEFAULT_255_1_234
10
17.8182245
20
-0.6513
11
17.8182245
21
0.3390133
0
LINE
8
DEFAULT_255_1_234
10
17.8182245
20
0.3390133
11
17.5186406
21
0.2289785
0
LINE
8
DEFAULT_255_1_234
10
17.5186406
20
0.2289785
11
17.5186406
21
0.3639117
0
LINE
8
DEFAULT_255_1_234
10
17.5186406
20
0.3639117
11
17.9443228
21
0.5237433
0
LINE
8
DEFAULT_255_1_234
10
17.9443228
20
0.5237433
11
17.9676148
21
0.5237433
0
LINE
8
DEFAULT_255_2_778
10
10.7061396
20
17.0868073
11
9.5255396
21
17.0868073
0
LINE
8
DEFAULT_255_2_778
10
9.5255396
20
17.0868073
11
10.1160396
21
18.1094073
0
LINE
8
DEFAULT_255_2_778
10
10.1160396
20
18.1094073
11
11.2966396
21
18.1094073
0
LINE
8
DEFAULT_255_2_778
10
11.2966396
20
18.1094073
11
10.7061396
21
17.0868073
0
LINE
8
DEFAULT_255_2_778
10
10.7061396
20
17.0868073
11
10.7061396
21
17.0868073
0
LINE
8
DEFAULT_255_2_778
10
11.8869396
20
17.0868073
11
13.0677396
21
17.0868073
0
LINE
8
DEFAULT_255_2_778
10
13.0677396
20
17.0868073
11
12.4774396
21
18.1094073
0
LINE
8
DEFAULT_255_2_778
10
12.4774396
20
18.1094073
11
11.2966396
21
18.1094073
0
LINE
8
DEFAULT_255_2_778
10
11.2966396
20
18.1094073
11
11.8869396
21
17.0868073
0
LINE
8
DEFAULT_255_2_778
10
11.8869396
20
17.0868073
11
11.8869396
21
17.0868073
0
LINE
8
DEFAULT_255_2_778
10
11.8868823
20
19.1320146
11
11.2965823
21
20.1546146
0
LINE
8
DEFAULT_255_2_778
10
11.2965823
20
20.1546146
11
10.7060823
21
19.1320146
0
LINE
8
DEFAULT_255_2_778
10
10.7060823
20
19.1320146
11
11.2965823
21
18.1094146
0
LINE
8
DEFAULT_255_2_778
10
11.2965823
20
18.1094146
11
11.8868823
21
19.1320146
0
LINE
8
DEFAULT_255_2_778
10
11.8868823
20
19.1320146
11
11.8868823
21
19.1320146
0
ARC
8
DEFAULT_255_2_778
10
16.6506731
20
18.7782426
40
0.5650491
50
268.7543645
51
289.1417717
0
ARC
8
DEFAULT_255_2_778
10
16.738508
20
18.5230531
40
0.2951681
50
289.2776255
51
3.7648372
0
ARC
8
DEFAULT_255_2_778
10
16.5224618
20
18.5496085
40
0.5106278
50
359.1949826
51
0.0020862
0
ARC
8
DEFAULT_255_2_778
10
16.679749
20
18.5355832
40
0.1541914
50
280.2616216
51
358.5297855
0
ARC
8
DEFAULT_255_2_778
10
16.6403075
20
18.648155
40
0.2726346
50
269.5969454
51
284.2065679
0
ARC
8
DEFAULT_255_2_778
10
16.6304967
20
18.6325316
40
0.2571258
50
246.5290903
51
271.7590909
0
ARC
8
DEFAULT_255_2_778
10
16.5850148
20
18.5245009
40
0.1399248
50
188.1071678
51
245.9934684
0
ARC
8
DEFAULT_255_2_778
10
16.6152007
20
18.5314617
40
0.1708111
50
179.9445314
51
188.990814
0
ARC
8
DEFAULT_255_2_778
10
16.6247507
20
18.5382849
40
0.3763411
50
178.2272621
51
205.8283807
0
ARC
8
DEFAULT_255_2_778
10
16.5455476
20
18.5205833
40
0.2979176
50
209.4028057
51
263.0375728
0
ARC
8
DEFAULT_255_2_778
10
16.6328111
20
18.8952629
40
0.6816586
50
259.5722942
51
270.4689037
0
ARC
8
DEFAULT_255_2_778
10
17.543552
20
18.9514767
40
0.1217154
50
2.0482843
51
87.015299
0
ARC
8
DEFAULT_255_2_778
10
17.5383617
20
18.9558852
40
0.126828
50
353.0600847
51
359.9737428
0
ARC
8
DEFAULT_255_2_778
10
17.5433442
20
18.9527555
40
0.1215295
50
270.5739762
51
354.2410513
0
ARC
8
DEFAULT_255_2_778
10
17.5388059
20
18.9889297
40
0.1578027
50
269.9941256
51
272.0902921
0
ARC
8
DEFAULT_255_2_778
10
17.546384
20
18.5380295
40
0.1400686
50
358.2807293
51
95.6106825
0
ARC
8
DEFAULT_255_2_778
10
17.5426233
20
18.5341963
40
0.1437669
50
266.9962473
51
359.8528392
0
ARC
8
DEFAULT_255_2_778
10
17.6048249
20
18.5744988
40
0.3335288
50
268.2414507
51
302.0223478
0
ARC
8
DEFAULT_255_2_778
10
17.6414261
20
18.499183
40
0.2504234
50
304.0600275
51
2.0468005
0
ARC
8
DEFAULT_255_2_778
10
17.6155788
20
18.5058521
40
0.2761203
50
0.4720601
51
65.8403529
0
ARC
8
DEFAULT_255_2_778
10
17.6514655
20
18.5706061
40
0.2024466
50
67.606893
51
75.8693222
0
ARC
8
DEFAULT_255_2_778
10
17.6365026
20
18.978222
40
0.2208874
50
286.9473417
51
358.0074963
0
ARC
8
DEFAULT_255_2_778
10
17.6033866
20
18.9870045
40
0.2544031
50
356.2897886
51
0.0050857
0
ARC
8
DEFAULT_255_2_778
10
17.629562
20
18.9920946
40
0.2282839
50
358.7280137
51
81.8073164
0
ARC
8
DEFAULT_255_2_778
10
17.5539369
20
18.7406283
40
0.4895182
50
77.2355086
51
90.5088275
0
ARC
8
DEFAULT_255_2_778
10
17.7165747
20
17.7760989
40
0.1302704
50
89.9972707
51
92.6773048
0
ARC
8
DEFAULT_255_2_778
10
17.7167071
20
17.77687
40
0.1294993
50
45.0546048
51
90.0558451
0
ARC
8
DEFAULT_255_2_778
10
17.7167118
20
17.776719
40
0.1296029
50
0.001866
51
45.1031959
0
ARC
8
DEFAULT_255_2_778
10
17.7168123
20
17.7767202
40
0.1295026
50
357.4803735
51
0.0013544
0
ARC
8
DEFAULT_255_2_778
10
17.7224979
20
17.7728512
40
0.1237052
50
339.8672523
51
359.1550732
0
ARC
8
DEFAULT_255_2_778
10
17.7117513
20
17.7700079
40
0.1329691
50
272.0853006
51
342.6124646
0
ARC
8
DEFAULT_255_2_778
10
17.7919145
20
17.8082661
40
0.2575135
50
286.787355
51
290.6121696
0
ARC
8
DEFAULT_255_2_778
10
17.8012461
20
17.7939533
40
0.24086
50
289.7330405
51
342.3216972
0
ARC
8
DEFAULT_255_2_778
10
17.773561
20
17.7987954
40
0.268735
50
343.130572
51
0.3905272
0
ARC
8
DEFAULT_255_2_778
10
17.7901783
20
17.8161767
40
0.2525904
50
356.4706028
51
80.1788963
0
ARC
8
DEFAULT_255_2_778
10
17.7244649
20
17.5892163
40
0.4881286
50
77.1212301
51
90.4900821
0
ARC
8
DEFAULT_255_2_778
10
17.6489337
20
17.291536
40
0.1865405
50
50.1507009
51
92.9634648
0
ARC
8
DEFAULT_255_2_778
10
17.6624354
20
17.3198678
40
0.1563319
50
12.621233
51
47.2950617
0
ARC
8
DEFAULT_255_2_778
10
16.9808884
20
17.1869726
40
0.8506657
50
2.8173892
51
11.3253986
0
ARC
8
DEFAULT_255_2_778
10
-29.0972733
20
13.6906175
40
47.060992
50
4.3048394
51
4.3117143
0
ARC
8
DEFAULT_255_2_778
10
18.6823859
20
17.263084
40
0.8523717
50
182.6850102
51
191.2954256
0
ARC
8
DEFAULT_255_2_778
10
18.0979837
20
17.1567399
40
0.2586603
50
193.5512904
51
195.3825538
0
ARC
8
DEFAULT_255_2_778
10
19.4738679
20
17.4143916
40
1.4608773
50
182.5958701
51
192.9049706
0
ARC
8
DEFAULT_255_2_778
10
17.7530606
20
17.3427215
40
0.261487
50
1.2064311
51
30.4123358
0
ARC
8
DEFAULT_255_2_778
10
17.7986626
20
17.357776
40
0.2147766
50
33.1081154
51
71.7312197
0
LINE
8
DEFAULT_255_2_778
10
13.5980897
20
17.5223271
11
14.0708897
21
17.5223271
0
LINE
8
DEFAULT_255_2_778
10
14.0708897
20
17.5223271
11
14.0708897
21
17.6937271
0
LINE
8
DEFAULT_255_2_778
10
14.0708897
20
17.6937271
11
13.5980897
21
17.6937271
0
LINE
8
DEFAULT_255_2_778
10
13.5980897
20
17.6937271
11
13.5980897
21
17.9046271
0
LINE
8
DEFAULT_255_2_778
10
13.5980897
20
17.9046271
11
14.1300897
21
17.9046271
0
LINE
8
DEFAULT_255_2_778
10
14.1300897
20
17.9046271
11
14.1300897
21
18.0760271
0
LINE
8
DEFAULT_255_2_778
10
14.1300897
20
18.0760271
11
13.5980897
21
18.0760271
0
LINE
8
DEFAULT_255_2_778
10
13.5980897
20
18.0760271
11
13.3974897
21
18.0760271
0
LINE
8
DEFAULT_255_2_778
10
13.3974897
20
18.0760271
11
13.3974897
21
17.9046271
0
LINE
8
DEFAULT_255_2_778
10
13.3974897
20
17.9046271
11
13.3974897
21
17.2582271
0
LINE
8
DEFAULT_255_2_778
10
13.3974897
20
17.2582271
11
13.3974897
21
17.0867271
0
LINE
8
DEFAULT_255_2_778
10
13.3974897
20
17.0867271
11
13.5980897
21
17.0867271
0
LINE
8
DEFAULT_255_2_778
10
13.5980897
20
17.0867271
11
14.1441897
21
17.0867271
0
LINE
8
DEFAULT_255_2_778
10
14.1441897
20
17.0867271
11
14.1441897
21
17.2582271
0
LINE
8
DEFAULT_255_2_778
10
14.1441897
20
17.2582271
11
13.5980897
21
17.2582271
0
LINE
8
DEFAULT_255_2_778
10
13.5980897
20
17.2582271
11
13.5980897
21
17.5220271
0
LINE
8
DEFAULT_255_2_778
10
13.5980897
20
17.5220271
11
13.5980897
21
17.5223271
0
LINE
8
DEFAULT_255_2_778
10
13.5842897
20
18.9764271
11
13.7943897
21
18.2411271
0
LINE
8
DEFAULT_255_2_778
10
13.7943897
20
18.2411271
11
13.8027897
21
18.2411271
0
LINE
8
DEFAULT_255_2_778
10
13.8027897
20
18.2411271
11
13.9787897
21
18.2411271
0
LINE
8
DEFAULT_255_2_778
10
13.9787897
20
18.2411271
11
13.9869897
21
18.2411271
0
LINE
8
DEFAULT_255_2_778
10
13.9869897
20
18.2411271
11
14.1970897
21
18.9764271
0
LINE
8
DEFAULT_255_2_778
10
14.1970897
20
18.9764271
11
14.1970897
21
18.2411271
0
LINE
8
DEFAULT_255_2_778
10
14.1970897
20
18.2411271
11
14.3838897
21
18.2411271
0
LINE
8
DEFAULT_255_2_778
10
14.3838897
20
18.2411271
11
14.3838897
21
19.2304271
0
LINE
8
DEFAULT_255_2_778
10
14.3838897
20
19.2304271
11
14.2819897
21
19.2304271
0
LINE
8
DEFAULT_255_2_778
10
14.2819897
20
19.2304271
11
14.1938897
21
19.2304271
0
LINE
8
DEFAULT_255_2_778
10
14.1938897
20
19.2304271
11
14.0978897
21
19.2304271
0
LINE
8
DEFAULT_255_2_778
10
14.0978897
20
19.2304271
11
13.8906897
21
18.5361271
0
LINE
8
DEFAULT_255_2_778
10
13.8906897
20
18.5361271
11
13.6834897
21
19.2304271
0
LINE
8
DEFAULT_255_2_778
10
13.6834897
20
19.2304271
11
13.5874897
21
19.2304271
0
LINE
8
DEFAULT_255_2_778
10
13.5874897
20
19.2304271
11
13.4993897
21
19.2304271
0
LINE
8
DEFAULT_255_2_778
10
13.4993897
20
19.2304271
11
13.3974897
21
19.2304271
0
LINE
8
DEFAULT_255_2_778
10
13.3974897
20
19.2304271
11
13.3974897
21
18.2411271
0
LINE
8
DEFAULT_255_2_778
10
13.3974897
20
18.2411271
11
13.5842897
21
18.2411271
0
LINE
8
DEFAULT_255_2_778
10
13.5842897
20
18.2411271
11
13.5842897
21
18.9764271
0
LINE
8
DEFAULT_255_2_778
10
13.5842897
20
18.9764271
11
13.5842897
21
18.9764271
0
LINE
8
DEFAULT_255_2_778
10
18.1379897
20
19.2304271
11
17.9387897
21
19.2304271
0
LINE
8
DEFAULT_255_2_778
10
17.9387897
20
19.2304271
11
17.9387897
21
18.2411271
0
LINE
8
DEFAULT_255_2_778
10
17.9387897
20
18.2411271
11
18.1379897
21
18.2411271
0
LINE
8
DEFAULT_255_2_778
10
18.1379897
20
18.2411271
11
18.1379897
21
19.2304271
0
LINE
8
DEFAULT_255_2_778
10
18.1379897
20
19.2304271
11
18.1379897
21
19.2304271
0
LINE
8
DEFAULT_255_2_778
10
18.3004897
20
18.0763271
11
18.1012897
21
18.0763271
0
LINE
8
DEFAULT_255_2_778
10
18.1012897
20
18.0763271
11
18.1012897
21
17.0870271
0
LINE
8
DEFAULT_255_2_778
10
18.1012897
20
17.0870271
11
18.3004897
21
17.0870271
0
LINE
8
DEFAULT_255_2_778
10
18.3004897
20
17.0870271
11
18.3004897
21
18.0763271
0
LINE
8
DEFAULT_255_2_778
10
18.3004897
20
18.0763271
11
18.3004897
21
18.0763271
0
LINE
8
DEFAULT_255_2_778
10
20.1088897
20
19.2304271
11
19.9096897
21
19.2304271
0
LINE
8
DEFAULT_255_2_778
10
19.9096897
20
19.2304271
11
19.9096897
21
18.2411271
0
LINE
8
DEFAULT_255_2_778
10
19.9096897
20
18.2411271
11
20.1088897
21
18.2411271
0
LINE
8
DEFAULT_255_2_778
10
20.1088897
20
18.2411271
11
20.1088897
21
19.2304271
0
LINE
8
DEFAULT_255_2_778
10
20.1088897
20
19.2304271
11
20.1088897
21
19.2304271
0
LINE
8
DEFAULT_255_2_778
10
14.6621897
20
19.2304271
11
14.4629897
21
19.2304271
0
LINE
8
DEFAULT_255_2_778
10
14.4629897
20
19.2304271
11
14.4629897
21
18.2411271
0
LINE
8
DEFAULT_255_2_778
10
14.4629897
20
18.2411271
11
14.6621897
21
18.2411271
0
LINE
8
DEFAULT_255_2_778
10
14.6621897
20
18.2411271
11
14.6621897
21
19.2304271
0
LINE
8
DEFAULT_255_2_778
10
14.6621897
20
19.2304271
11
14.6621897
21
19.2304271
0
LINE
8
DEFAULT_255_2_778
10
19.6312897
20
18.8444271
11
19.2352897
21
18.8444271
0
LINE
8
DEFAULT_255_2_778
10
19.2352897
20
18.8444271
11
19.2352897
21
19.2301271
0
LINE
8
DEFAULT_255_2_778
10
19.2352897
20
19.2301271
11
19.0391897
21
19.2301271
0
LINE
8
DEFAULT_255_2_778
10
19.0391897
20
19.2301271
11
19.0391897
21
18.2411271
0
LINE
8
DEFAULT_255_2_778
10
19.0391897
20
18.2411271
11
19.2352897
21
18.2411271
0
LINE
8
DEFAULT_255_2_778
10
19.2352897
20
18.2411271
11
19.2352897
21
18.6729271
0
LINE
8
DEFAULT_255_2_778
10
19.2352897
20
18.6729271
11
19.6312897
21
18.6729271
0
LINE
8
DEFAULT_255_2_778
10
19.6312897
20
18.6729271
11
19.6312897
21
18.2411271
0
LINE
8
DEFAULT_255_2_778
10
19.6312897
20
18.2411271
11
19.8273897
21
18.2411271
0
LINE
8
DEFAULT_255_2_778
10
19.8273897
20
18.2411271
11
19.8273897
21
19.2301271
0
LINE
8
DEFAULT_255_2_778
10
19.8273897
20
19.2301271
11
19.6312897
21
19.2301271
0
LINE
8
DEFAULT_255_2_778
10
19.6312897
20
19.2301271
11
19.6312897
21
18.8444271
0
LINE
8
DEFAULT_255_2_778
10
19.6312897
20
18.8444271
11
19.6312897
21
18.8444271
0
LINE
8
DEFAULT_255_2_778
10
14.9569897
20
18.2411271
11
15.1603897
21
18.2411271
0
LINE
8
DEFAULT_255_2_778
10
15.1603897
20
18.2411271
11
15.1603897
21
19.0590271
0
LINE
8
DEFAULT_255_2_778
10
15.1603897
20
19.0590271
11
15.4019897
21
19.0590271
0
LINE
8
DEFAULT_255_2_778
10
15.4019897
20
19.0590271
11
15.4019897
21
19.2304271
0
LINE
8
DEFAULT_255_2_778
10
15.4019897
20
19.2304271
11
15.1603897
21
19.2304271
0
LINE
8
DEFAULT_255_2_778
10
15.1603897
20
19.2304271
11
14.9569897
21
19.2304271
0
LINE
8
DEFAULT_255_2_778
10
14.9569897
20
19.2304271
11
14.7153897
21
19.2304271
0
LINE
8
DEFAULT_255_2_778
10
14.7153897
20
19.2304271
11
14.7153897
21
19.0590271
0
LINE
8
DEFAULT_255_2_778
10
14.7153897
20
19.0590271
11
14.9569897
21
19.0590271
0
LINE
8
DEFAULT_255_2_778
10
14.9569897
20
19.0590271
11
14.9569897
21
18.2411271
0
LINE
8
DEFAULT_255_2_778
10
14.9569897
20
18.2411271
11
14.9569897
21
18.2411271
0
LINE
8
DEFAULT_255_2_778
10
16.7745897
20
17.0870271
11
16.9777897
21
17.0870271
0
LINE
8
DEFAULT_255_2_778
10
16.9777897
20
17.0870271
11
16.9777897
21
17.9048271
0
LINE
8
DEFAULT_255_2_778
10
16.9777897
20
17.9048271
11
17.2196897
21
17.9048271
0
LINE
8
DEFAULT_255_2_778
10
17.2196897
20
17.9048271
11
17.2196897
21
18.0766271
0
LINE
8
DEFAULT_255_2_778
10
17.2196897
20
18.0766271
11
16.9777897
21
18.0766271
0
LINE
8
DEFAULT_255_2_778
10
16.9777897
20
18.0766271
11
16.7745897
21
18.0766271
0
LINE
8
DEFAULT_255_2_778
10
16.7745897
20
18.0766271
11
16.5327897
21
18.0766271
0
LINE
8
DEFAULT_255_2_778
10
16.5327897
20
18.0766271
11
16.5327897
21
17.9048271
0
LINE
8
DEFAULT_255_2_778
10
16.5327897
20
17.9048271
11
16.7745897
21
17.9048271
0
LINE
8
DEFAULT_255_2_778
10
16.7745897
20
17.9048271
11
16.7745897
21
17.0870271
0
LINE
8
DEFAULT_255_2_778
10
16.7745897
20
17.0870271
11
16.7745897
21
17.0870271
0
LINE
8
DEFAULT_255_2_778
10
17.0330897
20
18.5496271
11
17.0330897
21
19.2301271
0
LINE
8
DEFAULT_255_2_778
10
17.0330897
20
19.2301271
11
16.8338897
21
19.2301271
0
LINE
8
DEFAULT_255_2_778
10
16.8338897
20
19.2301271
11
16.8338897
21
18.5316271
0
LINE
8
DEFAULT_255_2_778
10
16.4443897
20
18.5316271
11
16.4443897
21
19.2301271
0
LINE
8
DEFAULT_255_2_778
10
16.4443897
20
19.2301271
11
16.2485897
21
19.2301271
0
LINE
8
DEFAULT_255_2_778
10
16.2485897
20
19.2301271
11
16.2485897
21
18.5499271
0
LINE
8
DEFAULT_255_2_778
10
15.1323897
20
17.5223271
11
15.6053897
21
17.5223271
0
LINE
8
DEFAULT_255_2_778
10
15.6053897
20
17.5223271
11
15.6053897
21
17.6937271
0
LINE
8
DEFAULT_255_2_778
10
15.6053897
20
17.6937271
11
15.1323897
21
17.6937271
0
LINE
8
DEFAULT_255_2_778
10
15.1323897
20
17.6937271
11
15.1323897
21
17.9046271
0
LINE
8
DEFAULT_255_2_778
10
15.1323897
20
17.9046271
11
15.6643897
21
17.9046271
0
LINE
8
DEFAULT_255_2_778
10
15.6643897
20
17.9046271
11
15.6643897
21
18.0760271
0
LINE
8
DEFAULT_255_2_778
10
15.6643897
20
18.0760271
11
15.1323897
21
18.0760271
0
LINE
8
DEFAULT_255_2_778
10
15.1323897
20
18.0760271
11
14.9320897
21
18.0760271
0
LINE
8
DEFAULT_255_2_778
10
14.9320897
20
18.0760271
11
14.9320897
21
17.9046271
0
LINE
8
DEFAULT_255_2_778
10
14.9320897
20
17.9046271
11
14.9320897
21
17.2582271
0
LINE
8
DEFAULT_255_2_778
10
14.9320897
20
17.2582271
11
14.9320897
21
17.0867271
0
LINE
8
DEFAULT_255_2_778
10
14.9320897
20
17.0867271
11
15.1323897
21
17.0867271
0
LINE
8
DEFAULT_255_2_778
10
15.1323897
20
17.0867271
11
15.6784897
21
17.0867271
0
LINE
8
DEFAULT_255_2_778
10
15.6784897
20
17.0867271
11
15.6784897
21
17.2582271
0
LINE
8
DEFAULT_255_2_778
10
15.6784897
20
17.2582271
11
15.1323897
21
17.2582271
0
LINE
8
DEFAULT_255_2_778
10
15.1323897
20
17.2582271
11
15.1323897
21
17.5220271
0
LINE
8
DEFAULT_255_2_778
10
15.1323897
20
17.5220271
11
15.1323897
21
17.5223271
0
LINE
8
DEFAULT_255_2_778
10
17.5387897
20
18.8311271
11
17.3013897
21
18.8311271
0
LINE
8
DEFAULT_255_2_778
10
17.3013897
20
18.8311271
11
17.3013897
21
19.0727271
0
LINE
8
DEFAULT_255_2_778
10
17.3013897
20
19.0727271
11
17.5498897
21
19.0727271
0
LINE
8
DEFAULT_255_2_778
10
17.5498897
20
19.0727271
11
17.5498897
21
19.0730271
0
LINE
8
DEFAULT_255_2_778
10
17.5350897
20
18.3903271
11
17.3013897
21
18.3903271
0
LINE
8
DEFAULT_255_2_778
10
17.3013897
20
18.3903271
11
17.3013897
21
18.6774271
0
LINE
8
DEFAULT_255_2_778
10
17.3013897
20
18.6774271
11
17.5326897
21
18.6774271
0
LINE
8
DEFAULT_255_2_778
10
17.3090897
20
18.2411271
11
17.5945897
21
18.2411271
0
LINE
8
DEFAULT_255_2_778
10
17.5495897
20
19.2301271
11
17.3093897
21
19.2301271
0
LINE
8
DEFAULT_255_2_778
10
17.3093897
20
19.2301271
11
17.1045897
21
19.2301271
0
LINE
8
DEFAULT_255_2_778
10
17.1045897
20
19.2301271
11
17.1034897
21
19.2301271
0
LINE
8
DEFAULT_255_2_778
10
17.1034897
20
19.2301271
11
17.1034897
21
18.2411271
0
LINE
8
DEFAULT_255_2_778
10
17.1034897
20
18.2411271
11
17.1045897
21
18.2411271
0
LINE
8
DEFAULT_255_2_778
10
17.1045897
20
18.2411271
11
17.3093897
21
18.2411271
0
LINE
8
DEFAULT_255_2_778
10
17.3093897
20
18.2411271
11
17.3090897
21
18.2411271
0
LINE
8
DEFAULT_255_2_778
10
17.4691897
20
17.6368271
11
17.4691897
21
17.9062271
0
LINE
8
DEFAULT_255_2_778
10
17.4691897
20
17.9062271
11
17.7104897
21
17.9062271
0
LINE
8
DEFAULT_255_2_778
10
17.7165897
20
17.6371271
11
17.4693897
21
17.6371271
0
LINE
8
DEFAULT_255_2_778
10
17.4693897
20
17.6371271
11
17.4691897
21
17.6368271
0
LINE
8
DEFAULT_255_2_778
10
17.7202897
20
18.0773271
11
17.4691897
21
18.0773271
0
LINE
8
DEFAULT_255_2_778
10
17.4691897
20
18.0773271
11
17.2706897
21
18.0773271
0
LINE
8
DEFAULT_255_2_778
10
17.2706897
20
18.0773271
11
17.2685897
21
18.0773271
0
LINE
8
DEFAULT_255_2_778
10
17.2685897
20
18.0773271
11
17.2685897
21
17.0881271
0
LINE
8
DEFAULT_255_2_778
10
17.2685897
20
17.0881271
11
17.4691897
21
17.0881271
0
LINE
8
DEFAULT_255_2_778
10
17.4691897
20
17.0881271
11
17.4691897
21
17.4778271
0
LINE
8
DEFAULT_255_2_778
10
17.4691897
20
17.4778271
11
17.6392897
21
17.4778271
0
LINE
8
DEFAULT_255_2_778
10
17.8485897
20
17.0881271
11
18.0498897
21
17.0881271
0
LINE
8
DEFAULT_255_2_778
10
14.4086897
20
18.0763271
11
14.2083897
21
18.0763271
0
LINE
8
DEFAULT_255_2_778
10
14.2083897
20
18.0763271
11
14.2083897
21
17.2585271
0
LINE
8
DEFAULT_255_2_778
10
14.2083897
20
17.2585271
11
14.2083897
21
17.0870271
0
LINE
8
DEFAULT_255_2_778
10
14.2083897
20
17.0870271
11
14.4086897
21
17.0870271
0
LINE
8
DEFAULT_255_2_778
10
14.4086897
20
17.0870271
11
14.8751897
21
17.0870271
0
LINE
8
DEFAULT_255_2_778
10
14.8751897
20
17.0870271
11
14.8751897
21
17.2585271
0
LINE
8
DEFAULT_255_2_778
10
14.8751897
20
17.2585271
11
14.4086897
21
17.2585271
0
LINE
8
DEFAULT_255_2_778
10
14.4086897
20
17.2585271
11
14.4086897
21
18.0763271
0
LINE
8
DEFAULT_255_2_778
10
14.4086897
20
18.0763271
11
14.4086897
21
18.0763271
0
ARC
8
DEFAULT_255_2_778
10
15.5907271
20
17.7021969
40
0.9681224
50
72.4822103
51
81.3184214
0
ARC
8
DEFAULT_255_2_778
10
15.8483297
20
18.4788918
40
0.1503783
50
28.8883513
51
77.0092434
0
ARC
8
DEFAULT_255_2_778
10
15.8755379
20
18.5078196
40
0.113238
50
358.9917455
51
22.7117017
0
ARC
8
DEFAULT_255_2_778
10
15.8717861
20
18.5119918
40
0.1171346
50
289.2958104
51
356.9831562
0
ARC
8
DEFAULT_255_2_778
10
15.7991261
20
18.6694882
40
0.2902651
50
268.4665462
51
292.5613311
0
ARC
8
DEFAULT_255_2_778
10
15.7819856
20
18.6104179
40
0.2312808
50
236.4956947
51
272.3225735
0
ARC
8
DEFAULT_255_2_778
10
15.7429646
20
18.5421839
40
0.1529307
50
178.9722202
51
234.5742435
0
ARC
8
DEFAULT_255_2_778
10
15.6979113
20
18.5326079
40
0.3002058
50
177.6481608
51
245.5596397
0
ARC
8
DEFAULT_255_2_778
10
15.7732971
20
18.7048561
40
0.488217
50
245.8690375
51
267.169035
0
ARC
8
DEFAULT_255_2_778
10
15.7994503
20
18.9558916
40
0.7403648
50
266.1069867
51
270.0547972
0
ARC
8
DEFAULT_255_2_778
10
15.8095894
20
18.7871135
40
0.5716642
50
269.0547216
51
287.7147747
0
ARC
8
DEFAULT_255_2_778
10
15.8921889
20
18.5414091
40
0.3125017
50
286.995984
51
325.1221533
0
ARC
8
DEFAULT_255_2_778
10
15.9001294
20
18.524861
40
0.2966627
50
326.8673922
51
0.8625726
0
ARC
8
DEFAULT_255_2_778
10
15.9221286
20
18.5334409
40
0.2746606
50
359.1417932
51
76.9739731
0
ARC
8
DEFAULT_255_2_778
10
15.8028461
20
18.2525719
40
0.577616
50
71.7185727
51
79.1315439
0
ARC
8
DEFAULT_255_2_778
10
14.3815968
20
10.898967
40
8.0673056
50
79.0662148
51
79.6216572
0
ARC
8
DEFAULT_255_2_778
10
16.5679585
20
22.7766581
40
4.0099443
50
259.1227669
51
259.4665204
0
ARC
8
DEFAULT_255_2_778
10
15.9159732
20
19.4816142
40
0.6513291
50
249.9945768
51
260.7485895
0
ARC
8
DEFAULT_255_2_778
10
15.7203401
20
18.9705999
40
0.1046098
50
178.6705173
51
254.9333545
0
ARC
8
DEFAULT_255_2_778
10
15.7372957
20
18.9671688
40
0.1216785
50
93.288632
51
177.2403935
0
ARC
8
DEFAULT_255_2_778
10
15.7908677
20
18.7801752
40
0.3143588
50
89.6189463
51
101.1057977
0
ARC
8
DEFAULT_255_2_778
10
15.8045733
20
18.892016
40
0.2028439
50
53.5634072
51
93.2825843
0
ARC
8
DEFAULT_255_2_778
10
15.8341505
20
18.9502144
40
0.1388739
50
357.1985816
51
49.1152298
0
ARC
8
DEFAULT_255_2_778
10
15.8577907
20
18.9434274
40
0.3087677
50
359.9999335
51
2.3703878
0
ARC
8
DEFAULT_255_2_778
10
15.8676283
20
18.9449326
40
0.2988783
50
2.1600825
51
60.1005431
0
ARC
8
DEFAULT_255_2_778
10
15.808997
20
18.8385089
40
0.4203697
50
60.4034592
51
86.1419535
0
ARC
8
DEFAULT_255_2_778
10
15.7860146
20
18.6620556
40
0.5980718
50
85.0825575
51
90.0628644
0
ARC
8
DEFAULT_255_2_778
10
15.7853768
20
18.7840947
40
0.4760323
50
90.0022128
51
92.1947428
0
ARC
8
DEFAULT_255_2_778
10
15.7608198
20
18.8891743
40
0.3706575
50
89.0219644
51
149.2249097
0
ARC
8
DEFAULT_255_2_778
10
15.6825294
20
18.9624542
40
0.2668811
50
154.147715
51
180.4996068
0
ARC
8
DEFAULT_255_2_778
10
15.6974524
20
18.960884
40
0.281795
50
180.1539064
51
255.1120325
0
ARC
8
DEFAULT_255_2_778
10
15.8417242
20
19.283732
40
0.6333958
50
249.9962237
51
260.4976723
0
ARC
8
DEFAULT_255_2_778
10
18.3793963
20
17.7033351
40
0.967002
50
72.4685023
51
81.3064395
0
ARC
8
DEFAULT_255_2_778
10
18.6368397
20
18.478927
40
0.1503535
50
28.8782248
51
76.9904304
0
ARC
8
DEFAULT_255_2_778
10
18.6640197
20
18.5078189
40
0.1132561
50
358.9922779
51
22.7082666
0
ARC
8
DEFAULT_255_2_778
10
18.6603402
20
18.5119088
40
0.1170763
50
289.2761556
51
357.0223042
0
ARC
8
DEFAULT_255_2_778
10
18.5876612
20
18.6697836
40
0.2905613
50
268.4611814
51
292.5289055
0
ARC
8
DEFAULT_255_2_778
10
18.5704801
20
18.6113175
40
0.2321799
50
236.6698634
51
272.3149402
0
ARC
8
DEFAULT_255_2_778
10
18.53108
20
18.5421762
40
0.1528464
50
178.9687581
51
234.7686008
0
ARC
8
DEFAULT_255_2_778
10
18.4863113
20
18.5326079
40
0.3002058
50
177.6481608
51
245.5596397
0
ARC
8
DEFAULT_255_2_778
10
18.5616971
20
18.7048561
40
0.488217
50
245.8690375
51
267.169035
0
ARC
8
DEFAULT_255_2_778
10
18.5878503
20
18.9558916
40
0.7403648
50
266.1069867
51
270.0547972
0
ARC
8
DEFAULT_255_2_778
10
18.5979836
20
18.7877451
40
0.5722957
50
269.0563423
51
287.7048702
0
ARC
8
DEFAULT_255_2_778
10
18.680644
20
18.5417682
40
0.312856
50
286.9832601
51
325.0871916
0
ARC
8
DEFAULT_255_2_778
10
18.6890708
20
18.5248856
40
0.2964208
50
326.8311942
51
0.8585267
0
ARC
8
DEFAULT_255_2_778
10
18.7108756
20
18.5335282
40
0.2746149
50
359.1234265
51
76.9343785
0
ARC
8
DEFAULT_255_2_778
10
18.5919421
20
18.2536965
40
0.5764934
50
71.6999697
51
79.1198353
0
ARC
8
DEFAULT_255_2_778
10
17.1496657
20
10.7769392
40
8.1910887
50
79.0843627
51
79.6321368
0
ARC
8
DEFAULT_255_2_778
10
19.3523266
20
22.7564177
40
3.9892176
50
259.1314419
51
259.4772924
0
ARC
8
DEFAULT_255_2_778
10
18.7046251
20
19.4810131
40
0.6507003
50
249.9919323
51
260.7592458
0
ARC
8
DEFAULT_255_2_778
10
18.509201
20
18.9705546
40
0.1045718
50
178.6452075
51
254.9151907
0
ARC
8
DEFAULT_255_2_778
10
18.5262581
20
18.9671016
40
0.121744
50
93.2745253
51
177.21023
0
ARC
8
DEFAULT_255_2_778
10
18.5798726
20
18.7800052
40
0.3145287
50
89.6200387
51
101.1027534
0
ARC
8
DEFAULT_255_2_778
10
18.5936489
20
18.8933453
40
0.2015212
50
53.1490002
51
93.3256649
0
ARC
8
DEFAULT_255_2_778
10
18.6225753
20
18.9501519
40
0.1391457
50
357.2298288
51
48.6469881
0
ARC
8
DEFAULT_255_2_778
10
18.6460232
20
18.9434226
40
0.3092351
50
0.0008291
51
2.3676985
0
ARC
8
DEFAULT_255_2_778
10
18.6563744
20
18.9449868
40
0.2988304
50
2.1500394
51
60.0956838
0
ARC
8
DEFAULT_255_2_778
10
18.5977399
20
18.8384909
40
0.4203859
50
60.40452
51
86.1455285
0
ARC
8
DEFAULT_255_2_778
10
18.5747157
20
18.6616686
40
0.5984588
50
85.0841409
51
90.0629301
0
ARC
8
DEFAULT_255_2_778
10
18.5740778
20
18.7846392
40
0.4754878
50
90.0023409
51
92.3231329
0
ARC
8
DEFAULT_255_2_778
10
18.5490555
20
18.8899604
40
0.3698206
50
89.1093915
51
149.6400816
0
ARC
8
DEFAULT_255_2_778
10
18.471061
20
18.9623917
40
0.2669122
50
154.6001925
51
180.486137
0
ARC
8
DEFAULT_255_2_778
10
18.4860607
20
18.9610152
40
0.2819037
50
180.1805176
51
255.132702
0
ARC
8
DEFAULT_255_2_778
10
18.6305264
20
19.2842784
40
0.6339516
50
250.0026216
51
260.4967164
0
ARC
8
DEFAULT_255_2_778
10
16.141217
20
17.4914283
40
0.2519711
50
190.2626864
51
267.3480013
0
ARC
8
DEFAULT_255_2_778
10
16.3766543
20
17.5827548
40
0.5022041
50
179.6723028
51
195.7380858
0
ARC
8
DEFAULT_255_2_778
10
16.3113511
20
17.5982671
40
0.4370755
50
148.7005643
51
181.6572045
0
ARC
8
DEFAULT_255_2_778
10
16.1280576
20
17.7083723
40
0.2232598
50
89.6148479
51
148.4074796
0
ARC
8
DEFAULT_255_2_778
10
16.1384233
20
17.7305016
40
0.2013207
50
41.6611679
51
92.5237676
0
ARC
8
DEFAULT_255_2_778
10
16.0834981
20
17.6920709
40
0.2680141
50
15.2633009
51
39.9936653
0
ARC
8
DEFAULT_255_2_778
10
16.160423
20
17.7030326
40
0.3935735
50
8.7091682
51
82.0550801
0
ARC
8
DEFAULT_255_2_778
10
16.1254241
20
17.5565871
40
0.543642
50
80.5350289
51
90.1544743
0
ARC
8
DEFAULT_255_2_778
10
16.1141804
20
17.6452192
40
0.4551129
50
88.7689246
51
119.6437418
0
ARC
8
DEFAULT_255_2_778
10
16.1400717
20
17.6489647
40
0.4653013
50
122.644121
51
173.3997839
0
ARC
8
DEFAULT_255_2_778
10
16.4034934
20
17.5846568
40
0.7351371
50
170.7798304
51
180.1348114
0
ARC
8
DEFAULT_255_2_778
10
16.2700257
20
17.5692615
40
0.6018225
50
178.6988735
51
210.5289552
0
ARC
8
DEFAULT_255_2_778
10
16.102625
20
17.4784953
40
0.4115783
50
211.4828222
51
265.8686737
0
ARC
8
DEFAULT_255_2_778
10
16.1232864
20
17.6032011
40
0.5375742
50
264.6297133
51
270.0503073
0
ARC
8
DEFAULT_255_2_778
10
16.1343995
20
17.5350749
40
0.4695684
50
268.7014824
51
300.1403067
0
ARC
8
DEFAULT_255_2_778
10
16.1673333
20
17.4566852
40
0.385394
50
301.7580058
51
353.77968
0
ARC
8
DEFAULT_255_2_778
10
16.1335256
20
17.4510219
40
0.2113379
50
268.8430278
51
350.1661143
0
ARC
8
DEFAULT_255_2_778
10
18.8219799
20
17.4913824
40
0.2519281
50
190.2538303
51
267.3332171
0
ARC
8
DEFAULT_255_2_778
10
19.0575249
20
17.5827581
40
0.5022746
50
179.672724
51
195.7362088
0
ARC
8
DEFAULT_255_2_778
10
18.9923432
20
17.5982917
40
0.4372682
50
148.7196987
51
181.6596982
0
ARC
8
DEFAULT_255_2_778
10
18.808743
20
17.7084906
40
0.2231415
50
89.6108896
51
148.4244661
0
ARC
8
DEFAULT_255_2_778
10
18.819176
20
17.730467
40
0.2013576
50
42.5913083
51
92.5383066
0
ARC
8
DEFAULT_255_2_778
10
18.7668542
20
17.6940973
40
0.2646316
50
15.0085433
51
40.7215892
0
ARC
8
DEFAULT_255_2_778
10
18.840923
20
17.7030326
40
0.3935735
50
8.7091682
51
82.0550801
0
ARC
8
DEFAULT_255_2_778
10
18.8059241
20
17.5565871
40
0.543642
50
80.5350289
51
90.1544743
0
ARC
8
DEFAULT_255_2_778
10
18.7946804
20
17.6452192
40
0.4551129
50
88.7689246
51
119.6437418
0
ARC
8
DEFAULT_255_2_778
10
18.8205717
20
17.6489647
40
0.4653013
50
122.644121
51
173.3997839
0
ARC
8
DEFAULT_255_2_778
10
19.0839934
20
17.5846568
40
0.7351371
50
170.7798304
51
180.1348114
0
ARC
8
DEFAULT_255_2_778
10
18.9500822
20
17.56932
40
0.6013778
50
178.7034849
51
210.5604279
0
ARC
8
DEFAULT_255_2_778
10
18.7834312
20
17.4788377
40
0.4119265
50
211.5090145
51
265.8592607
0
ARC
8
DEFAULT_255_2_778
10
18.8039883
20
17.6029521
40
0.5373252
50
264.628472
51
270.0501277
0
ARC
8
DEFAULT_255_2_778
10
18.815137
20
17.5348685
40
0.4693629
50
268.6963312
51
300.2191972
0
ARC
8
DEFAULT_255_2_778
10
18.8478684
20
17.4569124
40
0.3856821
50
301.8465101
51
353.7503927
0
ARC
8
DEFAULT_255_2_778
10
18.8143648
20
17.4508604
40
0.2111733
50
268.8857714
51
350.2028431
0
LINE
8
DEFAULT_255_2_778
10
15.5900584
20
18.5449271
11
15.3979584
21
18.5449271
0
LINE
8
DEFAULT_255_2_778
10
15.9728584
20
18.9434271
11
16.1665584
21
18.9434271
0
LINE
8
DEFAULT_255_2_778
10
18.3782584
20
18.5449271
11
18.1863584
21
18.5449271
0
LINE
8
DEFAULT_255_2_778
10
18.7615584
20
18.9434271
11
18.9552584
21
18.9434271
0
LINE
8
DEFAULT_255_2_778
10
16.3420584
20
17.7626271
11
16.5494584
21
17.7626271
0
LINE
8
DEFAULT_255_2_778
10
16.5504584
20
17.4149271
11
16.3417584
21
17.4149271
0
LINE
8
DEFAULT_255_2_778
10
19.0224584
20
17.7626271
11
19.2299584
21
17.7626271
0
LINE
8
DEFAULT_255_2_778
10
19.2312584
20
17.4149271
11
19.0224584
21
17.4149271
0
LINE
8
DEFAULT_255_1_234
10
10.5991823
20
15.4312341
11
10.5991823
21
14.5622
0
LINE
8
DEFAULT_255_1_234
10
10.5991823
20
14.5622
11
10.4505951
21
14.5622
0
LINE
8
DEFAULT_255_1_234
10
10.4505951
20
14.5622
11
10.4505951
21
15.4312341
0
LINE
8
DEFAULT_255_1_234
10
10.4505951
20
15.4312341
11
10.5991823
21
15.4312341
0
ARC
8
DEFAULT_255_1_234
10
10.53641
20
15.6626889
40
0.097867
50
161.415052
51
180.5526306
0
ARC
8
DEFAULT_255_1_234
10
10.5239878
20
15.6661077
40
0.0850062
50
138.1827368
51
160.9307106
0
ARC
8
DEFAULT_255_1_234
10
10.5129824
20
15.6756588
40
0.0704362
50
104.6368899
51
138.0039868
0
ARC
8
DEFAULT_255_1_234
10
10.5236978
20
15.6389963
40
0.1086221
50
92.0600725
51
105.2189128
0
ARC
8
DEFAULT_255_1_234
10
10.5260327
20
15.6047117
40
0.1429728
50
89.9756393
51
92.5012496
0
ARC
8
DEFAULT_255_1_234
10
10.5270346
20
15.6272731
40
0.1204151
50
78.0235316
51
90.4478182
0
ARC
8
DEFAULT_255_1_234
10
10.5362438
20
15.6686295
40
0.0780493
50
55.051506
51
78.3369085
0
ARC
8
DEFAULT_255_1_234
10
10.5412712
20
15.6770711
40
0.0682538
50
42.0501187
51
54.4513741
0
ARC
8
DEFAULT_255_1_234
10
10.527758
20
15.6646798
40
0.0865878
50
1.7497075
51
42.1496013
0
ARC
8
DEFAULT_255_1_234
10
10.5022912
20
15.6617738
40
0.1121515
50
359.9852656
51
2.8364544
0
ARC
8
DEFAULT_255_1_234
10
10.5188905
20
15.6608229
40
0.0955566
50
342.1070653
51
0.552888
0
ARC
8
DEFAULT_255_1_234
10
10.5331602
20
15.6568904
40
0.0807713
50
316.7107116
51
341.6516965
0
ARC
8
DEFAULT_255_1_234
10
10.5398639
20
15.6508823
40
0.0717724
50
285.4397031
51
316.5324284
0
ARC
8
DEFAULT_255_1_234
10
10.5288556
20
15.6874554
40
0.1099597
50
272.3547054
51
285.8953117
0
ARC
8
DEFAULT_255_1_234
10
10.5261714
20
15.7240048
40
0.1465932
50
269.9695369
51
272.8160237
0
ARC
8
DEFAULT_255_1_234
10
10.5251896
20
15.7020863
40
0.1246779
50
258.8431134
51
270.4153935
0
ARC
8
DEFAULT_255_1_234
10
10.5161938
20
15.6585414
40
0.0802162
50
238.5431189
51
259.1288175
0
ARC
8
DEFAULT_255_1_234
10
10.5093823
20
15.6461856
40
0.0661247
50
222.5062634
51
237.9906969
0
ARC
8
DEFAULT_255_1_234
10
10.522141
20
15.6577889
40
0.0833707
50
184.1069131
51
222.460413
0
ARC
8
DEFAULT_255_1_234
10
10.5490651
20
15.6616349
40
0.1105176
50
179.9429482
51
185.0960898
0
LINE
8
DEFAULT_255_1_234
10
11.7533431
20
15.1838565
11
11.7533431
21
15.1091614
0
LINE
8
DEFAULT_255_1_234
10
11.5485337
20
14.6256507
11
11.7573589
21
14.4618033
0
LINE
8
DEFAULT_255_1_234
10
11.7573589
20
14.4618033
11
11.6521432
21
14.3646192
0
LINE
8
DEFAULT_255_1_234
10
11.6521432
20
14.3646192
11
11.4055688
21
14.5605937
0
LINE
8
DEFAULT_255_1_234
10
10.8120233
20
15.0987201
11
10.8120233
21
15.1830534
0
LINE
8
DEFAULT_255_1_234
10
11.5991337
20
15.0979169
11
11.5991337
21
15.1846597
0
LINE
8
DEFAULT_255_1_234
10
10.9662327
20
15.195101
11
10.9662327
21
15.1091614
0
ARC
8
DEFAULT_255_1_234
10
10.8579682
20
15.1052707
40
0.8953833
50
351.453011
51
0.2489685
0
ARC
8
DEFAULT_255_1_234
10
11.1164483
20
15.0652933
40
0.6338333
50
338.6861641
51
351.5540711
0
ARC
8
DEFAULT_255_1_234
10
11.2098367
20
15.0322828
40
0.5348431
50
336.2887631
51
338.3442418
0
ARC
8
DEFAULT_255_1_234
10
11.2437989
20
15.0136698
40
0.4962747
50
321.1170344
51
336.6795229
0
ARC
8
DEFAULT_255_1_234
10
11.3069818
20
14.9650206
40
0.4165565
50
305.4419708
51
320.8705636
0
ARC
8
DEFAULT_255_1_234
10
11.2873288
20
15.0397707
40
0.4935497
50
271.6373023
51
283.8611969
0
ARC
8
DEFAULT_255_1_234
10
11.2835541
20
15.1053572
40
0.5592206
50
269.9930596
51
271.8318864
0
ARC
8
DEFAULT_255_1_234
10
11.2797984
20
15.0245681
40
0.4784458
50
252.5219675
51
270.4416499
0
ARC
8
DEFAULT_255_1_234
10
11.2654243
20
14.9706592
40
0.422716
50
237.5352116
51
252.1857531
0
ARC
8
DEFAULT_255_1_234
10
11.2743439
20
14.9820363
40
0.4371052
50
209.063312
51
237.3492538
0
ARC
8
DEFAULT_255_1_234
10
11.3613287
20
15.0366685
40
0.5397041
50
205.1183774
51
209.6470015
0
ARC
8
DEFAULT_255_1_234
10
11.4410324
20
15.070483
40
0.6262326
50
188.7215458
51
204.8240747
0
ARC
8
DEFAULT_255_1_234
10
11.6407852
20
15.1041067
40
0.8287794
50
180.3723947
51
188.9252049
0
ARC
8
DEFAULT_255_1_234
10
11.6380604
20
15.1870402
40
0.8260467
50
169.5253763
51
180.2765336
0
ARC
8
DEFAULT_255_1_234
10
11.4478053
20
15.2220309
40
0.6326007
50
155.8315255
51
169.5089989
0
ARC
8
DEFAULT_255_1_234
10
11.3197554
20
15.2814348
40
0.4914567
50
139.6258461
51
156.0379525
0
ARC
8
DEFAULT_255_1_234
10
11.2607887
20
15.3288799
40
0.4158054
50
122.6416387
51
139.3430715
0
ARC
8
DEFAULT_255_1_234
10
11.2708507
20
15.3105451
40
0.4366739
50
93.0223692
51
122.455762
0
ARC
8
DEFAULT_255_1_234
10
11.2816504
20
15.2140709
40
0.5336137
50
89.975342
51
93.6341897
0
ARC
8
DEFAULT_255_1_234
10
11.285539
20
15.2520375
40
0.4956606
50
73.9665422
51
90.4229648
0
ARC
8
DEFAULT_255_1_234
10
11.3039037
20
15.3235451
40
0.4218674
50
57.5178019
51
73.6813337
0
ARC
8
DEFAULT_255_1_234
10
11.299482
20
15.3199462
40
0.4272816
50
28.7261108
51
57.2767933
0
ARC
8
DEFAULT_255_1_234
10
11.2084152
20
15.2636688
40
0.534218
50
24.2448911
51
29.3248482
0
ARC
8
DEFAULT_255_1_234
10
11.1158253
20
15.2253819
40
0.6343711
50
9.064382
51
23.9639114
0
ARC
8
DEFAULT_255_1_234
10
10.8902581
20
15.1874925
40
0.8630926
50
359.7586264
51
9.1891435
0
ARC
8
DEFAULT_255_1_234
10
10.7648061
20
15.1888343
40
0.834338
50
359.7133237
51
7.96545
0
ARC
8
DEFAULT_255_1_234
10
11.0610278
20
15.2315681
40
0.5350538
50
7.8291991
51
20.0421623
0
ARC
8
DEFAULT_255_1_234
10
11.2234841
20
15.2906606
40
0.3621841
50
20.0677553
51
35.9161685
0
ARC
8
DEFAULT_255_1_234
10
11.3009879
20
15.348267
40
0.2656263
50
35.6594382
51
85.1578074
0
ARC
8
DEFAULT_255_1_234
10
11.2825135
20
15.2367378
40
0.3784238
50
83.7959068
51
90.095906
0
ARC
8
DEFAULT_255_1_234
10
11.2782069
20
15.3100601
40
0.3051229
50
89.3102392
51
109.9889877
0
ARC
8
DEFAULT_255_1_234
10
11.2699552
20
15.3456433
40
0.2688988
50
110.9285147
51
143.9411762
0
ARC
8
DEFAULT_255_1_234
10
11.3630498
20
15.2744236
40
0.3860887
50
143.5289163
51
163.2980757
0
ARC
8
DEFAULT_255_1_234
10
11.5538319
20
15.2144433
40
0.5860659
50
163.0418846
51
174.3140048
0
ARC
8
DEFAULT_255_1_234
10
11.7942431
20
15.1866854
40
0.8280531
50
174.0509143
51
179.4176892
0
ARC
8
DEFAULT_255_1_234
10
11.7428766
20
15.1048634
40
0.7766558
50
179.6829237
51
188.9631324
0
ARC
8
DEFAULT_255_1_234
10
11.4758327
20
15.0613752
40
0.5060992
50
188.8100743
51
202.9300012
0
ARC
8
DEFAULT_255_1_234
10
11.3541956
20
15.0118855
40
0.3747967
50
203.2069261
51
215.7876482
0
ARC
8
DEFAULT_255_1_234
10
11.2693353
20
14.9447671
40
0.2667526
50
214.7521006
51
264.2834488
0
ARC
8
DEFAULT_255_1_234
10
11.2829008
20
15.030278
40
0.3532247
50
263.4755397
51
270.0949833
0
ARC
8
DEFAULT_255_1_234
10
11.2871119
20
15.0041374
40
0.3271036
50
269.3649385
51
287.5152008
0
ARC
8
DEFAULT_255_1_234
10
11.3049277
20
14.9394238
40
0.2600406
50
288.0630309
51
323.8113348
0
ARC
8
DEFAULT_255_1_234
10
11.2178119
20
15.0044049
40
0.3687189
50
323.6547608
51
342.6590488
0
ARC
8
DEFAULT_255_1_234
10
11.0146734
20
15.0704952
40
0.5823286
50
342.4091907
51
353.6451149
0
ARC
8
DEFAULT_255_1_234
10
10.7315244
20
15.105719
40
0.8676442
50
353.4029884
51
359.4847795
0
LINE
8
DEFAULT_255_1_234
10
12.2770124
20
15.1196026
11
12.2770124
21
14.9983234
0
LINE
8
DEFAULT_255_1_234
10
12.2770124
20
14.9983234
11
11.8850636
21
14.9983234
0
LINE
8
DEFAULT_255_1_234
10
11.8850636
20
14.9983234
11
11.8850636
21
15.1196026
0
LINE
8
DEFAULT_255_1_234
10
11.8850636
20
15.1196026
11
12.2770124
21
15.1196026
0
LINE
8
DEFAULT_255_1_234
10
13.1275735
20
14.5622
11
12.8737706
21
15.0352694
0
LINE
8
DEFAULT_255_1_234
10
12.8737706
20
15.0352694
11
12.5990851
21
15.0352694
0
LINE
8
DEFAULT_255_1_234
10
12.5990851
20
15.0352694
11
12.5990851
21
14.5622
0
LINE
8
DEFAULT_255_1_234
10
12.5990851
20
14.5622
11
12.4440726
21
14.5622
0
LINE
8
DEFAULT_255_1_234
10
12.4440726
20
14.5622
11
12.4440726
21
15.7316211
0
LINE
8
DEFAULT_255_1_234
10
12.4440726
20
15.7316211
11
12.8312023
21
15.7316211
0
LINE
8
DEFAULT_255_1_234
10
13.0183418
20
15.0681995
11
13.2930273
21
14.5718381
0
LINE
8
DEFAULT_255_1_234
10
13.2930273
20
14.5718381
11
13.2930273
21
14.5622
0
LINE
8
DEFAULT_255_1_234
10
13.2930273
20
14.5622
11
13.1275735
21
14.5622
0
LINE
8
DEFAULT_255_1_234
10
12.5990851
20
15.6047196
11
12.5990851
21
15.1613677
0
LINE
8
DEFAULT_255_1_234
10
12.5990851
20
15.1613677
11
12.8360214
21
15.1613677
0
LINE
8
DEFAULT_255_1_234
10
12.8352182
20
15.6047196
11
12.5990851
21
15.6047196
0
ARC
8
DEFAULT_255_1_234
10
12.8353663
20
15.0354761
40
0.6961575
50
80.653586
51
90.3427061
0
ARC
8
DEFAULT_255_1_234
10
12.8773138
20
15.2817348
40
0.4463577
50
65.6987447
51
80.8329603
0
ARC
8
DEFAULT_255_1_234
10
12.9250778
20
15.3912322
40
0.3269094
50
50.0017161
51
65.4305835
0
ARC
8
DEFAULT_255_1_234
10
12.9469243
20
15.4207482
40
0.2902647
50
11.628416
51
49.5603263
0
ARC
8
DEFAULT_255_1_234
10
12.7933579
20
15.3832299
40
0.4482792
50
359.5655735
51
12.3691
0
ARC
8
DEFAULT_255_1_234
10
12.9010438
20
15.3769644
40
0.3405924
50
341.9983148
51
0.4822259
0
ARC
8
DEFAULT_255_1_234
10
12.9405278
20
15.3662471
40
0.2997359
50
323.8609373
51
341.61416
0
ARC
8
DEFAULT_255_1_234
10
12.9103522
20
15.3895484
40
0.3378487
50
296.7018614
51
323.6876402
0
ARC
8
DEFAULT_255_1_234
10
12.8662418
20
15.4684235
40
0.4281516
50
290.8086567
51
297.2323311
0
ARC
8
DEFAULT_255_1_234
10
12.8385947
20
15.5207351
40
0.3593766
50
269.589728
51
281.8058135
0
ARC
8
DEFAULT_255_1_234
10
12.8636846
20
15.4059743
40
0.2419125
50
281.5501019
51
303.9357432
0
ARC
8
DEFAULT_255_1_234
10
12.8774034
20
15.3821936
40
0.2145323
50
304.4415616
51
311.2106213
0
ARC
8
DEFAULT_255_1_234
10
12.890614
20
15.3682632
40
0.1953505
50
310.9875673
51
356.2715578
0
ARC
8
DEFAULT_255_1_234
10
12.8149788
20
15.3795422
40
0.2716331
50
354.9348262
51
0.0609027
0
ARC
8
DEFAULT_255_1_234
10
12.7962663
20
15.3822435
40
0.2903554
50
359.5239371
51
12.8808918
0
ARC
8
DEFAULT_255_1_234
10
12.8940218
20
15.4061728
40
0.1897315
50
12.4173452
51
43.1022135
0
ARC
8
DEFAULT_255_1_234
10
12.9001823
20
15.4098724
40
0.1827118
50
43.5751728
51
48.203944
0
ARC
8
DEFAULT_255_1_234
10
12.8832315
20
15.3877302
40
0.2105272
50
48.7809703
51
72.6969569
0
ARC
8
DEFAULT_255_1_234
10
12.8477939
20
15.280182
40
0.3237537
50
72.3702241
51
84.8791103
0
ARC
8
DEFAULT_255_1_234
10
12.8330415
20
15.1459769
40
0.4587478
50
84.5400526
51
89.7281406
0
LINE
8
DEFAULT_255_1_234
10
14.640753
20
15.3934849
11
14.4857404
21
15.3934849
0
LINE
8
DEFAULT_255_1_234
10
13.7934046
20
14.9011394
11
13.9484171
21
14.9011394
0
ARC
8
DEFAULT_255_1_234
10
14.5516217
20
16.2881768
40
1.252368
50
248.9199003
51
254.1439814
0
ARC
8
DEFAULT_255_1_234
10
14.3835712
20
15.8555234
40
0.788226
50
241.633709
51
249.0064503
0
ARC
8
DEFAULT_255_1_234
10
14.2307106
20
15.5754317
40
0.4691427
50
230.498225
51
241.8087113
0
ARC
8
DEFAULT_255_1_234
10
14.1522681
20
15.4754906
40
0.3421437
50
227.4064532
51
229.9881192
0
ARC
8
DEFAULT_255_1_234
10
14.1035201
20
15.4279088
40
0.2741476
50
200.6781896
51
228.1763934
0
ARC
8
DEFAULT_255_1_234
10
14.1107512
20
15.4264077
40
0.2804109
50
179.5061581
51
199.8694617
0
ARC
8
DEFAULT_255_1_234
10
14.1098264
20
15.433821
40
0.2795204
50
132.4834203
51
181.0242172
0
ARC
8
DEFAULT_255_1_234
10
14.1693846
20
15.3775704
40
0.3612768
50
129.2532479
51
133.4242687
0
ARC
8
DEFAULT_255_1_234
10
14.1840296
20
15.3555965
40
0.3875675
50
101.98776
51
128.8742646
0
ARC
8
DEFAULT_255_1_234
10
14.2238906
20
15.1834741
40
0.5642249
50
89.5906553
51
102.3169264
0
ARC
8
DEFAULT_255_1_234
10
14.2309398
20
15.2153148
40
0.5323783
50
77.2360837
51
90.3248275
0
ARC
8
DEFAULT_255_1_234
10
14.2516477
20
15.31204
40
0.4334697
50
63.837784
51
77.0809408
0
ARC
8
DEFAULT_255_1_234
10
14.2794239
20
15.3637911
40
0.3747796
50
45.9864267
51
64.1607727
0
ARC
8
DEFAULT_255_1_234
10
14.305512
20
15.3935866
40
0.3352302
50
32.2747395
51
45.6547121
0
ARC
8
DEFAULT_255_1_234
10
14.3121561
20
15.395488
40
0.328603
50
359.6507365
51
32.6130309
0
ARC
8
DEFAULT_255_1_234
10
14.2178656
20
15.395966
40
0.2678863
50
359.469343
51
14.9832209
0
ARC
8
DEFAULT_255_1_234
10
14.2883719
20
15.4148539
40
0.1948938
50
14.9781179
51
48.2004265
0
ARC
8
DEFAULT_255_1_234
10
14.2719363
20
15.3941983
40
0.2212521
50
48.5927837
51
74.1241538
0
ARC
8
DEFAULT_255_1_234
10
14.2385853
20
15.2841248
40
0.3362561
50
73.7888341
51
86.6652678
0
ARC
8
DEFAULT_255_1_234
10
14.2283418
20
15.1633881
40
0.4573953
50
86.2640471
51
90.0526343
0
ARC
8
DEFAULT_255_1_234
10
14.2255131
20
15.2029192
40
0.4178709
50
89.6697524
51
99.2309573
0
ARC
8
DEFAULT_255_1_234
10
14.2012582
20
15.3473964
40
0.2713749
50
99.069534
51
113.7658566
0
ARC
8
DEFAULT_255_1_234
10
14.1738773
20
15.4119677
40
0.2012469
50
114.0401004
51
127.9850673
0
ARC
8
DEFAULT_255_1_234
10
14.1498337
20
15.441573
40
0.1631167
50
127.7287463
51
176.7105154
0
ARC
8
DEFAULT_255_1_234
10
14.2177054
20
15.4314693
40
0.2315392
50
175.1779447
51
180.0581938
0
ARC
8
DEFAULT_255_1_234
10
14.1333901
20
15.4302428
40
0.1472271
50
179.6142195
51
228.1246017
0
ARC
8
DEFAULT_255_1_234
10
14.177557
20
15.4711308
40
0.2072299
50
226.5779593
51
230.8800004
0
ARC
8
DEFAULT_255_1_234
10
14.2246648
20
15.5336636
40
0.2854818
50
231.4635071
51
241.9260842
0
ARC
8
DEFAULT_255_1_234
10
14.3443826
20
15.75398
40
0.53622
50
241.7178533
51
248.3259551
0
ARC
8
DEFAULT_255_1_234
10
14.4829198
20
16.0972064
40
0.9063478
50
248.2007737
51
252.4528373
0
ARC
8
DEFAULT_255_1_234
10
14.6032923
20
16.4693441
40
1.2974635
50
252.3391078
51
254.3469452
0
ARC
8
DEFAULT_255_1_234
10
13.8490626
20
13.7716148
40
1.5037162
50
71.0197183
51
74.4087047
0
ARC
8
DEFAULT_255_1_234
10
14.0185311
20
14.2608111
40
0.9859993
50
66.1847285
51
71.086374
0
ARC
8
DEFAULT_255_1_234
10
14.1741623
20
14.61122
40
0.6025855
50
59.3536294
51
66.2691831
0
ARC
8
DEFAULT_255_1_234
10
14.2630276
20
14.7615609
40
0.4279449
50
49.1020879
51
59.3293958
0
ARC
8
DEFAULT_255_1_234
10
14.3449015
20
14.8548834
40
0.3038015
50
32.7919921
51
49.2505539
0
ARC
8
DEFAULT_255_1_234
10
14.3770105
20
14.8777191
40
0.264448
50
31.1181161
51
32.4005348
0
ARC
8
DEFAULT_255_1_234
10
14.3681643
20
14.8741779
40
0.2738556
50
8.1116974
51
30.7958831
0
ARC
8
DEFAULT_255_1_234
10
14.2871311
20
14.8603753
40
0.3560327
50
359.8389159
51
8.4706516
0
ARC
8
DEFAULT_255_1_234
10
14.3497103
20
14.8555137
40
0.2934776
50
337.4731098
51
0.7537279
0
ARC
8
DEFAULT_255_1_234
10
14.3675798
20
14.8535387
40
0.2762607
50
307.5917067
51
336.4315538
0
ARC
8
DEFAULT_255_1_234
10
14.3215626
20
14.9048102
40
0.3449979
50
307.6551545
51
308.4529766
0
ARC
8
DEFAULT_255_1_234
10
14.2985344
20
14.940325
40
0.3871988
50
284.3734338
51
307.1424381
0
ARC
8
DEFAULT_255_1_234
10
14.2490175
20
15.1224932
40
0.5759636
50
272.4382747
51
284.646547
0
ARC
8
DEFAULT_255_1_234
10
14.2363383
20
15.3024893
40
0.7563528
50
269.9708387
51
272.8178037
0
ARC
8
DEFAULT_255_1_234
10
14.2320423
20
15.0986716
40
0.5525489
50
248.2707594
51
270.4055579
0
ARC
8
DEFAULT_255_1_234
10
14.2266164
20
15.0796192
40
0.5328452
50
246.1383403
51
248.0542782
0
ARC
8
DEFAULT_255_1_234
10
14.1847543
20
14.9916843
40
0.4355005
50
233.1670131
51
246.4950969
0
ARC
8
DEFAULT_255_1_234
10
14.1293448
20
14.9168812
40
0.3424126
50
215.3403242
51
233.0843104
0
ARC
8
DEFAULT_255_1_234
10
14.1020879
20
14.8970549
40
0.3087104
50
179.2419209
51
215.2648451
0
ARC
8
DEFAULT_255_1_234
10
14.1788473
20
14.8984666
40
0.2304457
50
179.335461
51
199.1045811
0
ARC
8
DEFAULT_255_1_234
10
14.145615
20
14.8897766
40
0.1962176
50
199.8828939
51
232.7063202
0
ARC
8
DEFAULT_255_1_234
10
14.1928418
20
14.9491788
40
0.2720938
50
232.3738199
51
255.5136649
0
ARC
8
DEFAULT_255_1_234
10
14.2269285
20
15.0735835
40
0.4010747
50
255.2446292
51
267.5320849
0
ARC
8
DEFAULT_255_1_234
10
14.2356908
20
15.1968702
40
0.5246356
50
267.1557994
51
270.0286766
0
ARC
8
DEFAULT_255_1_234
10
14.238468
20
15.152495
40
0.4802668
50
269.7000017
51
278.1660162
0
ARC
8
DEFAULT_255_1_234
10
14.2640685
20
14.9794515
40
0.3053425
50
278.0231263
51
290.625471
0
ARC
8
DEFAULT_255_1_234
10
14.2988372
20
14.8867025
40
0.206291
50
290.6619762
51
307.0370976
0
ARC
8
DEFAULT_255_1_234
10
14.3288761
20
14.8498504
40
0.1587906
50
306.3943566
51
355.3030547
0
ARC
8
DEFAULT_255_1_234
10
14.2776693
20
14.8575113
40
0.2104809
50
354.3660432
51
0.0698737
0
ARC
8
DEFAULT_255_1_234
10
14.2919038
20
14.8597617
40
0.1962563
50
359.417946
51
16.1971788
0
ARC
8
DEFAULT_255_1_234
10
14.3374348
20
14.8722418
40
0.149053
50
16.4723299
51
52.6262157
0
ARC
8
DEFAULT_255_1_234
10
14.2553402
20
14.7638433
40
0.2850296
50
52.7386432
51
62.4979148
0
ARC
8
DEFAULT_255_1_234
10
14.1168479
20
14.5032283
40
0.5801521
50
62.2515216
51
68.1220564
0
ARC
8
DEFAULT_255_1_234
10
13.944839
20
14.0804872
40
1.0365451
50
68.0062803
51
71.8053402
0
ARC
8
DEFAULT_255_1_234
10
13.7652762
20
13.5419758
40
1.6042013
50
71.7183119
51
73.9258742
0
LINE
8
DEFAULT_255_1_234
10
14.7797021
20
14.9726218
11
14.7797021
21
14.9999297
0
LINE
8
DEFAULT_255_1_234
10
15.5170156
20
15.0159932
11
15.5170156
21
14.9541488
0
LINE
8
DEFAULT_255_1_234
10
15.5170156
20
14.9541488
11
14.9282892
21
14.9541488
0
LINE
8
DEFAULT_255_1_234
10
15.4150125
20
14.7846792
11
15.5057712
21
14.7139999
0
LINE
8
DEFAULT_255_1_234
10
14.9331083
20
15.0762313
11
15.3684285
21
15.0762313
0
LINE
8
DEFAULT_255_1_234
10
15.3684285
20
15.0762313
11
15.3684285
21
15.0874757
0
ARC
8
DEFAULT_255_1_234
10
15.1736386
20
14.9837332
40
0.4376191
50
252.3266134
51
270.5810217
0
ARC
8
DEFAULT_255_1_234
10
15.1531475
20
14.9096644
40
0.3608374
50
223.3000567
51
251.8561855
0
ARC
8
DEFAULT_255_1_234
10
15.1742835
20
14.9301937
40
0.3902993
50
190.9374509
51
223.3654032
0
ARC
8
DEFAULT_255_1_234
10
15.3467808
20
14.9691885
40
0.5670891
50
179.6531105
51
191.4989439
0
ARC
8
DEFAULT_255_1_234
10
15.358982
20
15.0031417
40
0.5792888
50
167.4007466
51
180.3176909
0
ARC
8
DEFAULT_255_1_234
10
15.2537881
20
15.0253885
40
0.471777
50
154.1835823
51
167.250763
0
ARC
8
DEFAULT_255_1_234
10
15.1906349
20
15.0586417
40
0.4004528
50
134.3149965
51
154.5315275
0
ARC
8
DEFAULT_255_1_234
10
15.1688844
20
15.0777228
40
0.371612
50
122.8616532
51
133.9707695
0
ARC
8
DEFAULT_255_1_234
10
15.1585418
20
15.0999703
40
0.3473289
50
89.8249009
51
123.4199222
0
ARC
8
DEFAULT_255_1_234
10
15.1635459
20
15.0352967
40
0.4120197
50
74.7876118
51
90.5482747
0
ARC
8
DEFAULT_255_1_234
10
15.1929202
20
15.143803
40
0.2996077
50
39.8178249
51
74.7633718
0
ARC
8
DEFAULT_255_1_234
10
15.1416523
20
15.1038351
40
0.3645855
50
16.8990863
51
39.4829761
0
ARC
8
DEFAULT_255_1_234
10
14.9521819
20
15.0431526
40
0.5635218
50
4.9636328
51
17.2026414
0
ARC
8
DEFAULT_255_1_234
10
14.7103889
20
15.017634
40
0.8066286
50
359.8834553
51
5.2834307
0
ARC
8
DEFAULT_255_1_234
10
15.3141414
20
14.9607803
40
0.3859091
50
180.9846213
51
194.9401313
0
ARC
8
DEFAULT_255_1_234
10
15.2091691
20
14.9320849
40
0.2770883
50
194.80314
51
222.0412631
0
ARC
8
DEFAULT_255_1_234
10
15.1787573
20
14.9019116
40
0.2343055
50
221.5417084
51
268.8614402
0
ARC
8
DEFAULT_255_1_234
10
15.1860568
20
14.9695686
40
0.3021528
50
267.732405
51
270.0097136
0
ARC
8
DEFAULT_255_1_234
10
15.1878378
20
14.9897105
40
0.3222994
50
269.6924892
51
280.4117579
0
ARC
8
DEFAULT_255_1_234
10
15.2054785
20
14.8978193
40
0.2287344
50
280.2255091
51
298.6338936
0
ARC
8
DEFAULT_255_1_234
10
15.2171577
20
14.8734223
40
0.2017294
50
299.0430333
51
300.4643464
0
ARC
8
DEFAULT_255_1_234
10
15.1491582
20
14.9868038
40
0.3339357
50
300.6577328
51
322.0378878
0
ARC
8
DEFAULT_255_1_234
10
15.1141121
20
15.0172021
40
0.3802736
50
321.6750233
51
322.3046845
0
ARC
8
DEFAULT_255_1_234
10
15.2072083
20
14.900537
40
0.3520454
50
276.9728461
51
328.0035423
0
ARC
8
DEFAULT_255_1_234
10
15.1795135
20
15.0485841
40
0.5024498
50
269.8361028
51
278.0581756
0
ARC
8
DEFAULT_255_1_234
10
15.1567873
20
15.1230757
40
0.202159
50
89.2018686
51
117.2851756
0
ARC
8
DEFAULT_255_1_234
10
15.1621042
20
15.1188752
40
0.2083484
50
118.0551165
51
137.4540413
0
ARC
8
DEFAULT_255_1_234
10
15.1995782
20
15.0848304
40
0.2589774
50
137.5109581
51
158.8516286
0
ARC
8
DEFAULT_255_1_234
10
15.3133617
20
15.0389074
40
0.38167
50
158.5845963
51
170.1721436
0
ARC
8
DEFAULT_255_1_234
10
15.4303007
20
15.0156823
40
0.5008657
50
169.8376422
51
173.0566086
0
ARC
8
DEFAULT_255_1_234
10
14.9606081
20
15.0667509
40
0.4083467
50
2.9091802
51
12.8847116
0
ARC
8
DEFAULT_255_1_234
10
15.0976757
20
15.0990101
40
0.2675383
50
12.6957781
51
28.6404489
0
ARC
8
DEFAULT_255_1_234
10
15.1518428
20
15.1270458
40
0.2065654
50
29.0169854
51
41.1487595
0
ARC
8
DEFAULT_255_1_234
10
15.1721213
20
15.1447003
40
0.1796786
50
41.1646065
51
85.0013516
0
ARC
8
DEFAULT_255_1_234
10
15.160031
20
15.0712431
40
0.2539726
50
83.7280015
51
90.0964893
0
LINE
8
DEFAULT_255_1_234
10
16.1089547
20
15.4360531
11
16.1089547
21
15.2979072
0
LINE
8
DEFAULT_255_1_234
10
15.837482
20
15.1790375
11
15.837482
21
14.5622
0
LINE
8
DEFAULT_255_1_234
10
15.837482
20
14.5622
11
15.6888948
21
14.5622
0
LINE
8
DEFAULT_255_1_234
10
15.6888948
20
14.5622
11
15.6888948
21
15.4312341
0
LINE
8
DEFAULT_255_1_234
10
15.6888948
20
15.4312341
11
15.8334661
21
15.4312341
0
LINE
8
DEFAULT_255_1_234
10
15.8334661
20
15.4312341
11
15.8358756
21
15.3308374
0
ARC
8
DEFAULT_255_1_234
10
16.0422953
20
14.8919342
40
0.4114092
50
80.6754243
51
86.8932892
0
ARC
8
DEFAULT_255_1_234
10
16.0362487
20
14.79517
40
0.5083596
50
86.8038578
51
90.0431435
0
ARC
8
DEFAULT_255_1_234
10
16.0325468
20
15.0408866
40
0.2626638
50
89.2759698
51
106.6213787
0
ARC
8
DEFAULT_255_1_234
10
16.0121032
20
15.115183
40
0.1856317
50
107.1346045
51
157.6458115
0
ARC
8
DEFAULT_255_1_234
10
16.0812633
20
15.0768311
40
0.2643398
50
155.6586782
51
157.2539184
0
ARC
8
DEFAULT_255_1_234
10
16.0607836
20
15.1937157
40
0.2634121
50
127.8165941
51
148.6302098
0
ARC
8
DEFAULT_255_1_234
10
16.0354305
20
15.2197218
40
0.2273596
50
91.3329982
51
126.7875809
0
ARC
8
DEFAULT_255_1_234
10
16.0430245
20
15.1482195
40
0.299078
50
89.986594
51
92.4688449
0
ARC
8
DEFAULT_255_1_234
10
16.043864
20
15.1757078
40
0.2715908
50
85.3589899
51
90.1623399
0
ARC
8
DEFAULT_255_1_234
10
16.0523156
20
15.2761164
40
0.1708278
50
78.401942
51
85.4594656
0
ARC
8
DEFAULT_255_1_234
10
16.066804
20
15.3452236
40
0.1002194
50
67.7858312
51
78.5728455
0
ARC
8
DEFAULT_255_1_234
10
16.0775892
20
15.3731887
40
0.0702548
50
63.4835954
51
67.3062642
0
LINE
8
DEFAULT_255_1_234
10
16.4069322
20
15.4312341
11
16.4069322
21
14.5622
0
LINE
8
DEFAULT_255_1_234
10
16.4069322
20
14.5622
11
16.2583451
21
14.5622
0
LINE
8
DEFAULT_255_1_234
10
16.2583451
20
14.5622
11
16.2583451
21
15.4312341
0
LINE
8
DEFAULT_255_1_234
10
16.2583451
20
15.4312341
11
16.4069322
21
15.4312341
0
ARC
8
DEFAULT_255_1_234
10
16.3441599
20
15.6626889
40
0.097867
50
161.415052
51
180.5526306
0
ARC
8
DEFAULT_255_1_234
10
16.3317378
20
15.6661077
40
0.0850062
50
138.1827368
51
160.9307106
0
ARC
8
DEFAULT_255_1_234
10
16.3207323
20
15.6756588
40
0.0704362
50
104.6368899
51
138.0039868
0
ARC
8
DEFAULT_255_1_234
10
16.3314478
20
15.6389963
40
0.1086221
50
92.0600725
51
105.2189128
0
ARC
8
DEFAULT_255_1_234
10
16.3337826
20
15.6047117
40
0.1429728
50
89.9756393
51
92.5012496
0
ARC
8
DEFAULT_255_1_234
10
16.3347846
20
15.6272731
40
0.1204151
50
78.0235316
51
90.4478182
0
ARC
8
DEFAULT_255_1_234
10
16.3439937
20
15.6686295
40
0.0780493
50
55.051506
51
78.3369085
0
ARC
8
DEFAULT_255_1_234
10
16.3490212
20
15.6770711
40
0.0682538
50
42.0501187
51
54.4513741
0
ARC
8
DEFAULT_255_1_234
10
16.3355079
20
15.6646798
40
0.0865878
50
1.7497075
51
42.1496013
0
ARC
8
DEFAULT_255_1_234
10
16.3100412
20
15.6617738
40
0.1121515
50
359.9852656
51
2.8364544
0
ARC
8
DEFAULT_255_1_234
10
16.3266404
20
15.6608229
40
0.0955566
50
342.1070653
51
0.552888
0
ARC
8
DEFAULT_255_1_234
10
16.3409101
20
15.6568904
40
0.0807713
50
316.7107116
51
341.6516965
0
ARC
8
DEFAULT_255_1_234
10
16.3476138
20
15.6508823
40
0.0717724
50
285.4397031
51
316.5324284
0
ARC
8
DEFAULT_255_1_234
10
16.3366056
20
15.6874554
40
0.1099597
50
272.3547054
51
285.8953117
0
ARC
8
DEFAULT_255_1_234
10
16.3339213
20
15.7240048
40
0.1465932
50
269.9695369
51
272.8160237
0
ARC
8
DEFAULT_255_1_234
10
16.3329395
20
15.7020863
40
0.1246779
50
258.8431134
51
270.4153935
0
ARC
8
DEFAULT_255_1_234
10
16.3239437
20
15.6585414
40
0.0802162
50
238.5431189
51
259.1288175
0
ARC
8
DEFAULT_255_1_234
10
16.3171322
20
15.6461856
40
0.0661247
50
222.5062634
51
237.9906969
0
ARC
8
DEFAULT_255_1_234
10
16.329891
20
15.6577889
40
0.0833707
50
184.1069131
51
222.460413
0
ARC
8
DEFAULT_255_1_234
10
16.356815
20
15.6616349
40
0.1105176
50
179.9429482
51
185.0960898
0
LINE
8
DEFAULT_255_1_234
10
16.6069225
20
14.9726218
11
16.6069225
21
14.9999297
0
LINE
8
DEFAULT_255_1_234
10
17.3442361
20
15.0159932
11
17.3442361
21
14.9541488
0
LINE
8
DEFAULT_255_1_234
10
17.3442361
20
14.9541488
11
16.7555097
21
14.9541488
0
LINE
8
DEFAULT_255_1_234
10
17.242233
20
14.7846792
11
17.3329917
21
14.7139999
0
LINE
8
DEFAULT_255_1_234
10
16.7603287
20
15.0762313
11
17.1956489
21
15.0762313
0
LINE
8
DEFAULT_255_1_234
10
17.1956489
20
15.0762313
11
17.1956489
21
15.0874757
0
ARC
8
DEFAULT_255_1_234
10
17.000859
20
14.9837332
40
0.4376191
50
252.3266134
51
270.5810217
0
ARC
8
DEFAULT_255_1_234
10
16.9803679
20
14.9096644
40
0.3608374
50
223.3000567
51
251.8561855
0
ARC
8
DEFAULT_255_1_234
10
17.001504
20
14.9301937
40
0.3902993
50
190.9374509
51
223.3654032
0
ARC
8
DEFAULT_255_1_234
10
17.1740012
20
14.9691885
40
0.5670891
50
179.6531105
51
191.4989439
0
ARC
8
DEFAULT_255_1_234
10
17.1862024
20
15.0031417
40
0.5792888
50
167.4007466
51
180.3176909
0
ARC
8
DEFAULT_255_1_234
10
17.0810086
20
15.0253885
40
0.471777
50
154.1835823
51
167.250763
0
ARC
8
DEFAULT_255_1_234
10
17.0178553
20
15.0586417
40
0.4004528
50
134.3149965
51
154.5315275
0
ARC
8
DEFAULT_255_1_234
10
16.9961048
20
15.0777228
40
0.371612
50
122.8616532
51
133.9707695
0
ARC
8
DEFAULT_255_1_234
10
16.9857623
20
15.0999703
40
0.3473289
50
89.8249009
51
123.4199222
0
ARC
8
DEFAULT_255_1_234
10
16.9907664
20
15.0352967
40
0.4120197
50
74.7876118
51
90.5482747
0
ARC
8
DEFAULT_255_1_234
10
17.0201407
20
15.143803
40
0.2996077
50
39.8178249
51
74.7633718
0
ARC
8
DEFAULT_255_1_234
10
16.9688727
20
15.1038351
40
0.3645855
50
16.8990863
51
39.4829761
0
ARC
8
DEFAULT_255_1_234
10
16.7794024
20
15.0431526
40
0.5635218
50
4.9636328
51
17.2026414
0
ARC
8
DEFAULT_255_1_234
10
16.5376094
20
15.017634
40
0.8066286
50
359.8834553
51
5.2834307
0
ARC
8
DEFAULT_255_1_234
10
17.1413618
20
14.9607803
40
0.3859091
50
180.9846213
51
194.9401313
0
ARC
8
DEFAULT_255_1_234
10
17.0363896
20
14.9320849
40
0.2770883
50
194.80314
51
222.0412631
0
ARC
8
DEFAULT_255_1_234
10
17.0059778
20
14.9019116
40
0.2343055
50
221.5417084
51
268.8614402
0
ARC
8
DEFAULT_255_1_234
10
17.0132772
20
14.9695686
40
0.3021528
50
267.732405
51
270.0097136
0
ARC
8
DEFAULT_255_1_234
10
17.0150583
20
14.9897105
40
0.3222994
50
269.6924892
51
280.4117579
0
ARC
8
DEFAULT_255_1_234
10
17.0326989
20
14.8978193
40
0.2287344
50
280.2255091
51
298.6338936
0
ARC
8
DEFAULT_255_1_234
10
17.0443781
20
14.8734223
40
0.2017294
50
299.0430333
51
300.4643464
0
ARC
8
DEFAULT_255_1_234
10
16.9763787
20
14.9868038
40
0.3339357
50
300.6577328
51
322.0378878
0
ARC
8
DEFAULT_255_1_234
10
16.9413326
20
15.0172021
40
0.3802736
50
321.6750233
51
322.3046845
0
ARC
8
DEFAULT_255_1_234
10
17.0344287
20
14.900537
40
0.3520454
50
276.9728461
51
328.0035423
0
ARC
8
DEFAULT_255_1_234
10
17.006734
20
15.0485841
40
0.5024498
50
269.8361028
51
278.0581756
0
ARC
8
DEFAULT_255_1_234
10
16.9840077
20
15.1230757
40
0.202159
50
89.2018686
51
117.2851756
0
ARC
8
DEFAULT_255_1_234
10
16.9893246
20
15.1188752
40
0.2083484
50
118.0551165
51
137.4540413
0
ARC
8
DEFAULT_255_1_234
10
17.0267986
20
15.0848304
40
0.2589774
50
137.5109581
51
158.8516286
0
ARC
8
DEFAULT_255_1_234
10
17.1405822
20
15.0389074
40
0.38167
50
158.5845963
51
170.1721436
0
ARC
8
DEFAULT_255_1_234
10
17.2575211
20
15.0156823
40
0.5008657
50
169.8376422
51
173.0566086
0
ARC
8
DEFAULT_255_1_234
10
16.7878285
20
15.0667509
40
0.4083467
50
2.9091802
51
12.8847116
0
ARC
8
DEFAULT_255_1_234
10
16.9248962
20
15.0990101
40
0.2675383
50
12.6957781
51
28.6404489
0
ARC
8
DEFAULT_255_1_234
10
16.9790632
20
15.1270458
40
0.2065654
50
29.0169854
51
41.1487595
0
ARC
8
DEFAULT_255_1_234
10
16.9993418
20
15.1447003
40
0.1796786
50
41.1646065
51
85.0013516
0
ARC
8
DEFAULT_255_1_234
10
16.9872514
20
15.0712431
40
0.2539726
50
83.7280015
51
90.0964893
0
LINE
8
DEFAULT_255_1_234
10
18.1626702
20
15.1758248
11
18.0132799
21
15.1758248
0
LINE
8
DEFAULT_255_1_234
10
17.4799725
20
14.8296569
11
17.6285596
21
14.8296569
0
ARC
8
DEFAULT_255_1_234
10
17.8944617
20
14.7941959
40
0.1276617
50
359.3334982
51
18.5871358
0
ARC
8
DEFAULT_255_1_234
10
17.9153255
20
14.7997133
40
0.1061371
50
19.3540742
51
54.6485071
0
ARC
8
DEFAULT_255_1_234
10
17.8649157
20
14.7301919
40
0.1920087
50
54.3827097
51
65.0622807
0
ARC
8
DEFAULT_255_1_234
10
17.7880553
20
14.56849
40
0.3710447
50
64.8282493
51
71.4200025
0
ARC
8
DEFAULT_255_1_234
10
17.6978428
20
14.3038107
40
0.6506741
50
71.3164301
51
75.8006402
0
ARC
8
DEFAULT_255_1_234
10
17.6137248
20
13.9797561
40
0.9854641
50
75.6809531
51
78.0061883
0
ARC
8
DEFAULT_255_1_234
10
18.0585782
20
16.077677
40
1.1591028
50
254.6901892
51
258.0466452
0
ARC
8
DEFAULT_255_1_234
10
17.954769
20
15.7017781
40
0.7691345
50
249.9010773
51
254.755261
0
ARC
8
DEFAULT_255_1_234
10
17.8544032
20
15.4291982
40
0.478665
50
243.3097214
51
249.9709442
0
ARC
8
DEFAULT_255_1_234
10
17.7915053
20
15.3037778
40
0.3383568
50
234.4047477
51
243.2862168
0
ARC
8
DEFAULT_255_1_234
10
17.7292577
20
15.2178232
40
0.2322322
50
220.8667099
51
234.5493881
0
ARC
8
DEFAULT_255_1_234
10
17.6950518
20
15.1866817
40
0.1859923
50
214.3062465
51
220.5065136
0
ARC
8
DEFAULT_255_1_234
10
17.6924597
20
15.183588
40
0.1821108
50
186.912965
51
213.9618616
0
ARC
8
DEFAULT_255_1_234
10
17.7456692
20
15.1922009
40
0.2359799
50
179.8808832
51
187.4339886
0
ARC
8
DEFAULT_255_1_234
10
17.7301825
20
15.1942088
40
0.2204978
50
132.005434
51
180.3942919
0
ARC
8
DEFAULT_255_1_234
10
17.7958439
20
15.1336083
40
0.3095791
50
129.2319861
51
133.5302299
0
ARC
8
DEFAULT_255_1_234
10
17.8011947
20
15.1241928
40
0.3202615
50
100.4410011
51
128.9081242
0
ARC
8
DEFAULT_255_1_234
10
17.828583
20
14.9956455
40
0.4516583
50
89.6985377
51
100.9026564
0
ARC
8
DEFAULT_255_1_234
10
17.8342872
20
14.9796166
40
0.4676928
50
77.6965325
51
90.4076836
0
ARC
8
DEFAULT_255_1_234
10
17.8673857
20
15.1223413
40
0.3211988
50
50.7276602
51
78.0399361
0
ARC
8
DEFAULT_255_1_234
10
17.9118315
20
15.1741296
40
0.2529778
50
25.7545084
51
51.0957453
0
ARC
8
DEFAULT_255_1_234
10
17.911954
20
15.1791206
40
0.250738
50
359.2468627
51
24.7394243
0
ARC
8
DEFAULT_255_1_234
10
17.8834992
20
15.1762664
40
0.1297815
50
359.8050318
51
45.1544908
0
ARC
8
DEFAULT_255_1_234
10
17.8428133
20
15.1414794
40
0.1831883
50
43.8047702
51
49.6271585
0
ARC
8
DEFAULT_255_1_234
10
17.8436035
20
15.1415678
40
0.18261
50
49.7980766
51
82.1218353
0
ARC
8
DEFAULT_255_1_234
10
17.8317007
20
15.0768998
40
0.2483163
50
81.4465357
51
90.1710293
0
ARC
8
DEFAULT_255_1_234
10
17.829261
20
15.024288
40
0.300932
50
89.6766211
51
99.1264602
0
ARC
8
DEFAULT_255_1_234
10
17.8121071
20
15.1276537
40
0.1961547
50
98.968313
51
113.4570237
0
ARC
8
DEFAULT_255_1_234
10
17.7925156
20
15.1744965
40
0.1453859
50
113.722589
51
127.4763106
0
ARC
8
DEFAULT_255_1_234
10
17.7756803
20
15.1945124
40
0.1192639
50
126.9083309
51
150.3165862
0
ARC
8
DEFAULT_255_1_234
10
17.7709135
20
15.1995981
40
0.112623
50
151.3635175
51
180.0701457
0
ARC
8
DEFAULT_255_1_234
10
17.801792
20
15.197499
40
0.1435149
50
179.2169974
51
179.9954013
0
ARC
8
DEFAULT_255_1_234
10
17.7656977
20
15.1962056
40
0.1074286
50
179.3040112
51
198.4225446
0
ARC
8
DEFAULT_255_1_234
10
17.7465111
20
15.1912127
40
0.0876573
50
199.2895851
51
238.6034594
0
ARC
8
DEFAULT_255_1_234
10
17.8067957
20
15.285845
40
0.1998512
50
237.9846301
51
246.8744712
0
ARC
8
DEFAULT_255_1_234
10
17.8925902
20
15.4821205
40
0.4140547
50
246.6234531
51
251.8168941
0
ARC
8
DEFAULT_255_1_234
10
17.9956446
20
15.7915905
40
0.7402308
50
251.713434
51
255.0778414
0
ARC
8
DEFAULT_255_1_234
10
18.1155709
20
16.2382563
40
1.2027155
50
255.0367487
51
257.4705983
0
ARC
8
DEFAULT_255_1_234
10
17.6047718
20
13.9368863
40
1.1546601
50
73.6837552
51
77.5016755
0
ARC
8
DEFAULT_255_1_234
10
17.7136493
20
14.3068581
40
0.7690009
50
68.7044154
51
73.7249639
0
ARC
8
DEFAULT_255_1_234
10
17.8039514
20
14.5395654
40
0.5193873
50
63.590599
51
68.6626804
0
ARC
8
DEFAULT_255_1_234
10
17.8810533
20
14.6933123
40
0.3473927
50
54.7106439
51
63.7013633
0
ARC
8
DEFAULT_255_1_234
10
17.9434987
20
14.78054
40
0.2401192
50
41.0622434
51
54.8487496
0
ARC
8
DEFAULT_255_1_234
10
17.9776374
20
14.8118592
40
0.1938094
50
34.4950568
51
40.7105546
0
ARC
8
DEFAULT_255_1_234
10
17.9823181
20
14.8167078
40
0.1872106
50
9.3763373
51
34.0833615
0
ARC
8
DEFAULT_255_1_234
10
17.9170052
20
14.8041728
40
0.2536988
50
359.7694872
51
9.7663171
0
ARC
8
DEFAULT_255_1_234
10
17.9367552
20
14.7998764
40
0.2339696
50
335.8654732
51
0.8022045
0
ARC
8
DEFAULT_255_1_234
10
17.9442597
20
14.8012197
40
0.2277108
50
307.7357725
51
334.7849066
0
ARC
8
DEFAULT_255_1_234
10
17.9041773
20
14.8462645
40
0.2878951
50
307.0241536
51
308.5578354
0
ARC
8
DEFAULT_255_1_234
10
17.8784104
20
14.8848801
40
0.3342515
50
282.9362969
51
306.5646424
0
ARC
8
DEFAULT_255_1_234
10
17.8422401
20
15.0316108
40
0.4853615
50
271.1026298
51
283.2200835
0
ARC
8
DEFAULT_255_1_234
10
17.8358645
20
15.1557418
40
0.6096052
50
269.9919117
51
271.4772449
0
ARC
8
DEFAULT_255_1_234
10
17.83324
20
15.0479436
40
0.5018135
50
259.0723564
51
270.289833
0
ARC
8
DEFAULT_255_1_234
10
17.8120133
20
14.9362271
40
0.388099
50
245.4963068
51
259.0227342
0
ARC
8
DEFAULT_255_1_234
10
17.7842089
20
14.8780615
40
0.3236422
50
228.9684658
51
245.7044727
0
ARC
8
DEFAULT_255_1_234
10
17.7576533
20
14.8453575
40
0.2815426
50
214.4011705
51
228.6759915
0
ARC
8
DEFAULT_255_1_234
10
17.7287273
20
14.829529
40
0.2487548
50
179.9705531
51
215.1572795
0
ARC
8
DEFAULT_255_1_234
10
17.7987873
20
14.8368806
40
0.1703809
50
182.4299387
51
203.0329699
0
ARC
8
DEFAULT_255_1_234
10
17.7803531
20
14.8312396
40
0.1512226
50
203.798802
51
232.548466
0
ARC
8
DEFAULT_255_1_234
10
17.8080052
20
14.8663826
40
0.1959374
50
232.3782728
51
256.3934612
0
ARC
8
DEFAULT_255_1_234
10
17.8310414
20
14.9553842
40
0.2878639
50
256.104506
51
268.4626716
0
ARC
8
DEFAULT_255_1_234
10
17.8356898
20
15.0350487
40
0.3676329
50
268.0715632
51
270.0138206
0
ARC
8
DEFAULT_255_1_234
10
17.8375423
20
15.0078083
40
0.3403971
50
269.7031147
51
278.8341955
0
ARC
8
DEFAULT_255_1_234
10
17.8557516
20
14.8947876
40
0.2259217
50
278.6728789
51
292.8232582
0
ARC
8
DEFAULT_255_1_234
10
17.8758054
20
14.8446449
40
0.171929
50
293.1452328
51
303.6655899
0
ARC
8
DEFAULT_255_1_234
10
17.9022933
20
14.8070204
40
0.1259367
50
303.1248165
51
321.742847
0
ARC
8
DEFAULT_255_1_234
10
17.9208813
20
14.7907156
40
0.1012531
50
322.4748573
51
1.1291126
0
LINE
8
DEFAULT_255_1_234
10
5.0597119
20
12.6991792
11
5.0597119
21
12.5779
0
LINE
8
DEFAULT_255_1_234
10
5.0597119
20
12.5779
11
4.293484
21
12.5779
0
LINE
8
DEFAULT_255_1_234
10
4.293484
20
12.5779
11
4.293484
21
12.6847221
0
LINE
8
DEFAULT_255_1_234
10
4.293484
20
12.6847221
11
4.6982836
21
13.1344995
0
LINE
8
DEFAULT_255_1_234
10
4.4195823
20
13.4027595
11
4.2709952
21
13.4027595
0
LINE
8
DEFAULT_255_1_234
10
4.7858296
20
13.0389218
11
4.4725918
21
12.6991792
0
LINE
8
DEFAULT_255_1_234
10
4.4725918
20
12.6991792
11
5.0597119
21
12.6991792
0
ARC
8
DEFAULT_255_1_234
10
3.349267
20
14.3274527
40
1.8008286
50
318.5132453
51
320.7828378
0
ARC
8
DEFAULT_255_1_234
10
3.8779644
20
13.8971426
40
1.1191493
50
320.7372736
51
323.9737074
0
ARC
8
DEFAULT_255_1_234
10
4.2699501
20
13.6131361
40
0.6350923
50
323.8961724
51
328.6421089
0
ARC
8
DEFAULT_255_1_234
10
4.4746096
20
13.4869031
40
0.3946393
50
328.8299013
51
331.789948
0
ARC
8
DEFAULT_255_1_234
10
4.5743274
20
13.4354509
40
0.2824501
50
331.4255242
51
352.9364833
0
ARC
8
DEFAULT_255_1_234
10
4.5879775
20
13.4323976
40
0.2685315
50
353.2248685
51
0.0169286
0
ARC
8
DEFAULT_255_1_234
10
4.6089652
20
13.434695
40
0.2475536
50
359.4866256
51
15.9339782
0
ARC
8
DEFAULT_255_1_234
10
4.6596637
20
13.4483286
40
0.1950618
50
16.1714718
51
43.5284424
0
ARC
8
DEFAULT_255_1_234
10
4.6673946
20
13.4560573
40
0.184134
50
43.4415429
51
83.1661404
0
ARC
8
DEFAULT_255_1_234
10
4.6539864
20
13.3823771
40
0.258926
50
82.160215
51
90.1505798
0
ARC
8
DEFAULT_255_1_234
10
4.6508291
20
13.3286865
40
0.3126255
50
89.5460705
51
102.5418777
0
ARC
8
DEFAULT_255_1_234
10
4.6265377
20
13.4317665
40
0.2067346
50
102.1739365
51
129.2061916
0
ARC
8
DEFAULT_255_1_234
10
4.6186449
20
13.4442094
40
0.1921118
50
129.7279328
51
135.7542026
0
ARC
8
DEFAULT_255_1_234
10
4.6307977
20
13.4345045
40
0.2075944
50
136.175737
51
166.3674722
0
ARC
8
DEFAULT_255_1_234
10
4.7314896
20
13.4075182
40
0.3118201
50
165.9092917
51
178.8683903
0
ARC
8
DEFAULT_255_1_234
10
4.8179757
20
13.4028179
40
0.3983935
50
178.438168
51
180.0083905
0
ARC
8
DEFAULT_255_1_234
10
4.6778359
20
13.4067231
40
0.4068601
50
163.2878735
51
180.5581814
0
ARC
8
DEFAULT_255_1_234
10
4.5976621
20
13.428784
40
0.3237344
50
133.454115
51
162.9470031
0
ARC
8
DEFAULT_255_1_234
10
4.6155162
20
13.4098
40
0.349795
50
100.7869394
51
133.4384016
0
ARC
8
DEFAULT_255_1_234
10
4.6502934
20
13.2549319
40
0.5084616
50
89.6605301
51
101.3704185
0
ARC
8
DEFAULT_255_1_234
10
4.6569273
20
13.2610496
40
0.502348
50
78.2171172
51
90.4130393
0
ARC
8
DEFAULT_255_1_234
10
4.6924351
20
13.4234637
40
0.3361092
50
55.9268222
51
78.4888551
0
ARC
8
DEFAULT_255_1_234
10
4.7120791
20
13.4573324
40
0.2970617
50
47.9292255
51
55.4054003
0
ARC
8
DEFAULT_255_1_234
10
4.7222352
20
13.4676502
40
0.2825983
50
4.3347696
51
48.0560701
0
ARC
8
DEFAULT_255_1_234
10
4.6126745
20
13.4506601
40
0.393225
50
359.925209
51
5.5967654
0
ARC
8
DEFAULT_255_1_234
10
4.6555637
20
13.4562816
40
0.3503892
50
337.8914096
51
358.9967724
0
ARC
8
DEFAULT_255_1_234
10
4.3842049
20
13.5609706
40
0.6412172
50
326.9135351
51
338.3505194
0
ARC
8
DEFAULT_255_1_234
10
3.9856353
20
13.8164284
40
1.1146189
50
319.6472867
51
327.095818
0
ARC
8
DEFAULT_255_1_234
10
3.6023356
20
14.1326
40
1.6114559
50
317.2586784
51
319.9046139
0
LINE
8
DEFAULT_255_1_234
10
5.8444127
20
13.7473211
11
5.8444127
21
12.970652
0
LINE
8
DEFAULT_255_1_234
10
5.8444127
20
12.970652
11
6.0066538
21
12.970652
0
LINE
8
DEFAULT_255_1_234
10
6.0066538
20
12.970652
11
6.0066538
21
12.8493728
0
LINE
8
DEFAULT_255_1_234
10
6.0066538
20
12.8493728
11
5.8444127
21
12.8493728
0
LINE
8
DEFAULT_255_1_234
10
5.8444127
20
12.8493728
11
5.8444127
21
12.5779
0
LINE
8
DEFAULT_255_1_234
10
5.8444127
20
12.5779
11
5.6950224
21
12.5779
0
LINE
8
DEFAULT_255_1_234
10
5.6950224
20
12.5779
11
5.6950224
21
12.8493728
0
LINE
8
DEFAULT_255_1_234
10
5.6950224
20
12.8493728
11
5.1625181
21
12.8493728
0
LINE
8
DEFAULT_255_1_234
10
5.1625181
20
12.8493728
11
5.1625181
21
12.9369187
0
LINE
8
DEFAULT_255_1_234
10
5.1625181
20
12.9369187
11
5.6861875
21
13.7473211
0
LINE
8
DEFAULT_255_1_234
10
5.6861875
20
13.7473211
11
5.8444127
21
13.7473211
0
LINE
8
DEFAULT_255_1_234
10
5.6773525
20
13.5119912
11
5.3311846
21
12.970652
0
LINE
8
DEFAULT_255_1_234
10
5.3311846
20
12.970652
11
5.6950224
21
12.970652
0
LINE
8
DEFAULT_255_1_234
10
5.6950224
20
12.970652
11
5.6950224
21
13.5441181
0
LINE
8
DEFAULT_255_1_234
10
5.6950224
20
13.5441181
11
5.6773525
21
13.5119912
0
LINE
8
DEFAULT_255_1_234
10
6.233952
20
13.7473211
11
6.566466
21
12.7827093
0
LINE
8
DEFAULT_255_1_234
10
6.566466
20
12.7827093
11
6.9005863
21
13.7473211
0
LINE
8
DEFAULT_255_1_234
10
6.9005863
20
13.7473211
11
7.0692528
21
13.7473211
0
LINE
8
DEFAULT_255_1_234
10
7.0692528
20
13.7473211
11
6.6355389
21
12.5779
0
LINE
8
DEFAULT_255_1_234
10
6.6355389
20
12.5779
11
6.4989994
21
12.5779
0
LINE
8
DEFAULT_255_1_234
10
6.4989994
20
12.5779
11
6.0660887
21
13.7473211
0
LINE
8
DEFAULT_255_1_234
10
6.0660887
20
13.7473211
11
6.233952
21
13.7473211
0
LINE
8
DEFAULT_255_1_234
10
4.9617484
20
5.3070343
11
4.9617484
21
5.180936
0
LINE
8
DEFAULT_255_1_234
10
4.9617484
20
5.180936
11
4.4549458
21
5.180936
0
LINE
8
DEFAULT_255_1_234
10
4.4549458
20
5.180936
11
4.4549458
21
4.7664983
0
LINE
8
DEFAULT_255_1_234
10
4.4549458
20
4.7664983
11
5.0436722
21
4.7664983
0
LINE
8
DEFAULT_255_1_234
10
5.0436722
20
4.7664983
11
5.0436722
21
4.6404
0
LINE
8
DEFAULT_255_1_234
10
5.0436722
20
4.6404
11
4.3007364
21
4.6404
0
LINE
8
DEFAULT_255_1_234
10
4.3007364
20
4.6404
11
4.3007364
21
5.8098211
0
LINE
8
DEFAULT_255_1_234
10
4.3007364
20
5.8098211
11
5.0356404
21
5.8098211
0
LINE
8
DEFAULT_255_1_234
10
5.0356404
20
5.8098211
11
5.0356404
21
5.6829196
0
LINE
8
DEFAULT_255_1_234
10
5.0356404
20
5.6829196
11
4.4549458
21
5.6829196
0
LINE
8
DEFAULT_255_1_234
10
4.4549458
20
5.6829196
11
4.4549458
21
5.3070343
0
LINE
8
DEFAULT_255_1_234
10
4.4549458
20
5.3070343
11
4.9617484
21
5.3070343
0
LINE
8
DEFAULT_255_1_234
10
6.0596871
20
5.8098211
11
6.0596871
21
5.6829196
0
LINE
8
DEFAULT_255_1_234
10
6.0596871
20
5.6829196
11
5.6838017
21
5.6829196
0
LINE
8
DEFAULT_255_1_234
10
5.6838017
20
5.6829196
11
5.6838017
21
4.6404
0
LINE
8
DEFAULT_255_1_234
10
5.6838017
20
4.6404
11
5.5303955
21
4.6404
0
LINE
8
DEFAULT_255_1_234
10
5.5303955
20
4.6404
11
5.5303955
21
5.6829196
0
LINE
8
DEFAULT_255_1_234
10
5.5303955
20
5.6829196
11
5.1553133
21
5.6829196
0
LINE
8
DEFAULT_255_1_234
10
5.1553133
20
5.6829196
11
5.1553133
21
5.8098211
0
LINE
8
DEFAULT_255_1_234
10
5.1553133
20
5.8098211
11
6.0596871
21
5.8098211
0
LINE
8
DEFAULT_255_1_234
10
7.1319241
20
5.8098211
11
7.1319241
21
4.6404
0
LINE
8
DEFAULT_255_1_234
10
7.1319241
20
4.6404
11
6.9769116
21
4.6404
0
LINE
8
DEFAULT_255_1_234
10
6.9769116
20
4.6404
11
6.9769116
21
5.180936
0
LINE
8
DEFAULT_255_1_234
10
6.9769116
20
5.180936
11
6.387382
21
5.180936
0
LINE
8
DEFAULT_255_1_234
10
6.387382
20
5.180936
11
6.387382
21
4.6404
0
LINE
8
DEFAULT_255_1_234
10
6.387382
20
4.6404
11
6.2331726
21
4.6404
0
LINE
8
DEFAULT_255_1_234
10
6.2331726
20
4.6404
11
6.2331726
21
5.8098211
0
LINE
8
DEFAULT_255_1_234
10
6.2331726
20
5.8098211
11
6.387382
21
5.8098211
0
LINE
8
DEFAULT_255_1_234
10
6.387382
20
5.8098211
11
6.387382
21
5.3070343
0
LINE
8
DEFAULT_255_1_234
10
6.387382
20
5.3070343
11
6.9769116
21
5.3070343
0
LINE
8
DEFAULT_255_1_234
10
6.9769116
20
5.3070343
11
6.9769116
21
5.8098211
0
LINE
8
DEFAULT_255_1_234
10
6.9769116
20
5.8098211
11
7.1319241
21
5.8098211
0
LINE
8
DEFAULT_255_1_234
10
23.2982817
20
13.2694327
11
23.2982817
21
13.0766709
0
LINE
8
DEFAULT_255_1_234
10
22.560165
20
13.0565916
11
22.560165
21
13.2549755
0
LINE
8
DEFAULT_255_1_234
10
23.1496946
20
13.0365123
11
23.1496946
21
13.2798739
0
LINE
8
DEFAULT_255_1_234
10
22.7087521
20
13.2911184
11
22.7087521
21
13.0533789
0
ARC
8
DEFAULT_255_1_234
10
22.0735707
20
13.0717805
40
1.2247208
50
353.8441951
51
0.2287902
0
ARC
8
DEFAULT_255_1_234
10
22.5375211
20
13.0199806
40
0.7578929
50
344.4934747
51
353.9765454
0
ARC
8
DEFAULT_255_1_234
10
22.8367801
20
12.9348981
40
0.4467846
50
329.2803592
51
344.7472793
0
ARC
8
DEFAULT_255_1_234
10
22.9360626
20
12.8804018
40
0.3336173
50
324.9352394
51
328.6160465
0
ARC
8
DEFAULT_255_1_234
10
22.9737734
20
12.8540427
40
0.2876076
50
280.580143
51
324.9173126
0
ARC
8
DEFAULT_255_1_234
10
22.9336527
20
13.0211099
40
0.4592847
50
269.5977311
51
281.6734359
0
ARC
8
DEFAULT_255_1_234
10
22.9264433
20
13.0091173
40
0.4472986
50
256.6228859
51
270.51044
0
ARC
8
DEFAULT_255_1_234
10
22.886241
20
12.8542877
40
0.2873874
50
215.8618325
51
257.2788573
0
ARC
8
DEFAULT_255_1_234
10
22.9883442
20
12.9227977
40
0.4102928
50
197.9693508
51
215.2623606
0
ARC
8
DEFAULT_255_1_234
10
23.2368558
20
13.0066709
40
0.6725652
50
187.8816417
51
198.2346507
0
ARC
8
DEFAULT_255_1_234
10
23.6326766
20
13.0638079
40
1.0724845
50
180.8976217
51
188.0055519
0
ARC
8
DEFAULT_255_1_234
10
23.9126954
20
13.0741777
40
1.3526448
50
180.7449369
51
181.1510016
0
ARC
8
DEFAULT_255_1_234
10
23.7549683
20
13.2598042
40
1.1948131
50
173.7675579
51
180.231553
0
ARC
8
DEFAULT_255_1_234
10
23.303183
20
13.3108666
40
0.7401564
50
164.3058563
51
173.9002247
0
ARC
8
DEFAULT_255_1_234
10
23.0119899
20
13.3947656
40
0.4371288
50
148.7922025
51
164.568378
0
ARC
8
DEFAULT_255_1_234
10
22.9168351
20
13.4478929
40
0.3282386
50
144.5883898
51
148.1176286
0
ARC
8
DEFAULT_255_1_234
10
22.8825249
20
13.4718315
40
0.2864044
50
101.6440918
51
144.514236
0
ARC
8
DEFAULT_255_1_234
10
22.9250315
20
13.3029069
40
0.4604934
50
89.5284041
51
102.5819763
0
ARC
8
DEFAULT_255_1_234
10
22.9329403
20
13.2990018
40
0.464401
50
77.0437873
51
90.5081339
0
ARC
8
DEFAULT_255_1_234
10
22.9731405
20
13.4632615
40
0.2953195
50
48.2778575
51
77.4994676
0
ARC
8
DEFAULT_255_1_234
10
22.9804036
20
13.4761746
40
0.2808655
50
36.3142134
51
47.6305865
0
ARC
8
DEFAULT_255_1_234
10
22.8935343
20
13.4176515
40
0.3855453
50
18.2931786
51
35.6769206
0
ARC
8
DEFAULT_255_1_234
10
22.6392102
20
13.3303593
40
0.654423
50
8.024666
51
18.5605216
0
ARC
8
DEFAULT_255_1_234
10
22.2229022
20
13.2688792
40
1.0752407
50
1.1274072
51
8.1718305
0
ARC
8
DEFAULT_255_1_234
10
21.8993213
20
13.2561885
40
1.3990231
50
0.5424119
51
1.3863029
0
ARC
8
DEFAULT_255_1_234
10
22.081459
20
13.2834342
40
1.0682415
50
359.8090433
51
4.9407866
0
ARC
8
DEFAULT_255_1_234
10
22.5024604
20
13.3210113
40
0.6455691
50
4.8362157
51
12.2904523
0
ARC
8
DEFAULT_255_1_234
10
22.7779719
20
13.3823965
40
0.3633074
50
12.0805627
51
23.8173984
0
ARC
8
DEFAULT_255_1_234
10
22.8953425
20
13.4320919
40
0.2358723
50
24.2871213
51
31.3935614
0
ARC
8
DEFAULT_255_1_234
10
22.9478122
20
13.4664233
40
0.1732111
50
30.7407893
51
82.4657128
0
ARC
8
DEFAULT_255_1_234
10
22.9298256
20
13.3780691
40
0.263235
50
81.1060089
51
90.2184952
0
ARC
8
DEFAULT_255_1_234
10
22.9262555
20
13.4038924
40
0.2374236
50
89.3806855
51
105.6762551
0
ARC
8
DEFAULT_255_1_234
10
22.9079186
20
13.4705567
40
0.1682847
50
105.7981136
51
149.7388061
0
ARC
8
DEFAULT_255_1_234
10
23.0143264
20
13.406595
40
0.2924306
50
149.4208916
51
163.6286378
0
ARC
8
DEFAULT_255_1_234
10
23.2234152
20
13.342825
40
0.5110213
50
163.3763315
51
172.1410975
0
ARC
8
DEFAULT_255_1_234
10
23.5534871
20
13.2955518
40
0.8444586
50
172.0259487
51
178.0703232
0
ARC
8
DEFAULT_255_1_234
10
23.856496
20
13.2811906
40
1.1477868
50
177.8631668
51
179.5044149
0
ARC
8
DEFAULT_255_1_234
10
23.7492365
20
13.0497389
40
1.0404907
50
179.7995573
51
185.2460446
0
ARC
8
DEFAULT_255_1_234
10
23.3449404
20
13.0114513
40
0.6343885
50
185.1411642
51
193.0079639
0
ARC
8
DEFAULT_255_1_234
10
23.0805877
20
12.9489641
40
0.3627568
50
192.7897626
51
205.2507664
0
ARC
8
DEFAULT_255_1_234
10
22.9759424
20
12.9022415
40
0.2481908
50
205.8005384
51
211.2537509
0
ARC
8
DEFAULT_255_1_234
10
22.9235864
20
12.867158
40
0.1852521
50
210.3789793
51
238.4008143
0
ARC
8
DEFAULT_255_1_234
10
22.9216386
20
12.8718376
40
0.1882621
50
239.6520629
51
265.9793761
0
ARC
8
DEFAULT_255_1_234
10
22.9301586
20
12.9390427
40
0.2559272
50
265.1315437
51
270.060332
0
ARC
8
DEFAULT_255_1_234
10
22.9330365
20
12.9066534
40
0.2235528
50
269.3314664
51
287.2178029
0
ARC
8
DEFAULT_255_1_234
10
22.9468217
20
12.8563279
40
0.1714108
50
287.7958004
51
329.080874
0
ARC
8
DEFAULT_255_1_234
10
22.8510674
20
12.916093
40
0.2842745
50
328.6634704
51
343.3325132
0
ARC
8
DEFAULT_255_1_234
10
22.6337694
20
12.9837863
40
0.5118644
50
343.0499468
51
351.9393422
0
ARC
8
DEFAULT_255_1_234
10
22.2870994
20
13.0348949
40
0.8622784
50
351.8069023
51
357.7959224
0
ARC
8
DEFAULT_255_1_234
10
21.963555
20
13.0516721
40
1.1862365
50
357.5871873
51
359.2677531
0
LINE
8
DEFAULT_255_1_234
10
23.5818021
20
13.7473211
11
23.9143161
21
12.7827093
0
LINE
8
DEFAULT_255_1_234
10
23.9143161
20
12.7827093
11
24.2484364
21
13.7473211
0
LINE
8
DEFAULT_255_1_234
10
24.2484364
20
13.7473211
11
24.4171029
21
13.7473211
0
LINE
8
DEFAULT_255_1_234
10
24.4171029
20
13.7473211
11
23.983389
21
12.5779
0
LINE
8
DEFAULT_255_1_234
10
23.983389
20
12.5779
11
23.8468495
21
12.5779
0
LINE
8
DEFAULT_255_1_234
10
23.8468495
20
12.5779
11
23.4139388
21
13.7473211
0
LINE
8
DEFAULT_255_1_234
10
23.4139388
20
13.7473211
11
23.5818021
21
13.7473211
0
ENDSEC
0
EOF