0
SECTION
2
HEADER
9
$MEASUREMENT
70
1
0
ENDSEC
0
SECTION
2
TABLES
0
TABLE
2
LTYPE
0
LTYPE
72
65
70
64
2
CONTINUOUS
3
______
73
0
40
0
0
ENDTAB
0
TABLE
2
LAYER
0
LAYER
2
DEFAULT_255_2_778
70
0
62
255
6
CONTINUOUS
0
ENDTAB
0
ENDSEC
0
SECTION
2
ENTITIES
0
ARC
8
DEFAULT_255_2_778
10
0.7405572
20
19.7564433
40
0.5000754
50
180.0086483
51
270.0028154
0
ARC
8
DEFAULT_255_2_778
10
39.7406278
20
19.7564218
40
0.500054
50
270.0061838
51
359.9938162
0
ARC
8
DEFAULT_255_2_778
10
39.7403849
20
69.7562709
40
0.5000969
50
359.9996485
51
90.0003515
0
ARC
8
DEFAULT_255_2_778
10
0.7405787
20
69.7562709
40
0.5000969
50
89.9996485
51
180.0003515
0
LINE
8
DEFAULT_255_2_778
10
4.9902818
20
2.2563678
11
3.4903818
21
2.2563678
0
LINE
8
DEFAULT_255_2_778
10
3.4903818
20
2.2563678
11
4.2404818
21
0.9572678
0
LINE
8
DEFAULT_255_2_778
10
4.2404818
20
0.9572678
11
4.9905818
21
2.2563678
0
LINE
8
DEFAULT_255_2_778
10
0.7405818
20
19.2563678
11
39.7406818
21
19.2563678
0
LINE
8
DEFAULT_255_2_778
10
39.7403818
20
70.2563678
11
0.7405818
21
70.2563678
0
ARC
8
DEFAULT_255_2_778
10
35.9392696
20
67.7575304
40
0.5488398
50
89.8682888
51
180.1317112
0
ARC
8
DEFAULT_255_2_778
10
35.9417782
20
67.7576154
40
0.5487547
50
359.8593896
51
90.1301939
0
ARC
8
DEFAULT_255_2_778
10
35.9418632
20
67.7549368
40
0.5486696
50
269.8609058
51
0.1390942
0
ARC
8
DEFAULT_255_2_778
10
35.9391846
20
67.7550218
40
0.5487547
50
179.8698061
51
270.1406104
0
LINE
8
DEFAULT_255_2_778
10
35.3904313
20
67.7562687
11
35.3904313
21
67.7562687
0
ARC
8
DEFAULT_255_2_778
10
0.7405787
20
89.2563706
40
0.5000969
50
89.9996485
51
180.0003515
0
ARC
8
DEFAULT_255_2_778
10
39.7406063
20
89.2563921
40
0.5000754
50
359.9971846
51
89.9913517
0
ARC
8
DEFAULT_255_2_778
10
39.7406275
20
0.2564217
40
0.5000543
50
270.0062229
51
359.9937886
0
ARC
8
DEFAULT_255_2_778
10
0.7405576
20
0.2564432
40
0.5000757
50
180.008676
51
270.0027763
0
LINE
8
DEFAULT_255_2_778
10
0.7405818
20
89.7564675
11
39.7406818
21
89.7564675
0
LINE
8
DEFAULT_255_2_778
10
40.2406818
20
89.2563675
11
40.2406818
21
0.2563675
0
LINE
8
DEFAULT_255_2_778
10
39.7406818
20
-0.2436325
11
0.7405818
21
-0.2436325
0
LINE
8
DEFAULT_255_2_778
10
0.2404818
20
0.2563675
11
0.2404818
21
89.2563675
0
ARC
8
DEFAULT_255_2_778
10
20.2449674
20
4.7599516
40
2.2543868
50
158.2386051
51
180.0898428
0
ARC
8
DEFAULT_255_2_778
10
20.2356453
20
4.7609336
40
2.2453665
50
100.4545112
51
158.173688
0
ARC
8
DEFAULT_255_2_778
10
20.2393947
20
4.7269047
40
2.2795122
50
89.9701221
51
100.3919857
0
ARC
8
DEFAULT_255_2_778
10
20.244132
20
4.7518879
40
2.2545315
50
68.2393107
51
90.0901832
0
ARC
8
DEFAULT_255_2_778
10
20.2451889
20
4.7614432
40
2.2452669
50
10.452684
51
68.1739611
0
ARC
8
DEFAULT_255_2_778
10
20.2108552
20
4.7576042
40
2.2797285
50
359.9701533
51
10.3910176
0
ARC
8
DEFAULT_255_2_778
10
20.2359186
20
4.7528616
40
2.2546676
50
338.2408662
51
0.0903398
0
ARC
8
DEFAULT_255_2_778
10
20.2457067
20
4.7517049
40
2.2451496
50
280.4535565
51
338.1756829
0
ARC
8
DEFAULT_255_2_778
10
20.2417766
20
4.7863685
40
2.2799523
50
269.9700133
51
280.3926283
0
ARC
8
DEFAULT_255_2_778
10
20.237042
20
4.7609367
40
2.2545229
50
248.2401607
51
270.0899995
0
ARC
8
DEFAULT_255_2_778
10
20.2359608
20
4.7513828
40
2.2452504
50
190.46182
51
248.1754031
0
ARC
8
DEFAULT_255_2_778
10
20.2703498
20
4.7552252
40
2.2797667
50
179.9700565
51
190.3998477
0
LINE
8
DEFAULT_255_2_778
10
17.9905834
20
4.7564166
11
17.9905834
21
4.7564166
0
ARC
8
DEFAULT_255_2_778
10
20.2449674
20
82.6432516
40
2.2543868
50
158.2386051
51
180.0898428
0
ARC
8
DEFAULT_255_2_778
10
20.2356453
20
82.6442336
40
2.2453665
50
100.4545112
51
158.173688
0
ARC
8
DEFAULT_255_2_778
10
20.2393947
20
82.6102047
40
2.2795122
50
89.9701221
51
100.3919857
0
ARC
8
DEFAULT_255_2_778
10
20.244132
20
82.6351879
40
2.2545315
50
68.2393107
51
90.0901832
0
ARC
8
DEFAULT_255_2_778
10
20.2451889
20
82.6447432
40
2.2452669
50
10.452684
51
68.1739611
0
ARC
8
DEFAULT_255_2_778
10
20.2108552
20
82.6409042
40
2.2797285
50
359.9701533
51
10.3910176
0
ARC
8
DEFAULT_255_2_778
10
20.2359186
20
82.6361616
40
2.2546676
50
338.2408662
51
0.0903398
0
ARC
8
DEFAULT_255_2_778
10
20.2457067
20
82.6350049
40
2.2451496
50
280.4535565
51
338.1756829
0
ARC
8
DEFAULT_255_2_778
10
20.2417766
20
82.6696685
40
2.2799523
50
269.9700133
51
280.3926283
0
ARC
8
DEFAULT_255_2_778
10
20.237042
20
82.6442367
40
2.2545229
50
248.2401607
51
270.0899995
0
ARC
8
DEFAULT_255_2_778
10
20.2359608
20
82.6346828
40
2.2452504
50
190.46182
51
248.1754031
0
ARC
8
DEFAULT_255_2_778
10
20.2703498
20
82.6385252
40
2.2797667
50
179.9700565
51
190.3998477
0
LINE
8
DEFAULT_255_2_778
10
17.9905834
20
82.6397166
11
17.9905834
21
82.6397166
0
ARC
8
DEFAULT_255_2_778
10
26.4456145
20
68.1227786
40
0.2314045
50
358.0767573
51
78.983895
0
ARC
8
DEFAULT_255_2_778
10
26.2984407
20
67.6807961
40
0.6959571
50
74.0376905
51
88.5892562
0
ARC
8
DEFAULT_255_2_778
10
26.2680164
20
67.2116553
40
1.1658575
50
87.6621
51
90.0357671
0
LINE
8
DEFAULT_255_2_778
10
26.2672886
20
68.3775125
11
26.2672886
21
67.8819125
0
ARC
8
DEFAULT_255_2_778
10
26.279495
20
68.8348318
40
0.9529975
50
269.2661126
51
280.5285787
0
ARC
8
DEFAULT_255_2_778
10
26.3931763
20
68.2599646
40
0.3670979
50
279.4790213
51
303.948663
0
ARC
8
DEFAULT_255_2_778
10
26.4906752
20
68.1076654
40
0.1863584
50
305.2315799
51
2.2594361
0
ARC
8
DEFAULT_255_2_778
10
26.4107237
20
69.7561966
40
2.2289041
50
266.3103353
51
268.0678886
0
ARC
8
DEFAULT_255_2_778
10
26.4018092
20
69.4904181
40
1.9629762
50
268.0663893
51
269.9793091
0
ARC
8
DEFAULT_255_2_778
10
26.4122226
20
68.9199279
40
1.3925303
50
269.542369
51
279.8097763
0
ARC
8
DEFAULT_255_2_778
10
26.5227217
20
68.308773
40
0.7714992
50
279.456541
51
297.1959148
0
ARC
8
DEFAULT_255_2_778
10
26.6457199
20
68.0612095
40
0.4951038
50
297.6292517
51
355.3823135
0
ARC
8
DEFAULT_255_2_778
10
26.2973714
20
68.1277115
40
0.8485377
50
352.7992402
51
0.1663439
0
ARC
8
DEFAULT_255_2_778
10
26.1172969
20
68.1297917
40
1.0286087
50
0.0213526
51
2.4193538
0
ARC
8
DEFAULT_255_2_778
10
26.6524529
20
68.1867811
40
0.4927226
50
358.4219893
51
29.1539333
0
ARC
8
DEFAULT_255_2_778
10
26.6875134
20
68.1844483
40
0.4636347
50
31.5171031
51
67.2225023
0
ARC
8
DEFAULT_255_2_778
10
26.5036127
20
67.7853436
40
0.9029386
50
66.2678158
51
81.0687978
0
ARC
8
DEFAULT_255_2_778
10
26.3749189
20
67.0287229
40
1.6703931
50
80.7371303
51
89.3885038
0
ARC
8
DEFAULT_255_2_778
10
26.3530026
20
66.4047854
40
2.2945798
50
89.0075545
51
90.0066653
0
ARC
8
DEFAULT_255_2_778
10
26.3533559
20
66.1692705
40
2.5300948
50
90.014045
51
91.4561693
0
ARC
8
DEFAULT_255_2_778
10
26.3579225
20
65.965664
40
2.7337515
50
91.4434082
51
91.8999138
0
LINE
8
DEFAULT_255_2_778
10
26.2672886
20
68.6979125
11
25.7992886
21
68.6979125
0
LINE
8
DEFAULT_255_2_778
10
32.0098886
20
66.8998125
11
32.0098886
21
68.6995125
0
LINE
8
DEFAULT_255_2_778
10
32.0098886
20
68.6995125
11
33.0723886
21
68.6995125
0
LINE
8
DEFAULT_255_2_778
10
33.0723886
20
68.6995125
11
33.0723886
21
68.4159125
0
LINE
8
DEFAULT_255_2_778
10
33.0723886
20
68.4159125
11
32.3709886
21
68.4159125
0
LINE
8
DEFAULT_255_2_778
10
32.3709886
20
68.4159125
11
32.3709886
21
67.9724125
0
LINE
8
DEFAULT_255_2_778
10
32.3709886
20
67.9724125
11
33.0131886
21
67.9724125
0
LINE
8
DEFAULT_255_2_778
10
33.0131886
20
67.9724125
11
33.0131886
21
67.6888125
0
LINE
8
DEFAULT_255_2_778
10
33.0131886
20
67.6888125
11
32.3709886
21
67.6888125
0
LINE
8
DEFAULT_255_2_778
10
32.3709886
20
67.6888125
11
32.3709886
21
67.1837125
0
LINE
8
DEFAULT_255_2_778
10
32.3709886
20
67.1837125
11
33.0776886
21
67.1837125
0
LINE
8
DEFAULT_255_2_778
10
33.0776886
20
67.1837125
11
33.0776886
21
66.9001125
0
LINE
8
DEFAULT_255_2_778
10
33.0776886
20
66.9001125
11
32.0100886
21
66.9001125
0
LINE
8
DEFAULT_255_2_778
10
29.6650886
20
66.8998125
11
29.1882886
21
68.6995125
0
LINE
8
DEFAULT_255_2_778
10
29.1882886
20
68.6995125
11
29.5671886
21
68.6995125
0
LINE
8
DEFAULT_255_2_778
10
29.5671886
20
68.6995125
11
29.9024886
21
67.2607125
0
LINE
8
DEFAULT_255_2_778
10
29.9024886
20
67.2607125
11
29.9074886
21
67.2607125
0
LINE
8
DEFAULT_255_2_778
10
29.9074886
20
67.2607125
11
30.2140886
21
68.6992125
0
LINE
8
DEFAULT_255_2_778
10
30.2140886
20
68.6992125
11
30.7040886
21
68.6992125
0
LINE
8
DEFAULT_255_2_778
10
30.7040886
20
68.6992125
11
31.0213886
21
67.2604125
0
LINE
8
DEFAULT_255_2_778
10
31.0213886
20
67.2604125
11
31.0266886
21
67.2604125
0
LINE
8
DEFAULT_255_2_778
10
31.0266886
20
67.2604125
11
31.3642886
21
68.6990125
0
LINE
8
DEFAULT_255_2_778
10
31.3642886
20
68.6990125
11
31.7148886
21
68.6990125
0
LINE
8
DEFAULT_255_2_778
10
31.7148886
20
68.6990125
11
31.2456886
21
66.8993125
0
LINE
8
DEFAULT_255_2_778
10
31.2456886
20
66.8993125
11
30.7816886
21
66.8993125
0
LINE
8
DEFAULT_255_2_778
10
30.7816886
20
66.8993125
11
30.4567886
21
68.3381125
0
LINE
8
DEFAULT_255_2_778
10
30.4567886
20
68.3381125
11
30.4514886
21
68.3381125
0
LINE
8
DEFAULT_255_2_778
10
30.4514886
20
68.3381125
11
30.1318886
21
66.8993125
0
LINE
8
DEFAULT_255_2_778
10
30.1318886
20
66.8993125
11
29.6650886
21
66.8993125
0
LINE
8
DEFAULT_255_2_778
10
26.6768886
20
68.1150125
11
26.6768886
21
68.1150125
0
LINE
8
DEFAULT_255_2_778
10
25.7992886
20
68.6979125
11
25.7992886
21
66.9490125
0
LINE
8
DEFAULT_255_2_778
10
25.7992886
20
66.9490125
11
26.2672886
21
66.9490125
0
LINE
8
DEFAULT_255_2_778
10
26.2672886
20
66.9490125
11
26.2672886
21
67.5319125
0
LINE
8
DEFAULT_255_2_778
10
25.7992886
20
68.6979125
11
25.7992886
21
68.6979125
0
ARC
8
DEFAULT_255_2_778
10
28.2516234
20
67.6683897
40
0.4802682
50
268.9580554
51
295.0208755
0
ARC
8
DEFAULT_255_2_778
10
28.2020879
20
67.6876482
40
0.5199701
50
299.072808
51
351.1236872
0
ARC
8
DEFAULT_255_2_778
10
27.7117816
20
67.8312665
40
1.0287001
50
347.4315696
51
357.1718469
0
ARC
8
DEFAULT_255_2_778
10
27.5413201
20
67.8436229
40
1.19957
50
356.9841051
51
0.0132766
0
ARC
8
DEFAULT_255_2_778
10
28.2392616
20
67.96847
40
0.4803102
50
88.9587343
51
115.0127598
0
ARC
8
DEFAULT_255_2_778
10
28.2886723
20
67.9493434
40
0.5198312
50
119.0600438
51
171.1056503
0
ARC
8
DEFAULT_255_2_778
10
28.7783641
20
67.8057668
40
1.027963
50
167.4167872
51
177.159023
0
ARC
8
DEFAULT_255_2_778
10
28.9487183
20
67.7933798
40
1.1987284
50
176.971263
51
180.0133338
0
ARC
8
DEFAULT_255_2_778
10
28.2378517
20
67.6683105
40
0.4801891
50
244.9769933
51
271.0427134
0
ARC
8
DEFAULT_255_2_778
10
28.285515
20
67.6857277
40
0.517374
50
189.2779168
51
241.0067227
0
ARC
8
DEFAULT_255_2_778
10
28.7736341
20
67.8307511
40
1.0245166
50
182.8108474
51
192.8835213
0
ARC
8
DEFAULT_255_2_778
10
28.9491142
20
67.8436188
40
1.2004241
50
179.9865377
51
183.0135517
0
ARC
8
DEFAULT_255_2_778
10
28.2516327
20
67.9709905
40
0.48019
50
64.9631055
51
91.0432282
0
ARC
8
DEFAULT_255_2_778
10
28.2037388
20
67.9532956
40
0.5177374
50
9.2515427
51
60.9864513
0
ARC
8
DEFAULT_255_2_778
10
27.7149095
20
67.8082636
40
1.0255584
50
2.7876357
51
12.8605772
0
ARC
8
DEFAULT_255_2_778
10
27.5398217
20
67.7954804
40
1.2010683
50
359.9866662
51
2.9905147
0
ARC
8
DEFAULT_255_2_778
10
28.194411
20
67.7692177
40
0.9600627
50
86.8187176
51
86.8709794
0
ARC
8
DEFAULT_255_2_778
10
28.197118
20
67.8227565
40
0.9064561
50
86.8571048
51
89.9972566
0
ARC
8
DEFAULT_255_2_778
10
28.1783952
20
67.9462929
40
0.7831445
50
88.6269118
51
148.4334272
0
ARC
8
DEFAULT_255_2_778
10
28.2617421
20
67.9138979
40
0.8712648
50
149.4876139
51
169.8058426
0
ARC
8
DEFAULT_255_2_778
10
28.5334508
20
67.8595315
40
1.1483191
50
169.5354105
51
180.2269329
0
ARC
8
DEFAULT_255_2_778
10
28.7143435
20
67.8550486
40
1.3292028
50
180.0028159
51
181.1099365
0
ARC
8
DEFAULT_255_2_778
10
28.2487472
20
68.0553456
40
1.1465608
50
269.6973096
51
269.9999191
0
ARC
8
DEFAULT_255_2_778
10
28.2898744
20
67.7173256
40
0.8095862
50
267.0879955
51
325.3070129
0
ARC
8
DEFAULT_255_2_778
10
28.2166752
20
67.729909
40
0.8774927
50
327.3523008
51
347.2662856
0
ARC
8
DEFAULT_255_2_778
10
27.8266378
20
67.8220906
40
1.2782619
50
347.0895788
51
359.7763421
0
ARC
8
DEFAULT_255_2_778
10
28.2163808
20
67.852558
40
0.9442763
50
270.0004878
51
271.9000946
0
ARC
8
DEFAULT_255_2_778
10
28.1941196
20
67.7117957
40
0.8038226
50
211.6197591
51
271.5875372
0
ARC
8
DEFAULT_255_2_778
10
28.2659966
20
67.7320037
40
0.8758631
50
189.6335012
51
210.2801948
0
ARC
8
DEFAULT_255_2_778
10
28.5402437
20
67.7848951
40
1.1551108
50
179.7918746
51
189.9435944
0
ARC
8
DEFAULT_255_2_778
10
28.7151306
20
67.7890352
40
1.3299902
50
178.8899499
51
179.9975979
0
ARC
8
DEFAULT_255_2_778
10
28.2488256
20
67.5686643
40
1.1618528
50
89.9982301
51
90.3025703
0
ARC
8
DEFAULT_255_2_778
10
28.2899321
20
67.9149733
40
0.8165773
50
37.5149843
51
92.8829658
0
ARC
8
DEFAULT_255_2_778
10
28.2491075
20
67.9261706
40
0.842816
50
14.1811369
51
35.2205133
0
ARC
8
DEFAULT_255_2_778
10
27.8716672
20
67.8271331
40
1.2330223
50
0.9723799
51
14.3461444
0
ARC
8
DEFAULT_255_2_778
10
27.5679277
20
67.8100228
40
1.537055
50
0.6291655
51
1.417957
0
ARC
8
DEFAULT_255_2_778
10
34.1442905
20
68.1806096
40
0.178254
50
358.5827678
51
80.2641633
0
ARC
8
DEFAULT_255_2_778
10
34.022494
20
67.7974691
40
0.5791148
50
74.7894718
51
89.5387627
0
ARC
8
DEFAULT_255_2_778
10
34.0022574
20
67.4129898
40
0.963897
50
88.5198215
51
90.014947
0
ARC
8
DEFAULT_255_2_778
10
34.0036113
20
67.1949404
40
1.1819476
50
90.0778213
51
93.2574592
0
ARC
8
DEFAULT_255_2_778
10
34.0190277
20
66.9015107
40
1.4757797
50
93.2076866
51
94.8525051
0
LINE
8
DEFAULT_255_2_778
10
33.89419
20
68.3720009
11
33.89419
21
67.9804009
0
ARC
8
DEFAULT_255_2_778
10
34.0307215
20
69.3083123
40
1.3349119
50
264.1296633
51
267.4787608
0
ARC
8
DEFAULT_255_2_778
10
34.0163919
20
69.0037685
40
1.0300329
50
267.5298768
51
269.9581778
0
ARC
8
DEFAULT_255_2_778
10
34.0259389
20
68.573268
40
0.5996207
50
269.0158634
51
283.3087789
0
ARC
8
DEFAULT_255_2_778
10
34.119476
20
68.2070197
40
0.2217779
50
281.5736776
51
318.3328045
0
ARC
8
DEFAULT_255_2_778
10
34.1435963
20
68.1691946
40
0.1790309
50
322.2469322
51
2.2428163
0
ARC
8
DEFAULT_255_2_778
10
33.9315158
20
66.7286661
40
0.9151341
50
90.026247
51
91.8927507
0
ARC
8
DEFAULT_255_2_778
10
33.9422669
20
67.1380503
40
0.505873
50
75.3100131
51
91.2652674
0
ARC
8
DEFAULT_255_2_778
10
34.0362158
20
67.4702302
40
0.1608641
50
32.4317734
51
77.6759686
0
ARC
8
DEFAULT_255_2_778
10
34.3571385
20
67.5936278
40
0.2364382
50
27.0087911
51
70.5702093
0
ARC
8
DEFAULT_255_2_778
10
34.3364939
20
68.2313313
40
0.4264517
50
283.4644884
51
316.3864279
0
ARC
8
DEFAULT_255_2_778
10
34.3388436
20
68.2017112
40
0.4048045
50
319.1934892
51
356.0104624
0
ARC
8
DEFAULT_255_2_778
10
34.0767424
20
68.2424092
40
0.6694757
50
354.0961311
51
0.1164404
0
ARC
8
DEFAULT_255_2_778
10
33.9750283
20
68.2437277
40
0.7711885
50
0.0031315
51
1.0382029
0
ARC
8
DEFAULT_255_2_778
10
34.3072064
20
68.2506596
40
0.4389401
50
0.9191451
51
34.571652
0
ARC
8
DEFAULT_255_2_778
10
34.3251081
20
68.2384949
40
0.4315741
50
37.2510288
51
72.1518747
0
ARC
8
DEFAULT_255_2_778
10
34.1740671
20
67.8197348
40
0.8766092
50
71.1437024
51
85.8441666
0
ARC
8
DEFAULT_255_2_778
10
34.1158521
20
67.2488691
40
1.4502887
50
85.1847275
51
90.1270647
0
ARC
8
DEFAULT_255_2_778
10
34.1129538
20
66.9201168
40
1.7790374
50
90.0102404
51
91.2936262
0
LINE
8
DEFAULT_255_2_778
10
34.07279
20
68.6987009
11
33.47219
21
68.6987009
0
LINE
8
DEFAULT_255_2_778
10
3.10719
20
4.3140009
11
3.44619
21
4.3140009
0
LINE
8
DEFAULT_255_2_778
10
3.44619
20
4.3140009
11
3.44619
21
3.3744009
0
ARC
8
DEFAULT_255_2_778
10
3.9876698
20
3.3622394
40
0.5416163
50
178.7133704
51
195.8309789
0
ARC
8
DEFAULT_255_2_778
10
3.6474805
20
3.2545901
40
0.1852763
50
192.5008795
51
273.1898081
0
ARC
8
DEFAULT_255_2_778
10
3.6659174
20
3.2607273
40
0.1912991
50
267.5650589
51
353.9619297
0
ARC
8
DEFAULT_255_2_778
10
3.2744729
20
3.3661415
40
0.5950746
50
347.8213952
51
0.7952659
0
LINE
8
DEFAULT_255_2_778
10
3.86949
20
3.3744009
11
3.86949
21
4.3140009
0
LINE
8
DEFAULT_255_2_778
10
3.86949
20
4.3140009
11
4.22959
21
4.3140009
0
LINE
8
DEFAULT_255_2_778
10
4.22959
20
4.3140009
11
4.22959
21
3.2982009
0
ARC
8
DEFAULT_255_2_778
10
3.4773119
20
3.2854779
40
0.7523857
50
343.5198645
51
0.9689268
0
ARC
8
DEFAULT_255_2_778
10
3.8026425
20
3.1878416
40
0.4127246
50
277.0719643
51
343.7051207
0
ARC
8
DEFAULT_255_2_778
10
3.7059473
20
3.5973683
40
0.8322874
50
269.6036627
51
280.2085942
0
ARC
8
DEFAULT_255_2_778
10
3.6875471
20
3.6424918
40
0.877482
50
255.1328671
51
270.8255602
0
ARC
8
DEFAULT_255_2_778
10
3.5670938
20
3.2297809
40
0.4478053
50
191.5767875
51
256.4800542
0
ARC
8
DEFAULT_255_2_778
10
3.9007307
20
3.3239618
40
0.7939588
50
181.8593575
51
193.4036084
0
LINE
8
DEFAULT_255_2_778
10
3.10719
20
3.2982009
11
3.10719
21
4.3140009
0
ARC
8
DEFAULT_255_2_778
10
2.2674572
20
2.4982854
40
1.8157391
50
85.6806919
51
90.2924272
0
ARC
8
DEFAULT_255_2_778
10
2.3989205
20
3.7271579
40
0.5817336
50
49.1595223
51
89.4791032
0
ARC
8
DEFAULT_255_2_778
10
2.4979992
20
3.8929116
40
0.3929678
50
14.8908076
51
44.2780937
0
ARC
8
DEFAULT_255_2_778
10
2.311285
20
3.8361897
40
0.5880275
50
4.63441
51
15.5568693
0
ARC
8
DEFAULT_255_2_778
10
2.4804209
20
3.7962
40
0.4174926
50
297.5482707
51
2.8695873
0
ARC
8
DEFAULT_255_2_778
10
2.4108694
20
3.9703025
40
0.6043173
50
277.2263337
51
295.7602441
0
ARC
8
DEFAULT_255_2_778
10
2.3473407
20
4.3819089
40
1.0207074
50
269.7255
51
277.857762
0
ARC
8
DEFAULT_255_2_778
10
2.3427315
20
4.6781176
40
1.3169044
50
268.4404207
51
269.9877785
0
ARC
8
DEFAULT_255_2_778
10
2.2870185
20
4.3919995
40
0.7884021
50
269.8307838
51
273.2479841
0
ARC
8
DEFAULT_255_2_778
10
2.3449127
20
3.8393185
40
0.2348273
50
266.7714705
51
333.0038865
0
ARC
8
DEFAULT_255_2_778
10
2.2767022
20
3.858542
40
0.3046459
50
335.6065723
51
348.9402264
0
ARC
8
DEFAULT_255_2_778
10
2.3622298
20
3.8520995
40
0.2137863
50
3.1644304
51
79.6045158
0
ARC
8
DEFAULT_255_2_778
10
2.3105132
20
3.6675463
40
0.4050231
50
77.1187128
51
90.5371384
0
ARC
8
DEFAULT_255_2_778
10
2.3069115
20
3.5246834
40
0.5478683
50
90.0204192
51
92.3245435
0
LINE
8
DEFAULT_255_2_778
10
34.32249
20
68.1762009
11
34.32249
21
68.1762009
0
LINE
8
DEFAULT_255_2_778
10
33.47239
20
68.6990009
11
33.47239
21
66.9491009
0
LINE
8
DEFAULT_255_2_778
10
33.47239
20
66.9491009
11
33.90129
21
66.9491009
0
LINE
8
DEFAULT_255_2_778
10
33.90129
20
66.9491009
11
33.90129
21
67.6433009
0
LINE
8
DEFAULT_255_2_778
10
34.17199
20
67.5565009
11
34.37649
21
66.9562009
0
LINE
8
DEFAULT_255_2_778
10
34.37649
20
66.9562009
11
34.81859
21
66.9491009
0
LINE
8
DEFAULT_255_2_778
10
34.81859
20
66.9491009
11
34.56779
21
67.7010009
0
LINE
8
DEFAULT_255_2_778
10
33.47219
20
68.6987009
11
33.47239
21
68.6990009
0
LINE
8
DEFAULT_255_2_778
10
3.10719
20
4.3140009
11
3.10719
21
4.3140009
0
LINE
8
DEFAULT_255_2_778
10
5.54379
20
3.0212009
11
5.54379
21
2.7794009
0
LINE
8
DEFAULT_255_2_778
10
5.54379
20
2.7794009
11
4.64019
21
2.7794009
0
LINE
8
DEFAULT_255_2_778
10
4.64019
20
2.7794009
11
4.64019
21
4.3140009
0
LINE
8
DEFAULT_255_2_778
10
4.64019
20
4.3140009
11
4.94739
21
4.3140009
0
LINE
8
DEFAULT_255_2_778
10
4.94739
20
4.3140009
11
4.94739
21
3.0212009
0
LINE
8
DEFAULT_255_2_778
10
4.94739
20
3.0212009
11
5.54349
21
3.0212009
0
LINE
8
DEFAULT_255_2_778
10
6.64339
20
3.0212009
11
6.64339
21
2.7794009
0
LINE
8
DEFAULT_255_2_778
10
6.64339
20
2.7794009
11
5.73929
21
2.7794009
0
LINE
8
DEFAULT_255_2_778
10
5.73929
20
2.7794009
11
5.73929
21
4.3140009
0
LINE
8
DEFAULT_255_2_778
10
5.73929
20
4.3140009
11
6.04699
21
4.3140009
0
LINE
8
DEFAULT_255_2_778
10
6.04699
20
4.3140009
11
6.04699
21
3.0212009
0
LINE
8
DEFAULT_255_2_778
10
6.04699
20
3.0212009
11
6.64339
21
3.0212009
0
LINE
8
DEFAULT_255_2_778
10
2.89739
20
3.8837009
11
2.89819
21
3.8501009
0
LINE
8
DEFAULT_255_2_778
10
2.89819
20
3.8501009
11
2.89739
21
3.8171009
0
LINE
8
DEFAULT_255_2_778
10
2.30689
20
3.3617009
11
2.17669
21
3.3617009
0
LINE
8
DEFAULT_255_2_778
10
2.17669
20
3.3617009
11
2.17669
21
2.7794009
0
LINE
8
DEFAULT_255_2_778
10
2.17669
20
2.7794009
11
1.86899
21
2.7794009
0
LINE
8
DEFAULT_255_2_778
10
1.86899
20
2.7794009
11
1.86899
21
4.3140009
0
LINE
8
DEFAULT_255_2_778
10
1.86899
20
4.3140009
11
2.25819
21
4.3140009
0
LINE
8
DEFAULT_255_2_778
10
2.57569
20
3.8001009
11
2.57729
21
3.8319009
0
LINE
8
DEFAULT_255_2_778
10
2.57729
20
3.8319009
11
2.57569
21
3.8639009
0
LINE
8
DEFAULT_255_2_778
10
2.28469
20
4.0721009
11
2.17669
21
4.0721009
0
LINE
8
DEFAULT_255_2_778
10
2.17669
20
4.0721009
11
2.17669
21
3.6036009
0
LINE
8
DEFAULT_255_2_778
10
2.17669
20
3.6036009
11
2.28469
21
3.6036009
0
ARC
8
DEFAULT_255_2_778
10
35.9394696
20
82.9184304
40
0.5488398
50
89.8682888
51
180.1317112
0
ARC
8
DEFAULT_255_2_778
10
35.9419782
20
82.9185154
40
0.5487547
50
359.8593896
51
90.1301939
0
ARC
8
DEFAULT_255_2_778
10
35.9420632
20
82.9158368
40
0.5486696
50
269.8609058
51
0.1390942
0
ARC
8
DEFAULT_255_2_778
10
35.9393846
20
82.9159218
40
0.5487547
50
179.8698061
51
270.1406104
0
LINE
8
DEFAULT_255_2_778
10
35.3906313
20
82.9171687
11
35.3906313
21
82.9171687
0
ARC
8
DEFAULT_255_2_778
10
35.9394696
20
80.8372304
40
0.5488398
50
89.8682888
51
180.1317112
0
ARC
8
DEFAULT_255_2_778
10
35.9419782
20
80.8373154
40
0.5487547
50
359.8593896
51
90.1301939
0
ARC
8
DEFAULT_255_2_778
10
35.9420632
20
80.8346368
40
0.5486696
50
269.8609058
51
0.1390942
0
ARC
8
DEFAULT_255_2_778
10
35.9393846
20
80.8347218
40
0.5487547
50
179.8698061
51
270.1406104
0
LINE
8
DEFAULT_255_2_778
10
35.3906313
20
80.8359687
11
35.3906313
21
80.8359687
0
ARC
8
DEFAULT_255_2_778
10
35.9394696
20
87.0806304
40
0.5488398
50
89.8682888
51
180.1317112
0
ARC
8
DEFAULT_255_2_778
10
35.9419782
20
87.0807154
40
0.5487547
50
359.8593896
51
90.1301939
0
ARC
8
DEFAULT_255_2_778
10
35.9420632
20
87.0780368
40
0.5486696
50
269.8609058
51
0.1390942
0
ARC
8
DEFAULT_255_2_778
10
35.9393846
20
87.0781218
40
0.5487547
50
179.8698061
51
270.1406104
0
LINE
8
DEFAULT_255_2_778
10
35.3906313
20
87.0793687
11
35.3906313
21
87.0793687
0
ARC
8
DEFAULT_255_2_778
10
35.9394696
20
84.9994304
40
0.5488398
50
89.8682888
51
180.1317112
0
ARC
8
DEFAULT_255_2_778
10
35.9419782
20
84.9995154
40
0.5487547
50
359.8593896
51
90.1301939
0
ARC
8
DEFAULT_255_2_778
10
35.9420632
20
84.9968368
40
0.5486696
50
269.8609058
51
0.1390942
0
ARC
8
DEFAULT_255_2_778
10
35.9393846
20
84.9969218
40
0.5487547
50
179.8698061
51
270.1406104
0
LINE
8
DEFAULT_255_2_778
10
35.3906313
20
84.9981687
11
35.3906313
21
84.9981687
0
LINE
8
DEFAULT_255_2_778
10
30.1495479
20
87.6966125
11
30.1495479
21
86.4044125
0
LINE
8
DEFAULT_255_2_778
10
30.1495479
20
86.4044125
11
30.4088479
21
86.4044125
0
LINE
8
DEFAULT_255_2_778
10
30.4088479
20
86.4044125
11
30.4088479
21
87.6966125
0
LINE
8
DEFAULT_255_2_778
10
30.4088479
20
87.6966125
11
30.1495479
21
87.6966125
0
LINE
8
DEFAULT_255_2_778
10
30.9644479
20
87.3706125
11
30.9679479
21
87.3706125
0
LINE
8
DEFAULT_255_2_778
10
31.5269479
20
86.7301125
11
31.0345479
21
87.6966125
0
LINE
8
DEFAULT_255_2_778
10
31.0345479
20
87.6966125
11
30.7160479
21
87.6966125
0
LINE
8
DEFAULT_255_2_778
10
30.7160479
20
87.6966125
11
30.7160479
21
86.4044125
0
LINE
8
DEFAULT_255_2_778
10
30.7160479
20
86.4044125
11
30.9642479
21
86.4044125
0
LINE
8
DEFAULT_255_2_778
10
30.9642479
20
86.4044125
11
30.9642479
21
87.3706125
0
LINE
8
DEFAULT_255_2_778
10
31.5306479
20
86.7301125
11
31.5306479
21
87.6966125
0
LINE
8
DEFAULT_255_2_778
10
31.5306479
20
87.6966125
11
31.7788479
21
87.6966125
0
LINE
8
DEFAULT_255_2_778
10
31.7788479
20
87.6966125
11
31.7788479
21
86.4044125
0
LINE
8
DEFAULT_255_2_778
10
31.7788479
20
86.4044125
11
31.4624479
21
86.4044125
0
LINE
8
DEFAULT_255_2_778
10
31.4624479
20
86.4044125
11
30.9679479
21
87.3709125
0
ARC
8
DEFAULT_255_2_778
10
33.6233963
20
87.1107643
40
1.187664
50
359.4030028
51
10.8052161
0
ARC
8
DEFAULT_255_2_778
10
34.2169773
20
87.2301644
40
0.5822541
50
10.2143822
51
31.9948933
0
ARC
8
DEFAULT_255_2_778
10
34.3916408
20
87.327408
40
0.3827314
50
33.5029437
51
89.7786064
0
ARC
8
DEFAULT_255_2_778
10
34.3565728
20
87.0765047
40
0.634685
50
86.6989234
51
90.0340248
0
ARC
8
DEFAULT_255_2_778
10
34.3430148
20
87.1733767
40
0.5379743
50
88.5960356
51
112.9895216
0
ARC
8
DEFAULT_255_2_778
10
34.3000575
20
87.3111358
40
0.3946368
50
115.0600518
51
164.7323093
0
ARC
8
DEFAULT_255_2_778
10
34.7179788
20
87.1703509
40
0.8352781
50
162.9646671
51
178.1928538
0
ARC
8
DEFAULT_255_2_778
10
35.1618521
20
87.138565
40
1.2800564
50
177.3973323
51
180.03471
0
ARC
8
DEFAULT_255_2_778
10
35.2345847
20
87.1257032
40
1.3528428
50
179.4881089
51
189.7717837
0
ARC
8
DEFAULT_255_2_778
10
34.574989
20
87.0061197
40
0.682546
50
189.2765752
51
208.2097083
0
ARC
8
DEFAULT_255_2_778
10
34.3249247
20
86.8764063
40
0.4008871
50
208.7669649
51
272.1162551
0
ARC
8
DEFAULT_255_2_778
10
34.3561325
20
87.1384799
40
0.6628904
50
268.5819917
51
270.0054791
0
ARC
8
DEFAULT_255_2_778
10
34.3698224
20
86.9276246
40
0.4522404
50
268.2733508
51
298.5774154
0
ARC
8
DEFAULT_255_2_778
10
34.3777409
20
86.8730788
40
0.4010091
50
301.3128646
51
341.5010984
0
ARC
8
DEFAULT_255_2_778
10
33.9699677
20
87.0296203
40
0.8375982
50
340.1963691
51
355.289789
0
ARC
8
DEFAULT_255_2_778
10
33.3842245
20
87.0943914
40
1.4267769
50
354.6290465
51
0.1605557
0
ARC
8
DEFAULT_255_2_778
10
34.3522518
20
87.3727897
40
0.1210416
50
92.7730381
51
162.4089342
0
ARC
8
DEFAULT_255_2_778
10
34.6897582
20
87.216137
40
0.4923887
50
156.8934615
51
172.907755
0
ARC
8
DEFAULT_255_2_778
10
35.5435557
20
87.0914266
40
1.3551752
50
172.1323224
51
179.7073263
0
ARC
8
DEFAULT_255_2_778
10
36.3555903
20
87.0687429
40
2.1673944
50
179.217329
51
180.0066981
0
ARC
8
DEFAULT_255_2_778
10
35.4149698
20
87.0567583
40
1.22683
50
179.4521136
51
187.5626403
0
ARC
8
DEFAULT_255_2_778
10
34.6324616
20
86.9465469
40
0.4366684
50
186.7403382
51
203.8794272
0
ARC
8
DEFAULT_255_2_778
10
34.3422221
20
86.8080684
40
0.1155771
50
199.3477427
51
268.2284547
0
ARC
8
DEFAULT_255_2_778
10
34.3385939
20
86.817908
40
0.1253614
50
270.0252463
51
273.5681556
0
ARC
8
DEFAULT_255_2_778
10
34.3418162
20
86.8201997
40
0.1274925
50
272.0585803
51
344.0909874
0
ARC
8
DEFAULT_255_2_778
10
33.9979126
20
86.9686058
40
0.5012511
50
338.5437392
51
354.5612632
0
ARC
8
DEFAULT_255_2_778
10
33.2459839
20
87.0602483
40
1.2586389
50
353.6525527
51
0.3751601
0
ARC
8
DEFAULT_255_2_778
10
32.5267422
20
87.1147237
40
1.978394
50
358.6609022
51
359.9810746
0
ARC
8
DEFAULT_255_2_778
10
33.3028148
20
87.1252522
40
1.2023733
50
359.4671476
51
7.614685
0
ARC
8
DEFAULT_255_2_778
10
34.0549506
20
87.2321012
40
0.4427554
50
6.8070286
51
23.9744653
0
ARC
8
DEFAULT_255_2_778
10
34.3435132
20
87.3705395
40
0.1231838
50
19.6711653
51
88.6590909
0
LINE
8
DEFAULT_255_2_778
10
31.5306959
20
86.7300895
11
31.5269959
21
86.7300895
0
LINE
8
DEFAULT_255_2_778
10
34.8109959
20
87.0983895
11
34.8109959
21
87.0983895
0
LINE
8
DEFAULT_255_2_778
10
34.3463959
20
87.4936895
11
34.3463959
21
87.4936895
0
LINE
8
DEFAULT_255_2_778
10
34.2823959
20
85.1857895
11
34.1444959
21
85.3949895
0
LINE
8
DEFAULT_255_2_778
10
34.1444959
20
85.3949895
11
34.5381959
21
85.6508895
0
LINE
8
DEFAULT_255_2_778
10
34.5381959
20
85.6508895
11
34.8106959
21
85.6508895
0
LINE
8
DEFAULT_255_2_778
10
34.8106959
20
85.6508895
11
34.8106959
21
84.4911895
0
LINE
8
DEFAULT_255_2_778
10
34.8106959
20
84.4911895
11
34.5016959
21
84.4911895
0
LINE
8
DEFAULT_255_2_778
10
34.5016959
20
84.4911895
11
34.5016959
21
85.3418895
0
LINE
8
DEFAULT_255_2_778
10
34.5016959
20
85.3418895
11
34.2820959
21
85.1857895
0
ARC
8
DEFAULT_255_2_778
10
33.0441985
20
84.4298859
40
2.18407
50
306.8047574
51
312.6834641
0
ARC
8
DEFAULT_255_2_778
10
33.6584285
20
83.7698537
40
1.2824643
50
312.5020944
51
321.8643742
0
ARC
8
DEFAULT_255_2_778
10
34.1264578
20
83.4074242
40
0.6905373
50
321.5365936
51
337.3586774
0
ARC
8
DEFAULT_255_2_778
10
34.3897811
20
83.29677
40
0.4049106
50
337.4658182
51
359.3745994
0
ARC
8
DEFAULT_255_2_778
10
34.4413815
20
83.2911758
40
0.353288
50
0.1904963
51
27.744381
0
ARC
8
DEFAULT_255_2_778
10
34.4249722
20
83.2245561
40
0.4021127
50
35.0770454
51
83.5463629
0
ARC
8
DEFAULT_255_2_778
10
34.3774688
20
82.9848081
40
0.6459983
50
81.7495965
51
90.2025407
0
ARC
8
DEFAULT_255_2_778
10
34.3803429
20
82.7083629
40
0.922454
50
90.3203559
51
99.2118123
0
ARC
8
DEFAULT_255_2_778
10
34.4527432
20
82.2491528
40
1.3873336
50
99.1273185
51
105.5069451
0
ARC
8
DEFAULT_255_2_778
10
34.5679823
20
81.8138824
40
1.8375769
50
105.34083
51
107.7440299
0
ARC
8
DEFAULT_255_2_778
10
34.6625553
20
81.5829853
40
1.8500068
50
106.5683371
51
110.2593494
0
ARC
8
DEFAULT_255_2_778
10
34.4448797
20
82.3195516
40
1.0819513
50
101.3717679
51
106.6425086
0
ARC
8
DEFAULT_255_2_778
10
34.3463372
20
82.8188116
40
0.5730654
50
93.1388049
51
101.5550568
0
ARC
8
DEFAULT_255_2_778
10
34.3319237
20
83.0241959
40
0.3672134
50
90.0383485
51
92.6479304
0
ARC
8
DEFAULT_255_2_778
10
34.3374918
20
83.1853632
40
0.2061279
50
70.2225858
51
91.6162375
0
ARC
8
DEFAULT_255_2_778
10
34.3717171
20
83.2863668
40
0.0995209
50
354.323645
51
69.0885168
0
ARC
8
DEFAULT_255_2_778
10
34.2230084
20
83.2785769
40
0.2477503
50
349.3291644
51
359.5250446
0
ARC
8
DEFAULT_255_2_778
10
34.0719071
20
83.3055766
40
0.4012406
50
343.4140598
51
349.5356735
0
ARC
8
DEFAULT_255_2_778
10
33.4532238
20
83.7077399
40
1.128471
50
316.5324959
51
332.7499226
0
ARC
8
DEFAULT_255_2_778
10
32.9154983
20
84.2066722
40
1.8619865
50
306.8025607
51
316.7730378
0
ARC
8
DEFAULT_255_2_778
10
32.5366513
20
84.6856747
40
2.4725321
50
305.8335787
51
307.182451
0
LINE
8
DEFAULT_255_2_778
10
33.9841531
20
82.6811411
11
33.9841531
21
82.4639411
0
LINE
8
DEFAULT_255_2_778
10
33.9841531
20
82.4639411
11
34.8104531
21
82.4639411
0
ARC
8
DEFAULT_255_2_778
10
34.8391117
20
82.4753244
40
0.0308366
50
175.9242391
51
201.6631321
0
ARC
8
DEFAULT_255_2_778
10
36.149457
20
82.5489925
40
1.3430072
50
180.5314484
51
183.050787
0
ARC
8
DEFAULT_255_2_778
10
42.5647462
20
82.6485448
40
7.7590473
50
180.0797748
51
180.8271474
0
ARC
8
DEFAULT_255_2_778
10
51.5581806
20
82.6800541
40
16.7525275
50
179.9962821
51
180.1447143
0
LINE
8
DEFAULT_255_2_778
10
34.8056531
20
82.6811411
11
34.3524531
21
82.6811411
0
LINE
8
DEFAULT_255_2_778
10
34.0079531
20
83.5640411
11
34.0219531
21
83.3185411
0
LINE
8
DEFAULT_255_2_778
10
34.3524531
20
82.6811411
11
34.3526531
21
82.6811411
0
ARC
8
DEFAULT_255_2_778
10
34.3362933
20
80.3884757
40
1.0257482
50
89.3164515
51
100.4183253
0
ARC
8
DEFAULT_255_2_778
10
34.2376077
20
80.9239481
40
0.4812581
50
100.3912719
51
115.630696
0
ARC
8
DEFAULT_255_2_778
10
35.1044003
20
81.5581906
40
1.093479
50
180.4942079
51
190.5569704
0
ARC
8
DEFAULT_255_2_778
10
35.7402743
20
81.5826376
40
1.7296441
50
179.9896242
51
181.1223341
0
ARC
8
DEFAULT_255_2_778
10
34.3596448
20
80.3936449
40
1.2394594
50
90.3263072
51
106.354885
0
ARC
8
DEFAULT_255_2_778
10
34.3532607
20
80.5529502
40
1.0801342
50
81.2630935
51
90.0357903
0
ARC
8
DEFAULT_255_2_778
10
34.41401
20
81.1364212
40
0.495032
50
59.0086041
51
77.9529607
0
ARC
8
DEFAULT_255_2_778
10
34.5464202
20
81.3518467
40
0.2421942
50
358.064282
51
59.6197572
0
ARC
8
DEFAULT_255_2_778
10
34.3924443
20
81.3456755
40
0.396037
50
349.8136007
51
359.7092519
0
ARC
8
DEFAULT_255_2_778
10
34.3020652
20
81.3595166
40
0.487445
50
348.6816922
51
350.0910863
0
ARC
8
DEFAULT_255_2_778
10
34.5400542
20
81.3031944
40
0.24318
50
309.3194365
51
350.6893308
0
ARC
8
DEFAULT_255_2_778
10
34.5708651
20
81.2854441
40
0.2103019
50
275.885703
51
305.8876276
0
ARC
8
DEFAULT_255_2_778
10
34.4387803
20
80.6439628
40
0.4587825
50
52.0100244
51
70.4330313
0
ARC
8
DEFAULT_255_2_778
10
34.584244
20
80.8250503
40
0.2265499
50
359.469999
51
52.8140466
0
ARC
8
DEFAULT_255_2_778
10
34.4777546
20
80.8265414
40
0.3330489
50
343.775511
51
359.3829475
0
ARC
8
DEFAULT_255_2_778
10
34.3228295
20
80.8674636
40
0.4932539
50
337.9578211
51
344.239432
0
ARC
8
DEFAULT_255_2_778
10
34.4487242
20
80.839803
40
0.3668173
50
284.4662942
51
334.5807614
0
ARC
8
DEFAULT_255_2_778
10
34.3433023
20
81.1700004
40
0.7131503
50
271.404603
51
286.0406019
0
ARC
8
DEFAULT_255_2_778
10
34.3231114
20
81.4856107
40
1.029236
50
269.9797601
51
272.0976037
0
ARC
8
DEFAULT_255_2_778
10
34.3267617
20
81.7628634
40
1.3064948
50
264.1361098
51
269.8239735
0
ARC
8
DEFAULT_255_2_778
10
34.3794398
20
82.2901341
40
1.836389
50
259.9117765
51
264.1818639
0
ARC
8
DEFAULT_255_2_778
10
34.4589469
20
82.7579721
40
2.3109236
50
258.3382172
51
260.0027875
0
LINE
8
DEFAULT_255_2_778
10
33.9918304
20
80.4947509
11
33.9918304
21
80.7386509
0
ARC
8
DEFAULT_255_2_778
10
34.4543322
20
82.3092887
40
1.6373183
50
253.5920123
51
258.0285659
0
ARC
8
DEFAULT_255_2_778
10
34.321008
20
81.6725279
40
0.9867531
50
257.9324711
51
264.412025
0
ARC
8
DEFAULT_255_2_778
10
34.2840982
20
81.3136163
40
0.6259555
50
264.5754781
51
269.8386915
0
ARC
8
DEFAULT_255_2_778
10
34.2899683
20
81.0258825
40
0.3383054
50
268.707267
51
287.8065339
0
ARC
8
DEFAULT_255_2_778
10
34.3484651
20
80.8519346
40
0.1548222
50
286.8811116
51
345.7600579
0
ARC
8
DEFAULT_255_2_778
10
34.3500755
20
80.8062962
40
0.148647
50
2.9131958
51
88.7789071
0
ARC
8
DEFAULT_255_2_778
10
34.3048847
20
80.5890311
40
0.3690604
50
82.4708014
51
90.2588624
0
ARC
8
DEFAULT_255_2_778
10
34.3064439
20
80.3736872
40
0.5844093
50
90.3163371
51
97.5286368
0
ARC
8
DEFAULT_255_2_778
10
34.3399824
20
80.0965735
40
0.8635338
50
97.3257056
51
100.7150309
0
LINE
8
DEFAULT_255_2_778
10
34.1794304
20
80.9450509
11
34.1794304
21
81.1514509
0
ARC
8
DEFAULT_255_2_778
10
34.2753924
20
81.8055419
40
0.6610929
50
261.653655
51
267.9735739
0
ARC
8
DEFAULT_255_2_778
10
34.2684367
20
81.6604647
40
0.5158636
50
268.1758616
51
269.9844248
0
ARC
8
DEFAULT_255_2_778
10
34.2787013
20
81.4468026
40
0.3023804
50
268.0280784
51
294.8681182
0
ARC
8
DEFAULT_255_2_778
10
34.3234093
20
81.3358623
40
0.1830271
50
296.7753207
51
343.0983422
0
ARC
8
DEFAULT_255_2_778
10
34.3782462
20
81.293584
40
0.12078
50
354.8064078
51
96.0132377
0
ARC
8
DEFAULT_255_2_778
10
34.3487815
20
81.1009201
40
0.3132308
50
86.9232886
51
90.0459355
0
LINE
8
DEFAULT_255_2_778
10
34.3485304
20
81.4141509
11
34.3485304
21
81.4141509
0
ARC
8
DEFAULT_255_2_778
10
35.9109696
20
74.5941304
40
0.5488398
50
89.8682888
51
180.1317112
0
ARC
8
DEFAULT_255_2_778
10
35.9134782
20
74.5942154
40
0.5487547
50
359.8593896
51
90.1301939
0
ARC
8
DEFAULT_255_2_778
10
35.9135632
20
74.5915368
40
0.5486696
50
269.8609058
51
0.1390942
0
ARC
8
DEFAULT_255_2_778
10
35.9108846
20
74.5916218
40
0.5487547
50
179.8698061
51
270.1406104
0
LINE
8
DEFAULT_255_2_778
10
35.3621313
20
74.5928687
11
35.3621313
21
74.5928687
0
ARC
8
DEFAULT_255_2_778
10
35.9109696
20
72.5131304
40
0.5488398
50
89.8682888
51
180.1317112
0
ARC
8
DEFAULT_255_2_778
10
35.9134782
20
72.5132154
40
0.5487547
50
359.8593896
51
90.1301939
0
ARC
8
DEFAULT_255_2_778
10
35.9135632
20
72.5105368
40
0.5486696
50
269.8609058
51
0.1390942
0
ARC
8
DEFAULT_255_2_778
10
35.9108846
20
72.5106218
40
0.5487547
50
179.8698061
51
270.1406104
0
LINE
8
DEFAULT_255_2_778
10
35.3621313
20
72.5118687
11
35.3621313
21
72.5118687
0
ARC
8
DEFAULT_255_2_778
10
35.9109696
20
78.7562304
40
0.5488398
50
89.8682888
51
180.1317112
0
ARC
8
DEFAULT_255_2_778
10
35.9134782
20
78.7563154
40
0.5487547
50
359.8593896
51
90.1301939
0
ARC
8
DEFAULT_255_2_778
10
35.9135632
20
78.7536368
40
0.5486696
50
269.8609058
51
0.1390942
0
ARC
8
DEFAULT_255_2_778
10
35.9108846
20
78.7537218
40
0.5487547
50
179.8698061
51
270.1406104
0
LINE
8
DEFAULT_255_2_778
10
35.3621313
20
78.7549687
11
35.3621313
21
78.7549687
0
ARC
8
DEFAULT_255_2_778
10
35.9109696
20
76.6750304
40
0.5488398
50
89.8682888
51
180.1317112
0
ARC
8
DEFAULT_255_2_778
10
35.9134782
20
76.6751154
40
0.5487547
50
359.8593896
51
90.1301939
0
ARC
8
DEFAULT_255_2_778
10
35.9135632
20
76.6724368
40
0.5486696
50
269.8609058
51
0.1390942
0
ARC
8
DEFAULT_255_2_778
10
35.9108846
20
76.6725218
40
0.5487547
50
179.8698061
51
270.1406104
0
LINE
8
DEFAULT_255_2_778
10
35.3621313
20
76.6737687
11
35.3621313
21
76.6737687
0
LINE
8
DEFAULT_255_2_778
10
34.6410406
20
78.7166969
11
34.6410406
21
79.4680969
0
LINE
8
DEFAULT_255_2_778
10
34.6410406
20
79.4680969
11
34.2886406
21
79.4680969
0
LINE
8
DEFAULT_255_2_778
10
34.2886406
20
79.4680969
11
33.8097406
21
78.7544969
0
LINE
8
DEFAULT_255_2_778
10
33.8097406
20
78.7544969
11
33.8097406
21
78.5012969
0
LINE
8
DEFAULT_255_2_778
10
33.8097406
20
78.5012969
11
34.3434406
21
78.5012969
0
LINE
8
DEFAULT_255_2_778
10
34.3434406
20
78.5012969
11
34.3434406
21
78.2734969
0
LINE
8
DEFAULT_255_2_778
10
34.3434406
20
78.2734969
11
34.6410406
21
78.2734969
0
LINE
8
DEFAULT_255_2_778
10
34.6410406
20
78.2734969
11
34.6410406
21
78.5012969
0
LINE
8
DEFAULT_255_2_778
10
34.6410406
20
78.5012969
11
34.8106406
21
78.5012969
0
LINE
8
DEFAULT_255_2_778
10
34.8106406
20
78.5012969
11
34.8106406
21
78.7168969
0
LINE
8
DEFAULT_255_2_778
10
34.8106406
20
78.7168969
11
34.6410406
21
78.7166969
0
LINE
8
DEFAULT_255_2_778
10
34.4003406
20
79.2214969
11
34.4034406
21
78.7166969
0
LINE
8
DEFAULT_255_2_778
10
34.4034406
20
78.7166969
11
34.0748406
21
78.7166969
0
LINE
8
DEFAULT_255_2_778
10
34.0748406
20
78.7166969
11
34.4003406
21
79.2214969
0
ARC
8
DEFAULT_255_2_778
10
34.3831849
20
76.5602547
40
0.3170665
50
90.4239594
51
114.6710532
0
ARC
8
DEFAULT_255_2_778
10
34.3805196
20
76.5778751
40
0.2994375
50
77.3805975
51
89.938916
0
ARC
8
DEFAULT_255_2_778
10
34.29437
20
76.1338906
40
0.7516293
50
64.9619017
51
78.3663219
0
ARC
8
DEFAULT_255_2_778
10
34.4843034
20
76.5345558
40
0.3082424
50
41.8423402
51
65.4293643
0
ARC
8
DEFAULT_255_2_778
10
34.4361999
20
76.4880403
40
0.3751172
50
358.8297415
51
42.2340042
0
ARC
8
DEFAULT_255_2_778
10
34.3794347
20
76.5396169
40
0.4358485
50
305.5416412
51
352.1885442
0
ARC
8
DEFAULT_255_2_778
10
34.2120116
20
76.7267556
40
0.6859935
50
303.6606157
51
307.8347992
0
ARC
8
DEFAULT_255_2_778
10
34.3231306
20
76.6859598
40
0.5945678
50
270.7966648
51
296.9113652
0
ARC
8
DEFAULT_255_2_778
10
34.3000474
20
76.952645
40
0.8617659
50
269.9861316
51
272.0848114
0
ARC
8
DEFAULT_255_2_778
10
34.2984574
20
78.3926024
40
2.3017237
50
262.1261552
51
270.034387
0
ARC
8
DEFAULT_255_2_778
10
-164.8777487
20
-816.2541149
40
914.4672825
50
77.4275581
51
77.4400563
0
ARC
8
DEFAULT_255_2_778
10
34.2763825
20
76.5566524
40
0.2883355
50
250.015414
51
269.7743327
0
ARC
8
DEFAULT_255_2_778
10
34.271279
20
76.5766646
40
0.308371
50
270.7372443
51
299.1612747
0
ARC
8
DEFAULT_255_2_778
10
34.3282772
20
76.5017307
40
0.2155696
50
295.634512
51
353.0478103
0
ARC
8
DEFAULT_255_2_778
10
34.159024
20
76.552541
40
0.3908776
50
348.6533301
51
349.4060424
0
ARC
8
DEFAULT_255_2_778
10
34.3589618
20
76.5234182
40
0.1891683
50
346.9423341
51
359.6614674
0
ARC
8
DEFAULT_255_2_778
10
34.3939947
20
76.5200059
40
0.1541492
50
0.852902
51
60.3557882
0
ARC
8
DEFAULT_255_2_778
10
34.2237939
20
75.9760526
40
0.7213317
50
70.0224006
51
89.7819663
0
ARC
8
DEFAULT_255_2_778
10
34.354653
20
73.8243347
40
1.3616278
50
73.9487626
51
79.0189938
0
ARC
8
DEFAULT_255_2_778
10
34.4197656
20
74.1641577
40
1.0156243
50
78.9732819
51
85.7169498
0
ARC
8
DEFAULT_255_2_778
10
34.436896
20
74.3697228
40
0.8093558
50
85.8394339
51
89.9475744
0
ARC
8
DEFAULT_255_2_778
10
34.4270374
20
74.6201029
40
0.5590758
50
88.9136945
51
113.3124471
0
ARC
8
DEFAULT_255_2_778
10
34.4074467
20
74.6993092
40
0.4787692
50
114.9107902
51
152.9421357
0
ARC
8
DEFAULT_255_2_778
10
34.7294266
20
74.5206642
40
0.8468657
50
152.087849
51
166.7789059
0
ARC
8
DEFAULT_255_2_778
10
35.0571254
20
74.4297845
40
1.1867408
50
166.1259953
51
168.0415896
0
ARC
8
DEFAULT_255_2_778
10
35.8166541
20
74.5187902
40
1.9269129
50
175.3298168
51
177.8052246
0
ARC
8
DEFAULT_255_2_778
10
35.5177402
20
74.530616
40
1.6277653
50
177.8182406
51
179.9724941
0
ARC
8
DEFAULT_255_2_778
10
34.9872542
20
74.5201178
40
1.0973371
50
179.4110377
51
191.0354056
0
ARC
8
DEFAULT_255_2_778
10
34.4571535
20
74.4113087
40
0.5562362
50
190.4866186
51
212.434917
0
ARC
8
DEFAULT_255_2_778
10
34.3073824
20
74.3283445
40
0.38547
50
213.9670634
51
266.7402878
0
ARC
8
DEFAULT_255_2_778
10
34.3519998
20
74.5889445
40
0.6488666
50
264.1144306
51
270.1094023
0
ARC
8
DEFAULT_255_2_778
10
34.3357846
20
74.6036008
40
0.6637512
50
271.5068381
51
290.259014
0
ARC
8
DEFAULT_255_2_778
10
34.4337033
20
74.3302174
40
0.3733849
50
290.688972
51
357.208893
0
ARC
8
DEFAULT_255_2_778
10
34.1386701
20
74.3905357
40
0.6725719
50
353.297371
51
357.1998657
0
ARC
8
DEFAULT_255_2_778
10
34.3587024
20
74.3426116
40
0.4519876
50
1.9103734
51
27.8433535
0
ARC
8
DEFAULT_255_2_778
10
34.4788032
20
74.3895443
40
0.3241997
50
30.4235161
51
82.4779414
0
ARC
8
DEFAULT_255_2_778
10
34.4202472
20
74.1739579
40
0.5464113
50
79.3484544
51
82.4079114
0
ARC
8
DEFAULT_255_2_778
10
34.4281831
20
74.3281159
40
0.3927551
50
80.5839349
51
89.824136
0
ARC
8
DEFAULT_255_2_778
10
34.4273502
20
74.4160353
40
0.3048406
50
89.6168781
51
141.3615214
0
ARC
8
DEFAULT_255_2_778
10
34.7031565
20
74.6230219
40
0.5141871
50
180.0117726
51
181.8548289
0
ARC
8
DEFAULT_255_2_778
10
34.4837797
20
74.6439069
40
0.2955567
50
110.5061176
51
184.0726102
0
ARC
8
DEFAULT_255_2_778
10
34.5727514
20
74.4555087
40
0.5034828
50
103.7900526
51
112.4794115
0
ARC
8
DEFAULT_255_2_778
10
34.5427324
20
74.4895585
40
0.4637366
50
90.4081016
51
101.1899284
0
ARC
8
DEFAULT_255_2_778
10
34.5494141
20
74.7010767
40
0.2524043
50
50.1236152
51
92.2671176
0
ARC
8
DEFAULT_255_2_778
10
45.459362
20
74.1246128
40
10.7756813
50
174.9072351
51
175.9014255
0
ARC
8
DEFAULT_255_2_778
10
41.1458099
20
74.5028952
40
6.4455812
50
174.3865538
51
174.8528458
0
ARC
8
DEFAULT_255_2_778
10
34.3632817
20
74.3473465
40
0.1693307
50
93.4001812
51
183.3406901
0
ARC
8
DEFAULT_255_2_778
10
34.3430151
20
74.3470914
40
0.1695962
50
356.750899
51
86.5439693
0
ARC
8
DEFAULT_255_2_778
10
34.3430416
20
74.3279382
40
0.1695658
50
273.4476865
51
3.2255359
0
ARC
8
DEFAULT_255_2_778
10
34.363454
20
74.3278595
40
0.1694885
50
176.7463208
51
266.5446346
0
LINE
8
DEFAULT_255_2_778
10
33.9934388
20
76.6682791
11
34.0072388
21
77.2812791
0
LINE
8
DEFAULT_255_2_778
10
34.0072388
20
77.2812791
11
34.7623388
21
77.2812791
0
LINE
8
DEFAULT_255_2_778
10
34.7623388
20
77.2812791
11
34.7623388
21
77.1082791
0
LINE
8
DEFAULT_255_2_778
10
34.7623388
20
77.1082791
11
34.2508388
21
77.1082791
0
LINE
8
DEFAULT_255_2_778
10
34.2508388
20
77.1082791
11
34.2508388
21
76.8483791
0
LINE
8
DEFAULT_255_2_778
10
33.9831388
20
76.1125791
11
33.9831388
21
76.3290791
0
LINE
8
DEFAULT_255_2_778
10
34.2265388
20
76.6973791
11
34.0072388
21
76.6756791
0
LINE
8
DEFAULT_255_2_778
10
34.7311388
20
75.1333791
11
34.7311388
21
75.1328791
0
LINE
8
DEFAULT_255_2_778
10
34.1942388
20
74.3374791
11
34.1942388
21
74.3374791
0
LINE
8
DEFAULT_255_2_778
10
34.8107011
20
73.0924646
11
34.8107011
21
72.8982646
0
LINE
8
DEFAULT_255_2_778
10
34.8107011
20
72.8982646
11
34.3953011
21
71.9235646
0
LINE
8
DEFAULT_255_2_778
10
34.3953011
20
71.9235646
11
34.1408011
21
71.9235646
0
LINE
8
DEFAULT_255_2_778
10
34.1408011
20
71.9235646
11
34.5744011
21
72.9083646
0
LINE
8
DEFAULT_255_2_778
10
34.5744011
20
72.9083646
11
34.0569011
21
72.9083646
0
LINE
8
DEFAULT_255_2_778
10
34.0569011
20
72.9083646
11
34.0569011
21
73.0924646
0
LINE
8
DEFAULT_255_2_778
10
34.0569011
20
73.0924646
11
34.8104011
21
73.0924646
0
ARC
8
DEFAULT_255_2_778
10
5.8441023
20
87.5480495
40
0.4798413
50
90.5454785
51
116.4542383
0
ARC
8
DEFAULT_255_2_778
10
5.8389745
20
87.5817838
40
0.4460856
50
76.33746
51
89.928126
0
ARC
8
DEFAULT_255_2_778
10
5.6633018
20
86.7911295
40
1.2559643
50
66.3929886
51
77.0698016
0
ARC
8
DEFAULT_255_2_778
10
5.930647
20
87.3879802
40
0.60203
50
46.8639851
51
66.9598905
0
ARC
8
DEFAULT_255_2_778
10
6.0688574
20
87.5474508
40
0.3912456
50
38.1713966
51
45.6661863
0
ARC
8
DEFAULT_255_2_778
10
5.852113
20
87.3535595
40
0.681721
50
358.6372679
51
39.7246822
0
ARC
8
DEFAULT_255_2_778
10
5.772066
20
87.4270832
40
0.7668437
50
308.9770614
51
353.2798299
0
ARC
8
DEFAULT_255_2_778
10
5.5386609
20
87.6680102
40
1.1013597
50
305.622617
51
310.5329079
0
ARC
8
DEFAULT_255_2_778
10
5.756348
20
87.5314531
40
0.8690431
50
274.5543149
51
299.1865663
0
ARC
8
DEFAULT_255_2_778
10
5.7105841
20
87.8801799
40
1.2204342
50
269.9181764
51
275.3960626
0
ARC
8
DEFAULT_255_2_778
10
5.7065492
20
90.1102874
40
3.4505413
50
261.5338199
51
270.0380581
0
ARC
8
DEFAULT_255_2_778
10
-45.1246717
20
-123.1864903
40
216.1986011
50
76.4545756
51
76.5401557
0
ARC
8
DEFAULT_255_2_778
10
5.67193
20
87.4039937
40
0.4357443
50
248.5440832
51
269.7151956
0
ARC
8
DEFAULT_255_2_778
10
5.6637342
20
87.4299399
40
0.4617245
50
270.7482708
51
299.4178446
0
ARC
8
DEFAULT_255_2_778
10
5.5987201
20
87.5690542
40
0.6149461
50
298.3278326
51
299.8976404
0
ARC
8
DEFAULT_255_2_778
10
5.7514865
20
87.3403319
40
0.3410143
50
296.7998034
51
344.9163181
0
ARC
8
DEFAULT_255_2_778
10
5.4853122
20
87.4417017
40
0.6250525
50
342.2927744
51
350.3613638
0
ARC
8
DEFAULT_255_2_778
10
5.7549393
20
87.4110155
40
0.3544068
50
347.9531705
51
359.6964972
0
ARC
8
DEFAULT_255_2_778
10
5.8371092
20
87.4087794
40
0.2722322
50
0.0755046
51
57.4096884
0
ARC
8
DEFAULT_255_2_778
10
5.5857109
20
86.6254581
40
1.0881023
50
68.5430364
51
89.7140577
0
ARC
8
DEFAULT_255_2_778
10
18.9130743
20
86.708079
40
1.7536044
50
69.7077001
51
75.5887034
0
ARC
8
DEFAULT_255_2_778
10
19.0603075
20
87.2871986
40
1.1560647
50
75.5128053
51
83.6022862
0
ARC
8
DEFAULT_255_2_778
10
19.1001025
20
87.6195947
40
0.8213081
50
83.7772816
51
89.8707263
0
ARC
8
DEFAULT_255_2_778
10
19.0947677
20
87.8811181
40
0.5598286
50
89.2643406
51
107.5547083
0
ARC
8
DEFAULT_255_2_778
10
19.0504069
20
88.0289618
40
0.4054967
50
107.8792876
51
135.3078002
0
ARC
8
DEFAULT_255_2_778
10
19.0353373
20
88.1481475
40
0.3196747
50
148.7163052
51
161.6615594
0
ARC
8
DEFAULT_255_2_778
10
18.9202974
20
88.186245
40
0.1984905
50
161.6522721
51
179.4501955
0
ARC
8
DEFAULT_255_2_778
10
18.9009395
20
88.1933172
40
0.1791979
50
181.6524782
51
234.7427126
0
ARC
8
DEFAULT_255_2_778
10
19.0910874
20
88.4254286
40
0.4789684
50
232.1959771
51
248.3115009
0
ARC
8
DEFAULT_255_2_778
10
19.3178021
20
88.966084
40
1.065189
50
247.7273314
51
255.991778
0
ARC
8
DEFAULT_255_2_778
10
19.451183
20
89.4509695
40
1.5679872
50
255.5517342
51
256.4623238
0
ARC
8
DEFAULT_255_2_778
10
18.6133026
20
86.2615363
40
1.7303032
50
66.4765421
51
74.2099387
0
ARC
8
DEFAULT_255_2_778
10
18.9076092
20
86.9294489
40
1.0004367
50
54.7587572
51
66.6637299
0
ARC
8
DEFAULT_255_2_778
10
19.1679639
20
87.2902966
40
0.5555093
50
33.0902832
51
55.2149503
0
ARC
8
DEFAULT_255_2_778
10
19.2859944
20
87.3743853
40
0.4107569
50
359.4987479
51
32.2518615
0
ARC
8
DEFAULT_255_2_778
10
19.1563498
20
87.3738564
40
0.5403944
50
346.8353825
51
359.6750677
0
ARC
8
DEFAULT_255_2_778
10
18.9522401
20
87.420297
40
0.7497178
50
338.180864
51
346.9321208
0
ARC
8
DEFAULT_255_2_778
10
18.7874094
20
87.4824286
40
0.9258403
50
336.4659926
51
338.402616
0
ARC
8
DEFAULT_255_2_778
10
18.9177841
20
87.5700217
40
0.8516342
50
307.7806179
51
327.5245523
0
ARC
8
DEFAULT_255_2_778
10
18.9792014
20
87.5084655
40
0.7654325
50
275.7754288
51
306.9699147
0
ARC
8
DEFAULT_255_2_778
10
18.9407316
20
87.7561539
40
1.0158225
50
269.9041684
51
276.5284236
0
ARC
8
DEFAULT_255_2_778
10
18.9439405
20
88.0275895
40
1.2872661
50
261.226354
51
269.7815474
0
ARC
8
DEFAULT_255_2_778
10
19.0107503
20
88.4721403
40
1.7368068
50
255.009797
51
261.285071
0
ARC
8
DEFAULT_255_2_778
10
19.1590445
20
89.0304326
40
2.3144578
50
250.0419308
51
255.0384326
0
ARC
8
DEFAULT_255_2_778
10
19.3163381
20
89.4782995
40
2.7891209
50
248.674745
51
250.1451463
0
ARC
8
DEFAULT_255_2_778
10
-2.2863657
20
89.9231854
40
20.8120778
50
351.5923549
51
352.5080046
0
ARC
8
DEFAULT_255_2_778
10
19.0646352
20
88.9661292
40
1.8971264
50
247.8071013
51
253.6234069
0
ARC
8
DEFAULT_255_2_778
10
18.8918264
20
88.371693
40
1.2780848
50
253.5425702
51
261.6722903
0
ARC
8
DEFAULT_255_2_778
10
18.8345799
20
87.9900099
40
0.8921359
50
261.7597563
51
269.7937705
0
ARC
8
DEFAULT_255_2_778
10
18.8384106
20
87.708883
40
0.6110439
50
269.3396994
51
287.9629861
0
ARC
8
DEFAULT_255_2_778
10
18.8757636
20
87.5823339
40
0.4791563
50
288.3809958
51
312.4617653
0
ARC
8
DEFAULT_255_2_778
10
18.9740932
20
87.3765338
40
0.2692638
50
326.7369292
51
341.5017971
0
ARC
8
DEFAULT_255_2_778
10
19.066545
20
87.3450296
40
0.1715941
50
341.6833913
51
359.5567175
0
ARC
8
DEFAULT_255_2_778
10
19.0664086
20
87.3375256
40
0.1718364
50
2.0598369
51
51.9586655
0
ARC
8
DEFAULT_255_2_778
10
18.8708307
20
87.1202903
40
0.463883
50
49.4673961
51
65.1808079
0
ARC
8
DEFAULT_255_2_778
10
18.6122955
20
86.5827034
40
1.0603768
50
64.6944602
51
73.3214198
0
ARC
8
DEFAULT_255_2_778
10
18.4106625
20
85.9573713
40
1.7173248
50
72.8650555
51
75.034458
0
ARC
8
DEFAULT_255_2_778
10
19.1147533
20
88.9153258
40
1.3247661
50
247.6244722
51
258.6545972
0
ARC
8
DEFAULT_255_2_778
10
18.8671892
20
88.3286454
40
0.6880387
50
228.0469807
51
248.0899709
0
ARC
8
DEFAULT_255_2_778
10
18.6975224
20
88.1359336
40
0.4313026
50
184.6528761
51
227.6946945
0
ARC
8
DEFAULT_255_2_778
10
19.2097685
20
88.1281625
40
0.9425204
50
180.0088137
51
181.6546663
0
ARC
8
DEFAULT_255_2_778
10
18.9504845
20
88.1381773
40
0.683312
50
161.7918862
51
180.8519339
0
ARC
8
DEFAULT_255_2_778
10
18.7672198
20
88.1907406
40
0.4928537
50
112.1156698
51
160.9393354
0
ARC
8
DEFAULT_255_2_778
10
18.9373678
20
87.8271194
40
0.8940192
50
99.2112841
51
113.4446013
0
ARC
8
DEFAULT_255_2_778
10
19.0451934
20
87.2031314
40
1.5272351
50
90.6814391
51
99.4570114
0
ARC
8
DEFAULT_255_2_778
10
19.0635464
20
86.6965498
40
2.0340366
50
89.9942909
51
91.0286701
0
ARC
8
DEFAULT_255_2_778
10
19.0607972
20
86.3451587
40
2.3854294
50
86.5744772
51
89.9290997
0
ARC
8
DEFAULT_255_2_778
10
19.0252599
20
85.7326544
40
2.9989628
50
84.0383154
51
86.5959499
0
ARC
8
DEFAULT_255_2_778
10
18.9524124
20
85.0336076
40
3.7017949
50
81.7254556
51
84.0406653
0
ARC
8
DEFAULT_255_2_778
10
18.8589127
20
84.3765505
40
4.3654687
50
80.5077411
51
81.7521658
0
ARC
8
DEFAULT_255_2_778
10
10.3065236
20
86.4128534
40
2.3312838
50
73.9839258
51
77.9218305
0
ARC
8
DEFAULT_255_2_778
10
10.4048434
20
86.8746648
40
1.8591226
50
77.9067652
51
82.6519681
0
ARC
8
DEFAULT_255_2_778
10
10.4536048
20
87.2564469
40
1.4742395
50
82.6337965
51
88.4201996
0
ARC
8
DEFAULT_255_2_778
10
10.4613295
20
87.4494535
40
1.2810956
50
88.5275725
51
89.9933609
0
ARC
8
DEFAULT_255_2_778
10
10.4511411
20
87.7344547
40
0.9961479
50
89.4054416
51
106.3193294
0
ARC
8
DEFAULT_255_2_778
10
10.3946861
20
87.9529485
40
0.7706275
50
106.8557054
51
149.8288091
0
ARC
8
DEFAULT_255_2_778
10
10.775739
20
87.7095408
40
1.222538
50
148.9420136
51
161.9785829
0
ARC
8
DEFAULT_255_2_778
10
11.3020672
20
87.5287119
40
1.7790119
50
161.6846609
51
168.1857204
0
ARC
8
DEFAULT_255_2_778
10
12.8217871
20
87.6270185
40
3.2718708
50
175.3380188
51
177.239243
0
ARC
8
DEFAULT_255_2_778
10
12.3816893
20
87.6482283
40
2.8312621
50
177.2389926
51
179.2579106
0
ARC
8
DEFAULT_255_2_778
10
12.1226449
20
87.6525663
40
2.5721835
50
179.2797977
51
179.997081
0
ARC
8
DEFAULT_255_2_778
10
11.5287532
20
87.6418266
40
1.9783218
50
179.685164
51
187.9157324
0
ARC
8
DEFAULT_255_2_778
10
10.7485775
20
87.5289488
40
1.1900425
50
187.7058519
51
200.7501942
0
ARC
8
DEFAULT_255_2_778
10
10.2940374
20
87.3506478
40
0.7018388
50
200.285316
51
226.003193
0
ARC
8
DEFAULT_255_2_778
10
10.2417272
20
87.321253
40
0.6445871
50
227.5333678
51
260.8859502
0
ARC
8
DEFAULT_255_2_778
10
10.3159986
20
87.6759098
40
1.0066772
50
259.909457
51
270.3040804
0
ARC
8
DEFAULT_255_2_778
10
10.2790738
20
87.8773691
40
1.2088614
50
272.0037306
51
285.2673781
0
ARC
8
DEFAULT_255_2_778
10
10.4242749
20
87.370205
40
0.6813929
50
284.7184446
51
311.5052848
0
ARC
8
DEFAULT_255_2_778
10
10.4507478
20
87.3113608
40
0.620078
50
313.2768898
51
348.334295
0
ARC
8
DEFAULT_255_2_778
10
10.0809552
20
87.4085043
40
1.0020815
50
347.169845
51
357.4457872
0
ARC
8
DEFAULT_255_2_778
10
10.2512204
20
87.324823
40
0.8317367
50
2.6892193
51
20.5669952
0
ARC
8
DEFAULT_255_2_778
10
10.5412912
20
87.4295263
40
0.5233863
50
20.9909632
51
80.0672524
0
ARC
8
DEFAULT_255_2_778
10
10.4384409
20
87.0922613
40
0.8744014
50
77.2397735
51
82.4822876
0
ARC
8
DEFAULT_255_2_778
10
10.4464814
20
87.3148338
40
0.6530327
50
80.6264546
51
89.82558
0
ARC
8
DEFAULT_255_2_778
10
10.4451404
20
87.460332
40
0.5075424
50
89.6241865
51
141.3899528
0
ARC
8
DEFAULT_255_2_778
10
10.9016361
20
87.8047661
40
0.8535451
50
180.0115641
51
181.8610322
0
ARC
8
DEFAULT_255_2_778
10
10.6368676
20
87.8177419
40
0.5889232
50
156.0255882
51
181.2792663
0
ARC
8
DEFAULT_255_2_778
10
10.5333761
20
87.8458235
40
0.4832281
50
111.9231915
51
154.0815651
0
ARC
8
DEFAULT_255_2_778
10
10.68209
20
87.5412191
40
0.8216866
50
103.7532635
51
113.6130875
0
ARC
8
DEFAULT_255_2_778
10
10.6403898
20
87.5483619
40
0.8057699
50
92.5207983
51
100.9927911
0
ARC
8
DEFAULT_255_2_778
10
10.6306613
20
87.7060489
40
0.6478136
50
90.0148804
51
92.2745994
0
ARC
8
DEFAULT_255_2_778
10
10.6406772
20
87.8980945
40
0.4558817
50
63.7079959
51
91.2800579
0
ARC
8
DEFAULT_255_2_778
10
10.670408
20
87.9735497
40
0.3751242
50
48.9737715
51
62.6742792
0
ARC
8
DEFAULT_255_2_778
10
30.1785353
20
86.8748811
40
19.3113844
50
175.2575184
51
175.8971708
0
ARC
8
DEFAULT_255_2_778
10
22.6192088
20
87.5044609
40
11.7258865
50
174.3772188
51
175.2694341
0
ARC
8
DEFAULT_255_2_778
10
10.3597913
20
87.3378839
40
0.3031341
50
121.8197945
51
181.349117
0
ARC
8
DEFAULT_255_2_778
10
10.321495
20
87.3873473
40
0.2409996
50
90.0365789
51
120.2835088
0
ARC
8
DEFAULT_255_2_778
10
10.3080439
20
87.3528304
40
0.2758371
50
4.9020354
51
87.2368836
0
ARC
8
DEFAULT_255_2_778
10
10.2468343
20
87.3308816
40
0.3391069
50
359.977225
51
7.7143311
0
ARC
8
DEFAULT_255_2_778
10
10.2827194
20
87.3236261
40
0.3033053
50
301.8378935
51
1.3452654
0
ARC
8
DEFAULT_255_2_778
10
10.3211788
20
87.273941
40
0.2408943
50
270.0386138
51
300.3004698
0
ARC
8
DEFAULT_255_2_778
10
10.3347022
20
87.308608
40
0.2758848
50
184.9383802
51
267.2240886
0
ARC
8
DEFAULT_255_2_778
10
10.3958861
20
87.3306121
40
0.3391449
50
179.9772287
51
187.7533159
0
ARC
8
DEFAULT_255_2_778
10
14.2500367
20
88.1372867
40
0.196428
50
359.1132603
51
75.5455553
0
ARC
8
DEFAULT_255_2_778
10
14.1041762
20
87.7662713
40
0.5941018
50
70.8499705
51
85.8521433
0
ARC
8
DEFAULT_255_2_778
10
14.0479566
20
87.2198922
40
1.143236
50
85.0225486
51
90.1767186
0
ARC
8
DEFAULT_255_2_778
10
14.046232
20
86.7445932
40
1.6185307
50
90.0637728
51
92.82489
0
ARC
8
DEFAULT_255_2_778
10
14.0646758
20
86.3448285
40
2.0187189
50
92.788549
51
94.4188025
0
LINE
8
DEFAULT_255_2_778
10
13.9091412
20
88.3575468
11
13.9091412
21
87.9112468
0
ARC
8
DEFAULT_255_2_778
10
14.0854752
20
89.7962555
40
1.8932383
50
264.6557905
51
267.0733852
0
ARC
8
DEFAULT_255_2_778
10
14.0637655
20
89.3668115
40
1.463246
50
267.0638054
51
269.9345327
0
ARC
8
DEFAULT_255_2_778
10
14.0724951
20
88.7694263
40
0.8659225
50
269.3117443
51
280.4586403
0
ARC
8
DEFAULT_255_2_778
10
14.1704988
20
88.26898
40
0.3560433
50
279.5684259
51
302.796058
0
ARC
8
DEFAULT_255_2_778
10
14.2583354
20
88.1259863
40
0.1883004
50
303.896665
51
2.6056841
0
ARC
8
DEFAULT_255_2_778
10
13.9566797
20
86.2656262
40
1.2615034
50
90.0241248
51
91.7415536
0
ARC
8
DEFAULT_255_2_778
10
13.9674203
20
86.7889962
40
0.7382193
50
78.5548299
51
90.8748723
0
ARC
8
DEFAULT_255_2_778
10
14.0700386
20
87.2614534
40
0.2548859
50
50.2867222
51
80.0898952
0
ARC
8
DEFAULT_255_2_778
10
14.137836
20
87.3530593
40
0.1412432
50
31.8279699
51
47.6985629
0
ARC
8
DEFAULT_255_2_778
10
14.5043766
20
87.4476006
40
0.2892453
50
30.0511509
51
72.9591011
0
ARC
8
DEFAULT_255_2_778
10
14.4570176
20
88.3080898
40
0.5987036
50
282.7491373
51
305.5113643
0
ARC
8
DEFAULT_255_2_778
10
14.5431409
20
88.1655957
40
0.4328728
50
307.1880142
51
357.0769535
0
ARC
8
DEFAULT_255_2_778
10
14.2732909
20
88.2092042
40
0.705225
50
354.6558826
51
0.0867867
0
ARC
8
DEFAULT_255_2_778
10
14.1827219
20
88.2102158
40
0.795793
50
0.0040753
51
1.1974941
0
ARC
8
DEFAULT_255_2_778
10
14.5282472
20
88.2232764
40
0.4501081
50
0.4545008
51
64.4592842
0
ARC
8
DEFAULT_255_2_778
10
14.3510536
20
87.8807271
40
0.8356696
50
63.623672
51
79.8439848
0
ARC
8
DEFAULT_255_2_778
10
14.2140434
20
87.1736923
40
1.5558182
50
79.4686222
51
88.72627
0
ARC
8
DEFAULT_255_2_778
10
14.1842779
20
86.5295902
40
2.200477
50
88.3242305
51
90.0178044
0
ARC
8
DEFAULT_255_2_778
10
14.1839739
20
86.275554
40
2.4545131
50
90.0088649
51
91.1796702
0
LINE
8
DEFAULT_255_2_778
10
14.1334412
20
88.7295468
11
13.3799412
21
88.7295468
0
LINE
8
DEFAULT_255_2_778
10
5.2157412
20
87.6646468
11
5.2376412
21
88.7306468
0
LINE
8
DEFAULT_255_2_778
10
5.2376412
20
88.7306468
11
6.4550412
21
88.7306468
0
LINE
8
DEFAULT_255_2_778
10
6.4550412
20
88.7306468
11
6.4550412
21
88.4295468
0
LINE
8
DEFAULT_255_2_778
10
6.4550412
20
88.4295468
11
5.6303412
21
88.4295468
0
LINE
8
DEFAULT_255_2_778
10
5.6303412
20
88.4295468
11
5.6303412
21
87.9776468
0
LINE
8
DEFAULT_255_2_778
10
5.1985412
20
86.6973468
11
5.1985412
21
87.0738468
0
LINE
8
DEFAULT_255_2_778
10
5.5911412
20
87.7135468
11
5.2376412
21
87.6760468
0
LINE
8
DEFAULT_255_2_778
10
6.9603412
20
87.5590468
11
6.9603412
21
87.9369468
0
LINE
8
DEFAULT_255_2_778
10
6.9603412
20
87.9369468
11
7.7366412
21
87.9369468
0
LINE
8
DEFAULT_255_2_778
10
7.7366412
20
87.9369468
11
7.7366412
21
87.5590468
0
LINE
8
DEFAULT_255_2_778
10
7.7366412
20
87.5590468
11
6.9603412
21
87.5590468
0
LINE
8
DEFAULT_255_2_778
10
2.9183412
20
86.7317468
11
3.5655412
21
87.7826468
0
LINE
8
DEFAULT_255_2_778
10
3.5655412
20
87.7826468
11
2.9871412
21
88.7306468
0
LINE
8
DEFAULT_255_2_778
10
2.9871412
20
88.7306468
11
3.6086412
21
88.7306468
0
LINE
8
DEFAULT_255_2_778
10
3.6086412
20
88.7306468
11
3.9435412
21
88.0721468
0
LINE
8
DEFAULT_255_2_778
10
3.9435412
20
88.0721468
11
4.2872412
21
88.7306468
0
LINE
8
DEFAULT_255_2_778
10
4.2872412
20
88.7306468
11
4.8714412
21
88.7306468
0
LINE
8
DEFAULT_255_2_778
10
4.8714412
20
88.7306468
11
4.2872412
21
87.7826468
0
LINE
8
DEFAULT_255_2_778
10
4.2872412
20
87.7826468
11
4.9286412
21
86.7317468
0
LINE
8
DEFAULT_255_2_778
10
4.9286412
20
86.7317468
11
4.2928412
21
86.7317468
0
LINE
8
DEFAULT_255_2_778
10
4.2928412
20
86.7317468
11
3.9062412
21
87.4677468
0
LINE
8
DEFAULT_255_2_778
10
3.9062412
20
87.4677468
11
3.5223412
21
86.7317468
0
LINE
8
DEFAULT_255_2_778
10
3.5223412
20
86.7317468
11
2.9180412
21
86.7317468
0
LINE
8
DEFAULT_255_2_778
10
1.4054412
20
86.7317468
11
1.4054412
21
88.7306468
0
LINE
8
DEFAULT_255_2_778
10
1.4054412
20
88.7306468
11
2.7429412
21
88.7306468
0
LINE
8
DEFAULT_255_2_778
10
2.7429412
20
88.7306468
11
2.7429412
21
88.3528468
0
LINE
8
DEFAULT_255_2_778
10
2.7429412
20
88.3528468
11
1.9383412
21
88.3528468
0
LINE
8
DEFAULT_255_2_778
10
1.9383412
20
88.3528468
11
1.9383412
21
87.9146468
0
LINE
8
DEFAULT_255_2_778
10
1.9383412
20
87.9146468
11
2.7085412
21
87.9146468
0
LINE
8
DEFAULT_255_2_778
10
2.7085412
20
87.9146468
11
2.7085412
21
87.5365468
0
LINE
8
DEFAULT_255_2_778
10
2.7085412
20
87.5365468
11
1.9383412
21
87.5365468
0
LINE
8
DEFAULT_255_2_778
10
1.9383412
20
87.5365468
11
1.9383412
21
86.7317468
0
LINE
8
DEFAULT_255_2_778
10
1.9383412
20
86.7317468
11
1.4054412
21
86.7317468
0
LINE
8
DEFAULT_255_2_778
10
19.5788412
20
88.6822468
11
19.5328412
21
88.3626468
0
LINE
8
DEFAULT_255_2_778
10
11.5530412
20
86.7317468
11
11.5530412
21
88.7306468
0
LINE
8
DEFAULT_255_2_778
10
11.5530412
20
88.7306468
11
12.9619412
21
88.7306468
0
LINE
8
DEFAULT_255_2_778
10
12.9619412
20
88.7306468
11
12.9619412
21
88.3528468
0
LINE
8
DEFAULT_255_2_778
10
12.9619412
20
88.3528468
11
12.0856412
21
88.3528468
0
LINE
8
DEFAULT_255_2_778
10
12.0856412
20
88.3528468
11
12.0856412
21
87.9403468
0
LINE
8
DEFAULT_255_2_778
10
12.0856412
20
87.9403468
11
12.9132412
21
87.9403468
0
LINE
8
DEFAULT_255_2_778
10
12.9132412
20
87.9403468
11
12.9132412
21
87.5622468
0
LINE
8
DEFAULT_255_2_778
10
12.9132412
20
87.5622468
11
12.0856412
21
87.5622468
0
LINE
8
DEFAULT_255_2_778
10
12.0856412
20
87.5622468
11
12.0856412
21
87.1098468
0
LINE
8
DEFAULT_255_2_778
10
12.0856412
20
87.1098468
11
12.9934412
21
87.1098468
0
LINE
8
DEFAULT_255_2_778
10
12.9934412
20
87.1098468
11
12.9934412
21
86.7317468
0
LINE
8
DEFAULT_255_2_778
10
12.9934412
20
86.7317468
11
11.5530412
21
86.7317468
0
LINE
8
DEFAULT_255_2_778
10
8.2004412
20
87.9289468
11
7.9628412
21
88.2895468
0
LINE
8
DEFAULT_255_2_778
10
7.9628412
20
88.2895468
11
8.6415412
21
88.7306468
0
LINE
8
DEFAULT_255_2_778
10
8.6415412
20
88.7306468
11
9.1114412
21
88.7306468
0
LINE
8
DEFAULT_255_2_778
10
9.1114412
20
88.7306468
11
9.1114412
21
86.7317468
0
LINE
8
DEFAULT_255_2_778
10
9.1114412
20
86.7317468
11
8.5788412
21
86.7317468
0
LINE
8
DEFAULT_255_2_778
10
8.5788412
20
86.7317468
11
8.5788412
21
88.1980468
0
LINE
8
DEFAULT_255_2_778
10
8.5788412
20
88.1980468
11
8.2004412
21
87.9289468
0
LINE
8
DEFAULT_255_2_778
10
10.9497412
20
88.6533468
11
10.9497412
21
88.6536468
0
LINE
8
DEFAULT_255_2_778
10
10.0567412
20
87.3307468
11
10.0567412
21
87.3307468
0
LINE
8
DEFAULT_255_2_778
10
14.4464412
20
88.1345468
11
14.4464412
21
88.1342468
0
LINE
8
DEFAULT_255_2_778
10
13.3799412
20
88.7301468
11
13.3799412
21
86.7354468
0
LINE
8
DEFAULT_255_2_778
10
13.3799412
20
86.7354468
11
13.9183412
21
86.7354468
0
LINE
8
DEFAULT_255_2_778
10
13.9183412
20
86.7354468
11
13.9183412
21
87.5265468
0
LINE
8
DEFAULT_255_2_778
10
14.2578412
20
87.4275468
11
14.5144412
21
86.7433468
0
LINE
8
DEFAULT_255_2_778
10
14.5144412
20
86.7433468
11
15.0693412
21
86.7351468
0
LINE
8
DEFAULT_255_2_778
10
15.0693412
20
86.7351468
11
14.7547412
21
87.5924468
0
LINE
8
DEFAULT_255_2_778
10
13.3799412
20
88.7295468
11
13.3799412
21
88.7301468
0
LINE
8
DEFAULT_255_2_778
10
15.3979412
20
86.6629468
11
15.9535412
21
88.7303468
0
LINE
8
DEFAULT_255_2_778
10
15.9535412
20
88.7303468
11
16.3144412
21
88.7303468
0
LINE
8
DEFAULT_255_2_778
10
16.3144412
20
88.7303468
11
15.7588412
21
86.6626468
0
LINE
8
DEFAULT_255_2_778
10
15.7588412
20
86.6626468
11
15.3979412
21
86.6626468
0
LINE
8
DEFAULT_255_2_778
10
16.5676412
20
86.7317468
11
16.5676412
21
88.7306468
0
LINE
8
DEFAULT_255_2_778
10
16.5676412
20
88.7306468
11
17.9765412
21
88.7306468
0
LINE
8
DEFAULT_255_2_778
10
17.9765412
20
88.7306468
11
17.9765412
21
88.3528468
0
LINE
8
DEFAULT_255_2_778
10
17.9765412
20
88.3528468
11
17.1002412
21
88.3528468
0
LINE
8
DEFAULT_255_2_778
10
17.1002412
20
88.3528468
11
17.1002412
21
87.9403468
0
LINE
8
DEFAULT_255_2_778
10
17.1002412
20
87.9403468
11
17.9278412
21
87.9403468
0
LINE
8
DEFAULT_255_2_778
10
17.9278412
20
87.9403468
11
17.9278412
21
87.5622468
0
LINE
8
DEFAULT_255_2_778
10
17.9278412
20
87.5622468
11
17.1002412
21
87.5622468
0
LINE
8
DEFAULT_255_2_778
10
17.1002412
20
87.5622468
11
17.1002412
21
87.1098468
0
LINE
8
DEFAULT_255_2_778
10
17.1002412
20
87.1098468
11
18.0080412
21
87.1098468
0
LINE
8
DEFAULT_255_2_778
10
18.0080412
20
87.1098468
11
18.0080412
21
86.7317468
0
LINE
8
DEFAULT_255_2_778
10
18.0080412
20
86.7317468
11
16.5676412
21
86.7317468
0
ARC
8
DEFAULT_255_2_778
10
35.7741696
20
12.9798304
40
0.5488398
50
89.8682888
51
180.1317112
0
ARC
8
DEFAULT_255_2_778
10
35.7766782
20
12.9799154
40
0.5487547
50
359.8593896
51
90.1301939
0
ARC
8
DEFAULT_255_2_778
10
35.7767632
20
12.9772368
40
0.5486696
50
269.8609058
51
0.1390942
0
ARC
8
DEFAULT_255_2_778
10
35.7740846
20
12.9773218
40
0.5487547
50
179.8698061
51
270.1406104
0
LINE
8
DEFAULT_255_2_778
10
35.2253313
20
12.9785687
11
35.2253313
21
12.9785687
0
ARC
8
DEFAULT_255_2_778
10
35.7741696
20
10.8986304
40
0.5488398
50
89.8682888
51
180.1317112
0
ARC
8
DEFAULT_255_2_778
10
35.7766782
20
10.8987154
40
0.5487547
50
359.8593896
51
90.1301939
0
ARC
8
DEFAULT_255_2_778
10
35.7767632
20
10.8960368
40
0.5486696
50
269.8609058
51
0.1390942
0
ARC
8
DEFAULT_255_2_778
10
35.7740846
20
10.8961218
40
0.5487547
50
179.8698061
51
270.1406104
0
LINE
8
DEFAULT_255_2_778
10
35.2253313
20
10.8973687
11
35.2253313
21
10.8973687
0
ARC
8
DEFAULT_255_2_778
10
35.7741696
20
17.1419304
40
0.5488398
50
89.8682888
51
180.1317112
0
ARC
8
DEFAULT_255_2_778
10
35.7766782
20
17.1420154
40
0.5487547
50
359.8593896
51
90.1301939
0
ARC
8
DEFAULT_255_2_778
10
35.7767632
20
17.1393368
40
0.5486696
50
269.8609058
51
0.1390942
0
ARC
8
DEFAULT_255_2_778
10
35.7740846
20
17.1394218
40
0.5487547
50
179.8698061
51
270.1406104
0
LINE
8
DEFAULT_255_2_778
10
35.2253313
20
17.1406687
11
35.2253313
21
17.1406687
0
ARC
8
DEFAULT_255_2_778
10
35.7741696
20
15.0607304
40
0.5488398
50
89.8682888
51
180.1317112
0
ARC
8
DEFAULT_255_2_778
10
35.7766782
20
15.0608154
40
0.5487547
50
359.8593896
51
90.1301939
0
ARC
8
DEFAULT_255_2_778
10
35.7767632
20
15.0581368
40
0.5486696
50
269.8609058
51
0.1390942
0
ARC
8
DEFAULT_255_2_778
10
35.7740846
20
15.0582218
40
0.5487547
50
179.8698061
51
270.1406104
0
LINE
8
DEFAULT_255_2_778
10
35.2253313
20
15.0594687
11
35.2253313
21
15.0594687
0
ARC
8
DEFAULT_255_2_778
10
30.9406764
20
16.8659525
40
0.2289447
50
195.3882163
51
272.8428191
0
ARC
8
DEFAULT_255_2_778
10
31.23641
20
16.9682975
40
0.541611
50
180.9005656
51
197.5256968
0
ARC
8
DEFAULT_255_2_778
10
31.5308249
20
16.9885408
40
0.8364534
50
181.1201044
51
181.9701189
0
ARC
8
DEFAULT_255_2_778
10
31.0578428
20
16.9059721
40
0.6194428
50
179.4249054
51
197.770415
0
ARC
8
DEFAULT_255_2_778
10
30.8512722
20
16.8506767
40
0.4059848
50
199.2367464
51
265.4648723
0
ARC
8
DEFAULT_255_2_778
10
30.9595666
20
17.344754
40
0.9096901
50
261.1218491
51
270.3221771
0
ARC
8
DEFAULT_255_2_778
10
30.9646788
20
17.574679
40
1.1396006
50
270.0001506
51
270.2540212
0
ARC
8
DEFAULT_255_2_778
10
30.9867637
20
17.090232
40
0.6553639
50
268.5107491
51
297.1428855
0
ARC
8
DEFAULT_255_2_778
10
31.1038832
20
16.8229771
40
0.3645402
50
299.9264703
51
342.8462718
0
ARC
8
DEFAULT_255_2_778
10
30.8443433
20
16.907859
40
0.637586
50
342.4366411
51
359.8484189
0
LINE
8
DEFAULT_255_2_778
10
31.4819272
20
16.9061722
11
31.4819312
21
16.9063895
0
ARC
8
DEFAULT_255_2_778
10
30.6855145
20
16.973725
40
0.5403169
50
342.5596022
51
359.953823
0
ARC
8
DEFAULT_255_2_778
10
30.962863
20
16.8811093
40
0.2480153
50
301.5620575
51
343.7685938
0
ARC
8
DEFAULT_255_2_778
10
30.9623401
20
16.9041845
40
0.2682032
50
269.5494813
51
299.0762549
0
ARC
8
DEFAULT_255_2_778
10
29.5567908
20
16.8919277
40
0.8660761
50
90.0024338
51
90.3281041
0
ARC
8
DEFAULT_255_2_778
10
29.5926236
20
17.1773063
40
0.5818041
50
28.4614774
51
93.5346639
0
ARC
8
DEFAULT_255_2_778
10
29.4704754
20
17.13939
40
0.7076963
50
6.3989434
51
26.4468942
0
ARC
8
DEFAULT_255_2_778
10
29.1816693
20
17.095943
40
0.9996057
50
0.5357384
51
7.028813
0
ARC
8
DEFAULT_255_2_778
10
29.532424
20
17.1376996
40
0.6957938
50
270.0009744
51
271.9031383
0
ARC
8
DEFAULT_255_2_778
10
29.5136093
20
17.0249809
40
0.5833791
50
207.0194643
51
271.8493377
0
ARC
8
DEFAULT_255_2_778
10
29.6089206
20
17.0545204
40
0.6819184
50
183.7357769
51
205.5923011
0
ARC
8
DEFAULT_255_2_778
10
29.8104249
20
17.0777863
40
0.8845679
50
179.9577756
51
184.3891742
0
ARC
8
DEFAULT_255_2_778
10
29.8775105
20
17.0783921
40
0.9516533
50
178.9043283
51
179.9972261
0
ARC
8
DEFAULT_255_2_778
10
29.5563332
20
17.2776932
40
0.8354175
50
269.6706607
51
270.0022743
0
ARC
8
DEFAULT_255_2_778
10
29.5908828
20
17.0230158
40
0.581765
50
266.5986165
51
332.4318419
0
ARC
8
DEFAULT_255_2_778
10
29.4568157
20
17.0674288
40
0.7215212
50
334.232859
51
354.1024077
0
ARC
8
DEFAULT_255_2_778
10
29.172275
20
17.1081525
40
1.0088034
50
353.4622264
51
359.4454951
0
ARC
8
DEFAULT_255_2_778
10
29.5186937
20
17.0869432
40
0.6705425
50
86.8764309
51
89.996992
0
ARC
8
DEFAULT_255_2_778
10
29.5025324
20
17.1879705
40
0.5697455
50
88.3709995
51
152.9193011
0
ARC
8
DEFAULT_255_2_778
10
29.6050656
20
17.1507739
40
0.6781067
50
154.0650379
51
175.8123493
0
ARC
8
DEFAULT_255_2_778
10
29.806168
20
17.1263261
40
0.880511
50
175.1813186
51
180.0506804
0
ARC
8
DEFAULT_255_2_778
10
29.8779353
20
17.1255929
40
0.952278
50
180.0027478
51
181.0953116
0
ARC
8
DEFAULT_255_2_778
10
29.5601961
20
17.2168697
40
0.3396304
50
58.9695524
51
91.461928
0
ARC
8
DEFAULT_255_2_778
10
29.4872274
20
17.1678481
40
0.4209038
50
4.2828089
51
53.891395
0
ARC
8
DEFAULT_255_2_778
10
29.1345114
20
17.0875356
40
0.7804853
50
2.9889211
51
8.2315684
0
ARC
8
DEFAULT_255_2_778
10
29.0589224
20
17.0829848
40
0.8562089
50
359.9869367
51
3.0292864
0
ARC
8
DEFAULT_255_2_778
10
29.545536
20
16.9838939
40
0.3398157
50
238.9906851
51
271.4662433
0
ARC
8
DEFAULT_255_2_778
10
29.6196013
20
17.0333878
40
0.4221052
50
183.8818196
51
233.8280994
0
ARC
8
DEFAULT_255_2_778
10
29.9730406
20
17.1122282
40
0.7819889
50
182.9233524
51
187.8952838
0
ARC
8
DEFAULT_255_2_778
10
30.0453361
20
17.1164459
40
0.8544055
50
179.987176
51
182.9585706
0
ARC
8
DEFAULT_255_2_778
10
30.0209264
20
17.1166372
40
0.8299959
50
179.9204514
51
180.0000012
0
ARC
8
DEFAULT_255_2_778
10
29.546561
20
17.21544
40
0.3392603
50
88.5355728
51
121.0478874
0
ARC
8
DEFAULT_255_2_778
10
29.6197789
20
17.1662212
40
0.4208506
50
126.1386547
51
175.7402859
0
ARC
8
DEFAULT_255_2_778
10
29.9737656
20
17.0857619
40
0.7816993
50
171.7832563
51
177.0176604
0
ARC
8
DEFAULT_255_2_778
10
30.0501211
20
17.0811816
40
0.8581899
50
176.9775038
51
180.0128247
0
ARC
8
DEFAULT_255_2_778
10
29.5604901
20
16.9834977
40
0.3394186
50
268.5381765
51
301.0403409
0
ARC
8
DEFAULT_255_2_778
10
29.4859487
20
17.0337065
40
0.4225844
50
306.1964689
51
356.0808489
0
ARC
8
DEFAULT_255_2_778
10
29.13311
20
17.1126053
40
0.7818991
50
352.0767539
51
357.04864
0
ARC
8
DEFAULT_255_2_778
10
29.061172
20
17.1168348
40
0.8539597
50
357.013755
51
0.0125504
0
ARC
8
DEFAULT_255_2_778
10
29.1785763
20
17.1172138
40
0.7365552
50
359.9850708
51
0.044785
0
ARC
8
DEFAULT_255_2_778
10
33.4579317
20
17.1721643
40
1.187664
50
359.4030028
51
10.8052161
0
ARC
8
DEFAULT_255_2_778
10
34.0515126
20
17.2915644
40
0.5822541
50
10.2143822
51
31.9948933
0
ARC
8
DEFAULT_255_2_778
10
34.2261762
20
17.388808
40
0.3827314
50
33.5029437
51
89.7786064
0
ARC
8
DEFAULT_255_2_778
10
34.1911081
20
17.1379047
40
0.634685
50
86.6989234
51
90.0340248
0
ARC
8
DEFAULT_255_2_778
10
34.1775501
20
17.2347767
40
0.5379743
50
88.5960356
51
112.9895216
0
ARC
8
DEFAULT_255_2_778
10
34.1345929
20
17.3725358
40
0.3946368
50
115.0600518
51
164.7323093
0
ARC
8
DEFAULT_255_2_778
10
34.5525142
20
17.2317509
40
0.8352781
50
162.9646671
51
178.1928538
0
ARC
8
DEFAULT_255_2_778
10
34.9963874
20
17.199965
40
1.2800564
50
177.3973323
51
180.03471
0
ARC
8
DEFAULT_255_2_778
10
35.06912
20
17.1871032
40
1.3528428
50
179.4881089
51
189.7717837
0
ARC
8
DEFAULT_255_2_778
10
34.4095243
20
17.0675197
40
0.682546
50
189.2765752
51
208.2097083
0
ARC
8
DEFAULT_255_2_778
10
34.15946
20
16.9378063
40
0.4008871
50
208.7669649
51
272.1162551
0
ARC
8
DEFAULT_255_2_778
10
34.1906678
20
17.1998799
40
0.6628904
50
268.5819917
51
270.0054791
0
ARC
8
DEFAULT_255_2_778
10
34.2043577
20
16.9890246
40
0.4522404
50
268.2733508
51
298.5774154
0
ARC
8
DEFAULT_255_2_778
10
34.2122762
20
16.9344788
40
0.4010091
50
301.3128646
51
341.5010984
0
ARC
8
DEFAULT_255_2_778
10
33.804503
20
17.0910203
40
0.8375982
50
340.1963691
51
355.289789
0
ARC
8
DEFAULT_255_2_778
10
33.2187598
20
17.1557914
40
1.4267769
50
354.6290465
51
0.1605557
0
ARC
8
DEFAULT_255_2_778
10
34.1867607
20
17.4341985
40
0.1210315
50
92.760694
51
162.3822395
0
ARC
8
DEFAULT_255_2_778
10
34.5236729
20
17.2777209
40
0.491769
50
156.8784204
51
172.9024128
0
ARC
8
DEFAULT_255_2_778
10
35.3761932
20
17.1531101
40
1.3532774
50
172.1267964
51
179.7071059
0
ARC
8
DEFAULT_255_2_778
10
36.1870747
20
17.1304427
40
2.1643435
50
179.2167785
51
180.0067027
0
ARC
8
DEFAULT_255_2_778
10
35.2495051
20
17.1184583
40
1.22683
50
179.4521136
51
187.5626403
0
ARC
8
DEFAULT_255_2_778
10
34.466997
20
17.0082469
40
0.4366684
50
186.7403382
51
203.8794272
0
ARC
8
DEFAULT_255_2_778
10
34.1767575
20
16.8697684
40
0.1155771
50
199.3477427
51
268.2284547
0
ARC
8
DEFAULT_255_2_778
10
34.1731293
20
16.879608
40
0.1253614
50
270.0252463
51
273.5681556
0
ARC
8
DEFAULT_255_2_778
10
34.1763744
20
16.8819695
40
0.1275614
50
272.0471988
51
344.067206
0
ARC
8
DEFAULT_255_2_778
10
33.8328041
20
17.0303133
40
0.5009918
50
338.5311522
51
354.557571
0
ARC
8
DEFAULT_255_2_778
10
33.0813965
20
17.1219485
40
1.2578616
50
353.6486068
51
0.3753842
0
ARC
8
DEFAULT_255_2_778
10
32.362041
20
17.1759601
40
1.9777199
50
358.6738797
51
359.9811948
0
ARC
8
DEFAULT_255_2_778
10
33.1371497
20
17.1865
40
1.2026631
50
359.4669413
51
7.6159387
0
ARC
8
DEFAULT_255_2_778
10
33.8894329
20
17.2933885
40
0.4428938
50
6.8081512
51
23.9776067
0
ARC
8
DEFAULT_255_2_778
10
34.1780522
20
17.4318712
40
0.1232518
50
19.6766765
51
88.6614937
0
LINE
8
DEFAULT_255_2_778
10
32.0497312
20
16.4570895
11
32.0497312
21
17.5346895
0
LINE
8
DEFAULT_255_2_778
10
32.0497312
20
17.5346895
11
31.6833312
21
17.5346895
0
LINE
8
DEFAULT_255_2_778
10
31.6833312
20
17.5346895
11
31.6833312
21
17.7363895
0
LINE
8
DEFAULT_255_2_778
10
31.6833312
20
17.7363895
11
32.6725312
21
17.7363895
0
LINE
8
DEFAULT_255_2_778
10
32.6725312
20
17.7363895
11
32.6725312
21
17.5346895
0
LINE
8
DEFAULT_255_2_778
10
32.6725312
20
17.5346895
11
32.3061312
21
17.5346895
0
LINE
8
DEFAULT_255_2_778
10
32.3061312
20
17.5346895
11
32.3061312
21
16.4570895
0
LINE
8
DEFAULT_255_2_778
10
32.3061312
20
16.4570895
11
32.0497312
21
16.4570895
0
LINE
8
DEFAULT_255_2_778
10
30.6945312
20
16.9721895
11
30.6945312
21
17.7347895
0
LINE
8
DEFAULT_255_2_778
10
30.6945312
20
17.7347895
11
30.4384312
21
17.7347895
0
LINE
8
DEFAULT_255_2_778
10
30.4384312
20
17.7347895
11
30.4384312
21
16.9121895
0
LINE
8
DEFAULT_255_2_778
10
31.4819312
20
16.9063895
11
31.4819312
21
17.7357895
0
LINE
8
DEFAULT_255_2_778
10
31.4819312
20
17.7357895
11
31.2258312
21
17.7357895
0
LINE
8
DEFAULT_255_2_778
10
31.2258312
20
17.7357895
11
31.2258312
21
16.9732895
0
LINE
8
DEFAULT_255_2_778
10
34.6455312
20
17.1597895
11
34.6455312
21
17.1597895
0
LINE
8
DEFAULT_255_2_778
10
34.1809312
20
17.5550895
11
34.1809312
21
17.5550895
0
LINE
8
DEFAULT_255_2_778
10
34.1169312
20
15.2471895
11
33.9791312
21
15.4563895
0
LINE
8
DEFAULT_255_2_778
10
33.9791312
20
15.4563895
11
34.3728312
21
15.7122895
0
LINE
8
DEFAULT_255_2_778
10
34.3728312
20
15.7122895
11
34.6455312
21
15.7122895
0
LINE
8
DEFAULT_255_2_778
10
34.6455312
20
15.7122895
11
34.6455312
21
14.5525895
0
LINE
8
DEFAULT_255_2_778
10
34.6455312
20
14.5525895
11
34.3365312
21
14.5525895
0
LINE
8
DEFAULT_255_2_778
10
34.3365312
20
14.5525895
11
34.3365312
21
15.4032895
0
LINE
8
DEFAULT_255_2_778
10
34.3365312
20
15.4032895
11
34.1169312
21
15.2471895
0
ARC
8
DEFAULT_255_2_778
10
32.8787985
20
14.4912859
40
2.18407
50
306.8047574
51
312.6834641
0
ARC
8
DEFAULT_255_2_778
10
33.4930285
20
13.8312537
40
1.2824643
50
312.5020944
51
321.8643742
0
ARC
8
DEFAULT_255_2_778
10
33.9610578
20
13.4688242
40
0.6905373
50
321.5365936
51
337.3586774
0
ARC
8
DEFAULT_255_2_778
10
34.2243811
20
13.35817
40
0.4049106
50
337.4658182
51
359.3745994
0
ARC
8
DEFAULT_255_2_778
10
34.2759815
20
13.3525758
40
0.353288
50
0.1904963
51
27.744381
0
ARC
8
DEFAULT_255_2_778
10
34.2595722
20
13.2859561
40
0.4021127
50
35.0770454
51
83.5463629
0
ARC
8
DEFAULT_255_2_778
10
34.2120688
20
13.0462081
40
0.6459983
50
81.7495965
51
90.2025407
0
ARC
8
DEFAULT_255_2_778
10
34.2149429
20
12.7697629
40
0.922454
50
90.3203559
51
99.2118123
0
ARC
8
DEFAULT_255_2_778
10
34.2873432
20
12.3105528
40
1.3873336
50
99.1273185
51
105.5069451
0
ARC
8
DEFAULT_255_2_778
10
34.4025823
20
11.8752824
40
1.8375769
50
105.34083
51
107.7440299
0
ARC
8
DEFAULT_255_2_778
10
34.4971553
20
11.6443853
40
1.8500068
50
106.5683371
51
110.2593494
0
ARC
8
DEFAULT_255_2_778
10
34.2794797
20
12.3809516
40
1.0819513
50
101.3717679
51
106.6425086
0
ARC
8
DEFAULT_255_2_778
10
34.1809372
20
12.8802116
40
0.5730654
50
93.1388049
51
101.5550568
0
ARC
8
DEFAULT_255_2_778
10
34.1665237
20
13.0855959
40
0.3672134
50
90.0383485
51
92.6479304
0
ARC
8
DEFAULT_255_2_778
10
34.1720918
20
13.2467632
40
0.2061279
50
70.2225858
51
91.6162375
0
ARC
8
DEFAULT_255_2_778
10
34.2063171
20
13.3477668
40
0.0995209
50
354.323645
51
69.0885168
0
ARC
8
DEFAULT_255_2_778
10
34.0576084
20
13.3399769
40
0.2477503
50
349.3291644
51
359.5250446
0
ARC
8
DEFAULT_255_2_778
10
33.9065071
20
13.3669766
40
0.4012406
50
343.4140598
51
349.5356735
0
ARC
8
DEFAULT_255_2_778
10
33.2878238
20
13.7691399
40
1.128471
50
316.5324959
51
332.7499226
0
ARC
8
DEFAULT_255_2_778
10
32.7500983
20
14.2680722
40
1.8619865
50
306.8025607
51
316.7730378
0
ARC
8
DEFAULT_255_2_778
10
32.3712513
20
14.7470747
40
2.4725321
50
305.8335787
51
307.182451
0
LINE
8
DEFAULT_255_2_778
10
33.8187531
20
12.7425411
11
33.8187531
21
12.5253411
0
LINE
8
DEFAULT_255_2_778
10
33.8187531
20
12.5253411
11
34.6450531
21
12.5253411
0
ARC
8
DEFAULT_255_2_778
10
34.6737117
20
12.5367244
40
0.0308366
50
175.9242391
51
201.6631321
0
ARC
8
DEFAULT_255_2_778
10
35.984057
20
12.6103925
40
1.3430072
50
180.5314484
51
183.050787
0
ARC
8
DEFAULT_255_2_778
10
42.3993462
20
12.7099448
40
7.7590473
50
180.0797748
51
180.8271474
0
ARC
8
DEFAULT_255_2_778
10
51.3927806
20
12.7414541
40
16.7525275
50
179.9962821
51
180.1447143
0
LINE
8
DEFAULT_255_2_778
10
34.6402531
20
12.7425411
11
34.1870531
21
12.7425411
0
LINE
8
DEFAULT_255_2_778
10
33.8425531
20
13.6254411
11
33.8565531
21
13.3799411
0
LINE
8
DEFAULT_255_2_778
10
34.1870531
20
12.7425411
11
34.1872531
21
12.7425411
0
ARC
8
DEFAULT_255_2_778
10
34.1708933
20
10.4500757
40
1.0257482
50
89.3164515
51
100.4183253
0
ARC
8
DEFAULT_255_2_778
10
34.0722077
20
10.9855481
40
0.4812581
50
100.3912719
51
115.630696
0
ARC
8
DEFAULT_255_2_778
10
34.9390003
20
11.6197906
40
1.093479
50
180.4942079
51
190.5569704
0
ARC
8
DEFAULT_255_2_778
10
35.5748743
20
11.6442376
40
1.7296441
50
179.9896242
51
181.1223341
0
ARC
8
DEFAULT_255_2_778
10
34.1942448
20
10.4552449
40
1.2394594
50
90.3263072
51
106.354885
0
ARC
8
DEFAULT_255_2_778
10
34.1878607
20
10.6145502
40
1.0801342
50
81.2630935
51
90.0357903
0
ARC
8
DEFAULT_255_2_778
10
34.24861
20
11.1980212
40
0.495032
50
59.0086041
51
77.9529607
0
ARC
8
DEFAULT_255_2_778
10
34.3810202
20
11.4134467
40
0.2421942
50
358.064282
51
59.6197572
0
ARC
8
DEFAULT_255_2_778
10
34.2270443
20
11.4072755
40
0.396037
50
349.8136007
51
359.7092519
0
ARC
8
DEFAULT_255_2_778
10
34.1366652
20
11.4211166
40
0.487445
50
348.6816922
51
350.0910863
0
ARC
8
DEFAULT_255_2_778
10
34.3746542
20
11.3647944
40
0.24318
50
309.3194365
51
350.6893308
0
ARC
8
DEFAULT_255_2_778
10
34.4054651
20
11.3470441
40
0.2103019
50
275.885703
51
305.8876276
0
ARC
8
DEFAULT_255_2_778
10
34.2733803
20
10.7055628
40
0.4587825
50
52.0100244
51
70.4330313
0
ARC
8
DEFAULT_255_2_778
10
34.418844
20
10.8866503
40
0.2265499
50
359.469999
51
52.8140466
0
ARC
8
DEFAULT_255_2_778
10
34.3123546
20
10.8881414
40
0.3330489
50
343.775511
51
359.3829475
0
ARC
8
DEFAULT_255_2_778
10
34.1574295
20
10.9290636
40
0.4932539
50
337.9578211
51
344.239432
0
ARC
8
DEFAULT_255_2_778
10
34.2833242
20
10.901403
40
0.3668173
50
284.4662942
51
334.5807614
0
ARC
8
DEFAULT_255_2_778
10
34.1779023
20
11.2316004
40
0.7131503
50
271.404603
51
286.0406019
0
ARC
8
DEFAULT_255_2_778
10
34.1577114
20
11.5472107
40
1.029236
50
269.9797601
51
272.0976037
0
ARC
8
DEFAULT_255_2_778
10
34.1613617
20
11.8244634
40
1.3064948
50
264.1361098
51
269.8239735
0
ARC
8
DEFAULT_255_2_778
10
34.2140398
20
12.3517341
40
1.836389
50
259.9117765
51
264.1818639
0
ARC
8
DEFAULT_255_2_778
10
34.2935469
20
12.8195721
40
2.3109236
50
258.3382172
51
260.0027875
0
LINE
8
DEFAULT_255_2_778
10
33.8264304
20
10.5563509
11
33.8264304
21
10.8002509
0
ARC
8
DEFAULT_255_2_778
10
34.2889322
20
12.3708887
40
1.6373183
50
253.5920123
51
258.0285659
0
ARC
8
DEFAULT_255_2_778
10
34.155608
20
11.7341279
40
0.9867531
50
257.9324711
51
264.412025
0
ARC
8
DEFAULT_255_2_778
10
34.1186982
20
11.3752163
40
0.6259555
50
264.5754781
51
269.8386915
0
ARC
8
DEFAULT_255_2_778
10
34.1245683
20
11.0874825
40
0.3383054
50
268.707267
51
287.8065339
0
ARC
8
DEFAULT_255_2_778
10
34.1830651
20
10.9135346
40
0.1548222
50
286.8811116
51
345.7600579
0
ARC
8
DEFAULT_255_2_778
10
34.1846755
20
10.8678962
40
0.148647
50
2.9131958
51
88.7789071
0
ARC
8
DEFAULT_255_2_778
10
34.1394847
20
10.6506311
40
0.3690604
50
82.4708014
51
90.2588624
0
ARC
8
DEFAULT_255_2_778
10
34.1410439
20
10.4352872
40
0.5844093
50
90.3163371
51
97.5286368
0
ARC
8
DEFAULT_255_2_778
10
34.1745824
20
10.1581735
40
0.8635338
50
97.3257056
51
100.7150309
0
LINE
8
DEFAULT_255_2_778
10
34.0140304
20
11.0066509
11
34.0140304
21
11.2130509
0
ARC
8
DEFAULT_255_2_778
10
34.1099924
20
11.8671419
40
0.6610929
50
261.653655
51
267.9735739
0
ARC
8
DEFAULT_255_2_778
10
34.1030367
20
11.7220647
40
0.5158636
50
268.1758616
51
269.9844248
0
ARC
8
DEFAULT_255_2_778
10
34.1133013
20
11.5084026
40
0.3023804
50
268.0280784
51
294.8681182
0
ARC
8
DEFAULT_255_2_778
10
34.1580093
20
11.3974623
40
0.1830271
50
296.7753207
51
343.0983422
0
ARC
8
DEFAULT_255_2_778
10
34.2128462
20
11.355184
40
0.12078
50
354.8064078
51
96.0132377
0
ARC
8
DEFAULT_255_2_778
10
34.1833815
20
11.1625201
40
0.3132308
50
86.9232886
51
90.0459355
0
LINE
8
DEFAULT_255_2_778
10
34.1831304
20
11.4757509
11
34.1831304
21
11.4757509
0
ARC
8
DEFAULT_255_2_778
10
35.7455696
20
4.6555304
40
0.5488398
50
89.8682888
51
180.1317112
0
ARC
8
DEFAULT_255_2_778
10
35.7480782
20
4.6556154
40
0.5487547
50
359.8593896
51
90.1301939
0
ARC
8
DEFAULT_255_2_778
10
35.7481632
20
4.6529368
40
0.5486696
50
269.8609058
51
0.1390942
0
ARC
8
DEFAULT_255_2_778
10
35.7454846
20
4.6530218
40
0.5487547
50
179.8698061
51
270.1406104
0
LINE
8
DEFAULT_255_2_778
10
35.1967313
20
4.6542687
11
35.1967313
21
4.6542687
0
ARC
8
DEFAULT_255_2_778
10
35.7455696
20
2.5745304
40
0.5488398
50
89.8682888
51
180.1317112
0
ARC
8
DEFAULT_255_2_778
10
35.7480782
20
2.5746154
40
0.5487547
50
359.8593896
51
90.1301939
0
ARC
8
DEFAULT_255_2_778
10
35.7481632
20
2.5719368
40
0.5486696
50
269.8609058
51
0.1390942
0
ARC
8
DEFAULT_255_2_778
10
35.7454846
20
2.5720218
40
0.5487547
50
179.8698061
51
270.1406104
0
LINE
8
DEFAULT_255_2_778
10
35.1967313
20
2.5732687
11
35.1967313
21
2.5732687
0
ARC
8
DEFAULT_255_2_778
10
35.7455696
20
8.8176304
40
0.5488398
50
89.8682888
51
180.1317112
0
ARC
8
DEFAULT_255_2_778
10
35.7480782
20
8.8177154
40
0.5487547
50
359.8593896
51
90.1301939
0
ARC
8
DEFAULT_255_2_778
10
35.7481632
20
8.8150368
40
0.5486696
50
269.8609058
51
0.1390942
0
ARC
8
DEFAULT_255_2_778
10
35.7454846
20
8.8151218
40
0.5487547
50
179.8698061
51
270.1406104
0
LINE
8
DEFAULT_255_2_778
10
35.1967313
20
8.8163687
11
35.1967313
21
8.8163687
0
ARC
8
DEFAULT_255_2_778
10
35.7455696
20
6.7364304
40
0.5488398
50
89.8682888
51
180.1317112
0
ARC
8
DEFAULT_255_2_778
10
35.7480782
20
6.7365154
40
0.5487547
50
359.8593896
51
90.1301939
0
ARC
8
DEFAULT_255_2_778
10
35.7481632
20
6.7338368
40
0.5486696
50
269.8609058
51
0.1390942
0
ARC
8
DEFAULT_255_2_778
10
35.7454846
20
6.7339218
40
0.5487547
50
179.8698061
51
270.1406104
0
LINE
8
DEFAULT_255_2_778
10
35.1967313
20
6.7351687
11
35.1967313
21
6.7351687
0
LINE
8
DEFAULT_255_2_778
10
34.4757406
20
8.7780969
11
34.4757406
21
9.5294969
0
LINE
8
DEFAULT_255_2_778
10
34.4757406
20
9.5294969
11
34.1233406
21
9.5294969
0
LINE
8
DEFAULT_255_2_778
10
34.1233406
20
9.5294969
11
33.6444406
21
8.8158969
0
LINE
8
DEFAULT_255_2_778
10
33.6444406
20
8.8158969
11
33.6444406
21
8.5626969
0
LINE
8
DEFAULT_255_2_778
10
33.6444406
20
8.5626969
11
34.1781406
21
8.5626969
0
LINE
8
DEFAULT_255_2_778
10
34.1781406
20
8.5626969
11
34.1781406
21
8.3348969
0
LINE
8
DEFAULT_255_2_778
10
34.1781406
20
8.3348969
11
34.4757406
21
8.3348969
0
LINE
8
DEFAULT_255_2_778
10
34.4757406
20
8.3348969
11
34.4757406
21
8.5626969
0
LINE
8
DEFAULT_255_2_778
10
34.4757406
20
8.5626969
11
34.6453406
21
8.5626969
0
LINE
8
DEFAULT_255_2_778
10
34.6453406
20
8.5626969
11
34.6453406
21
8.7782969
0
LINE
8
DEFAULT_255_2_778
10
34.6453406
20
8.7782969
11
34.4757406
21
8.7780969
0
LINE
8
DEFAULT_255_2_778
10
34.2350406
20
9.2828969
11
34.2381406
21
8.7780969
0
LINE
8
DEFAULT_255_2_778
10
34.2381406
20
8.7780969
11
33.9095406
21
8.7780969
0
LINE
8
DEFAULT_255_2_778
10
33.9095406
20
8.7780969
11
34.2350406
21
9.2828969
0
ARC
8
DEFAULT_255_2_778
10
34.2177423
20
6.6219744
40
0.3167796
50
90.437307
51
114.6826181
0
ARC
8
DEFAULT_255_2_778
10
34.2150215
20
6.6409588
40
0.2977861
50
77.3455078
51
89.9416861
0
ARC
8
DEFAULT_255_2_778
10
34.1288151
20
6.1954159
40
0.7515128
50
64.9641511
51
78.3743017
0
ARC
8
DEFAULT_255_2_778
10
34.3189412
20
6.596507
40
0.3076587
50
41.8099394
51
65.4346915
0
ARC
8
DEFAULT_255_2_778
10
34.2708398
20
6.5494485
40
0.3748959
50
358.8327316
51
42.2696911
0
ARC
8
DEFAULT_255_2_778
10
34.2135542
20
6.6013149
40
0.4361814
50
305.5428034
51
352.1593087
0
ARC
8
DEFAULT_255_2_778
10
34.0461646
20
6.7884387
40
0.6862941
50
303.6605521
51
307.8329872
0
ARC
8
DEFAULT_255_2_778
10
34.1575631
20
6.7469295
40
0.5941039
50
270.7879758
51
296.9217937
0
ARC
8
DEFAULT_255_2_778
10
34.1343671
20
7.0149789
40
0.8626675
50
269.9861022
51
272.0837168
0
ARC
8
DEFAULT_255_2_778
10
34.1327765
20
8.4540347
40
2.3017237
50
262.1261552
51
270.034387
0
LINE
8
DEFAULT_255_2_778
10
33.8174579
20
6.3905114
11
34.0122579
21
6.3471114
0
ARC
8
DEFAULT_255_2_778
10
34.1107939
20
6.6180408
40
0.2882917
50
250.0138611
51
269.7726337
0
ARC
8
DEFAULT_255_2_778
10
34.1056988
20
6.6377112
40
0.3079852
50
270.7350552
51
299.1798715
0
ARC
8
DEFAULT_255_2_778
10
34.1625556
20
6.5633242
40
0.2157326
50
295.6257088
51
353.1669967
0
ARC
8
DEFAULT_255_2_778
10
33.9967157
20
6.6131849
40
0.3874725
50
348.7597151
51
349.3853447
0
ARC
8
DEFAULT_255_2_778
10
34.1932809
20
6.5845505
40
0.1891683
50
346.9423341
51
359.6614674
0
ARC
8
DEFAULT_255_2_778
10
34.2283137
20
6.5811382
40
0.1541492
50
0.852902
51
60.3557882
0
ARC
8
DEFAULT_255_2_778
10
34.0581129
20
6.0371849
40
0.7213317
50
70.0224006
51
89.7819663
0
ARC
8
DEFAULT_255_2_778
10
34.188855
20
3.886294
40
1.3612367
50
73.9257566
51
79.0018216
0
ARC
8
DEFAULT_255_2_778
10
34.2541349
20
4.2264284
40
1.0148958
50
78.9561427
51
85.7096443
0
ARC
8
DEFAULT_255_2_778
10
34.2713013
20
4.432015
40
0.8086029
50
85.8328068
51
89.9474423
0
ARC
8
DEFAULT_255_2_778
10
34.2614525
20
4.6821829
40
0.558535
50
88.9135315
51
113.3264024
0
ARC
8
DEFAULT_255_2_778
10
34.2420638
20
4.7609408
40
0.4787244
50
114.9281933
51
152.9592747
0
ARC
8
DEFAULT_255_2_778
10
34.5646121
20
4.582067
40
0.847428
50
152.1018077
51
166.785224
0
ARC
8
DEFAULT_255_2_778
10
34.8923178
20
4.4912159
40
1.1873019
50
166.1322276
51
168.0472789
0
ARC
8
DEFAULT_255_2_778
10
35.6523192
20
4.5801795
40
1.9279589
50
175.3310765
51
177.8058115
0
ARC
8
DEFAULT_255_2_778
10
35.3532428
20
4.5920089
40
1.6286488
50
177.8188319
51
179.9725019
0
ARC
8
DEFAULT_255_2_778
10
34.8224591
20
4.5815074
40
1.0979229
50
179.4111711
51
191.0324591
0
ARC
8
DEFAULT_255_2_778
10
34.2920151
20
4.4726557
40
0.5564772
50
190.4835062
51
212.4274098
0
ARC
8
DEFAULT_255_2_778
10
34.1420221
20
4.3895554
40
0.3854489
50
213.9569029
51
266.737027
0
ARC
8
DEFAULT_255_2_778
10
34.1866189
20
4.6500265
40
0.6487162
50
264.1130582
51
270.1094249
0
ARC
8
DEFAULT_255_2_778
10
34.1705619
20
4.6647424
40
0.6636564
50
271.4933953
51
290.2474773
0
ARC
8
DEFAULT_255_2_778
10
34.2684266
20
4.3913284
40
0.3732796
50
290.6779603
51
357.2114398
0
ARC
8
DEFAULT_255_2_778
10
33.9733291
20
4.4516654
40
0.6725319
50
353.2972234
51
357.1999209
0
ARC
8
DEFAULT_255_2_778
10
34.1932258
20
4.4037329
40
0.4520836
50
1.9113584
51
27.8404333
0
ARC
8
DEFAULT_255_2_778
10
34.3132857
20
4.4506416
40
0.3243419
50
30.4186913
51
82.4569312
0
ARC
8
DEFAULT_255_2_778
10
34.2547024
20
4.2352839
40
0.5463401
50
79.3295605
51
82.3895769
0
ARC
8
DEFAULT_255_2_778
10
34.2628357
20
4.3895335
40
0.3925668
50
80.5843461
51
89.8236869
0
ARC
8
DEFAULT_255_2_778
10
34.2620269
20
4.4773056
40
0.3047993
50
89.6208739
51
141.388545
0
ARC
8
DEFAULT_255_2_778
10
34.5377759
20
4.6841542
40
0.5141875
50
180.0117924
51
181.8548258
0
ARC
8
DEFAULT_255_2_778
10
34.3181327
20
4.7050737
40
0.2952937
50
110.470075
51
184.0829979
0
ARC
8
DEFAULT_255_2_778
10
34.4069591
20
4.5166554
40
0.5031769
50
103.7503719
51
112.4431299
0
ARC
8
DEFAULT_255_2_778
10
34.3772763
20
4.5508579
40
0.4633618
50
90.408024
51
101.1896177
0
ARC
8
DEFAULT_255_2_778
10
34.3839548
20
4.7620891
40
0.2523162
50
50.0837437
51
92.2664474
0
ARC
8
DEFAULT_255_2_778
10
45.2805514
20
4.1870052
40
10.7621745
50
174.9086642
51
175.9045999
0
ARC
8
DEFAULT_255_2_778
10
40.9648004
20
4.5653702
40
6.4298767
50
174.3866119
51
174.8540982
0
ARC
8
DEFAULT_255_2_778
10
34.1979008
20
4.4087788
40
0.1693307
50
93.4001812
51
183.3406901
0
ARC
8
DEFAULT_255_2_778
10
34.1776342
20
4.4085236
40
0.1695962
50
356.750899
51
86.5439693
0
ARC
8
DEFAULT_255_2_778
10
34.1776607
20
4.3893705
40
0.1695658
50
273.4476865
51
3.2255359
0
ARC
8
DEFAULT_255_2_778
10
34.1980731
20
4.3892918
40
0.1694885
50
176.7463208
51
266.5446346
0
LINE
8
DEFAULT_255_2_778
10
33.8280579
20
6.7297114
11
33.8418579
21
7.3427114
0
LINE
8
DEFAULT_255_2_778
10
33.8418579
20
7.3427114
11
34.5969579
21
7.3427114
0
LINE
8
DEFAULT_255_2_778
10
34.5969579
20
7.3427114
11
34.5969579
21
7.1697114
0
LINE
8
DEFAULT_255_2_778
10
34.5969579
20
7.1697114
11
34.0854579
21
7.1697114
0
LINE
8
DEFAULT_255_2_778
10
34.0854579
20
7.1697114
11
34.0854579
21
6.9098114
0
LINE
8
DEFAULT_255_2_778
10
33.8174579
20
6.1740114
11
33.8174579
21
6.3905114
0
LINE
8
DEFAULT_255_2_778
10
34.0608579
20
6.7585114
11
33.8418579
21
6.7368114
0
LINE
8
DEFAULT_255_2_778
10
34.5657579
20
5.1943114
11
34.5657579
21
5.1943114
0
LINE
8
DEFAULT_255_2_778
10
34.0288579
20
4.3989114
11
34.0288579
21
4.3989114
0
LINE
8
DEFAULT_255_2_778
10
34.6453011
20
3.1537646
11
34.6453011
21
2.9595646
0
LINE
8
DEFAULT_255_2_778
10
34.6453011
20
2.9595646
11
34.2299011
21
1.9848646
0
LINE
8
DEFAULT_255_2_778
10
34.2299011
20
1.9848646
11
33.9754011
21
1.9848646
0
LINE
8
DEFAULT_255_2_778
10
33.9754011
20
1.9848646
11
34.4090011
21
2.9696646
0
LINE
8
DEFAULT_255_2_778
10
34.4090011
20
2.9696646
11
33.8915011
21
2.9696646
0
LINE
8
DEFAULT_255_2_778
10
33.8915011
20
2.9696646
11
33.8915011
21
3.1537646
0
LINE
8
DEFAULT_255_2_778
10
33.8915011
20
3.1537646
11
34.6450011
21
3.1537646
0
ENDSEC
0
EOF