0
SECTION
2
HEADER
9
$MEASUREMENT
70
1
0
ENDSEC
0
SECTION
2
TABLES
0
TABLE
2
LTYPE
0
LTYPE
72
65
70
64
2
CONTINUOUS
3
______
73
0
40
0
0
ENDTAB
0
TABLE
2
LAYER
0
LAYER
2
DEFAULT_255_2_778
70
0
62
255
6
CONTINUOUS
0
ENDTAB
0
ENDSEC
0
SECTION
2
ENTITIES
0
ARC
8
DEFAULT_255_2_778
10
82.6718357
20
26.5565399
40
0.4999901
50
359.9988673
51
90.0011385
0
LINE
8
DEFAULT_255_2_778
10
31.4717257
20
89.45643
11
31.1717257
21
89.45643
0
LINE
8
DEFAULT_255_2_778
10
31.1717257
20
0.05633
11
31.4717257
21
0.05633
0
LINE
8
DEFAULT_255_2_778
10
82.6718257
20
27.05653
11
80.1717257
21
27.05653
0
LINE
8
DEFAULT_255_2_778
10
80.1717257
20
27.05653
11
80.1717257
21
62.95653
0
ARC
8
DEFAULT_255_2_778
10
79.8221856
20
59.7564038
40
0.7496727
50
306.8573966
51
0.0201543
0
ARC
8
DEFAULT_255_2_778
10
79.821902
20
59.7567892
40
0.7499564
50
359.9907034
51
53.1317724
0
ARC
8
DEFAULT_255_2_778
10
4.6719553
20
89.2563706
40
0.5000969
50
89.9996485
51
180.0003515
0
ARC
8
DEFAULT_255_2_778
10
4.6719553
20
0.2566644
40
0.5000969
50
179.9996485
51
270.0003515
0
ARC
8
DEFAULT_255_2_778
10
4.1718462
20
88.7551684
40
1.0012989
50
72.9125763
51
89.9993032
0
ARC
8
DEFAULT_255_2_778
10
4.1718469
20
0.7578578
40
1.0012903
50
270.0006594
51
287.0875353
0
ARC
8
DEFAULT_255_2_778
10
82.8717424
20
60.7566835
40
0.3002161
50
270.0221446
51
359.9778689
0
LINE
8
DEFAULT_255_2_778
10
80.1718584
20
59.1565675
11
80.2718584
21
59.1565675
0
LINE
8
DEFAULT_255_2_778
10
80.2718584
20
60.3567675
11
80.1718584
21
60.3567675
0
LINE
8
DEFAULT_255_2_778
10
4.6719584
20
89.7564675
11
31.1717584
21
89.7564675
0
LINE
8
DEFAULT_255_2_778
10
31.1717584
20
89.7564675
11
31.1717584
21
-0.2434325
0
LINE
8
DEFAULT_255_2_778
10
31.1717584
20
-0.2434325
11
4.6719584
21
-0.2434325
0
LINE
8
DEFAULT_255_2_778
10
81.2716584
20
27.8563675
11
81.4717584
21
29.1562675
0
LINE
8
DEFAULT_255_2_778
10
81.4717584
20
29.1562675
11
81.8717584
21
29.1562675
0
LINE
8
DEFAULT_255_2_778
10
81.8717584
20
29.1562675
11
83.1716584
21
26.8562675
0
LINE
8
DEFAULT_255_2_778
10
83.1716584
20
26.8562675
11
83.1716584
21
-0.2436325
0
LINE
8
DEFAULT_255_2_778
10
83.1716584
20
-0.2436325
11
31.4718584
21
-0.2436325
0
LINE
8
DEFAULT_255_2_778
10
31.4718584
20
-0.2436325
11
31.4718584
21
89.7564675
0
LINE
8
DEFAULT_255_2_778
10
31.4718584
20
89.7564675
11
83.1719584
21
89.7564675
0
LINE
8
DEFAULT_255_2_778
10
83.1719584
20
89.7564675
11
83.1719584
21
60.7565675
0
LINE
8
DEFAULT_255_2_778
10
82.8718584
20
60.4564675
11
82.1718584
21
60.4564675
0
LINE
8
DEFAULT_255_2_778
10
82.1718584
20
60.4564675
11
81.5717584
21
61.2565675
0
LINE
8
DEFAULT_255_2_778
10
81.5717584
20
61.2565675
11
81.4217584
21
62.1567675
0
LINE
8
DEFAULT_255_2_778
10
80.1717448
20
62.4564766
11
83.1718448
21
62.4564766
0
LINE
8
DEFAULT_255_2_778
10
80.1717448
20
62.1564766
11
83.1718448
21
62.1564766
0
LINE
8
DEFAULT_255_2_778
10
80.2717448
20
27.3562766
11
81.4716448
21
27.3562766
0
ARC
8
DEFAULT_255_2_778
10
0.6719762
20
19.7564321
40
0.5000969
50
179.9996485
51
270.0003515
0
ARC
8
DEFAULT_255_2_778
10
0.6719749
20
69.7562888
40
0.5000956
50
134.9958871
51
179.9946851
0
ARC
8
DEFAULT_255_2_778
10
0.6717417
20
69.7566838
40
0.4996515
50
89.9727611
51
135.0090046
0
ARC
8
DEFAULT_255_2_778
10
2.1721122
20
89.2564022
40
0.500033
50
90.0266944
51
180.0076726
0
ARC
8
DEFAULT_255_2_778
10
2.1718762
20
0.2566321
40
0.5000969
50
179.9996485
51
270.0003515
0
ARC
8
DEFAULT_255_2_778
10
27.7717698
20
73.0565446
40
0.3001094
50
270.0208901
51
359.9791099
0
ARC
8
DEFAULT_255_2_778
10
27.7717698
20
80.4562258
40
0.3001094
50
0.0208901
51
89.9791099
0
ARC
8
DEFAULT_255_2_778
10
27.6718329
20
80.7563396
40
0.5000956
50
44.9958871
51
89.9946851
0
ARC
8
DEFAULT_255_2_778
10
27.6722318
20
80.7564331
40
0.4997474
50
359.9887792
51
45.0206486
0
ARC
8
DEFAULT_255_2_778
10
27.6718836
20
72.7564816
40
0.5000956
50
314.9958871
51
359.9946851
0
ARC
8
DEFAULT_255_2_778
10
27.6718329
20
72.7564308
40
0.5000956
50
270.0053149
51
315.0041129
0
ARC
8
DEFAULT_255_2_778
10
25.6719256
20
72.7564308
40
0.5000956
50
224.9958871
51
269.9946851
0
ARC
8
DEFAULT_255_2_778
10
25.6718749
20
72.7564816
40
0.5000956
50
180.0053149
51
225.0041129
0
ARC
8
DEFAULT_255_2_778
10
25.6715267
20
80.7564331
40
0.4997474
50
134.9793514
51
180.0112208
0
ARC
8
DEFAULT_255_2_778
10
25.6719256
20
80.7563396
40
0.5000956
50
90.0053149
51
135.0041129
0
ARC
8
DEFAULT_255_2_778
10
7.6712331
20
64.5558891
40
0.6006464
50
0.0520945
51
89.9479055
0
ARC
8
DEFAULT_255_2_778
10
7.6712331
20
61.5568813
40
0.6006464
50
270.0520945
51
359.9479055
0
ARC
8
DEFAULT_255_2_778
10
6.6711256
20
61.2566308
40
0.5000956
50
224.9958871
51
269.9946851
0
ARC
8
DEFAULT_255_2_778
10
6.6706729
20
61.2563736
40
0.4995936
50
179.9814662
51
225.0117423
0
ARC
8
DEFAULT_255_2_778
10
6.670672
20
64.756697
40
0.4995928
50
134.9882078
51
180.0185599
0
ARC
8
DEFAULT_255_2_778
10
6.6711256
20
64.7564396
40
0.5000956
50
90.0053149
51
135.0041129
0
ARC
8
DEFAULT_255_2_778
10
7.971005
20
64.7566137
40
0.4999215
50
44.987618
51
90.0029459
0
ARC
8
DEFAULT_255_2_778
10
7.9713904
20
64.7565573
40
0.4996889
50
359.9974666
51
45.0234333
0
ARC
8
DEFAULT_255_2_778
10
7.9713901
20
61.2565132
40
0.4996892
50
314.9765853
51
0.0025268
0
ARC
8
DEFAULT_255_2_778
10
7.971005
20
61.2564567
40
0.4999215
50
269.9970541
51
315.012382
0
ARC
8
DEFAULT_255_2_778
10
7.9712677
20
26.8563236
40
0.5000116
50
359.9898688
51
89.9986732
0
ARC
8
DEFAULT_255_2_778
10
7.9712677
20
23.3562468
40
0.5000116
50
270.0013268
51
0.0101312
0
ARC
8
DEFAULT_255_2_778
10
6.6713762
20
23.3563321
40
0.5000969
50
179.9996485
51
270.0003515
0
ARC
8
DEFAULT_255_2_778
10
6.6713762
20
26.8562383
40
0.5000969
50
89.9996485
51
180.0003515
0
ARC
8
DEFAULT_255_2_778
10
7.6709331
20
26.5550891
40
0.6006464
50
0.0520945
51
89.9479055
0
ARC
8
DEFAULT_255_2_778
10
7.6709544
20
23.5561602
40
0.6006252
50
270.050071
51
359.9403805
0
ARC
8
DEFAULT_255_2_778
10
27.7717485
20
9.0564659
40
0.3001308
50
270.024953
51
359.9941329
0
ARC
8
DEFAULT_255_2_778
10
27.7717483
20
16.4562044
40
0.3001309
50
0.0058902
51
89.9750049
0
ARC
8
DEFAULT_255_2_778
10
27.6719038
20
16.7562597
40
0.5000755
50
0.0086483
51
90.0028154
0
ARC
8
DEFAULT_255_2_778
10
27.6719036
20
8.7564108
40
0.5000757
50
269.9972098
51
359.9913379
0
ARC
8
DEFAULT_255_2_778
10
25.6718548
20
8.7564108
40
0.5000756
50
180.0086621
51
270.0028016
0
ARC
8
DEFAULT_255_2_778
10
25.6718547
20
16.7562597
40
0.5000754
50
89.9971846
51
179.9913517
0
LINE
8
DEFAULT_255_2_778
10
80.2718793
20
27.0562352
11
80.2718793
21
27.8563352
0
LINE
8
DEFAULT_255_2_778
10
80.2718793
20
27.8563352
11
81.4716793
21
27.8563352
0
LINE
8
DEFAULT_255_2_778
10
81.4716793
20
27.8563352
11
81.4716793
21
27.0562352
0
LINE
8
DEFAULT_255_2_778
10
0.1718793
20
19.7564352
11
0.1718793
21
69.7563352
0
LINE
8
DEFAULT_255_2_778
10
0.6719793
20
70.2563352
11
1.6720793
21
70.2563352
0
LINE
8
DEFAULT_255_2_778
10
1.6720793
20
70.2563352
11
1.6720793
21
89.2563352
0
LINE
8
DEFAULT_255_2_778
10
2.1718793
20
89.7564352
11
4.1718793
21
89.7564352
0
LINE
8
DEFAULT_255_2_778
10
4.1718793
20
89.7564352
11
4.1718793
21
-0.2434648
0
LINE
8
DEFAULT_255_2_778
10
4.1718793
20
-0.2434648
11
2.1718793
21
-0.2434648
0
LINE
8
DEFAULT_255_2_778
10
1.6717793
20
0.2566352
11
1.6717793
21
19.2566352
0
LINE
8
DEFAULT_255_2_778
10
1.6717793
20
19.2566352
11
0.6719793
21
19.2566352
0
LINE
8
DEFAULT_255_2_778
10
28.0718793
20
73.0564352
11
28.0718793
21
80.4563352
0
LINE
8
DEFAULT_255_2_778
10
27.4718793
20
80.7563352
11
27.4718793
21
72.7564352
0
LINE
8
DEFAULT_255_2_778
10
27.9718793
20
72.8329352
11
27.9718793
21
80.6801352
0
LINE
8
DEFAULT_255_2_778
10
28.1719793
20
80.7563352
11
28.1719793
21
72.7564352
0
LINE
8
DEFAULT_255_2_778
10
27.6718793
20
72.2563352
11
25.6718793
21
72.2563352
0
LINE
8
DEFAULT_255_2_778
10
25.1717793
20
72.7564352
11
25.1717793
21
80.7563352
0
LINE
8
DEFAULT_255_2_778
10
25.6718793
20
81.2564352
11
27.6718793
21
81.2564352
0
LINE
8
DEFAULT_255_2_778
10
27.8123793
20
80.7553352
11
25.7247793
21
80.7563352
0
LINE
8
DEFAULT_255_2_778
10
25.7247793
20
80.7563352
11
25.7247793
21
81.2564352
0
LINE
8
DEFAULT_255_2_778
10
25.7247793
20
72.2563352
11
25.7247793
21
72.7564352
0
LINE
8
DEFAULT_255_2_778
10
25.7247793
20
72.7564352
11
27.8152793
21
72.7577352
0
LINE
8
DEFAULT_255_2_778
10
6.3718793
20
65.1565352
11
7.6717793
21
65.1565352
0
LINE
8
DEFAULT_255_2_778
10
8.2718793
20
64.5564352
11
8.2718793
21
61.5563352
0
LINE
8
DEFAULT_255_2_778
10
7.6717793
20
60.9562352
11
6.2718793
21
60.9562352
0
LINE
8
DEFAULT_255_2_778
10
6.9875793
20
65.1562352
11
6.8017793
21
65.1234352
0
LINE
8
DEFAULT_255_2_778
10
6.8017793
20
65.1234352
11
6.6755793
21
65.0525352
0
LINE
8
DEFAULT_255_2_778
10
6.6755793
20
65.0525352
11
6.6033793
21
64.9774352
0
LINE
8
DEFAULT_255_2_778
10
6.6033793
20
64.9774352
11
6.5657793
21
64.9144352
0
LINE
8
DEFAULT_255_2_778
10
6.5657793
20
64.9144352
11
6.5448793
21
64.8586352
0
LINE
8
DEFAULT_255_2_778
10
6.5448793
20
64.8586352
11
6.5379793
21
64.8300352
0
LINE
8
DEFAULT_255_2_778
10
6.5379793
20
64.8300352
11
6.5332793
21
64.8004352
0
LINE
8
DEFAULT_255_2_778
10
6.5332793
20
64.8004352
11
6.5340793
21
64.6977352
0
LINE
8
DEFAULT_255_2_778
10
6.5340793
20
64.6977352
11
6.5416793
21
64.6549352
0
LINE
8
DEFAULT_255_2_778
10
6.5416793
20
64.6549352
11
6.5668793
21
64.5702352
0
LINE
8
DEFAULT_255_2_778
10
6.5668793
20
64.5702352
11
6.5718793
21
64.5562352
0
LINE
8
DEFAULT_255_2_778
10
6.5718793
20
64.5562352
11
6.5729793
21
61.5238352
0
LINE
8
DEFAULT_255_2_778
10
6.5729793
20
61.5238352
11
6.5758793
21
61.4915352
0
LINE
8
DEFAULT_255_2_778
10
6.5758793
20
61.4915352
11
6.5805793
21
61.4595352
0
LINE
8
DEFAULT_255_2_778
10
6.5805793
20
61.4595352
11
6.5872793
21
61.4277352
0
LINE
8
DEFAULT_255_2_778
10
6.5872793
20
61.4277352
11
6.5956793
21
61.3965352
0
LINE
8
DEFAULT_255_2_778
10
6.5956793
20
61.3965352
11
6.6059793
21
61.3658352
0
LINE
8
DEFAULT_255_2_778
10
6.6059793
20
61.3658352
11
6.6316793
21
61.3063352
0
LINE
8
DEFAULT_255_2_778
10
6.6316793
20
61.3063352
11
6.6636793
21
61.2499352
0
LINE
8
DEFAULT_255_2_778
10
6.6636793
20
61.2499352
11
6.7015793
21
61.1973352
0
LINE
8
DEFAULT_255_2_778
10
6.7015793
20
61.1973352
11
6.7681793
21
61.1264352
0
LINE
8
DEFAULT_255_2_778
10
6.7681793
20
61.1264352
11
6.8443793
21
61.0666352
0
LINE
8
DEFAULT_255_2_778
10
6.8443793
20
61.0666352
11
6.9277793
21
61.0195352
0
LINE
8
DEFAULT_255_2_778
10
6.9277793
20
61.0195352
11
7.0488793
21
60.9763352
0
LINE
8
DEFAULT_255_2_778
10
7.0488793
20
60.9763352
11
7.1782793
21
60.9573352
0
LINE
8
DEFAULT_255_2_778
10
7.1782793
20
60.9573352
11
7.2108793
21
60.9565352
0
LINE
8
DEFAULT_255_2_778
10
6.8655793
20
60.9565352
11
6.7012793
21
60.9811352
0
LINE
8
DEFAULT_255_2_778
10
6.7012793
20
60.9811352
11
6.5676793
21
61.0388352
0
LINE
8
DEFAULT_255_2_778
10
6.5676793
20
61.0388352
11
6.4684793
21
61.1139352
0
LINE
8
DEFAULT_255_2_778
10
6.4684793
20
61.1139352
11
6.3871793
21
61.2071352
0
LINE
8
DEFAULT_255_2_778
10
6.3871793
20
61.2071352
11
6.3332793
21
61.2962352
0
LINE
8
DEFAULT_255_2_778
10
6.3332793
20
61.2962352
11
6.3083793
21
61.3534352
0
LINE
8
DEFAULT_255_2_778
10
6.3083793
20
61.3534352
11
6.2895793
21
61.4126352
0
LINE
8
DEFAULT_255_2_778
10
6.2895793
20
61.4126352
11
6.2805793
21
61.4531352
0
LINE
8
DEFAULT_255_2_778
10
6.2805793
20
61.4531352
11
6.2744793
21
61.4941352
0
LINE
8
DEFAULT_255_2_778
10
6.2744793
20
61.4941352
11
6.2768793
21
64.6384352
0
LINE
8
DEFAULT_255_2_778
10
6.2768793
20
64.6384352
11
6.2842793
21
64.6795352
0
LINE
8
DEFAULT_255_2_778
10
6.2842793
20
64.6795352
11
6.2945793
21
64.7197352
0
LINE
8
DEFAULT_255_2_778
10
6.2945793
20
64.7197352
11
6.3154793
21
64.7784352
0
LINE
8
DEFAULT_255_2_778
10
6.3154793
20
64.7784352
11
6.3527793
21
64.8536352
0
LINE
8
DEFAULT_255_2_778
10
6.3527793
20
64.8536352
11
6.4120793
21
64.9390352
0
LINE
8
DEFAULT_255_2_778
10
6.4120793
20
64.9390352
11
6.4993793
21
65.0266352
0
LINE
8
DEFAULT_255_2_778
10
6.4993793
20
65.0266352
11
6.6046793
21
65.0946352
0
LINE
8
DEFAULT_255_2_778
10
6.6046793
20
65.0946352
11
6.7612793
21
65.1462352
0
LINE
8
DEFAULT_255_2_778
10
6.7612793
20
65.1462352
11
6.8650793
21
65.1565352
0
LINE
8
DEFAULT_255_2_778
10
6.1710793
20
61.2565352
11
6.1710793
21
64.7565352
0
LINE
8
DEFAULT_255_2_778
10
6.6710793
20
65.2565352
11
7.9709793
21
65.2565352
0
LINE
8
DEFAULT_255_2_778
10
8.4710793
20
64.7565352
11
8.4710793
21
61.2565352
0
LINE
8
DEFAULT_255_2_778
10
7.9709793
20
60.7565352
11
6.6710793
21
60.7565352
0
LINE
8
DEFAULT_255_2_778
10
6.8658793
20
22.9563352
11
6.7020793
21
22.9806352
0
LINE
8
DEFAULT_255_2_778
10
6.7020793
20
22.9806352
11
6.5686793
21
23.0380352
0
LINE
8
DEFAULT_255_2_778
10
6.5686793
20
23.0380352
11
6.4686793
21
23.1137352
0
LINE
8
DEFAULT_255_2_778
10
6.4686793
20
23.1137352
11
6.3874793
21
23.2068352
0
LINE
8
DEFAULT_255_2_778
10
6.3874793
20
23.2068352
11
6.3432793
21
23.2775352
0
LINE
8
DEFAULT_255_2_778
10
6.3432793
20
23.2775352
11
6.3085793
21
23.3539352
0
LINE
8
DEFAULT_255_2_778
10
6.3085793
20
23.3539352
11
6.2898793
21
23.4135352
0
LINE
8
DEFAULT_255_2_778
10
6.2898793
20
23.4135352
11
6.2808793
21
23.4539352
0
LINE
8
DEFAULT_255_2_778
10
6.2808793
20
23.4539352
11
6.2749793
21
23.4942352
0
LINE
8
DEFAULT_255_2_778
10
6.2749793
20
23.4942352
11
6.2731793
21
23.5148352
0
LINE
8
DEFAULT_255_2_778
10
6.2731793
20
23.5148352
11
6.2715793
21
26.5564352
0
LINE
8
DEFAULT_255_2_778
10
6.2715793
20
26.5564352
11
6.2731793
21
26.5980352
0
LINE
8
DEFAULT_255_2_778
10
6.2731793
20
26.5980352
11
6.2749793
21
26.6186352
0
LINE
8
DEFAULT_255_2_778
10
6.2749793
20
26.6186352
11
6.2808793
21
26.6588352
0
LINE
8
DEFAULT_255_2_778
10
6.2808793
20
26.6588352
11
6.2898793
21
26.6993352
0
LINE
8
DEFAULT_255_2_778
10
6.2898793
20
26.6993352
11
6.3085793
21
26.7588352
0
LINE
8
DEFAULT_255_2_778
10
6.3085793
20
26.7588352
11
6.3432793
21
26.8353352
0
LINE
8
DEFAULT_255_2_778
10
6.3432793
20
26.8353352
11
6.3998793
21
26.9226352
0
LINE
8
DEFAULT_255_2_778
10
6.3998793
20
26.9226352
11
6.4840793
21
27.0128352
0
LINE
8
DEFAULT_255_2_778
10
6.4840793
20
27.0128352
11
6.5866793
21
27.0848352
0
LINE
8
DEFAULT_255_2_778
10
6.5866793
20
27.0848352
11
6.7414793
21
27.1420352
0
LINE
8
DEFAULT_255_2_778
10
6.7414793
20
27.1420352
11
6.8655793
21
27.1562352
0
LINE
8
DEFAULT_255_2_778
10
7.2124793
20
27.1562352
11
7.0832793
21
27.1438352
0
LINE
8
DEFAULT_255_2_778
10
7.0832793
20
27.1438352
11
6.9592793
21
27.1068352
0
LINE
8
DEFAULT_255_2_778
10
6.9592793
20
27.1068352
11
6.8721793
21
27.0634352
0
LINE
8
DEFAULT_255_2_778
10
6.8721793
20
27.0634352
11
6.7930793
21
27.0078352
0
LINE
8
DEFAULT_255_2_778
10
6.7930793
20
27.0078352
11
6.7237793
21
26.9417352
0
LINE
8
DEFAULT_255_2_778
10
6.7237793
20
26.9417352
11
6.6832793
21
26.8917352
0
LINE
8
DEFAULT_255_2_778
10
6.6832793
20
26.8917352
11
6.6483793
21
26.8380352
0
LINE
8
DEFAULT_255_2_778
10
6.6483793
20
26.8380352
11
6.6189793
21
26.7803352
0
LINE
8
DEFAULT_255_2_778
10
6.6189793
20
26.7803352
11
6.5961793
21
26.7197352
0
LINE
8
DEFAULT_255_2_778
10
6.5961793
20
26.7197352
11
6.5874793
21
26.6882352
0
LINE
8
DEFAULT_255_2_778
10
6.5874793
20
26.6882352
11
6.5805793
21
26.6559352
0
LINE
8
DEFAULT_255_2_778
10
6.5805793
20
26.6559352
11
6.5755793
21
26.6239352
0
LINE
8
DEFAULT_255_2_778
10
6.5755793
20
26.6239352
11
6.5723793
21
26.5916352
0
LINE
8
DEFAULT_255_2_778
10
6.5723793
20
26.5916352
11
6.5713793
21
26.5591352
0
LINE
8
DEFAULT_255_2_778
10
8.4712793
20
26.8562352
11
8.4712793
21
23.3563352
0
LINE
8
DEFAULT_255_2_778
10
7.9712793
20
22.8562352
11
6.6713793
21
22.8562352
0
LINE
8
DEFAULT_255_2_778
10
6.1712793
20
23.3563352
11
6.1712793
21
26.8562352
0
LINE
8
DEFAULT_255_2_778
10
6.6713793
20
27.3563352
11
7.9712793
21
27.3563352
0
LINE
8
DEFAULT_255_2_778
10
6.5713793
20
26.5562352
11
6.5713793
21
23.5561352
0
LINE
8
DEFAULT_255_2_778
10
6.5713793
20
23.5561352
11
6.5446793
21
23.4717352
0
LINE
8
DEFAULT_255_2_778
10
6.5446793
20
23.4717352
11
6.5358793
21
23.4288352
0
LINE
8
DEFAULT_255_2_778
10
6.5358793
20
23.4288352
11
6.5321793
21
23.3994352
0
LINE
8
DEFAULT_255_2_778
10
6.5321793
20
23.3994352
11
6.5332793
21
23.3113352
0
LINE
8
DEFAULT_255_2_778
10
6.5332793
20
23.3113352
11
6.5377793
21
23.2827352
0
LINE
8
DEFAULT_255_2_778
10
6.5377793
20
23.2827352
11
6.5488793
21
23.2402352
0
LINE
8
DEFAULT_255_2_778
10
6.5488793
20
23.2402352
11
6.5715793
21
23.1859352
0
LINE
8
DEFAULT_255_2_778
10
6.5715793
20
23.1859352
11
6.6208793
21
23.1129352
0
LINE
8
DEFAULT_255_2_778
10
6.6208793
20
23.1129352
11
6.7086793
21
23.0354352
0
LINE
8
DEFAULT_255_2_778
10
6.7086793
20
23.0354352
11
6.8713793
21
22.9682352
0
LINE
8
DEFAULT_255_2_778
10
6.8713793
20
22.9682352
11
6.9872793
21
22.9557352
0
LINE
8
DEFAULT_255_2_778
10
6.2715793
20
27.1557352
11
7.6714793
21
27.1557352
0
LINE
8
DEFAULT_255_2_778
10
8.2715793
20
26.5556352
11
8.2715793
21
23.5555352
0
LINE
8
DEFAULT_255_2_778
10
7.6714793
20
22.9555352
11
6.3715793
21
22.9555352
0
LINE
8
DEFAULT_255_2_778
10
28.0718793
20
9.0564352
11
28.0718793
21
16.4562352
0
LINE
8
DEFAULT_255_2_778
10
27.4718793
20
16.7563352
11
27.4718793
21
8.7563352
0
LINE
8
DEFAULT_255_2_778
10
27.9718793
20
8.8328352
11
27.9718793
21
16.6801352
0
LINE
8
DEFAULT_255_2_778
10
28.1719793
20
16.7563352
11
28.1719793
21
8.7563352
0
LINE
8
DEFAULT_255_2_778
10
27.6718793
20
8.2563352
11
25.6718793
21
8.2563352
0
LINE
8
DEFAULT_255_2_778
10
25.1717793
20
8.7563352
11
25.1717793
21
16.7563352
0
LINE
8
DEFAULT_255_2_778
10
25.6718793
20
17.2563352
11
27.6718793
21
17.2563352
0
LINE
8
DEFAULT_255_2_778
10
27.8157793
20
8.7579352
11
27.7842793
21
8.7563352
0
LINE
8
DEFAULT_255_2_778
10
27.7842793
20
8.7563352
11
25.7245793
21
8.7563352
0
LINE
8
DEFAULT_255_2_778
10
25.7245793
20
8.7563352
11
25.7245793
21
8.2563352
0
LINE
8
DEFAULT_255_2_778
10
27.8126793
20
16.7552352
11
25.7245793
21
16.7563352
0
LINE
8
DEFAULT_255_2_778
10
25.7245793
20
16.7563352
11
25.7245793
21
17.2563352
0
ARC
8
DEFAULT_255_2_778
10
3.6717894
20
35.2564703
40
0.5000969
50
179.9996485
51
270.0003515
0
ARC
8
DEFAULT_255_2_778
10
3.6717894
20
54.2564764
40
0.5000969
50
89.9996485
51
180.0003515
0
ARC
8
DEFAULT_255_2_778
10
3.6717169
20
55.2568491
40
0.5000757
50
270.0086662
51
0.0027804
0
ARC
8
DEFAULT_255_2_778
10
3.6717169
20
34.2568978
40
0.5000756
50
359.9971984
51
89.9913379
0
ARC
8
DEFAULT_255_2_778
10
6.1655964
20
56.5203274
40
1.993505
50
179.9411978
51
206.6751701
0
ARC
8
DEFAULT_255_2_778
10
6.172959
20
56.5233285
40
2.0014312
50
206.657316
51
255.1080724
0
ARC
8
DEFAULT_255_2_778
10
6.1734378
20
56.5342262
40
2.0120875
50
255.1746466
51
262.8756567
0
ARC
8
DEFAULT_255_2_778
10
11.6715854
20
53.3151619
40
0.5002072
50
0.0242163
51
82.844502
0
ARC
8
DEFAULT_255_2_778
10
11.6716845
20
36.1982974
40
0.500108
50
277.1454773
51
359.9743373
0
ARC
8
DEFAULT_255_2_778
10
6.1695499
20
32.99717
40
1.9937951
50
97.0774507
51
123.8081069
0
ARC
8
DEFAULT_255_2_778
10
6.1731816
20
32.9905549
40
2.0013124
50
123.7891233
51
172.2423298
0
ARC
8
DEFAULT_255_2_778
10
6.1838951
20
32.9914916
40
2.0118027
50
172.3099503
51
180.0119117
0
ARC
8
DEFAULT_255_2_778
10
36.1718838
20
65.2561806
40
1.0001912
50
134.9958871
51
179.9946851
0
ARC
8
DEFAULT_255_2_778
10
36.1718757
20
65.2562055
40
1.0001679
50
89.9990367
51
134.9965718
0
ARC
8
DEFAULT_255_2_778
10
63.1716654
20
65.2558581
40
1.0005153
50
45.0116676
51
89.992721
0
ARC
8
DEFAULT_255_2_778
10
63.1713768
20
65.256146
40
1.0005159
50
0.0072954
51
44.9883267
0
ARC
8
DEFAULT_255_2_778
10
63.1717253
20
24.2561564
40
1.0001672
50
315.0034073
51
0.0009706
0
ARC
8
DEFAULT_255_2_778
10
63.1718396
20
24.2561684
40
1.000095
50
269.9973023
51
314.9982952
0
ARC
8
DEFAULT_255_2_778
10
36.1717012
20
24.2558202
40
0.9997468
50
224.9934394
51
270.0109632
0
ARC
8
DEFAULT_255_2_778
10
36.1715355
20
24.2561218
40
0.999843
50
179.9970476
51
225.0123802
0
LINE
8
DEFAULT_255_2_778
10
10.5656925
20
53.9571734
11
10.6276925
21
53.8862734
0
LINE
8
DEFAULT_255_2_778
10
10.6276925
20
53.8862734
11
10.6508925
21
53.8463734
0
LINE
8
DEFAULT_255_2_778
10
10.6508925
20
53.8463734
11
10.6622925
21
53.8177734
0
LINE
8
DEFAULT_255_2_778
10
10.6622925
20
53.8177734
11
10.6694925
21
53.7878734
0
LINE
8
DEFAULT_255_2_778
10
10.6694925
20
53.7878734
11
10.6694925
21
35.7250734
0
LINE
8
DEFAULT_255_2_778
10
10.6694925
20
35.7250734
11
10.6622925
21
35.6948734
0
LINE
8
DEFAULT_255_2_778
10
10.6622925
20
35.6948734
11
10.6440925
21
35.6527734
0
LINE
8
DEFAULT_255_2_778
10
10.6440925
20
35.6527734
11
10.5881925
21
35.5784734
0
LINE
8
DEFAULT_255_2_778
10
10.5881925
20
35.5784734
11
10.5656925
21
35.5559734
0
LINE
8
DEFAULT_255_2_778
10
4.1717925
20
41.6567734
11
3.1719925
21
41.6567734
0
LINE
8
DEFAULT_255_2_778
10
3.1719925
20
47.8566734
11
4.1717925
21
47.8566734
0
LINE
8
DEFAULT_255_2_778
10
3.1719925
20
43.1566734
11
4.1717925
21
43.1566734
0
LINE
8
DEFAULT_255_2_778
10
4.1717925
20
46.3565734
11
3.1719925
21
46.3565734
0
LINE
8
DEFAULT_255_2_778
10
5.2322925
20
34.7563734
11
3.6717925
21
34.7563734
0
LINE
8
DEFAULT_255_2_778
10
3.1716925
20
35.2564734
11
3.1716925
21
54.2564734
0
LINE
8
DEFAULT_255_2_778
10
3.6717925
20
54.7565734
11
5.2322925
21
54.7565734
0
LINE
8
DEFAULT_255_2_778
10
4.1717925
20
35.2463734
11
4.1749925
21
35.2347734
0
LINE
8
DEFAULT_255_2_778
10
4.1749925
20
35.2347734
11
4.1971925
21
35.2080734
0
LINE
8
DEFAULT_255_2_778
10
4.1971925
20
35.2080734
11
4.2818925
21
35.1701734
0
LINE
8
DEFAULT_255_2_778
10
4.2818925
20
35.1701734
11
4.6694925
21
35.2143734
0
LINE
8
DEFAULT_255_2_778
10
4.1717925
20
54.2694734
11
4.1757925
21
54.2805734
0
LINE
8
DEFAULT_255_2_778
10
4.1757925
20
54.2805734
11
4.1992925
21
54.3072734
0
LINE
8
DEFAULT_255_2_778
10
4.1992925
20
54.3072734
11
4.2971925
21
54.3461734
0
LINE
8
DEFAULT_255_2_778
10
4.2971925
20
54.3461734
11
4.9824925
21
54.2569734
0
LINE
8
DEFAULT_255_2_778
10
4.9824925
20
54.2569734
11
8.1717925
21
54.2567734
0
LINE
8
DEFAULT_255_2_778
10
8.1717925
20
35.2567734
11
5.0052925
21
35.2567734
0
LINE
8
DEFAULT_255_2_778
10
5.0052925
20
35.2567734
11
4.6937925
21
35.2204734
0
LINE
8
DEFAULT_255_2_778
10
4.6937925
20
35.2204734
11
4.6721925
21
35.2149734
0
LINE
8
DEFAULT_255_2_778
10
5.9238925
20
54.5376734
11
11.7338925
21
53.8114734
0
LINE
8
DEFAULT_255_2_778
10
12.1717925
20
53.3153734
11
12.1717925
21
36.1980734
0
LINE
8
DEFAULT_255_2_778
10
11.7338925
20
35.7020734
11
5.9238925
21
34.9757734
0
LINE
8
DEFAULT_255_2_778
10
4.1789925
20
56.3567734
11
4.1720925
21
56.3567734
0
LINE
8
DEFAULT_255_2_778
10
4.1720925
20
33.1567734
11
4.1789925
21
33.1567734
0
LINE
8
DEFAULT_255_2_778
10
36.1718925
20
66.2563734
11
63.1717925
21
66.2563734
0
LINE
8
DEFAULT_255_2_778
10
64.1718925
20
65.2562734
11
64.1718925
21
24.2561734
0
LINE
8
DEFAULT_255_2_778
10
63.1717925
20
23.2560734
11
36.1718925
21
23.2560734
0
LINE
8
DEFAULT_255_2_778
10
76.1718516
20
22.7565713
11
35.1717516
21
22.7565713
0
LINE
8
DEFAULT_255_2_778
10
35.1717516
20
22.7565713
11
35.1717516
21
66.7564713
0
LINE
8
DEFAULT_255_2_778
10
35.1717516
20
66.7564713
11
76.1718516
21
66.7564713
0
ENDSEC
0
EOF