0
SECTION
2
HEADER
9
$MEASUREMENT
70
1
0
ENDSEC
0
SECTION
2
TABLES
0
TABLE
2
LTYPE
0
LTYPE
72
65
70
64
2
CONTINUOUS
3
______
73
0
40
0
0
ENDTAB
0
TABLE
2
LAYER
0
LAYER
2
DEFAULT_255_2_778
70
0
62
255
6
CONTINUOUS
0
ENDTAB
0
ENDSEC
0
SECTION
2
ENTITIES
0
ARC
8
DEFAULT_255_2_778
10
39.7404172
20
18.7562461
40
0.5000969
50
359.9996485
51
90.0003515
0
ARC
8
DEFAULT_255_2_778
10
0.7405895
20
51.4564185
40
0.5000754
50
180.0086483
51
270.0028154
0
LINE
8
DEFAULT_255_2_778
10
39.7404141
20
19.256343
11
23.0404141
21
19.256343
0
LINE
8
DEFAULT_255_2_778
10
23.0404141
20
19.256343
11
23.0404141
21
70.256343
0
LINE
8
DEFAULT_255_2_778
10
0.7406141
20
50.956343
11
23.0404141
21
50.956343
0
ARC
8
DEFAULT_255_2_778
10
39.740406
20
59.2563037
40
0.5000757
50
269.9972237
51
359.991324
0
ARC
8
DEFAULT_255_2_778
10
0.7404028
20
69.7562539
40
0.499921
50
134.9875937
51
180.0029687
0
ARC
8
DEFAULT_255_2_778
10
0.7404839
20
69.7565805
40
0.4997474
50
89.9887792
51
135.0206486
0
ARC
8
DEFAULT_255_2_778
10
39.7406063
20
69.7562525
40
0.5000754
50
359.9971846
51
89.9913517
0
LINE
8
DEFAULT_255_2_778
10
23.0403818
20
58.756228
11
39.7403818
21
58.756228
0
LINE
8
DEFAULT_255_2_778
10
0.7405818
20
70.256328
11
39.7406818
21
70.256328
0
LINE
8
DEFAULT_255_2_778
10
40.2404818
20
58.706428
11
23.2404818
21
58.706428
0
ARC
8
DEFAULT_255_2_778
10
39.7401438
20
89.2563208
40
0.500338
50
0.0053456
51
44.9602135
0
ARC
8
DEFAULT_255_2_778
10
39.7404501
20
89.2564072
40
0.5000603
50
44.9780074
51
90.0078215
0
ARC
8
DEFAULT_255_2_778
10
0.7405787
20
89.2563706
40
0.5000969
50
89.9996485
51
180.0003515
0
ARC
8
DEFAULT_255_2_778
10
0.7405576
20
0.2564432
40
0.5000758
50
180.008676
51
270.0027763
0
ARC
8
DEFAULT_255_2_778
10
39.7406275
20
0.2564217
40
0.5000542
50
270.0062229
51
359.9937886
0
LINE
8
DEFAULT_255_2_778
10
39.7403818
20
89.7564675
11
0.7405818
21
89.7564675
0
LINE
8
DEFAULT_255_2_778
10
0.2404818
20
89.2563675
11
0.2404818
21
0.2563675
0
LINE
8
DEFAULT_255_2_778
10
0.7405818
20
-0.2436325
11
39.7406818
21
-0.2436325
0
LINE
8
DEFAULT_255_2_778
10
40.2406818
20
0.2563675
11
40.2406818
21
89.2563675
0
LINE
8
DEFAULT_255_2_778
10
23.2404314
20
19.2564118
11
23.2404314
21
70.2564118
0
LINE
8
DEFAULT_255_2_778
10
37.0405314
20
58.7566118
11
37.0405314
21
60.7565118
0
LINE
8
DEFAULT_255_2_778
10
37.0405314
20
60.7565118
11
26.4405314
21
60.7565118
0
LINE
8
DEFAULT_255_2_778
10
26.4405314
20
60.7565118
11
26.4405314
21
58.7566118
0
LINE
8
DEFAULT_255_2_778
10
26.4405314
20
57.4066118
11
37.0405314
21
57.4066118
0
LINE
8
DEFAULT_255_2_778
10
36.7405314
20
57.7067118
11
26.7406314
21
57.7067118
0
LINE
8
DEFAULT_255_2_778
10
37.0405314
20
58.9566118
11
26.4405314
21
58.9566118
0
LINE
8
DEFAULT_255_2_778
10
26.4405314
20
59.2566118
11
37.0405314
21
59.2566118
0
LINE
8
DEFAULT_255_2_778
10
36.7405314
20
58.7065118
11
36.7405314
21
57.7064118
0
LINE
8
DEFAULT_255_2_778
10
36.7405314
20
57.7064118
11
37.0405314
21
57.4064118
0
LINE
8
DEFAULT_255_2_778
10
37.0405314
20
57.4064118
11
37.0405314
21
58.7063118
0
LINE
8
DEFAULT_255_2_778
10
26.4405314
20
58.7063118
11
26.4405314
21
57.4064118
0
LINE
8
DEFAULT_255_2_778
10
26.4405314
20
57.4064118
11
26.7406314
21
57.7064118
0
LINE
8
DEFAULT_255_2_778
10
26.7406314
20
57.7064118
11
26.7406314
21
58.7065118
0
ARC
8
DEFAULT_255_2_778
10
14.2430884
20
5.3550655
40
2.0644238
50
83.716985
51
90.0158246
0
ARC
8
DEFAULT_255_2_778
10
14.4229355
20
7.1561286
40
0.2567957
50
54.5381737
51
67.4489751
0
ARC
8
DEFAULT_255_2_778
10
14.1564596
20
6.9015578
40
0.6284761
50
29.7469812
51
36.3073921
0
ARC
8
DEFAULT_255_2_778
10
14.0587724
20
6.8439
40
0.7419003
50
24.0026354
51
29.8698047
0
ARC
8
DEFAULT_255_2_778
10
13.7806533
20
6.7184567
40
1.0469983
50
15.2011853
51
24.0826898
0
ARC
8
DEFAULT_255_2_778
10
12.236837
20
7.0395548
40
1.2461671
50
269.9696483
51
270.0910928
0
ARC
8
DEFAULT_255_2_778
10
12.2369418
20
7.8337753
40
2.0403879
50
263.679573
51
269.9785187
0
ARC
8
DEFAULT_255_2_778
10
12.0559538
20
6.0523368
40
0.2517822
50
234.4091233
51
247.5781342
0
ARC
8
DEFAULT_255_2_778
10
12.3146388
20
6.3046654
40
0.6162854
50
209.6820456
51
216.372374
0
ARC
8
DEFAULT_255_2_778
10
12.4340064
20
6.3747937
40
0.7547191
50
204.0525742
51
209.8200058
0
ARC
8
DEFAULT_255_2_778
10
12.6967455
20
6.4930159
40
1.0428298
50
195.1833751
51
204.1004527
0
ARC
8
DEFAULT_255_2_778
10
13.2408872
20
6.6057127
40
1.2492235
50
269.983076
51
319.4868688
0
ARC
8
DEFAULT_255_2_778
10
13.2402922
20
6.606023
40
1.2495338
50
220.5196911
51
270.0103641
0
ARC
8
DEFAULT_255_2_778
10
13.2403184
20
6.606813
40
1.2497762
50
89.9908407
51
139.469156
0
ARC
8
DEFAULT_255_2_778
10
13.240861
20
6.6071235
40
1.2494658
50
40.5242846
51
90.0157187
0
ARC
8
DEFAULT_255_2_778
10
13.2393592
20
6.6098775
40
1.5987442
50
152.9781678
51
180.1142617
0
ARC
8
DEFAULT_255_2_778
10
13.2366828
20
6.6102384
40
1.5961962
50
98.8836243
51
152.9460598
0
ARC
8
DEFAULT_255_2_778
10
13.2398764
20
6.5820126
40
1.6245768
50
89.9773652
51
98.8411763
0
ARC
8
DEFAULT_255_2_778
10
13.2437176
20
6.6076233
40
1.5989692
50
62.9801031
51
90.1146446
0
ARC
8
DEFAULT_255_2_778
10
13.2441985
20
6.6105261
40
1.5961649
50
8.8837455
51
62.9481427
0
ARC
8
DEFAULT_255_2_778
10
13.2159415
20
6.607331
40
1.6245768
50
359.9773653
51
8.8411765
0
ARC
8
DEFAULT_255_2_778
10
13.2417083
20
6.6034788
40
1.5988131
50
332.9785483
51
0.1150504
0
ARC
8
DEFAULT_255_2_778
10
13.2445096
20
6.603113
40
1.5961516
50
278.8791537
51
332.9445609
0
ARC
8
DEFAULT_255_2_778
10
13.2411649
20
6.6318563
40
1.6250672
50
269.9771989
51
278.8392452
0
ARC
8
DEFAULT_255_2_778
10
13.2373205
20
6.6056426
40
1.5988566
50
242.9806011
51
270.1145916
0
ARC
8
DEFAULT_255_2_778
10
13.2368638
20
6.6027601
40
1.5960814
50
188.8817182
51
242.9481964
0
ARC
8
DEFAULT_255_2_778
10
13.2654701
20
6.6060451
40
1.624852
50
179.9772865
51
188.840424
0
ARC
8
DEFAULT_255_2_778
10
12.6615071
20
6.7335461
40
1.0052143
50
155.7323257
51
164.9837974
0
ARC
8
DEFAULT_255_2_778
10
12.2877696
20
6.9257172
40
0.5845092
50
143.366649
51
150.4046771
0
ARC
8
DEFAULT_255_2_778
10
12.0624222
20
7.1493757
40
0.2650378
50
112.7525741
51
125.2602472
0
ARC
8
DEFAULT_255_2_778
10
12.2369939
20
5.4265766
40
1.9934146
50
90.0217576
51
96.4714985
0
ARC
8
DEFAULT_255_2_778
10
12.236882
20
6.0316723
40
1.3883188
50
89.9200935
51
90.0266242
0
ARC
8
DEFAULT_255_2_778
10
13.8161745
20
6.4816367
40
1.0090823
50
335.7501063
51
344.9660388
0
ARC
8
DEFAULT_255_2_778
10
14.184715
20
6.2931386
40
0.5946643
50
323.4964703
51
330.408894
0
ARC
8
DEFAULT_255_2_778
10
14.4215256
20
6.0597929
40
0.2596852
50
292.6231437
51
305.3896881
0
ARC
8
DEFAULT_255_2_778
10
14.2457648
20
7.7620799
40
1.9681935
50
269.9054885
51
276.5131134
0
ARC
8
DEFAULT_255_2_778
10
5.0406151
20
9.6567923
40
0.5000969
50
89.9996485
51
180.0003515
0
ARC
8
DEFAULT_255_2_778
10
5.0406151
20
4.7569862
40
0.5000969
50
179.9996485
51
270.0003515
0
ARC
8
DEFAULT_255_2_778
10
17.0404426
20
4.7569648
40
0.5000756
50
270.0086621
51
0.0028016
0
ARC
8
DEFAULT_255_2_778
10
17.0404638
20
9.6570348
40
0.5000544
50
0.0062367
51
89.9937633
0
ARC
8
DEFAULT_255_2_778
10
36.7388533
20
21.9028665
40
0.9962783
50
228.352313
51
270.084247
0
ARC
8
DEFAULT_255_2_778
10
36.7379961
20
21.9055968
40
0.997752
50
181.7286836
51
228.4932889
0
ARC
8
DEFAULT_255_2_778
10
36.7593419
20
21.9067796
40
1.0191238
50
179.9994552
51
181.758945
0
ARC
8
DEFAULT_255_2_778
10
26.7440423
20
21.9053447
40
0.996477
50
318.3575081
51
0.0830578
0
ARC
8
DEFAULT_255_2_778
10
26.7415396
20
21.9042092
40
0.9975959
50
271.7327121
51
318.5017548
0
ARC
8
DEFAULT_255_2_778
10
26.7404279
20
21.9253484
40
1.0187592
50
269.9994554
51
271.7592612
0
ARC
8
DEFAULT_255_2_778
10
39.7401213
20
19.8067862
40
0.5000969
50
269.9996485
51
0.0003515
0
ARC
8
DEFAULT_255_2_778
10
23.7405298
20
19.8067008
40
0.5000116
50
179.9898688
51
269.9986732
0
ARC
8
DEFAULT_255_2_778
10
30.9044141
20
64.8286919
40
0.2192711
50
29.6348751
51
98.2584773
0
ARC
8
DEFAULT_255_2_778
10
30.6620683
20
64.6930414
40
0.4969955
50
17.6691155
51
29.4127989
0
ARC
8
DEFAULT_255_2_778
10
30.8207859
20
61.2758286
40
4.7663908
50
90.0013221
51
90.203966
0
ARC
8
DEFAULT_255_2_778
10
30.8356925
20
62.9207075
40
3.121548
50
85.7779214
51
90.2756285
0
ARC
8
DEFAULT_255_2_778
10
30.9702252
20
64.6606777
40
1.3764084
50
77.3458362
51
86.0304573
0
ARC
8
DEFAULT_255_2_778
10
31.1536889
20
65.447133
40
0.5689051
50
58.9563088
51
78.022838
0
ARC
8
DEFAULT_255_2_778
10
31.2589782
20
65.6444402
40
0.3457531
50
2.284052
51
57.0435497
0
ARC
8
DEFAULT_255_2_778
10
30.8582115
20
65.5772071
40
0.7506297
50
1.0367821
51
6.1957825
0
ARC
8
DEFAULT_255_2_778
10
31.1213774
20
65.5790736
40
0.4874816
50
0.0043465
51
1.3771231
0
ARC
8
DEFAULT_255_2_778
10
31.213898
20
65.5717107
40
0.3950304
50
322.3688629
51
1.0733548
0
ARC
8
DEFAULT_255_2_778
10
31.2062224
20
65.5896844
40
0.4121939
50
277.6814163
51
321.0415612
0
ARC
8
DEFAULT_255_2_778
10
31.0281238
20
64.8333949
40
0.4443715
50
22.4498729
51
39.6403911
0
ARC
8
DEFAULT_255_2_778
10
31.2204864
20
64.9911933
40
0.1955736
50
39.9937429
51
59.2034895
0
ARC
8
DEFAULT_255_2_778
10
31.2450266
20
65.0297452
40
0.1498995
50
59.7163157
51
85.0663881
0
ARC
8
DEFAULT_255_2_778
10
30.9398619
20
65.8762417
40
0.5593683
50
274.7434191
51
289.3255267
0
ARC
8
DEFAULT_255_2_778
10
31.0634384
20
65.5276008
40
0.1894804
50
288.9517963
51
7.1121094
0
ARC
8
DEFAULT_255_2_778
10
30.7380281
20
65.558725
40
0.51349
50
359.1447666
51
0.0071737
0
ARC
8
DEFAULT_255_2_778
10
31.014798
20
65.570364
40
0.237003
50
357.2006784
51
359.9823307
0
ARC
8
DEFAULT_255_2_778
10
31.0502912
20
65.5620868
40
0.2016768
50
2.3313892
51
87.3395859
0
ARC
8
DEFAULT_255_2_778
10
30.9765552
20
65.3213159
40
0.4499698
50
79.3579632
51
85.4565198
0
ARC
8
DEFAULT_255_2_778
10
30.9730423
20
65.2842358
40
0.487212
50
85.3901268
51
86.8024737
0
ARC
8
DEFAULT_255_2_778
10
33.6311221
20
65.0315014
40
1.7387563
50
178.006393
51
179.3542076
0
ARC
8
DEFAULT_255_2_778
10
33.5238784
20
65.0329452
40
1.6315031
50
179.362458
51
179.9979378
0
ARC
8
DEFAULT_255_2_778
10
33.1366489
20
65.024587
40
1.2443021
50
179.6124275
51
189.1777671
0
ARC
8
DEFAULT_255_2_778
10
32.6465437
20
64.9425879
40
0.7473976
50
188.9647696
51
203.9273023
0
ARC
8
DEFAULT_255_2_778
10
32.4095112
20
64.836186
40
0.4875824
50
203.7953486
51
230.1519286
0
ARC
8
DEFAULT_255_2_778
10
32.4726208
20
64.9558491
40
0.6205333
50
232.7587004
51
265.6469079
0
ARC
8
DEFAULT_255_2_778
10
32.5796599
20
65.6609952
40
1.3328322
50
263.3590012
51
267.4438719
0
ARC
8
DEFAULT_255_2_778
10
32.6006165
20
65.9025309
40
1.5750949
50
267.0741539
51
269.1274663
0
ARC
8
DEFAULT_255_2_778
10
32.5981336
20
65.7706072
40
1.4431488
50
269.1462707
51
269.9968787
0
ARC
8
DEFAULT_255_2_778
10
32.6092763
20
65.3726629
40
1.0452648
50
269.384899
51
282.4279899
0
ARC
8
DEFAULT_255_2_778
10
32.7141862
20
64.9212177
40
0.5818444
50
281.9065716
51
308.0713504
0
ARC
8
DEFAULT_255_2_778
10
32.7204202
20
64.8815764
40
0.5471416
50
310.1176501
51
346.6848625
0
ARC
8
DEFAULT_255_2_778
10
32.210072
20
65.0238616
40
1.0767433
50
345.5714017
51
359.2018218
0
ARC
8
DEFAULT_255_2_778
10
31.7246606
20
65.0492188
40
1.5625715
50
358.5200547
51
0.0116161
0
ARC
8
DEFAULT_255_2_778
10
31.5902352
20
65.049345
40
1.6969971
50
0.0064344
51
1.1022371
0
ARC
8
DEFAULT_255_2_778
10
33.4174848
20
65.0345237
40
1.1841298
50
178.7919173
51
179.9930848
0
ARC
8
DEFAULT_255_2_778
10
33.0436463
20
65.0240282
40
0.8103612
50
179.2477999
51
193.0317417
0
ARC
8
DEFAULT_255_2_778
10
32.6402125
20
64.925451
40
0.3951219
50
192.2968545
51
219.6681009
0
ARC
8
DEFAULT_255_2_778
10
32.5707215
20
64.8866535
40
0.3171962
50
222.2871409
51
270.8122724
0
ARC
8
DEFAULT_255_2_778
10
31.7073424
20
65.037681
40
1.2360776
50
0.2988866
51
2.1887721
0
ARC
8
DEFAULT_255_2_778
10
31.7923762
20
65.0384926
40
1.1510408
50
359.9984517
51
0.2805674
0
ARC
8
DEFAULT_255_2_778
10
32.1069495
20
65.028897
40
0.8365223
50
347.7332308
51
0.6551164
0
ARC
8
DEFAULT_255_2_778
10
32.5043137
20
64.9380821
40
0.4289571
50
324.5617763
51
348.3097292
0
ARC
8
DEFAULT_255_2_778
10
32.611688
20
64.8724589
40
0.3035523
50
267.369249
51
322.9019845
0
ARC
8
DEFAULT_255_2_778
10
32.5978196
20
65.0209906
40
0.4517641
50
268.0463057
51
269.9918226
0
ARC
8
DEFAULT_255_2_778
10
26.9902833
20
68.1040877
40
0.222242
50
358.2212475
51
79.8931731
0
ARC
8
DEFAULT_255_2_778
10
26.8454763
20
67.6514248
40
0.6961596
50
74.6906914
51
89.400231
0
ARC
8
DEFAULT_255_2_778
10
26.8208495
20
67.1983441
40
1.1496453
50
88.4092727
51
90.0165134
0
LINE
8
DEFAULT_255_2_778
10
26.8205182
20
68.3479892
11
26.8205182
21
67.8740892
0
ARC
8
DEFAULT_255_2_778
10
26.8325212
20
68.7796968
40
0.9056871
50
269.2406411
51
280.7249101
0
ARC
8
DEFAULT_255_2_778
10
26.9444706
20
68.2261808
40
0.3410782
50
279.5509598
51
305.3437147
0
ARC
8
DEFAULT_255_2_778
10
27.0343286
20
68.0901616
40
0.1782282
50
307.0759379
51
2.259804
0
ARC
8
DEFAULT_255_2_778
10
26.9580056
20
69.6667372
40
2.1314868
50
266.3016804
51
268.063428
0
ARC
8
DEFAULT_255_2_778
10
26.9494553
20
69.4120544
40
1.8766605
50
268.0615614
51
269.979395
0
ARC
8
DEFAULT_255_2_778
10
26.9598427
20
68.8587573
40
1.3234095
50
269.5210622
51
280.0514936
0
ARC
8
DEFAULT_255_2_778
10
27.0694677
20
68.2684658
40
0.7230618
50
279.6618737
51
298.2274962
0
ARC
8
DEFAULT_255_2_778
10
27.1828757
20
68.0456318
40
0.4731207
50
298.8903557
51
355.1138813
0
ARC
8
DEFAULT_255_2_778
10
26.8519907
20
68.1093935
40
0.8090066
50
352.6097495
51
0.1747062
0
ARC
8
DEFAULT_255_2_778
10
26.6774079
20
68.1114992
40
0.9835858
50
0.0210358
51
2.4175937
0
ARC
8
DEFAULT_255_2_778
10
27.1926834
20
68.1665667
40
0.467632
50
358.3362165
51
30.2146733
0
ARC
8
DEFAULT_255_2_778
10
27.2184046
20
68.1590547
40
0.4496058
50
32.6922086
51
67.9429381
0
ARC
8
DEFAULT_255_2_778
10
27.039075
20
67.7567179
40
0.8899678
50
66.9697887
51
81.7087853
0
ARC
8
DEFAULT_255_2_778
10
26.9164843
20
66.9794614
40
1.6768038
50
81.3935517
51
90.1766359
0
ARC
8
DEFAULT_255_2_778
10
26.9021786
20
66.3879611
40
2.2683143
50
89.7692218
51
90.0003518
0
ARC
8
DEFAULT_255_2_778
10
26.9027724
20
66.2348372
40
2.4214384
50
90.0143817
51
91.4542062
0
ARC
8
DEFAULT_255_2_778
10
26.9070043
20
66.0458911
40
2.6104311
50
91.4418147
51
91.8986116
0
LINE
8
DEFAULT_255_2_778
10
26.8205182
20
68.6548892
11
26.3729182
21
68.6548892
0
LINE
8
DEFAULT_255_2_778
10
9.3705182
20
7.8065892
11
9.3705182
21
5.5565892
0
LINE
8
DEFAULT_255_2_778
10
8.8405182
20
7.8065892
11
10.9405182
21
7.8065892
0
LINE
8
DEFAULT_255_2_778
10
10.9405182
20
7.8065892
11
10.9405182
21
5.5565892
0
LINE
8
DEFAULT_255_2_778
10
10.9405182
20
5.5565892
11
8.8405182
21
5.5565892
0
LINE
8
DEFAULT_255_2_778
10
8.8405182
20
5.5565892
11
8.8405182
21
7.8065892
0
LINE
8
DEFAULT_255_2_778
10
14.1906182
20
7.4189892
11
14.2425182
21
7.4194892
0
LINE
8
DEFAULT_255_2_778
10
14.4690182
20
7.4070892
11
14.5214182
21
7.3932892
0
LINE
8
DEFAULT_255_2_778
10
14.5719182
20
7.3652892
11
14.6193182
21
7.3247892
0
LINE
8
DEFAULT_255_2_778
10
14.6193182
20
7.3247892
11
14.6629182
21
7.2736892
0
LINE
8
DEFAULT_255_2_778
10
12.2907182
20
5.7938892
11
12.2388182
21
5.7933892
0
LINE
8
DEFAULT_255_2_778
10
12.0123182
20
5.8057892
11
11.9599182
21
5.8195892
0
LINE
8
DEFAULT_255_2_778
10
11.9094182
20
5.8475892
11
11.8620182
21
5.8880892
0
LINE
8
DEFAULT_255_2_778
10
11.8620182
20
5.8880892
11
11.8184182
21
5.9391892
0
LINE
8
DEFAULT_255_2_778
10
12.2904182
20
5.7941892
11
12.2904182
21
7.4189892
0
LINE
8
DEFAULT_255_2_778
10
14.1906182
20
7.4189892
11
14.1906182
21
5.7941892
0
LINE
8
DEFAULT_255_2_778
10
11.6406182
20
6.6066892
11
11.6406182
21
6.6066892
0
LINE
8
DEFAULT_255_2_778
10
11.7451182
20
7.1466892
11
11.7795182
21
7.2143892
0
LINE
8
DEFAULT_255_2_778
10
11.8187182
20
7.2744892
11
11.8620182
21
7.3255892
0
LINE
8
DEFAULT_255_2_778
10
11.8620182
20
7.3255892
11
11.9094182
21
7.3657892
0
LINE
8
DEFAULT_255_2_778
10
11.9599182
20
7.3937892
11
12.0123182
21
7.4072892
0
LINE
8
DEFAULT_255_2_778
10
12.2388182
20
7.4199892
11
12.2907182
21
7.4194892
0
LINE
8
DEFAULT_255_2_778
10
14.7362182
20
6.0671892
11
14.7018182
21
5.9994892
0
LINE
8
DEFAULT_255_2_778
10
14.6627182
20
5.9393892
11
14.6193182
21
5.8883892
0
LINE
8
DEFAULT_255_2_778
10
14.6193182
20
5.8883892
11
14.5719182
21
5.8480892
0
LINE
8
DEFAULT_255_2_778
10
14.5214182
20
5.8200892
11
14.4690182
21
5.8065892
0
LINE
8
DEFAULT_255_2_778
10
14.2425182
20
5.7938892
11
14.1906182
21
5.7943892
0
LINE
8
DEFAULT_255_2_778
10
17.0407182
20
9.6567892
11
4.5405182
21
9.6567892
0
LINE
8
DEFAULT_255_2_778
10
4.5405182
20
9.6567892
11
4.5405182
21
4.7566892
0
LINE
8
DEFAULT_255_2_778
10
4.5405182
20
4.7566892
11
17.0405182
21
4.7566892
0
LINE
8
DEFAULT_255_2_778
10
5.0406182
20
10.1568892
11
17.0405182
21
10.1568892
0
LINE
8
DEFAULT_255_2_778
10
17.0405182
20
10.1568892
11
17.0405182
21
4.2568892
0
LINE
8
DEFAULT_255_2_778
10
17.0405182
20
4.2568892
11
5.0406182
21
4.2568892
0
LINE
8
DEFAULT_255_2_778
10
17.5405182
20
4.7569892
11
17.5405182
21
9.6570892
0
LINE
8
DEFAULT_255_2_778
10
19.4424182
20
9.1159892
11
19.2026182
21
9.1159892
0
LINE
8
DEFAULT_255_2_778
10
19.2026182
20
9.1159892
11
19.2019182
21
6.3317892
0
LINE
8
DEFAULT_255_2_778
10
19.2019182
20
6.3317892
11
18.0417182
21
6.3317892
0
LINE
8
DEFAULT_255_2_778
10
18.0417182
20
6.3317892
11
18.0417182
21
6.0920892
0
LINE
8
DEFAULT_255_2_778
10
18.0417182
20
6.0920892
11
20.6020182
21
6.0920892
0
LINE
8
DEFAULT_255_2_778
10
20.6020182
20
6.0920892
11
20.6020182
21
6.3317892
0
LINE
8
DEFAULT_255_2_778
10
20.6020182
20
6.3317892
11
19.4418182
21
6.3317892
0
LINE
8
DEFAULT_255_2_778
10
19.4418182
20
6.3317892
11
19.4424182
21
9.1159892
0
LINE
8
DEFAULT_255_2_778
10
19.8027182
20
5.5316892
11
18.8423182
21
5.5316892
0
LINE
8
DEFAULT_255_2_778
10
18.8423182
20
5.5316892
11
18.8423182
21
5.2919892
0
LINE
8
DEFAULT_255_2_778
10
18.8423182
20
5.2919892
11
19.8027182
21
5.2927892
0
LINE
8
DEFAULT_255_2_778
10
19.8027182
20
5.2927892
11
19.8027182
21
5.5316892
0
LINE
8
DEFAULT_255_2_778
10
20.2022182
20
5.9319892
11
18.4417182
21
5.9319892
0
LINE
8
DEFAULT_255_2_778
10
18.4417182
20
5.9319892
11
18.4417182
21
5.6922892
0
LINE
8
DEFAULT_255_2_778
10
18.4417182
20
5.6922892
11
20.2022182
21
5.6922892
0
LINE
8
DEFAULT_255_2_778
10
20.2022182
20
5.6922892
11
20.2022182
21
5.9319892
0
LINE
8
DEFAULT_255_2_778
10
37.2404182
20
22.2064892
11
37.2404182
21
20.9065892
0
LINE
8
DEFAULT_255_2_778
10
35.7402182
20
21.9067892
11
35.7402182
21
22.2067892
0
LINE
8
DEFAULT_255_2_778
10
36.2402182
20
22.2067892
11
36.2402182
21
21.0409892
0
LINE
8
DEFAULT_255_2_778
10
26.2403182
20
20.9068892
11
26.2403182
21
22.2067892
0
LINE
8
DEFAULT_255_2_778
10
27.2404182
20
21.0409892
11
27.2404182
21
22.2067892
0
LINE
8
DEFAULT_255_2_778
10
27.7405182
20
22.2067892
11
27.7405182
21
21.9067892
0
LINE
8
DEFAULT_255_2_778
10
27.4997182
20
21.2566892
11
27.2402182
21
21.2566892
0
LINE
8
DEFAULT_255_2_778
10
36.2402182
20
21.2566892
11
35.9807182
21
21.2566892
0
LINE
8
DEFAULT_255_2_778
10
39.7401182
20
19.3066892
11
23.7405182
21
19.3066892
0
LINE
8
DEFAULT_255_2_778
10
23.2405182
20
20.7401892
11
23.2428182
21
20.7369892
0
LINE
8
DEFAULT_255_2_778
10
23.2428182
20
20.7369892
11
23.2457182
21
20.7353892
0
LINE
8
DEFAULT_255_2_778
10
23.2457182
20
20.7353892
11
23.2500182
21
20.7338892
0
LINE
8
DEFAULT_255_2_778
10
23.2500182
20
20.7338892
11
23.2553182
21
20.7322892
0
LINE
8
DEFAULT_255_2_778
10
23.2553182
20
20.7322892
11
23.2619182
21
20.7306892
0
LINE
8
DEFAULT_255_2_778
10
23.2619182
20
20.7306892
11
23.2783182
21
20.7274892
0
LINE
8
DEFAULT_255_2_778
10
23.2783182
20
20.7274892
11
23.2992182
21
20.7245892
0
LINE
8
DEFAULT_255_2_778
10
23.2992182
20
20.7245892
11
23.3243182
21
20.7216892
0
LINE
8
DEFAULT_255_2_778
10
23.3243182
20
20.7216892
11
23.3865182
21
20.7166892
0
LINE
8
DEFAULT_255_2_778
10
23.3865182
20
20.7166892
11
23.4622182
21
20.7123892
0
LINE
8
DEFAULT_255_2_778
10
23.4622182
20
20.7123892
11
23.5487182
21
20.7092892
0
LINE
8
DEFAULT_255_2_778
10
23.5487182
20
20.7092892
11
23.6426182
21
20.7073892
0
LINE
8
DEFAULT_255_2_778
10
23.6426182
20
20.7073892
11
23.7403182
21
20.7068892
0
LINE
8
DEFAULT_255_2_778
10
23.7403182
20
20.7068892
11
39.7401182
21
20.7068892
0
LINE
8
DEFAULT_255_2_778
10
39.7401182
20
20.7068892
11
39.8378182
21
20.7073892
0
LINE
8
DEFAULT_255_2_778
10
39.8378182
20
20.7073892
11
39.9317182
21
20.7092892
0
LINE
8
DEFAULT_255_2_778
10
39.9317182
20
20.7092892
11
40.0182182
21
20.7123892
0
LINE
8
DEFAULT_255_2_778
10
40.0182182
20
20.7123892
11
40.0939182
21
20.7166892
0
LINE
8
DEFAULT_255_2_778
10
40.0939182
20
20.7166892
11
40.1561182
21
20.7216892
0
LINE
8
DEFAULT_255_2_778
10
40.1561182
20
20.7216892
11
40.1812182
21
20.7245892
0
LINE
8
DEFAULT_255_2_778
10
40.1812182
20
20.7245892
11
40.2021182
21
20.7274892
0
LINE
8
DEFAULT_255_2_778
10
40.2021182
20
20.7274892
11
40.2185182
21
20.7306892
0
LINE
8
DEFAULT_255_2_778
10
40.2185182
20
20.7306892
11
40.2251182
21
20.7322892
0
LINE
8
DEFAULT_255_2_778
10
40.2251182
20
20.7322892
11
40.2304182
21
20.7338892
0
LINE
8
DEFAULT_255_2_778
10
40.2304182
20
20.7338892
11
40.2346182
21
20.7353892
0
LINE
8
DEFAULT_255_2_778
10
40.2346182
20
20.7353892
11
40.2376182
21
20.7369892
0
LINE
8
DEFAULT_255_2_778
10
40.2376182
20
20.7369892
11
40.2399182
21
20.7401892
0
LINE
8
DEFAULT_255_2_778
10
40.2399182
20
20.9068892
11
23.2405182
21
20.9068892
0
LINE
8
DEFAULT_255_2_778
10
23.2405182
20
22.2067892
11
40.2405182
21
22.2067892
0
LINE
8
DEFAULT_255_2_778
10
34.9999182
20
66.0415892
11
34.9999182
21
64.3347892
0
LINE
8
DEFAULT_255_2_778
10
34.9999182
20
64.3347892
11
34.5818182
21
64.3347892
0
LINE
8
DEFAULT_255_2_778
10
34.5818182
20
64.3347892
11
33.9288182
21
65.6113892
0
LINE
8
DEFAULT_255_2_778
10
33.9288182
20
65.6113892
11
33.9241182
21
65.6113892
0
LINE
8
DEFAULT_255_2_778
10
33.9241182
20
65.6113892
11
33.9241182
21
64.3347892
0
LINE
8
DEFAULT_255_2_778
10
33.9241182
20
64.3347892
11
33.5962182
21
64.3347892
0
LINE
8
DEFAULT_255_2_778
10
33.5962182
20
64.3347892
11
33.5962182
21
66.0415892
0
LINE
8
DEFAULT_255_2_778
10
33.5962182
20
66.0415892
11
34.0169182
21
66.0415892
0
LINE
8
DEFAULT_255_2_778
10
34.0169182
20
66.0415892
11
34.6673182
21
64.7654892
0
LINE
8
DEFAULT_255_2_778
10
34.6673182
20
64.7654892
11
34.6720182
21
64.7654892
0
LINE
8
DEFAULT_255_2_778
10
34.6720182
20
64.7654892
11
34.6720182
21
66.0415892
0
LINE
8
DEFAULT_255_2_778
10
34.6720182
20
66.0415892
11
34.9999182
21
66.0415892
0
LINE
8
DEFAULT_255_2_778
10
30.8814182
20
65.0448892
11
30.7787182
21
65.0448892
0
LINE
8
DEFAULT_255_2_778
10
30.7787182
20
65.0448892
11
30.7787182
21
64.3352892
0
LINE
8
DEFAULT_255_2_778
10
30.7787182
20
64.3352892
11
30.4363182
21
64.3352892
0
LINE
8
DEFAULT_255_2_778
10
30.4363182
20
64.3352892
11
30.4363182
21
66.0421892
0
LINE
8
DEFAULT_255_2_778
10
30.4363182
20
66.0421892
11
30.8038182
21
66.0421892
0
LINE
8
DEFAULT_255_2_778
10
31.1362182
20
64.8414892
11
31.3314182
21
64.3352892
0
LINE
8
DEFAULT_255_2_778
10
31.3314182
20
64.3352892
11
31.7127182
21
64.3352892
0
LINE
8
DEFAULT_255_2_778
10
31.7127182
20
64.3352892
11
31.4388182
21
65.0030892
0
LINE
8
DEFAULT_255_2_778
10
31.2579182
20
65.1790892
11
31.2579182
21
65.1793892
0
LINE
8
DEFAULT_255_2_778
10
31.0002182
20
65.7706892
11
30.7784182
21
65.7735892
0
LINE
8
DEFAULT_255_2_778
10
30.7784182
20
65.7735892
11
30.7784182
21
65.3147892
0
LINE
8
DEFAULT_255_2_778
10
30.7784182
20
65.3147892
11
30.9790182
21
65.3190892
0
LINE
8
DEFAULT_255_2_778
10
32.2342182
20
65.0552892
11
32.2342182
21
66.0415892
0
LINE
8
DEFAULT_255_2_778
10
32.2342182
20
66.0415892
11
31.8918182
21
66.0415892
0
LINE
8
DEFAULT_255_2_778
10
31.8918182
20
66.0415892
11
31.8918182
21
65.0552892
0
LINE
8
DEFAULT_255_2_778
10
33.2856182
20
65.0552892
11
33.2856182
21
66.0415892
0
LINE
8
DEFAULT_255_2_778
10
33.2856182
20
66.0415892
11
32.9433182
21
66.0415892
0
LINE
8
DEFAULT_255_2_778
10
32.9433182
20
66.0415892
11
32.9433182
21
65.0552892
0
LINE
8
DEFAULT_255_2_778
10
32.3130182
20
66.9348892
11
32.3130182
21
68.6561892
0
LINE
8
DEFAULT_255_2_778
10
32.3130182
20
68.6561892
11
33.3293182
21
68.6561892
0
LINE
8
DEFAULT_255_2_778
10
33.3293182
20
68.6561892
11
33.3293182
21
68.3849892
0
LINE
8
DEFAULT_255_2_778
10
33.3293182
20
68.3849892
11
32.6583182
21
68.3849892
0
LINE
8
DEFAULT_255_2_778
10
32.6583182
20
68.3849892
11
32.6583182
21
67.9608892
0
LINE
8
DEFAULT_255_2_778
10
32.6583182
20
67.9608892
11
33.2727182
21
67.9608892
0
LINE
8
DEFAULT_255_2_778
10
33.2727182
20
67.9608892
11
33.2727182
21
67.6894892
0
LINE
8
DEFAULT_255_2_778
10
33.2727182
20
67.6894892
11
32.6583182
21
67.6894892
0
LINE
8
DEFAULT_255_2_778
10
32.6583182
20
67.6894892
11
32.6583182
21
67.2062892
0
LINE
8
DEFAULT_255_2_778
10
32.6583182
20
67.2062892
11
33.3340182
21
67.2062892
0
LINE
8
DEFAULT_255_2_778
10
33.3340182
20
67.2062892
11
33.3340182
21
66.9348892
0
LINE
8
DEFAULT_255_2_778
10
33.3340182
20
66.9348892
11
32.3128182
21
66.9348892
0
LINE
8
DEFAULT_255_2_778
10
30.0704182
20
66.9348892
11
29.6143182
21
68.6561892
0
LINE
8
DEFAULT_255_2_778
10
29.6143182
20
68.6561892
11
29.9767182
21
68.6561892
0
LINE
8
DEFAULT_255_2_778
10
29.9767182
20
68.6561892
11
30.2974182
21
67.2800892
0
LINE
8
DEFAULT_255_2_778
10
30.2974182
20
67.2800892
11
30.3024182
21
67.2800892
0
LINE
8
DEFAULT_255_2_778
10
30.3024182
20
67.2800892
11
30.5956182
21
68.6561892
0
LINE
8
DEFAULT_255_2_778
10
30.5956182
20
68.6561892
11
31.0642182
21
68.6561892
0
LINE
8
DEFAULT_255_2_778
10
31.0642182
20
68.6561892
11
31.3677182
21
67.2800892
0
LINE
8
DEFAULT_255_2_778
10
31.3677182
20
67.2800892
11
31.3727182
21
67.2800892
0
LINE
8
DEFAULT_255_2_778
10
31.3727182
20
67.2800892
11
31.6957182
21
68.6561892
0
LINE
8
DEFAULT_255_2_778
10
31.6957182
20
68.6561892
11
32.0312182
21
68.6561892
0
LINE
8
DEFAULT_255_2_778
10
32.0312182
20
68.6561892
11
31.5825182
21
66.9348892
0
LINE
8
DEFAULT_255_2_778
10
31.5825182
20
66.9348892
11
31.1385182
21
66.9348892
0
LINE
8
DEFAULT_255_2_778
10
31.1385182
20
66.9348892
11
30.8279182
21
68.3111892
0
LINE
8
DEFAULT_255_2_778
10
30.8279182
20
68.3111892
11
30.8229182
21
68.3111892
0
LINE
8
DEFAULT_255_2_778
10
30.8229182
20
68.3111892
11
30.5170182
21
66.9348892
0
LINE
8
DEFAULT_255_2_778
10
30.5170182
20
66.9348892
11
30.0704182
21
66.9348892
0
LINE
8
DEFAULT_255_2_778
10
27.2124182
20
68.0971892
11
27.2124182
21
68.0971892
0
LINE
8
DEFAULT_255_2_778
10
26.3729182
20
68.6548892
11
26.3729182
21
66.9819892
0
LINE
8
DEFAULT_255_2_778
10
26.3729182
20
66.9819892
11
26.8205182
21
66.9819892
0
LINE
8
DEFAULT_255_2_778
10
26.8205182
20
66.9819892
11
26.8205182
21
67.5396892
0
LINE
8
DEFAULT_255_2_778
10
26.3729182
20
68.6548892
11
26.3729182
21
68.6548892
0
ARC
8
DEFAULT_255_2_778
10
28.7189728
20
67.6673513
40
0.4566963
50
268.9046887
51
295.8184945
0
ARC
8
DEFAULT_255_2_778
10
28.6663129
20
67.6918756
40
0.5030492
50
300.0047961
51
351.5930599
0
ARC
8
DEFAULT_255_2_778
10
28.1949186
20
67.8265602
40
0.9911585
50
347.872411
51
357.1759933
0
ARC
8
DEFAULT_255_2_778
10
28.0369336
20
67.8377711
40
1.1495091
50
357.0058463
51
0.0133288
0
ARC
8
DEFAULT_255_2_778
10
28.7062008
20
67.9597893
40
0.4567328
50
88.9032709
51
115.8279984
0
ARC
8
DEFAULT_255_2_778
10
28.7588989
20
67.9352767
40
0.5031001
50
120.0175269
51
171.6111587
0
ARC
8
DEFAULT_255_2_778
10
29.2309624
20
67.8005705
40
0.9918577
50
167.8886653
51
177.2015764
0
ARC
8
DEFAULT_255_2_778
10
29.3891932
20
67.7893995
40
1.1504504
50
177.0306299
51
180.0130007
0
ARC
8
DEFAULT_255_2_778
10
28.705218
20
67.6674315
40
0.4567764
50
244.1838422
51
271.0944691
0
ARC
8
DEFAULT_255_2_778
10
28.7578594
20
67.6919748
40
0.5031349
50
188.4169227
51
240.000887
0
ARC
8
DEFAULT_255_2_778
10
29.2287011
20
67.8265815
40
0.9906929
50
182.8265699
51
192.1346375
0
ARC
8
DEFAULT_255_2_778
10
29.3862867
20
67.8377752
40
1.1486439
50
179.9868664
51
182.9966166
0
ARC
8
DEFAULT_255_2_778
10
28.7191677
20
67.9621455
40
0.4567764
50
64.1838422
51
91.0944691
0
ARC
8
DEFAULT_255_2_778
10
28.6665262
20
67.9376022
40
0.5031349
50
8.4169227
51
60.000887
0
ARC
8
DEFAULT_255_2_778
10
28.1956846
20
67.8029954
40
0.9906929
50
2.8265699
51
12.1346375
0
ARC
8
DEFAULT_255_2_778
10
28.038099
20
67.7918018
40
1.1486439
50
359.9868664
51
2.9966166
0
ARC
8
DEFAULT_255_2_778
10
28.6616548
20
67.7249926
40
0.9602257
50
86.8187176
51
86.8709794
0
ARC
8
DEFAULT_255_2_778
10
28.6668248
20
67.8174536
40
0.8676202
50
86.8786014
51
89.9970116
0
ARC
8
DEFAULT_255_2_778
10
28.6487251
20
67.9365639
40
0.7487298
50
88.6113374
51
148.8899687
0
ARC
8
DEFAULT_255_2_778
10
28.7368582
20
67.9017812
40
0.8423063
50
149.9618418
51
170.8097638
0
ARC
8
DEFAULT_255_2_778
10
29.0011428
20
67.8521746
40
1.1111419
50
170.4611779
51
180.190699
0
ARC
8
DEFAULT_255_2_778
10
29.1626872
20
67.8485363
40
1.2726803
50
180.0026958
51
181.102953
0
ARC
8
DEFAULT_255_2_778
10
28.716297
20
68.0343563
40
1.0908346
50
269.6820063
51
269.999914
0
ARC
8
DEFAULT_255_2_778
10
28.7565042
20
67.7136439
40
0.7711711
50
267.0112376
51
326.6436667
0
ARC
8
DEFAULT_255_2_778
10
28.6680183
20
67.7361599
40
0.8579801
50
328.6372206
51
348.4722796
0
ARC
8
DEFAULT_255_2_778
10
28.2912636
20
67.8189641
40
1.2436965
50
348.2031205
51
359.6993692
0
ARC
8
DEFAULT_255_2_778
10
28.6851337
20
67.8466916
40
0.9036449
50
270.0008594
51
271.8903987
0
ARC
8
DEFAULT_255_2_778
10
28.6636195
20
67.7110326
40
0.7682876
50
211.1158171
51
271.6056606
0
ARC
8
DEFAULT_255_2_778
10
28.7386935
20
67.7333118
40
0.8443039
50
189.0001102
51
209.7773171
0
ARC
8
DEFAULT_255_2_778
10
29.0024876
20
67.7819931
40
1.1124865
50
179.8148017
51
189.3510991
0
ARC
8
DEFAULT_255_2_778
10
29.1618144
20
67.7855388
40
1.2718076
50
178.8962024
51
179.9977369
0
ARC
8
DEFAULT_255_2_778
10
28.7163721
20
67.5809273
40
1.1049282
50
89.9982334
51
90.3178331
0
ARC
8
DEFAULT_255_2_778
10
28.7575811
20
67.9125636
40
0.7743874
50
35.0163872
51
93.0479138
0
ARC
8
DEFAULT_255_2_778
10
28.6898685
20
67.9046712
40
0.8350005
50
12.2928667
51
32.7932711
0
ARC
8
DEFAULT_255_2_778
10
28.3083559
20
67.816266
40
1.2265988
50
0.2509543
51
12.5334672
0
ARC
8
DEFAULT_255_2_778
10
34.354017
20
68.1595042
40
0.1712717
50
358.6732314
51
80.8830283
0
ARC
8
DEFAULT_255_2_778
10
34.2360346
20
67.7786628
40
0.5687746
50
75.2177717
51
89.9564979
0
ARC
8
DEFAULT_255_2_778
10
34.2187774
20
67.4107199
40
0.9368842
50
88.9181484
51
90.0073869
0
ARC
8
DEFAULT_255_2_778
10
34.2205116
20
67.2017178
40
1.1458876
50
90.0927516
51
93.5562184
0
ARC
8
DEFAULT_255_2_778
10
34.2363094
20
66.9188371
40
1.4292045
50
93.4848968
51
94.8432041
0
LINE
8
DEFAULT_255_2_778
10
34.1156428
20
68.3429385
11
34.1156428
21
67.9682385
0
ARC
8
DEFAULT_255_2_778
10
34.2460639
20
69.2366045
40
1.2750538
50
264.1291351
51
267.5015008
0
ARC
8
DEFAULT_255_2_778
10
34.2324655
20
68.9457247
40
0.983858
50
267.5542049
51
269.9590209
0
ARC
8
DEFAULT_255_2_778
10
34.2421105
20
68.5280858
40
0.5663135
50
268.9529337
51
283.7674351
0
ARC
8
DEFAULT_255_2_778
10
34.35198
20
68.149609
40
0.1733642
50
278.2587379
51
1.9600338
0
ARC
8
DEFAULT_255_2_778
10
34.1514524
20
66.7725855
40
0.8739313
50
90.0267085
51
91.8956841
0
ARC
8
DEFAULT_255_2_778
10
34.1618922
20
67.1660287
40
0.4806104
50
75.118645
51
91.2932595
0
ARC
8
DEFAULT_255_2_778
10
34.2518423
20
67.4809452
40
0.1532751
50
32.3399531
51
77.383335
0
ARC
8
DEFAULT_255_2_778
10
34.5592857
20
67.5994509
40
0.2252213
50
26.8970403
51
70.6411732
0
ARC
8
DEFAULT_255_2_778
10
34.5408114
20
68.2047711
40
0.4037214
50
283.3372512
51
317.6917266
0
ARC
8
DEFAULT_255_2_778
10
34.535448
20
68.1824443
40
0.3931745
50
320.625259
51
356.7191013
0
ARC
8
DEFAULT_255_2_778
10
34.2833752
20
68.2189793
40
0.6473008
50
354.767083
51
0.0924206
0
ARC
8
DEFAULT_255_2_778
10
34.1935733
20
68.2199787
40
0.7371019
50
0.0034795
51
1.0851759
0
ARC
8
DEFAULT_255_2_778
10
34.5152329
20
68.2282636
40
0.4153486
50
0.7828606
51
36.1625288
0
ARC
8
DEFAULT_255_2_778
10
34.5234473
20
68.2092079
40
0.4204482
50
38.9206266
51
72.6861103
0
ARC
8
DEFAULT_255_2_778
10
34.3784082
20
67.7925779
40
0.8614863
50
71.7233268
51
86.3576374
0
ARC
8
DEFAULT_255_2_778
10
34.326529
20
67.2458367
40
1.4105217
50
85.6654181
51
90.1037968
0
ARC
8
DEFAULT_255_2_778
10
34.3242585
20
66.9530907
40
1.7032655
50
90.0095791
51
91.2688122
0
LINE
8
DEFAULT_255_2_778
10
34.2865428
20
68.6559385
11
33.7121428
21
68.6559385
0
LINE
8
DEFAULT_255_2_778
10
34.5252428
20
68.1555385
11
34.5252428
21
68.1555385
0
LINE
8
DEFAULT_255_2_778
10
33.7121428
20
68.6556385
11
33.7121428
21
66.9819385
0
LINE
8
DEFAULT_255_2_778
10
33.7121428
20
66.9819385
11
34.1225428
21
66.9819385
0
LINE
8
DEFAULT_255_2_778
10
34.1225428
20
66.9819385
11
34.1225428
21
67.6460385
0
LINE
8
DEFAULT_255_2_778
10
34.3813428
20
67.5629385
11
34.5770428
21
66.9887385
0
LINE
8
DEFAULT_255_2_778
10
34.5770428
20
66.9887385
11
35.0001428
21
66.9819385
0
LINE
8
DEFAULT_255_2_778
10
35.0001428
20
66.9819385
11
34.7601428
21
67.7013385
0
LINE
8
DEFAULT_255_2_778
10
33.7121428
20
68.6559385
11
33.7121428
21
68.6556385
0
LINE
8
DEFAULT_255_2_778
10
28.4742428
20
61.8757385
11
28.4742428
21
61.5899385
0
LINE
8
DEFAULT_255_2_778
10
28.4742428
20
61.5899385
11
27.2846428
21
61.5899385
0
LINE
8
DEFAULT_255_2_778
10
27.2846428
20
61.5899385
11
27.2846428
21
63.4028385
0
LINE
8
DEFAULT_255_2_778
10
27.2846428
20
63.4028385
11
28.4686428
21
63.4028385
0
LINE
8
DEFAULT_255_2_778
10
28.4686428
20
63.4028385
11
28.4686428
21
63.1171385
0
LINE
8
DEFAULT_255_2_778
10
28.4686428
20
63.1171385
11
27.6868428
21
63.1171385
0
LINE
8
DEFAULT_255_2_778
10
27.6868428
20
63.1171385
11
27.6868428
21
62.6702385
0
LINE
8
DEFAULT_255_2_778
10
27.6868428
20
62.6702385
11
28.4019428
21
62.6702385
0
LINE
8
DEFAULT_255_2_778
10
28.4019428
20
62.6702385
11
28.4019428
21
62.3845385
0
LINE
8
DEFAULT_255_2_778
10
28.4019428
20
62.3845385
11
27.6868428
21
62.3845385
0
LINE
8
DEFAULT_255_2_778
10
27.6868428
20
62.3845385
11
27.6868428
21
61.8751385
0
LINE
8
DEFAULT_255_2_778
10
27.6868428
20
61.8751385
11
28.4742428
21
61.8751385
0
ARC
8
DEFAULT_255_2_778
10
29.5164486
20
62.8682326
40
0.1852759
50
357.7474469
51
80.8917996
0
ARC
8
DEFAULT_255_2_778
10
29.4025459
20
62.4865462
40
0.5825102
50
75.7657332
51
90.6843763
0
ARC
8
DEFAULT_255_2_778
10
29.3898878
20
62.1352877
40
0.9337445
50
89.6502128
51
89.998796
0
ARC
8
DEFAULT_255_2_778
10
29.3914692
20
61.9906537
40
1.0783797
50
90.0829802
51
93.4779408
0
ARC
8
DEFAULT_255_2_778
10
29.4065741
20
61.7213649
40
1.3480893
50
93.4244296
51
95.1791753
0
LINE
8
DEFAULT_255_2_778
10
29.2848813
20
63.0639504
11
29.2848813
21
62.6583504
0
ARC
8
DEFAULT_255_2_778
10
29.4177253
20
63.8703332
40
1.2192415
50
263.7448479
51
267.3363764
0
ARC
8
DEFAULT_255_2_778
10
29.4037992
20
63.5909067
40
0.9394701
50
267.3928203
51
269.9564948
0
ARC
8
DEFAULT_255_2_778
10
29.4134737
20
63.1945937
40
0.5432562
50
268.9043452
51
284.5875066
0
ARC
8
DEFAULT_255_2_778
10
29.5076259
20
62.8637945
40
0.19956
50
282.3467416
51
328.6400342
0
ARC
8
DEFAULT_255_2_778
10
29.496142
20
62.8556104
40
0.2055167
50
332.25691
51
1.572577
0
ARC
8
DEFAULT_255_2_778
10
29.3212317
20
61.4736882
40
0.8358847
50
90.0282892
51
92.0259577
0
ARC
8
DEFAULT_255_2_778
10
29.3317916
20
61.8489105
40
0.4607931
50
74.1782855
51
91.3644829
0
ARC
8
DEFAULT_255_2_778
10
29.4197918
20
62.1404779
40
0.1563646
50
30.1652813
51
76.0737298
0
ARC
8
DEFAULT_255_2_778
10
29.7260056
20
62.2682641
40
0.2366196
50
25.1568038
51
68.719916
0
ARC
8
DEFAULT_255_2_778
10
29.7233069
20
62.8620961
40
0.3837088
50
283.3463833
51
351.0944078
0
ARC
8
DEFAULT_255_2_778
10
29.4448626
20
62.9264045
40
0.6690636
50
349.3447671
51
0.3796571
0
ARC
8
DEFAULT_255_2_778
10
29.2633112
20
62.9307681
40
0.8506002
50
0.0046962
51
1.0025131
0
ARC
8
DEFAULT_255_2_778
10
29.6249828
20
62.9369224
40
0.4888764
50
1.0229636
51
29.3985269
0
ARC
8
DEFAULT_255_2_778
10
29.6934872
20
62.954978
40
0.4207112
50
31.8366263
51
72.6704472
0
ARC
8
DEFAULT_255_2_778
10
29.5478017
20
62.5506952
40
0.8502419
50
71.4135811
51
86.4943049
0
ARC
8
DEFAULT_255_2_778
10
29.4998593
20
62.0422271
40
1.3607934
50
85.7885714
51
90.0919404
0
ARC
8
DEFAULT_255_2_778
10
29.4979757
20
61.7783483
40
1.6246702
50
90.0105774
51
91.3753114
0
LINE
8
DEFAULT_255_2_778
10
29.4589813
20
63.4025504
11
28.8747813
21
63.4025504
0
ARC
8
DEFAULT_255_2_778
10
31.1575064
20
62.8667291
40
0.185365
50
358.2135269
51
80.810438
0
ARC
8
DEFAULT_255_2_778
10
31.0379703
20
62.4784902
40
0.590373
50
75.3674846
51
89.9080121
0
ARC
8
DEFAULT_255_2_778
10
31.0209253
20
62.1157043
40
0.953328
50
88.9185553
51
90.0083996
0
ARC
8
DEFAULT_255_2_778
10
31.0223976
20
61.9181614
40
1.150872
50
90.0802567
51
93.3665918
0
ARC
8
DEFAULT_255_2_778
10
31.0379695
20
61.6313402
40
1.4381131
50
93.3148624
51
95.0139326
0
LINE
8
DEFAULT_255_2_778
10
30.9122813
20
63.0639504
11
30.9122813
21
62.6583504
0
ARC
8
DEFAULT_255_2_778
10
31.0496971
20
63.9540969
40
1.3030126
50
263.9463267
51
267.3764067
0
ARC
8
DEFAULT_255_2_778
10
31.0351687
20
63.6563245
40
1.0048879
50
267.4267417
51
269.9561944
0
ARC
8
DEFAULT_255_2_778
10
31.0447147
20
63.2365699
40
0.585224
50
268.9901413
51
283.7154396
0
ARC
8
DEFAULT_255_2_778
10
31.1383172
20
62.8821724
40
0.2188479
50
281.9071481
51
320.7439373
0
ARC
8
DEFAULT_255_2_778
10
31.1518882
20
62.8540972
40
0.191027
50
324.6917467
51
2.1460211
0
ARC
8
DEFAULT_255_2_778
10
30.9499799
20
61.4192028
40
0.8903701
50
90.027352
51
91.9629865
0
ARC
8
DEFAULT_255_2_778
10
30.9607261
20
61.8169176
40
0.492782
50
74.841739
51
91.2989863
0
ARC
8
DEFAULT_255_2_778
10
31.0531886
20
62.1347178
40
0.161978
50
31.375368
51
77.0159547
0
ARC
8
DEFAULT_255_2_778
10
31.3732699
20
62.2631208
40
0.2405886
50
26.0695798
51
69.6891824
0
ARC
8
DEFAULT_255_2_778
10
31.3564263
20
62.8968397
40
0.4202475
50
283.8157164
51
319.3677955
0
ARC
8
DEFAULT_255_2_778
10
31.33584
20
62.8872104
40
0.4300991
50
322.1282108
51
355.7694473
0
ARC
8
DEFAULT_255_2_778
10
31.0582669
20
62.9293355
40
0.7103501
50
354.0323057
51
0.1225113
0
ARC
8
DEFAULT_255_2_778
10
30.9452603
20
62.9307852
40
0.823355
50
0.0048157
51
1.0345024
0
ARC
8
DEFAULT_255_2_778
10
31.2949078
20
62.9371096
40
0.4736505
50
1.033212
51
31.1188883
0
ARC
8
DEFAULT_255_2_778
10
31.3439688
20
62.9450812
40
0.4279311
50
33.600783
51
71.6021147
0
ARC
8
DEFAULT_255_2_778
10
31.1935242
20
62.5433531
40
0.8567571
50
70.534458
51
85.6974804
0
ARC
8
DEFAULT_255_2_778
10
31.1352023
20
61.9894142
40
1.4136079
50
85.0246537
51
90.1314863
0
ARC
8
DEFAULT_255_2_778
10
31.1322678
20
61.668913
40
1.7341056
50
90.0102297
51
91.3312085
0
LINE
8
DEFAULT_255_2_778
10
31.0919813
20
63.4025504
11
30.4884813
21
63.4025504
0
LINE
8
DEFAULT_255_2_778
10
29.7015813
20
62.8612504
11
29.7015813
21
62.8609504
0
LINE
8
DEFAULT_255_2_778
10
28.8744813
20
63.4025504
11
28.8744813
21
61.5899504
0
LINE
8
DEFAULT_255_2_778
10
28.8744813
20
61.5899504
11
29.2916813
21
61.5899504
0
LINE
8
DEFAULT_255_2_778
10
29.2916813
20
61.5899504
11
29.2916813
21
62.3090504
0
LINE
8
DEFAULT_255_2_778
10
29.5549813
20
62.2190504
11
29.7539813
21
61.5973504
0
LINE
8
DEFAULT_255_2_778
10
29.7539813
20
61.5973504
11
30.1841813
21
61.5899504
0
LINE
8
DEFAULT_255_2_778
10
30.1841813
20
61.5899504
11
29.9401813
21
62.3688504
0
LINE
8
DEFAULT_255_2_778
10
28.8747813
20
63.4025504
11
28.8744813
21
63.4025504
0
LINE
8
DEFAULT_255_2_778
10
31.3427813
20
62.8612504
11
31.3427813
21
62.8609504
0
LINE
8
DEFAULT_255_2_778
10
30.4884813
20
63.4025504
11
30.4884813
21
61.5899504
0
LINE
8
DEFAULT_255_2_778
10
30.4884813
20
61.5899504
11
30.9194813
21
61.5899504
0
LINE
8
DEFAULT_255_2_778
10
30.9194813
20
61.5899504
11
30.9194813
21
62.3090504
0
LINE
8
DEFAULT_255_2_778
10
31.1914813
20
62.2190504
11
31.3969813
21
61.5973504
0
LINE
8
DEFAULT_255_2_778
10
31.3969813
20
61.5973504
11
31.8414813
21
61.5899504
0
LINE
8
DEFAULT_255_2_778
10
31.8414813
20
61.5899504
11
31.5893813
21
62.3688504
0
LINE
8
DEFAULT_255_2_778
10
30.4884813
20
63.4025504
11
30.4884813
21
63.4025504
0
ARC
8
DEFAULT_255_2_778
10
31.6666749
20
62.5163985
40
1.8316975
50
359.614776
51
8.79271
0
ARC
8
DEFAULT_255_2_778
10
32.4386444
20
62.6407543
40
1.0498025
50
8.5257661
51
23.5620491
0
ARC
8
DEFAULT_255_2_778
10
32.8520001
20
62.8321984
40
0.5944693
50
22.5743497
51
81.4864199
0
ARC
8
DEFAULT_255_2_778
10
32.7759238
20
62.4844786
40
0.9499174
50
80.0531351
51
90.2951229
0
ARC
8
DEFAULT_255_2_778
10
32.7581371
20
62.4477169
40
0.9867506
50
89.2512929
51
105.5218786
0
ARC
8
DEFAULT_255_2_778
10
32.6551362
20
62.8122417
40
0.6079593
50
105.3621283
51
163.6424902
0
ARC
8
DEFAULT_255_2_778
10
33.1651839
20
62.6266208
40
1.1501547
50
161.9254426
51
175.8487058
0
ARC
8
DEFAULT_255_2_778
10
33.761492
20
62.5673231
40
1.7492638
50
175.3254436
51
180.1028414
0
ARC
8
DEFAULT_255_2_778
10
34.0854592
20
62.5519603
40
2.0732643
50
179.6622084
51
188.0560735
0
ARC
8
DEFAULT_255_2_778
10
33.2344016
20
62.4266893
40
1.213059
50
187.8309776
51
201.215589
0
ARC
8
DEFAULT_255_2_778
10
32.7512741
20
62.2319274
40
0.6922279
50
200.6586488
51
228.1673546
0
ARC
8
DEFAULT_255_2_778
10
32.7061066
20
62.2107155
40
0.6465925
50
229.8961381
51
263.0997974
0
ARC
8
DEFAULT_255_2_778
10
32.7677035
20
62.5507364
40
0.9917587
50
261.9269212
51
270.1922362
0
ARC
8
DEFAULT_255_2_778
10
32.7841789
20
62.3882847
40
0.8294056
50
269.091698
51
288.6908857
0
ARC
8
DEFAULT_255_2_778
10
32.8493783
20
62.1639528
40
0.5960968
50
289.6645098
51
339.1048989
0
ARC
8
DEFAULT_255_2_778
10
32.3844514
20
62.3711451
40
1.1046932
50
337.6656657
51
351.8925255
0
ARC
8
DEFAULT_255_2_778
10
31.5923619
20
62.4925466
40
1.906006
50
351.6376259
51
0.3558202
0
ARC
8
DEFAULT_255_2_778
10
32.7590316
20
62.9179755
40
0.1862487
50
91.2000469
51
156.7534507
0
ARC
8
DEFAULT_255_2_778
10
33.0974311
20
62.7288773
40
0.5732204
50
152.7336115
51
168.5107385
0
ARC
8
DEFAULT_255_2_778
10
33.866105
20
62.5590428
40
1.3603853
50
167.9495749
51
176.2473859
0
ARC
8
DEFAULT_255_2_778
10
35.0691001
20
62.4666904
40
2.5668804
50
175.9478357
51
180.1698002
0
ARC
8
DEFAULT_255_2_778
10
34.4304334
20
62.4471679
40
1.9282393
50
179.6459418
51
186.1591105
0
ARC
8
DEFAULT_255_2_778
10
33.3903146
20
62.3298788
40
0.8815545
50
185.8329762
51
197.1259976
0
ARC
8
DEFAULT_255_2_778
10
32.8660556
20
62.1610615
40
0.3309021
50
195.9223092
51
221.581799
0
ARC
8
DEFAULT_255_2_778
10
32.7398653
20
62.0542413
40
0.16566
50
222.9130015
51
270.9348136
0
ARC
8
DEFAULT_255_2_778
10
32.7424795
20
62.0994964
40
0.210893
50
270.0240541
51
273.4392378
0
ARC
8
DEFAULT_255_2_778
10
32.7529484
20
62.0867531
40
0.1977818
50
270.6322936
51
339.1462146
0
ARC
8
DEFAULT_255_2_778
10
32.3949746
20
62.2699386
40
0.5991162
50
334.9582905
51
350.4972805
0
ARC
8
DEFAULT_255_2_778
10
31.6038179
20
62.4149133
40
1.4034055
50
349.9922607
51
358.4291411
0
ARC
8
DEFAULT_255_2_778
10
30.7180308
20
62.457521
40
2.2901008
50
357.971056
51
0.0390877
0
ARC
8
DEFAULT_255_2_778
10
30.1050351
20
62.5312132
40
2.9039918
50
358.5767312
51
359.6204272
0
ARC
8
DEFAULT_255_2_778
10
30.3514017
20
62.5291348
40
2.6576168
50
359.6300471
51
359.9993109
0
ARC
8
DEFAULT_255_2_778
10
31.1412271
20
62.540686
40
1.8678274
50
359.6446823
51
6.3146947
0
ARC
8
DEFAULT_255_2_778
10
32.1380823
20
62.6563111
40
0.864319
50
5.9646646
51
17.7082215
0
ARC
8
DEFAULT_255_2_778
10
32.6403887
20
62.8233368
40
0.3350685
50
16.6265639
51
42.3048659
0
ARC
8
DEFAULT_255_2_778
10
32.7586353
20
62.924916
40
0.1793015
50
43.7313358
51
91.1198777
0
LINE
8
DEFAULT_255_2_778
10
33.498331
20
62.5043833
11
33.498331
21
62.5040833
0
LINE
8
DEFAULT_255_2_778
10
32.755131
20
63.1041833
11
32.755131
21
63.1041833
0
ARC
8
DEFAULT_255_2_778
10
34.3510365
20
62.8696638
40
0.1845264
50
357.1421402
51
80.3960859
0
ARC
8
DEFAULT_255_2_778
10
34.2452017
20
62.5115577
40
0.5570594
50
75.8032163
51
91.0574766
0
ARC
8
DEFAULT_255_2_778
10
34.2367529
20
62.0523554
40
1.0161684
50
90.1032963
51
93.9325972
0
ARC
8
DEFAULT_255_2_778
10
34.2523389
20
61.7999746
40
1.2690251
50
93.8531453
51
95.3537308
0
LINE
8
DEFAULT_255_2_778
10
34.1339334
20
63.0634637
11
34.1339334
21
62.6578637
0
ARC
8
DEFAULT_255_2_778
10
34.2619412
20
63.7827782
40
1.1321743
50
263.508045
51
267.2346815
0
ARC
8
DEFAULT_255_2_778
10
34.2484855
20
63.5227573
40
0.8718075
50
267.2935148
51
269.9547971
0
ARC
8
DEFAULT_255_2_778
10
34.2581826
20
63.1506003
40
0.4997582
50
268.8093223
51
285.5776
0
ARC
8
DEFAULT_255_2_778
10
34.3522062
20
62.8482979
40
0.183551
50
282.6456518
51
3.894194
0
ARC
8
DEFAULT_255_2_778
10
34.169269
20
61.5350639
40
0.7740223
50
90.0294116
51
92.10538
0
ARC
8
DEFAULT_255_2_778
10
34.1800508
20
61.8893263
40
0.4199087
50
72.820206
51
91.52555
0
ARC
8
DEFAULT_255_2_778
10
34.2630516
20
62.1466215
40
0.1496138
50
28.7410439
51
74.0840251
0
ARC
8
DEFAULT_255_2_778
10
34.5539594
20
62.2742271
40
0.2312971
50
24.0161408
51
67.7249522
0
ARC
8
DEFAULT_255_2_778
10
34.5464048
20
62.8548309
40
0.3787347
50
284.5626571
51
352.6774494
0
ARC
8
DEFAULT_255_2_778
10
34.2336959
20
62.925673
40
0.6985846
50
350.1826854
51
0.338385
0
ARC
8
DEFAULT_255_2_778
10
34.0494128
20
62.9297247
40
0.8828556
50
0.0048044
51
1.0020104
0
ARC
8
DEFAULT_255_2_778
10
34.4251566
20
62.936361
40
0.5070532
50
0.9947286
51
27.6110237
0
ARC
8
DEFAULT_255_2_778
10
34.5172221
20
62.9658665
40
0.4121292
50
29.9088722
51
73.6794498
0
ARC
8
DEFAULT_255_2_778
10
34.3767741
20
62.5582932
40
0.84299
50
72.3025705
51
87.6314678
0
ARC
8
DEFAULT_255_2_778
10
34.3398558
20
62.0942328
40
1.3082995
50
86.8559104
51
90.0501416
0
ARC
8
DEFAULT_255_2_778
10
34.3389999
20
61.8946369
40
1.5078949
50
90.0109853
51
91.4275728
0
LINE
8
DEFAULT_255_2_778
10
34.3014334
20
63.4020637
11
33.7386334
21
63.4020637
0
LINE
8
DEFAULT_255_2_778
10
34.5353334
20
62.8607637
11
34.5353334
21
62.8604637
0
LINE
8
DEFAULT_255_2_778
10
33.7389334
20
63.4020637
11
33.7389334
21
61.5894637
0
LINE
8
DEFAULT_255_2_778
10
33.7389334
20
61.5894637
11
34.1408334
21
61.5894637
0
LINE
8
DEFAULT_255_2_778
10
34.1408334
20
61.5894637
11
34.1408334
21
62.3085637
0
LINE
8
DEFAULT_255_2_778
10
34.3942334
20
62.2185637
11
34.5858334
21
61.5968637
0
LINE
8
DEFAULT_255_2_778
10
34.5858334
20
61.5968637
11
35.0001334
21
61.5894637
0
LINE
8
DEFAULT_255_2_778
10
35.0001334
20
61.5894637
11
34.7652334
21
62.3683637
0
LINE
8
DEFAULT_255_2_778
10
33.7386334
20
63.4020637
11
33.7389334
21
63.4020637
0
ARC
8
DEFAULT_255_2_778
10
5.7067904
20
86.234953
40
1.8621963
50
90.1132915
51
94.8239344
0
ARC
8
DEFAULT_255_2_778
10
5.7123388
20
86.832671
40
1.2645084
50
79.7817203
51
90.4182469
0
ARC
8
DEFAULT_255_2_778
10
5.7754469
20
87.2097972
40
0.8821814
50
72.3932815
51
79.4703236
0
ARC
8
DEFAULT_255_2_778
10
5.9059437
20
87.4833206
40
0.5834866
50
39.0167362
51
76.4863936
0
ARC
8
DEFAULT_255_2_778
10
5.9132528
20
87.4899514
40
0.5736335
50
358.970942
51
38.9617603
0
ARC
8
DEFAULT_255_2_778
10
5.7444554
20
87.4800157
40
0.7423385
50
356.23365
51
359.9717136
0
ARC
8
DEFAULT_255_2_778
10
5.8063097
20
87.5247652
40
0.6852911
50
310.6585578
51
352.1571726
0
ARC
8
DEFAULT_255_2_778
10
5.5298481
20
87.8074915
40
1.0801988
50
302.3210772
51
312.0120563
0
ARC
8
DEFAULT_255_2_778
10
5.665695
20
87.7842974
40
0.9932583
50
275.5817609
51
296.4037437
0
ARC
8
DEFAULT_255_2_778
10
5.6066583
20
88.2167758
40
1.4295259
50
269.8770468
51
276.2507645
0
ARC
8
DEFAULT_255_2_778
10
5.7370928
20
90.0162809
40
3.2317864
50
262.8216471
51
267.6324908
0
ARC
8
DEFAULT_255_2_778
10
5.5528365
20
88.5953672
40
1.7989931
50
255.2722193
51
262.9890748
0
ARC
8
DEFAULT_255_2_778
10
5.4110675
20
88.0203704
40
1.2068806
50
252.9791919
51
254.8416949
0
ARC
8
DEFAULT_255_2_778
10
5.4812982
20
88.1934447
40
1.000977
50
245.505712
51
264.2237201
0
ARC
8
DEFAULT_255_2_778
10
5.450246
20
87.9799893
40
0.7855364
50
264.9101912
51
269.9740794
0
ARC
8
DEFAULT_255_2_778
10
5.501114
20
88.5327812
40
1.3393081
50
267.8081228
51
269.9771803
0
ARC
8
DEFAULT_255_2_778
10
5.5117572
20
88.1150597
40
0.9216541
50
269.3051765
51
283.4243748
0
ARC
8
DEFAULT_255_2_778
10
5.5768189
20
87.8136798
40
0.6134404
50
284.0487597
51
291.3540261
0
ARC
8
DEFAULT_255_2_778
10
5.6128992
20
87.5332708
40
0.345993
50
302.7732406
51
342.0174163
0
ARC
8
DEFAULT_255_2_778
10
5.6293485
20
87.4845422
40
0.3179928
50
349.4744326
51
359.7542572
0
ARC
8
DEFAULT_255_2_778
10
5.7051384
20
87.4824304
40
0.2422013
50
0.1769252
51
63.3798196
0
ARC
8
DEFAULT_255_2_778
10
5.5932081
20
87.328673
40
0.4309416
50
59.2319136
51
61.2948072
0
ARC
8
DEFAULT_255_2_778
10
5.5125119
20
86.9779486
40
0.7834343
50
68.4568305
51
83.9272152
0
ARC
8
DEFAULT_255_2_778
10
5.445386
20
86.4608931
40
1.3047453
50
83.3980941
51
90.2157566
0
ARC
8
DEFAULT_255_2_778
10
5.4423316
20
85.993397
40
1.7722332
50
90.0600952
51
93.2651574
0
LINE
8
DEFAULT_255_2_778
10
6.8193907
20
87.7154531
11
7.5953907
21
87.7154531
0
LINE
8
DEFAULT_255_2_778
10
7.5953907
20
87.7154531
11
7.5953907
21
87.3375531
0
LINE
8
DEFAULT_255_2_778
10
7.5953907
20
87.3375531
11
6.8193907
21
87.3375531
0
LINE
8
DEFAULT_255_2_778
10
6.8193907
20
87.3375531
11
6.8193907
21
87.7154531
0
LINE
8
DEFAULT_255_2_778
10
5.0741907
20
87.7307531
11
5.0995907
21
88.7549531
0
LINE
8
DEFAULT_255_2_778
10
5.0995907
20
88.7549531
11
6.4010907
21
88.7549531
0
LINE
8
DEFAULT_255_2_778
10
6.4010907
20
88.7549531
11
6.4010907
21
88.4046531
0
LINE
8
DEFAULT_255_2_778
10
6.4010907
20
88.4046531
11
5.5583907
21
88.4107531
0
LINE
8
DEFAULT_255_2_778
10
5.5583907
20
88.4107531
11
5.5501907
21
88.0905531
0
LINE
8
DEFAULT_255_2_778
10
5.0577907
20
86.8663531
11
5.0662907
21
87.2825531
0
LINE
8
DEFAULT_255_2_778
10
5.3413907
20
87.7627531
11
5.0744907
21
87.7307531
0
LINE
8
DEFAULT_255_2_778
10
5.0744907
20
87.7307531
11
5.0741907
21
87.7307531
0
ARC
8
DEFAULT_255_2_778
10
12.7780459
20
87.8401277
40
0.742706
50
171.8056938
51
179.8044506
0
ARC
8
DEFAULT_255_2_778
10
12.9441988
20
87.8170887
40
0.9104469
50
163.8319551
51
171.8609543
0
ARC
8
DEFAULT_255_2_778
10
13.0236743
20
87.7949826
40
0.9929351
50
155.8599546
51
163.8838071
0
ARC
8
DEFAULT_255_2_778
10
13.019576
20
87.7983072
40
0.9878365
50
139.2853831
51
155.9387092
0
ARC
8
DEFAULT_255_2_778
10
12.9871595
20
87.8249372
40
0.9458958
50
121.7649994
51
139.2272125
0
ARC
8
DEFAULT_255_2_778
10
13.0181982
20
87.7712253
40
1.0079042
50
107.3830361
51
121.6577645
0
ARC
8
DEFAULT_255_2_778
10
13.0736827
20
87.5928874
40
1.1946736
50
96.0599014
51
107.36724
0
ARC
8
DEFAULT_255_2_778
10
13.1027749
20
87.3470262
40
1.4422352
50
89.9155393
51
96.1780689
0
ARC
8
DEFAULT_255_2_778
10
13.1033684
20
87.1120439
40
1.6772167
50
85.4252114
51
89.9476481
0
ARC
8
DEFAULT_255_2_778
10
13.0837733
20
86.863724
40
1.9263083
50
81.5534811
51
85.4333409
0
ARC
8
DEFAULT_255_2_778
10
13.04239
20
86.5839547
40
2.2091217
50
78.0892263
51
81.5576283
0
ARC
8
DEFAULT_255_2_778
10
12.974826
20
86.2632033
40
2.536912
50
74.8961005
51
78.0912574
0
ARC
8
DEFAULT_255_2_778
10
12.8927841
20
85.9553552
40
2.8555033
50
72.8616406
51
74.9163306
0
ARC
8
DEFAULT_255_2_778
10
13.1829608
20
87.4054189
40
0.9949163
50
59.2506999
51
83.3753565
0
ARC
8
DEFAULT_255_2_778
10
13.1965824
20
87.5072032
40
0.8922418
50
83.4901929
51
89.9482697
0
ARC
8
DEFAULT_255_2_778
10
13.168086
20
87.7964245
40
0.6037316
50
87.2180715
51
141.6014651
0
ARC
8
DEFAULT_255_2_778
10
13.1813633
20
87.8172914
40
0.6016791
50
143.9447334
51
164.4779163
0
ARC
8
DEFAULT_255_2_778
10
13.4242018
20
87.7478902
40
0.854235
50
164.3515541
51
177.6504069
0
ARC
8
DEFAULT_255_2_778
10
13.4315653
20
87.7412982
40
0.8618855
50
177.2326224
51
177.2890918
0
ARC
8
DEFAULT_255_2_778
10
12.8142574
20
87.7308407
40
0.7855661
50
172.5378953
51
178.6828292
0
ARC
8
DEFAULT_255_2_778
10
12.8616829
20
87.7290458
40
0.8330206
50
178.6343896
51
180.0022094
0
ARC
8
DEFAULT_255_2_778
10
12.9182477
20
87.7302517
40
0.8895863
50
180.0797351
51
189.0458215
0
ARC
8
DEFAULT_255_2_778
10
12.9726162
20
87.7380374
40
0.9445029
50
188.9937062
51
194.3373422
0
ARC
8
DEFAULT_255_2_778
10
12.9944139
20
87.7434798
40
0.9669695
50
194.3299386
51
217.13456
0
ARC
8
DEFAULT_255_2_778
10
12.9791962
20
87.7332839
40
0.9486831
50
217.1984791
51
237.8072602
0
ARC
8
DEFAULT_255_2_778
10
13.0245866
20
87.8088678
40
1.0368309
50
237.9098634
51
253.5324237
0
ARC
8
DEFAULT_255_2_778
10
13.0860203
20
88.015885
40
1.2527712
50
253.5219035
51
265.2837603
0
ARC
8
DEFAULT_255_2_778
10
13.110275
20
88.2560428
40
1.4941166
50
265.1140123
51
270.0507125
0
ARC
8
DEFAULT_255_2_778
10
13.1100112
20
88.462986
40
1.70106
50
270.0534298
51
274.7566043
0
ARC
8
DEFAULT_255_2_778
10
13.089365
20
88.7132604
40
1.9521846
50
274.751366
51
278.9277384
0
ARC
8
DEFAULT_255_2_778
10
13.0446136
20
88.9994543
40
2.2418564
50
278.9225024
51
282.6340808
0
ARC
8
DEFAULT_255_2_778
10
12.9730707
20
89.3196708
40
2.5699675
50
282.6289913
51
285.9270384
0
ARC
8
DEFAULT_255_2_778
10
12.9047133
20
89.5648384
40
2.8244821
50
285.8957209
51
287.1237563
0
ARC
8
DEFAULT_255_2_778
10
13.1850525
20
88.1445651
40
0.9952291
50
276.6145303
51
300.739149
0
ARC
8
DEFAULT_255_2_778
10
13.1986664
20
88.0427265
40
0.8925021
50
270.0515481
51
276.4994486
0
ARC
8
DEFAULT_255_2_778
10
13.1701737
20
87.7535396
40
0.6040256
50
218.4156173
51
272.7799778
0
ARC
8
DEFAULT_255_2_778
10
13.1834028
20
87.7326413
40
0.6019083
50
195.5460079
51
216.0738176
0
ARC
8
DEFAULT_255_2_778
10
13.4261414
20
87.8021214
40
0.8543901
50
182.3751105
51
195.6721689
0
ARC
8
DEFAULT_255_2_778
10
13.4330109
20
87.8087155
40
0.86155
50
182.7378417
51
182.7943339
0
ARC
8
DEFAULT_255_2_778
10
8.924581
20
87.5643935
40
0.5694965
50
269.1310397
51
292.3395452
0
ARC
8
DEFAULT_255_2_778
10
8.8869875
20
87.5610425
40
0.5818039
50
295.8915853
51
349.4513385
0
ARC
8
DEFAULT_255_2_778
10
8.3235782
20
87.7398196
40
1.1706743
50
345.8952356
51
357.2056465
0
ARC
8
DEFAULT_255_2_778
10
8.0994817
20
87.7571242
40
1.3953626
50
356.9445347
51
0.0138918
0
ARC
8
DEFAULT_255_2_778
10
8.9128162
20
87.8914789
40
0.569349
50
89.1316961
51
112.3424528
0
ARC
8
DEFAULT_255_2_778
10
8.9505144
20
87.8945957
40
0.5819149
50
115.8945256
51
169.4446783
0
ARC
8
DEFAULT_255_2_778
10
9.5134805
20
87.715878
40
1.170345
50
165.8898011
51
177.2035161
0
ARC
8
DEFAULT_255_2_778
10
9.7373538
20
87.6985931
40
1.3948096
50
176.9430057
51
180.0135814
0
ARC
8
DEFAULT_255_2_778
10
8.9115074
20
87.5643935
40
0.5694965
50
247.6604548
51
270.8689603
0
ARC
8
DEFAULT_255_2_778
10
8.9491009
20
87.5610425
40
0.5818039
50
190.5486615
51
244.1084147
0
ARC
8
DEFAULT_255_2_778
10
9.5125102
20
87.7398196
40
1.1706743
50
182.7943535
51
194.1047644
0
ARC
8
DEFAULT_255_2_778
10
9.7366067
20
87.7571242
40
1.3953626
50
179.9861082
51
183.0554653
0
ARC
8
DEFAULT_255_2_778
10
8.9247861
20
87.8941051
40
0.5696229
50
67.6555863
51
90.8692766
0
ARC
8
DEFAULT_255_2_778
10
8.8871361
20
87.8974113
40
0.5819978
50
10.5320492
51
64.1013564
0
ARC
8
DEFAULT_255_2_778
10
8.3235176
20
87.7187137
40
1.171041
50
2.7758578
51
14.089667
0
ARC
8
DEFAULT_255_2_778
10
8.0996988
20
87.7014945
40
1.3954455
50
359.9863685
51
3.0369833
0
ARC
8
DEFAULT_255_2_778
10
8.8630194
20
87.7313468
40
1.0559499
50
86.8119489
51
89.9968588
0
ARC
8
DEFAULT_255_2_778
10
8.8418566
20
87.8749174
40
0.912626
50
88.6676182
51
146.7023762
0
ARC
8
DEFAULT_255_2_778
10
8.9159719
20
87.8483354
40
0.9893395
50
147.7721145
51
167.6930507
0
ARC
8
DEFAULT_255_2_778
10
9.2275127
20
87.7772748
40
1.308871
50
167.5607182
51
180.3149968
0
ARC
8
DEFAULT_255_2_778
10
9.4683829
20
87.7701675
40
1.5497214
50
180.0032706
51
181.0946104
0
ARC
8
DEFAULT_255_2_778
10
8.9232606
20
88.0083028
40
1.3382603
50
269.6867578
51
269.9999067
0
ARC
8
DEFAULT_255_2_778
10
8.9519121
20
87.6852783
40
1.0156401
50
268.3833323
51
306.9163214
0
ARC
8
DEFAULT_255_2_778
10
9.0209655
20
87.5500811
40
0.8664614
50
308.635651
51
335.9508921
0
ARC
8
DEFAULT_255_2_778
10
8.7565274
20
87.6694062
40
1.1565733
50
335.8912657
51
351.7000992
0
ARC
8
DEFAULT_255_2_778
10
8.3305397
20
87.739644
40
1.5882585
50
351.4111798
51
359.5280858
0
ARC
8
DEFAULT_255_2_778
10
8.8855584
20
87.7677596
40
1.0983033
50
270.0008127
51
271.903726
0
ARC
8
DEFAULT_255_2_778
10
8.8608221
20
87.6067988
40
0.9376693
50
213.5101572
51
271.5126271
0
ARC
8
DEFAULT_255_2_778
10
8.9181912
20
87.6171868
40
0.9915053
50
192.0409953
51
212.1802994
0
ARC
8
DEFAULT_255_2_778
10
9.2298781
20
87.6871553
40
1.3109352
50
179.69463
51
192.1899266
0
ARC
8
DEFAULT_255_2_778
10
9.4691796
20
87.6940529
40
1.5502181
50
178.905567
51
179.9967008
0
ARC
8
DEFAULT_255_2_778
10
8.9236361
20
87.4262969
40
1.3622862
50
90.0016244
51
90.3150981
0
ARC
8
DEFAULT_255_2_778
10
8.9508666
20
87.7536641
40
1.0352781
50
55.678185
51
91.5093383
0
ARC
8
DEFAULT_255_2_778
10
9.0358626
20
87.9203631
40
0.8500129
50
25.3735012
51
54.0740675
0
ARC
8
DEFAULT_255_2_778
10
8.7931899
20
87.8046154
40
1.1188759
50
9.349112
51
25.4038451
0
ARC
8
DEFAULT_255_2_778
10
8.3599628
20
87.7266836
40
1.5590221
50
0.4145157
51
9.5886918
0
ARC
8
DEFAULT_255_2_778
10
10.9992961
20
88.1024904
40
0.2581629
50
357.6628269
51
75.813572
0
ARC
8
DEFAULT_255_2_778
10
10.8435348
20
87.6825843
40
0.7050797
50
71.9017396
51
86.9314889
0
ARC
8
DEFAULT_255_2_778
10
10.796389
20
87.15057
40
1.2389945
50
86.0713488
51
90.0991825
0
LINE
8
DEFAULT_255_2_778
10
10.7942442
20
88.3895625
11
10.7942442
21
87.8273625
0
ARC
8
DEFAULT_255_2_778
10
10.8061868
20
88.9351158
40
1.1078176
50
269.3823222
51
279.621848
0
ARC
8
DEFAULT_255_2_778
10
10.9207623
20
88.2980581
40
0.4606168
50
278.8154274
51
299.7673375
0
ARC
8
DEFAULT_255_2_778
10
11.0439116
20
88.0837987
40
0.2134887
50
299.6266323
51
2.1915228
0
ARC
8
DEFAULT_255_2_778
10
10.9565185
20
89.9348674
40
2.5096567
50
266.2926723
51
268.0585584
0
ARC
8
DEFAULT_255_2_778
10
10.9464234
20
89.6353438
40
2.209963
50
268.0570533
51
269.9791868
0
ARC
8
DEFAULT_255_2_778
10
10.9567236
20
89.0214514
40
1.5961092
50
269.6014339
51
279.1344555
0
ARC
8
DEFAULT_255_2_778
10
11.068758
20
88.3533369
40
0.918693
50
278.8507299
51
294.6854864
0
ARC
8
DEFAULT_255_2_778
10
11.223794
20
88.025148
40
0.5557602
50
294.2933107
51
352.345909
0
ARC
8
DEFAULT_255_2_778
10
10.8592578
20
88.1046668
40
0.928133
50
350.4777486
51
0.2832506
0
ARC
8
DEFAULT_255_2_778
10
10.6178565
20
88.1088529
40
1.169523
50
0.0197054
51
2.3354925
0
ARC
8
DEFAULT_255_2_778
10
10.2164505
20
88.0929028
40
1.5712455
50
2.3201495
51
2.3767435
0
ARC
8
DEFAULT_255_2_778
10
11.2116515
20
88.1713516
40
0.5748463
50
358.6753358
51
25.9303695
0
ARC
8
DEFAULT_255_2_778
10
11.2794901
20
88.1846162
40
0.5083463
50
27.9297101
51
65.4306898
0
ARC
8
DEFAULT_255_2_778
10
11.0834095
20
87.7931687
40
0.9460089
50
64.4878886
51
79.28864
0
ARC
8
DEFAULT_255_2_778
10
10.933801
20
87.0466691
40
1.7073279
50
79.0115689
51
88.0403965
0
ARC
8
DEFAULT_255_2_778
10
10.8925171
20
86.2960569
40
2.4589622
50
87.6770719
51
90.0342948
0
ARC
8
DEFAULT_255_2_778
10
10.8913719
20
85.9613518
40
2.793667
50
90.0067004
51
90.9866668
0
ARC
8
DEFAULT_255_2_778
10
10.8952486
20
85.735275
40
3.0197772
50
90.9863469
51
91.9167657
0
LINE
8
DEFAULT_255_2_778
10
10.7942442
20
88.7533625
11
10.2650442
21
88.7533625
0
LINE
8
DEFAULT_255_2_778
10
1.2644442
20
88.7549625
11
2.6019442
21
88.7549625
0
LINE
8
DEFAULT_255_2_778
10
2.6019442
20
88.7549625
11
2.6019442
21
88.3771625
0
LINE
8
DEFAULT_255_2_778
10
2.6019442
20
88.3771625
11
1.7973442
21
88.3771625
0
LINE
8
DEFAULT_255_2_778
10
1.7973442
20
88.3771625
11
1.7973442
21
87.9387625
0
LINE
8
DEFAULT_255_2_778
10
1.7973442
20
87.9387625
11
2.5675442
21
87.9387625
0
LINE
8
DEFAULT_255_2_778
10
2.5675442
20
87.9387625
11
2.5675442
21
87.5608625
0
LINE
8
DEFAULT_255_2_778
10
2.5675442
20
87.5608625
11
1.7973442
21
87.5608625
0
LINE
8
DEFAULT_255_2_778
10
1.7973442
20
87.5608625
11
1.7973442
21
86.7560625
0
LINE
8
DEFAULT_255_2_778
10
1.7973442
20
86.7560625
11
1.2644442
21
86.7560625
0
LINE
8
DEFAULT_255_2_778
10
1.2644442
20
86.7560625
11
1.2644442
21
88.7549625
0
LINE
8
DEFAULT_255_2_778
10
4.1462442
20
88.7549625
11
4.7304442
21
88.7549625
0
LINE
8
DEFAULT_255_2_778
10
4.7304442
20
88.7549625
11
4.1462442
21
87.8069625
0
LINE
8
DEFAULT_255_2_778
10
4.1462442
20
87.8069625
11
4.7876442
21
86.7560625
0
LINE
8
DEFAULT_255_2_778
10
4.7876442
20
86.7560625
11
4.1518442
21
86.7560625
0
LINE
8
DEFAULT_255_2_778
10
4.1518442
20
86.7560625
11
3.7652442
21
87.4921625
0
LINE
8
DEFAULT_255_2_778
10
3.7652442
20
87.4921625
11
3.3813442
21
86.7560625
0
LINE
8
DEFAULT_255_2_778
10
3.3813442
20
86.7560625
11
2.7773442
21
86.7560625
0
LINE
8
DEFAULT_255_2_778
10
2.7773442
20
86.7560625
11
3.4245442
21
87.8069625
0
LINE
8
DEFAULT_255_2_778
10
3.4245442
20
87.8069625
11
2.8461442
21
88.7549625
0
LINE
8
DEFAULT_255_2_778
10
2.8461442
20
88.7549625
11
3.4676442
21
88.7549625
0
LINE
8
DEFAULT_255_2_778
10
3.4676442
20
88.7549625
11
3.8025442
21
88.0964625
0
LINE
8
DEFAULT_255_2_778
10
3.8025442
20
88.0964625
11
4.1462442
21
88.7549625
0
LINE
8
DEFAULT_255_2_778
10
13.7342442
20
88.6840625
11
13.6916442
21
88.2604625
0
LINE
8
DEFAULT_255_2_778
10
13.7363442
20
86.8655625
11
13.6937442
21
87.2891625
0
LINE
8
DEFAULT_255_2_778
10
11.2572442
20
88.0919625
11
11.2572442
21
88.0919625
0
LINE
8
DEFAULT_255_2_778
10
10.2650442
20
88.7533625
11
10.2650442
21
86.7689625
0
LINE
8
DEFAULT_255_2_778
10
10.2650442
20
86.7689625
11
10.7942442
21
86.7689625
0
LINE
8
DEFAULT_255_2_778
10
10.7942442
20
86.7689625
11
10.7942442
21
87.4304625
0
LINE
8
DEFAULT_255_2_778
10
10.2650442
20
88.7533625
11
10.2650442
21
88.7533625
0
LINE
8
DEFAULT_255_2_778
10
35.0025442
20
86.4943625
11
35.2861442
21
86.4943625
0
LINE
8
DEFAULT_255_2_778
10
35.2861442
20
86.4943625
11
35.2861442
21
85.0177625
0
LINE
8
DEFAULT_255_2_778
10
35.2861442
20
85.0177625
11
34.9244442
21
85.0177625
0
LINE
8
DEFAULT_255_2_778
10
34.9244442
20
85.0177625
11
34.3598442
21
86.1220625
0
LINE
8
DEFAULT_255_2_778
10
34.3598442
20
86.1220625
11
34.3553442
21
86.1220625
0
LINE
8
DEFAULT_255_2_778
10
34.3553442
20
86.1220625
11
34.3553442
21
85.0177625
0
LINE
8
DEFAULT_255_2_778
10
34.3553442
20
85.0177625
11
34.0722442
21
85.0177625
0
LINE
8
DEFAULT_255_2_778
10
34.0722442
20
85.0177625
11
34.0722442
21
86.4943625
0
LINE
8
DEFAULT_255_2_778
10
34.0722442
20
86.4943625
11
34.4360442
21
86.4943625
0
LINE
8
DEFAULT_255_2_778
10
34.4360442
20
86.4943625
11
34.9985442
21
85.3902625
0
LINE
8
DEFAULT_255_2_778
10
34.9985442
20
85.3902625
11
35.0027442
21
85.3902625
0
LINE
8
DEFAULT_255_2_778
10
35.0027442
20
85.3902625
11
35.0027442
21
86.4943625
0
LINE
8
DEFAULT_255_2_778
10
30.3183442
20
86.4943625
11
31.4608442
21
86.4943625
0
LINE
8
DEFAULT_255_2_778
10
31.4608442
20
86.4943625
11
31.4608442
21
86.2615625
0
LINE
8
DEFAULT_255_2_778
10
31.4608442
20
86.2615625
11
31.0377442
21
86.2615625
0
LINE
8
DEFAULT_255_2_778
10
31.0377442
20
86.2615625
11
31.0377442
21
85.0177625
0
LINE
8
DEFAULT_255_2_778
10
31.0377442
20
85.0177625
11
30.7414442
21
85.0177625
0
LINE
8
DEFAULT_255_2_778
10
30.7414442
20
85.0177625
11
30.7414442
21
86.2615625
0
LINE
8
DEFAULT_255_2_778
10
30.7414442
20
86.2615625
11
30.3183442
21
86.2615625
0
LINE
8
DEFAULT_255_2_778
10
30.3183442
20
86.2615625
11
30.3183442
21
86.4943625
0
LINE
8
DEFAULT_255_2_778
10
26.3559146
20
86.4943521
11
27.2274146
21
86.4943521
0
LINE
8
DEFAULT_255_2_778
10
27.2274146
20
86.4943521
11
27.2274146
21
86.2615521
0
LINE
8
DEFAULT_255_2_778
10
27.2274146
20
86.2615521
11
26.6522146
21
86.2615521
0
LINE
8
DEFAULT_255_2_778
10
26.6522146
20
86.2615521
11
26.6522146
21
85.8977521
0
LINE
8
DEFAULT_255_2_778
10
26.6522146
20
85.8977521
11
27.1790146
21
85.8977521
0
LINE
8
DEFAULT_255_2_778
10
27.1790146
20
85.8977521
11
27.1790146
21
85.6648521
0
LINE
8
DEFAULT_255_2_778
10
27.1790146
20
85.6648521
11
26.6522146
21
85.6648521
0
LINE
8
DEFAULT_255_2_778
10
26.6522146
20
85.6648521
11
26.6522146
21
85.2502521
0
LINE
8
DEFAULT_255_2_778
10
26.6522146
20
85.2502521
11
27.2317146
21
85.2502521
0
LINE
8
DEFAULT_255_2_778
10
27.2317146
20
85.2502521
11
27.2317146
21
85.0174521
0
LINE
8
DEFAULT_255_2_778
10
27.2317146
20
85.0174521
11
26.3559146
21
85.0174521
0
LINE
8
DEFAULT_255_2_778
10
26.3559146
20
85.0174521
11
26.3559146
21
86.4940521
0
LINE
8
DEFAULT_255_2_778
10
31.6962979
20
86.4944198
11
31.9920979
21
86.4944198
0
LINE
8
DEFAULT_255_2_778
10
31.9920979
20
86.4944198
11
31.9920979
21
85.0178198
0
LINE
8
DEFAULT_255_2_778
10
31.9920979
20
85.0178198
11
31.6962979
21
85.0178198
0
LINE
8
DEFAULT_255_2_778
10
31.6962979
20
85.0178198
11
31.6962979
21
86.4944198
0
ARC
8
DEFAULT_255_2_778
10
24.0586342
20
85.6353464
40
0.3858947
50
268.7222721
51
298.6053377
0
ARC
8
DEFAULT_255_2_778
10
23.9944342
20
85.6761703
40
0.4539683
50
303.2573118
51
353.4674935
0
ARC
8
DEFAULT_255_2_778
10
23.5874042
20
85.7814674
40
0.872286
50
349.6347705
51
357.0678758
0
ARC
8
DEFAULT_255_2_778
10
23.4736092
20
85.7890236
40
0.98632
50
356.9676439
51
0.013014
0
ARC
8
DEFAULT_255_2_778
10
24.0454317
20
85.9015229
40
0.3858206
50
88.7231361
51
118.604322
0
ARC
8
DEFAULT_255_2_778
10
24.1096656
20
85.8606086
40
0.4539882
50
123.2545218
51
173.4532417
0
ARC
8
DEFAULT_255_2_778
10
24.5165641
20
85.7552536
40
0.8721943
50
169.62216
51
177.0543011
0
ARC
8
DEFAULT_255_2_778
10
24.6300198
20
85.7476843
40
0.9858905
50
176.9538229
51
180.0137497
0
ARC
8
DEFAULT_255_2_778
10
24.0443181
20
85.6352606
40
0.3858091
50
241.391369
51
271.2789213
0
ARC
8
DEFAULT_255_2_778
10
24.1085519
20
85.6760775
40
0.4538975
50
186.5217401
51
236.7349678
0
ARC
8
DEFAULT_255_2_778
10
24.5161605
20
85.7814486
40
0.872792
50
182.9291873
51
190.3578995
0
ARC
8
DEFAULT_255_2_778
10
24.6300116
20
85.7890159
40
0.9868824
50
179.9865435
51
183.030176
0
ARC
8
DEFAULT_255_2_778
10
24.0586342
20
85.903249
40
0.3858947
50
61.3946623
51
91.2777279
0
ARC
8
DEFAULT_255_2_778
10
23.9944342
20
85.862425
40
0.4539683
50
6.5325065
51
56.7426882
0
ARC
8
DEFAULT_255_2_778
10
23.5874042
20
85.757128
40
0.872286
50
2.9321242
51
10.3652295
0
ARC
8
DEFAULT_255_2_778
10
23.4736092
20
85.7495717
40
0.98632
50
359.986986
51
3.0323561
0
ARC
8
DEFAULT_255_2_778
10
24.0123617
20
85.7718224
40
0.746489
50
86.8002045
51
89.9975562
0
ARC
8
DEFAULT_255_2_778
10
23.9962475
20
85.8757533
40
0.6427611
50
88.5605867
51
150.7357307
0
ARC
8
DEFAULT_255_2_778
10
24.094625
20
85.8363124
40
0.7479885
50
151.7839423
51
173.2086674
0
ARC
8
DEFAULT_255_2_778
10
24.3269249
20
85.7999733
40
0.9829933
50
172.7065898
51
180.1141532
0
ARC
8
DEFAULT_255_2_778
10
24.439399
20
85.7980587
40
1.0954655
50
180.0022942
51
181.0833066
0
ARC
8
DEFAULT_255_2_778
10
24.0543226
20
85.9785038
40
0.9589671
50
269.7255564
51
269.9974185
0
ARC
8
DEFAULT_255_2_778
10
24.0910836
20
85.6775353
40
0.6590271
50
266.7985812
51
330.0139613
0
ARC
8
DEFAULT_255_2_778
10
23.9708144
20
85.7179075
40
0.7837787
50
331.852134
51
351.5172406
0
ARC
8
DEFAULT_255_2_778
10
23.641995
20
85.7764169
40
1.1176711
50
351.0371732
51
359.5350758
0
ARC
8
DEFAULT_255_2_778
10
24.0283438
20
85.7962342
40
0.7771112
50
270.0009212
51
271.8941108
0
ARC
8
DEFAULT_255_2_778
10
24.0092628
20
85.6783222
40
0.6594757
50
209.2671675
51
271.6590906
0
ARC
8
DEFAULT_255_2_778
10
24.0960031
20
85.7071908
40
0.7494548
50
186.681589
51
207.9504132
0
ARC
8
DEFAULT_255_2_778
10
24.3272857
20
85.7428651
40
0.9833542
50
179.888336
51
187.1781288
0
ARC
8
DEFAULT_255_2_778
10
24.4393204
20
85.7447373
40
1.0953869
50
178.9166498
51
179.9976827
0
ARC
8
DEFAULT_255_2_778
10
24.0546558
20
85.5561582
40
0.9631021
50
90.002429
51
90.2930872
0
ARC
8
DEFAULT_255_2_778
10
24.0928493
20
85.8611522
40
0.6592176
50
30.7307657
51
93.3249986
0
ARC
8
DEFAULT_255_2_778
10
23.9823664
20
85.8273905
40
0.7719265
50
8.7063396
51
28.6938828
0
ARC
8
DEFAULT_255_2_778
10
23.6490231
20
85.7667982
40
1.1106406
50
0.4513703
51
9.1931194
0
ARC
8
DEFAULT_255_2_778
10
33.0206474
20
85.6353464
40
0.3858947
50
268.7222721
51
298.6053377
0
ARC
8
DEFAULT_255_2_778
10
32.9564474
20
85.6761703
40
0.4539683
50
303.2573118
51
353.4674935
0
ARC
8
DEFAULT_255_2_778
10
32.5494174
20
85.7814674
40
0.872286
50
349.6347705
51
357.0678758
0
ARC
8
DEFAULT_255_2_778
10
32.4356224
20
85.7890236
40
0.98632
50
356.9676439
51
0.013014
0
ARC
8
DEFAULT_255_2_778
10
33.007445
20
85.9015229
40
0.3858206
50
88.7231361
51
118.604322
0
ARC
8
DEFAULT_255_2_778
10
33.0716788
20
85.8606086
40
0.4539882
50
123.2545218
51
173.4532417
0
ARC
8
DEFAULT_255_2_778
10
33.4785773
20
85.7552536
40
0.8721943
50
169.62216
51
177.0543011
0
ARC
8
DEFAULT_255_2_778
10
33.592033
20
85.7476843
40
0.9858905
50
176.9538229
51
180.0137497
0
ARC
8
DEFAULT_255_2_778
10
33.0063314
20
85.6352606
40
0.3858091
50
241.391369
51
271.2789213
0
ARC
8
DEFAULT_255_2_778
10
33.0705652
20
85.6760775
40
0.4538975
50
186.5217401
51
236.7349678
0
ARC
8
DEFAULT_255_2_778
10
33.4781738
20
85.7814486
40
0.872792
50
182.9291873
51
190.3578995
0
ARC
8
DEFAULT_255_2_778
10
33.5920248
20
85.7890159
40
0.9868824
50
179.9865435
51
183.030176
0
ARC
8
DEFAULT_255_2_778
10
33.0206474
20
85.903249
40
0.3858947
50
61.3946623
51
91.2777279
0
ARC
8
DEFAULT_255_2_778
10
32.9564474
20
85.862425
40
0.4539683
50
6.5325065
51
56.7426882
0
ARC
8
DEFAULT_255_2_778
10
32.5494174
20
85.757128
40
0.872286
50
2.9321242
51
10.3652295
0
ARC
8
DEFAULT_255_2_778
10
32.4356224
20
85.7495717
40
0.98632
50
359.986986
51
3.0323561
0
ARC
8
DEFAULT_255_2_778
10
32.974375
20
85.7718224
40
0.746489
50
86.8002045
51
89.9975562
0
ARC
8
DEFAULT_255_2_778
10
32.9582607
20
85.8757533
40
0.6427611
50
88.5605867
51
150.7357307
0
ARC
8
DEFAULT_255_2_778
10
33.0566382
20
85.8363124
40
0.7479885
50
151.7839423
51
173.2086674
0
ARC
8
DEFAULT_255_2_778
10
33.2889381
20
85.7999733
40
0.9829933
50
172.7065898
51
180.1141532
0
ARC
8
DEFAULT_255_2_778
10
33.4014122
20
85.7980587
40
1.0954655
50
180.0022942
51
181.0833066
0
ARC
8
DEFAULT_255_2_778
10
33.0163358
20
85.9785038
40
0.9589671
50
269.7255564
51
269.9974185
0
ARC
8
DEFAULT_255_2_778
10
33.0530968
20
85.6775353
40
0.6590271
50
266.7985812
51
330.0139613
0
ARC
8
DEFAULT_255_2_778
10
32.9328277
20
85.7179075
40
0.7837787
50
331.852134
51
351.5172406
0
ARC
8
DEFAULT_255_2_778
10
32.6040082
20
85.7764169
40
1.1176711
50
351.0371732
51
359.5350758
0
ARC
8
DEFAULT_255_2_778
10
32.990357
20
85.7962342
40
0.7771112
50
270.0009212
51
271.8941108
0
ARC
8
DEFAULT_255_2_778
10
32.971276
20
85.6783222
40
0.6594757
50
209.2671675
51
271.6590906
0
ARC
8
DEFAULT_255_2_778
10
33.0580163
20
85.7071908
40
0.7494548
50
186.681589
51
207.9504132
0
ARC
8
DEFAULT_255_2_778
10
33.2892989
20
85.7428651
40
0.9833542
50
179.888336
51
187.1781288
0
ARC
8
DEFAULT_255_2_778
10
33.4013336
20
85.7447373
40
1.0953869
50
178.9166498
51
179.9976827
0
ARC
8
DEFAULT_255_2_778
10
33.016669
20
85.5561582
40
0.9631021
50
90.002429
51
90.2930872
0
ARC
8
DEFAULT_255_2_778
10
33.0548626
20
85.8611522
40
0.6592176
50
30.7307657
51
93.3249986
0
ARC
8
DEFAULT_255_2_778
10
32.9443796
20
85.8273905
40
0.7719265
50
8.7063396
51
28.6938828
0
ARC
8
DEFAULT_255_2_778
10
32.6110363
20
85.7667982
40
1.1106406
50
0.4513703
51
9.1931194
0
ARC
8
DEFAULT_255_2_778
10
25.5605774
20
86.0184721
40
0.1953706
50
356.8744812
51
82.7068382
0
ARC
8
DEFAULT_255_2_778
10
25.4596344
20
85.651164
40
0.5750153
50
77.3684605
51
90.8247668
0
LINE
8
DEFAULT_255_2_778
10
25.4513574
20
86.2261198
11
25.4513574
21
85.8136198
0
ARC
8
DEFAULT_255_2_778
10
25.463487
20
86.400752
40
0.5872575
50
268.816492
51
284.4661955
0
ARC
8
DEFAULT_255_2_778
10
25.5826459
20
86.0029867
40
0.1730788
50
279.1567633
51
1.6001495
0
ARC
8
DEFAULT_255_2_778
10
25.5560154
20
86.9601325
40
1.441595
50
265.8486888
51
268.5985362
0
ARC
8
DEFAULT_255_2_778
10
25.5510826
20
86.7868448
40
1.2682386
50
268.629847
51
269.9911932
0
ARC
8
DEFAULT_255_2_778
10
25.5621408
20
86.3963266
40
0.8777926
50
269.2654583
51
283.4546445
0
ARC
8
DEFAULT_255_2_778
10
25.6685372
20
85.9796439
40
0.4478375
50
282.6198928
51
314.2416871
0
ARC
8
DEFAULT_255_2_778
10
25.6699676
20
85.9524469
40
0.4277325
50
316.646873
51
351.5884244
0
ARC
8
DEFAULT_255_2_778
10
25.3628353
20
86.0162201
40
0.7411124
50
350.1844028
51
0.3360012
0
ARC
8
DEFAULT_255_2_778
10
25.1436237
20
86.0202497
40
0.9603113
50
0.018884
51
2.1525843
0
ARC
8
DEFAULT_255_2_778
10
25.6590923
20
86.0693304
40
0.4443556
50
358.3221568
51
27.6256513
0
ARC
8
DEFAULT_255_2_778
10
25.7231818
20
86.0828752
40
0.3817032
50
30.2860622
51
71.7696937
0
ARC
8
DEFAULT_255_2_778
10
25.5747899
20
85.6913489
40
0.800213
50
70.447854
51
85.8258051
0
ARC
8
DEFAULT_255_2_778
10
25.518347
20
85.1499306
40
1.3444093
50
85.106235
51
90.1313557
0
ARC
8
DEFAULT_255_2_778
10
25.5159006
20
84.8037539
40
1.6905825
50
90.0215467
51
91.9021077
0
ARC
8
DEFAULT_255_2_778
10
25.5191415
20
84.6854985
40
1.8088805
50
91.8803778
51
92.1380376
0
LINE
8
DEFAULT_255_2_778
10
25.4516574
20
86.4931198
11
25.1039574
21
86.4931198
0
ARC
8
DEFAULT_255_2_778
10
28.1268371
20
86.0579785
40
0.1518511
50
358.8458073
51
82.5126092
0
ARC
8
DEFAULT_255_2_778
10
28.0214481
20
85.6920977
40
0.5313911
50
76.3751492
51
91.0727275
0
ARC
8
DEFAULT_255_2_778
10
28.0133148
20
85.2227633
40
1.0006339
50
90.1039349
51
93.7645159
0
ARC
8
DEFAULT_255_2_778
10
28.0279743
20
84.9722856
40
1.2515352
50
93.6813103
51
94.9144562
0
LINE
8
DEFAULT_255_2_778
10
27.9207574
20
86.2192198
11
27.9207574
21
85.8904198
0
ARC
8
DEFAULT_255_2_778
10
28.0350702
20
86.9918164
40
1.1073129
50
264.0745437
51
267.4770934
0
ARC
8
DEFAULT_255_2_778
10
28.0231113
20
86.7384801
40
0.8536962
50
267.5305003
51
269.9581544
0
ARC
8
DEFAULT_255_2_778
10
28.0327666
20
86.3592459
40
0.474573
50
268.7589313
51
285.1616911
0
ARC
8
DEFAULT_255_2_778
10
28.1286646
20
86.0486392
40
0.1501241
50
280.8362355
51
2.3977091
0
ARC
8
DEFAULT_255_2_778
10
27.9524834
20
84.846405
40
0.7613395
50
90.0271803
51
91.9138304
0
ARC
8
DEFAULT_255_2_778
10
27.9631588
20
85.2089282
40
0.3989687
50
73.3223197
51
91.5851599
0
ARC
8
DEFAULT_255_2_778
10
28.0434736
20
85.4666597
40
0.1290638
50
31.7212336
51
74.6411863
0
ARC
8
DEFAULT_255_2_778
10
28.3073581
20
85.5661696
40
0.1983644
50
26.901036
51
70.382335
0
ARC
8
DEFAULT_255_2_778
10
28.3092281
20
86.0668018
40
0.3203889
50
281.6559007
51
353.6414061
0
ARC
8
DEFAULT_255_2_778
10
28.092409
20
86.1097777
40
0.5409569
50
351.6605292
51
0.2263358
0
ARC
8
DEFAULT_255_2_778
10
27.9809141
20
86.1118707
40
0.6524474
50
0.0038629
51
1.0230379
0
ARC
8
DEFAULT_255_2_778
10
28.2790595
20
86.1215307
40
0.3542034
50
0.3217533
51
41.5336298
0
ARC
8
DEFAULT_255_2_778
10
28.2584458
20
86.0748932
40
0.4011206
50
44.5694074
51
75.9359358
0
ARC
8
DEFAULT_255_2_778
10
28.1311069
20
85.6289537
40
0.8647699
50
74.9317422
51
88.8554357
0
ARC
8
DEFAULT_255_2_778
10
28.1041122
20
85.1695848
40
1.3247061
50
88.0849515
51
90.0205269
0
ARC
8
DEFAULT_255_2_778
10
28.1038985
20
85.0139582
40
1.4803327
50
90.0100993
51
91.2828238
0
LINE
8
DEFAULT_255_2_778
10
28.0707574
20
86.4939198
11
27.5688574
21
86.4939198
0
LINE
8
DEFAULT_255_2_778
10
25.7556574
20
86.0078198
11
25.7556574
21
86.0078198
0
LINE
8
DEFAULT_255_2_778
10
25.1039574
20
86.4931198
11
25.1039574
21
85.0371198
0
LINE
8
DEFAULT_255_2_778
10
25.1039574
20
85.0371198
11
25.4516574
21
85.0371198
0
LINE
8
DEFAULT_255_2_778
10
25.4516574
20
85.0371198
11
25.4516574
21
85.5223198
0
LINE
8
DEFAULT_255_2_778
10
25.1039574
20
86.4931198
11
25.1039574
21
86.4931198
0
LINE
8
DEFAULT_255_2_778
10
28.2786574
20
86.0549198
11
28.2786574
21
86.0549198
0
LINE
8
DEFAULT_255_2_778
10
27.5685574
20
86.4939198
11
27.5685574
21
85.0244198
0
LINE
8
DEFAULT_255_2_778
10
27.5685574
20
85.0244198
11
27.9270574
21
85.0244198
0
LINE
8
DEFAULT_255_2_778
10
27.9270574
20
85.0244198
11
27.9270574
21
85.6073198
0
LINE
8
DEFAULT_255_2_778
10
28.1532574
20
85.5345198
11
28.3241574
21
85.0305198
0
LINE
8
DEFAULT_255_2_778
10
28.3241574
20
85.0305198
11
28.6938574
21
85.0244198
0
LINE
8
DEFAULT_255_2_778
10
28.6938574
20
85.0244198
11
28.4842574
21
85.6559198
0
LINE
8
DEFAULT_255_2_778
10
27.5688574
20
86.4939198
11
27.5685574
21
86.4939198
0
LINE
8
DEFAULT_255_2_778
10
29.4285574
20
86.4944198
11
29.7627574
21
86.4944198
0
LINE
8
DEFAULT_255_2_778
10
29.7627574
20
86.4944198
11
30.3424574
21
85.0178198
0
LINE
8
DEFAULT_255_2_778
10
30.3424574
20
85.0178198
11
30.0143574
21
85.0178198
0
LINE
8
DEFAULT_255_2_778
10
30.0143574
20
85.0178198
11
29.8876574
21
85.3562198
0
LINE
8
DEFAULT_255_2_778
10
29.8876574
20
85.3562198
11
29.2888574
21
85.3562198
0
LINE
8
DEFAULT_255_2_778
10
29.2888574
20
85.3562198
11
29.1597574
21
85.0178198
0
LINE
8
DEFAULT_255_2_778
10
29.1597574
20
85.0178198
11
28.8530574
21
85.0178198
0
LINE
8
DEFAULT_255_2_778
10
28.8530574
20
85.0178198
11
29.4285574
21
86.4944198
0
LINE
8
DEFAULT_255_2_778
10
29.5915574
20
86.1983198
11
29.5873574
21
86.1983198
0
LINE
8
DEFAULT_255_2_778
10
29.5873574
20
86.1983198
11
29.3732574
21
85.5890198
0
LINE
8
DEFAULT_255_2_778
10
29.3732574
20
85.5890198
11
29.8050574
21
85.5890198
0
LINE
8
DEFAULT_255_2_778
10
29.8050574
20
85.5890198
11
29.5915574
21
86.1983198
0
LINE
8
DEFAULT_255_2_778
10
28.0739146
20
82.4946521
11
28.9454146
21
82.4946521
0
LINE
8
DEFAULT_255_2_778
10
28.9454146
20
82.4946521
11
28.9454146
21
82.2618521
0
LINE
8
DEFAULT_255_2_778
10
28.9454146
20
82.2618521
11
28.3702146
21
82.2618521
0
LINE
8
DEFAULT_255_2_778
10
28.3702146
20
82.2618521
11
28.3702146
21
81.8980521
0
LINE
8
DEFAULT_255_2_778
10
28.3702146
20
81.8980521
11
28.8970146
21
81.8980521
0
LINE
8
DEFAULT_255_2_778
10
28.8970146
20
81.8980521
11
28.8970146
21
81.6651521
0
LINE
8
DEFAULT_255_2_778
10
28.8970146
20
81.6651521
11
28.3702146
21
81.6651521
0
LINE
8
DEFAULT_255_2_778
10
28.3702146
20
81.6651521
11
28.3702146
21
81.2505521
0
LINE
8
DEFAULT_255_2_778
10
28.3702146
20
81.2505521
11
28.9497146
21
81.2505521
0
LINE
8
DEFAULT_255_2_778
10
28.9497146
20
81.2505521
11
28.9497146
21
81.0177521
0
LINE
8
DEFAULT_255_2_778
10
28.9497146
20
81.0177521
11
28.0739146
21
81.0177521
0
LINE
8
DEFAULT_255_2_778
10
28.0739146
20
81.0177521
11
28.0739146
21
82.4943521
0
LINE
8
DEFAULT_255_2_778
10
35.0022667
20
82.4946198
11
35.2859667
21
82.4946198
0
LINE
8
DEFAULT_255_2_778
10
35.2859667
20
82.4946198
11
35.2859667
21
81.0180198
0
LINE
8
DEFAULT_255_2_778
10
35.2859667
20
81.0180198
11
34.9242667
21
81.0180198
0
LINE
8
DEFAULT_255_2_778
10
34.9242667
20
81.0180198
11
34.3596667
21
82.1223198
0
LINE
8
DEFAULT_255_2_778
10
34.3596667
20
82.1223198
11
34.3551667
21
82.1223198
0
LINE
8
DEFAULT_255_2_778
10
34.3551667
20
82.1223198
11
34.3551667
21
81.0180198
0
LINE
8
DEFAULT_255_2_778
10
34.3551667
20
81.0180198
11
34.0720667
21
81.0180198
0
LINE
8
DEFAULT_255_2_778
10
34.0720667
20
81.0180198
11
34.0720667
21
82.4946198
0
LINE
8
DEFAULT_255_2_778
10
34.0720667
20
82.4946198
11
34.4358667
21
82.4946198
0
LINE
8
DEFAULT_255_2_778
10
34.4358667
20
82.4946198
11
34.9983667
21
81.3902198
0
LINE
8
DEFAULT_255_2_778
10
34.9983667
20
81.3902198
11
35.0025667
21
81.3902198
0
LINE
8
DEFAULT_255_2_778
10
35.0025667
20
81.3902198
11
35.0025667
21
82.4946198
0
LINE
8
DEFAULT_255_2_778
10
31.6960667
20
82.4946198
11
31.9918667
21
82.4946198
0
LINE
8
DEFAULT_255_2_778
10
31.9918667
20
82.4946198
11
31.9918667
21
81.0180198
0
LINE
8
DEFAULT_255_2_778
10
31.9918667
20
81.0180198
11
31.6960667
21
81.0180198
0
LINE
8
DEFAULT_255_2_778
10
31.6960667
20
81.0180198
11
31.6960667
21
82.4946198
0
ARC
8
DEFAULT_255_2_778
10
29.6585244
20
81.3241192
40
0.9855849
50
66.1919595
51
74.2467542
0
ARC
8
DEFAULT_255_2_778
10
29.7682027
20
81.7209396
40
0.5738962
50
74.0295082
51
86.802266
0
ARC
8
DEFAULT_255_2_778
10
29.7812879
20
81.8764267
40
0.4179443
50
87.4043034
51
89.981927
0
ARC
8
DEFAULT_255_2_778
10
29.7697545
20
82.0196506
40
0.274968
50
87.5685587
51
140.207171
0
ARC
8
DEFAULT_255_2_778
10
29.7869107
20
82.0779732
40
0.2569534
50
152.747894
51
168.078464
0
ARC
8
DEFAULT_255_2_778
10
29.7047974
20
82.0969066
40
0.172707
50
168.5968964
51
179.7901182
0
ARC
8
DEFAULT_255_2_778
10
29.6927549
20
82.1021246
40
0.1607287
50
181.6347917
51
238.7751529
0
ARC
8
DEFAULT_255_2_778
10
29.864066
20
82.3381058
40
0.4519793
50
235.7106749
51
251.6182565
0
ARC
8
DEFAULT_255_2_778
10
29.9920715
20
82.677186
40
0.8142544
50
250.5946309
51
254.1643806
0
ARC
8
DEFAULT_255_2_778
10
29.4692036
20
80.9871722
40
0.9552178
50
59.7528268
51
71.6529712
0
ARC
8
DEFAULT_255_2_778
10
29.6974342
20
81.3701102
40
0.5094639
50
38.2086411
51
60.2320957
0
ARC
8
DEFAULT_255_2_778
10
29.8101881
20
81.4660213
40
0.3615859
50
359.1835443
51
37.3177312
0
ARC
8
DEFAULT_255_2_778
10
29.6627104
20
81.4639808
40
0.5090364
50
347.2470045
51
359.6497389
0
ARC
8
DEFAULT_255_2_778
10
29.4646451
20
81.5068794
40
0.7116878
50
339.6883546
51
347.3985395
0
ARC
8
DEFAULT_255_2_778
10
29.5611998
20
81.5639564
40
0.6468336
50
314.2644914
51
331.9545843
0
ARC
8
DEFAULT_255_2_778
10
29.6863892
20
81.4413749
40
0.471689
50
268.5827749
51
313.7673275
0
ARC
8
DEFAULT_255_2_778
10
29.679606
20
81.7061788
40
0.7363649
50
257.7931376
51
269.6200608
0
ARC
8
DEFAULT_255_2_778
10
29.7504463
20
82.0441867
40
1.0817115
50
249.884176
51
257.9112723
0
ARC
8
DEFAULT_255_2_778
10
29.8950758
20
82.44818
40
1.5108051
50
245.0082465
51
250.0030319
0
ARC
8
DEFAULT_255_2_778
10
10.7306548
20
83.3885044
40
18.6695436
50
352.8935445
51
353.6867819
0
ARC
8
DEFAULT_255_2_778
10
29.7585262
20
82.3049326
40
1.0780031
50
244.0602017
51
252.0724949
0
ARC
8
DEFAULT_255_2_778
10
29.6270748
20
81.8917883
40
0.6444593
50
251.8855896
51
264.2697362
0
ARC
8
DEFAULT_255_2_778
10
29.6046276
20
81.7079743
40
0.4593399
50
264.7664486
51
269.932796
0
ARC
8
DEFAULT_255_2_778
10
29.6137799
20
81.5627706
40
0.3142854
50
268.2329815
51
317.5225846
0
ARC
8
DEFAULT_255_2_778
10
29.6582559
20
81.4547295
40
0.2143518
50
330.915683
51
348.7205589
0
ARC
8
DEFAULT_255_2_778
10
29.7211468
20
81.440315
40
0.1498675
50
349.4220916
51
359.8625769
0
ARC
8
DEFAULT_255_2_778
10
29.7144075
20
81.4340483
40
0.1567177
50
2.160177
51
55.1299902
0
ARC
8
DEFAULT_255_2_778
10
29.5291686
20
81.207161
40
0.4493237
50
52.289786
51
68.2153361
0
ARC
8
DEFAULT_255_2_778
10
29.3516298
20
80.802194
40
0.8913773
50
67.2788395
51
72.5467007
0
ARC
8
DEFAULT_255_2_778
10
29.778256
20
82.3421274
40
0.7077488
50
239.3894436
51
256.9943419
0
ARC
8
DEFAULT_255_2_778
10
29.5995676
20
82.0504605
40
0.3657762
50
183.2483918
51
240.215147
0
ARC
8
DEFAULT_255_2_778
10
30.1063989
20
82.0508657
40
0.8722758
50
180.0076951
51
181.3881927
0
ARC
8
DEFAULT_255_2_778
10
29.8420665
20
82.0605041
40
0.6080218
50
162.8952378
51
180.9193277
0
ARC
8
DEFAULT_255_2_778
10
29.6206413
20
82.125682
40
0.3772311
50
102.4487266
51
162.4653257
0
ARC
8
DEFAULT_255_2_778
10
29.7382764
20
81.7383723
40
0.7814234
50
90.8851501
51
104.7501022
0
ARC
8
DEFAULT_255_2_778
10
29.7563066
20
81.4073515
40
1.1127582
50
89.9885646
51
91.5501225
0
ARC
8
DEFAULT_255_2_778
10
29.7536364
20
81.1668998
40
1.3532131
50
85.1381713
51
89.8775388
0
ARC
8
DEFAULT_255_2_778
10
29.7177708
20
80.7312122
40
1.7903731
50
81.6716178
51
85.176233
0
ARC
8
DEFAULT_255_2_778
10
29.6436757
20
80.2219678
40
2.3049796
50
78.7215069
51
81.6827668
0
LINE
8
DEFAULT_255_2_778
10
30.0944791
20
82.4824338
11
30.0642791
21
82.2335338
0
ARC
8
DEFAULT_255_2_778
10
27.2270244
20
81.3241192
40
0.9855849
50
66.1919595
51
74.2467542
0
ARC
8
DEFAULT_255_2_778
10
27.3367027
20
81.7209396
40
0.5738962
50
74.0295082
51
86.802266
0
ARC
8
DEFAULT_255_2_778
10
27.3497879
20
81.8764267
40
0.4179443
50
87.4043034
51
89.981927
0
ARC
8
DEFAULT_255_2_778
10
27.3382545
20
82.0196506
40
0.274968
50
87.5685587
51
140.207171
0
ARC
8
DEFAULT_255_2_778
10
27.3554107
20
82.0779732
40
0.2569534
50
152.747894
51
168.078464
0
ARC
8
DEFAULT_255_2_778
10
27.2732974
20
82.0969066
40
0.172707
50
168.5968964
51
179.7901182
0
ARC
8
DEFAULT_255_2_778
10
27.2612549
20
82.1021246
40
0.1607287
50
181.6347917
51
238.7751529
0
ARC
8
DEFAULT_255_2_778
10
27.432566
20
82.3381058
40
0.4519793
50
235.7106749
51
251.6182565
0
ARC
8
DEFAULT_255_2_778
10
27.5605715
20
82.677186
40
0.8142544
50
250.5946309
51
254.1643806
0
ARC
8
DEFAULT_255_2_778
10
27.0377036
20
80.9871722
40
0.9552178
50
59.7528268
51
71.6529712
0
ARC
8
DEFAULT_255_2_778
10
27.2659342
20
81.3701102
40
0.5094639
50
38.2086411
51
60.2320957
0
ARC
8
DEFAULT_255_2_778
10
27.3786881
20
81.4660213
40
0.3615859
50
359.1835443
51
37.3177312
0
ARC
8
DEFAULT_255_2_778
10
27.2312104
20
81.4639808
40
0.5090364
50
347.2470045
51
359.6497389
0
ARC
8
DEFAULT_255_2_778
10
27.0331451
20
81.5068794
40
0.7116878
50
339.6883546
51
347.3985395
0
ARC
8
DEFAULT_255_2_778
10
27.1296449
20
81.5639857
40
0.6468958
50
314.2664256
51
331.9545812
0
ARC
8
DEFAULT_255_2_778
10
27.2549185
20
81.4413131
40
0.471627
50
268.5836984
51
313.7703154
0
ARC
8
DEFAULT_255_2_778
10
27.2481431
20
81.7059731
40
0.7361592
50
257.7914229
51
269.6200583
0
ARC
8
DEFAULT_255_2_778
10
27.3189729
20
82.0438827
40
1.0814075
50
249.8813332
51
257.9095819
0
ARC
8
DEFAULT_255_2_778
10
27.4635625
20
82.4477095
40
1.5103307
50
245.0045996
51
250.0002796
0
ARC
8
DEFAULT_255_2_778
10
7.1412527
20
83.51706
40
19.8345602
50
352.9388742
51
353.685485
0
ARC
8
DEFAULT_255_2_778
10
27.3270262
20
82.3049326
40
1.0780031
50
244.0602017
51
252.0724949
0
ARC
8
DEFAULT_255_2_778
10
27.1955748
20
81.8917883
40
0.6444593
50
251.8855896
51
264.2697362
0
ARC
8
DEFAULT_255_2_778
10
27.1731276
20
81.7079743
40
0.4593399
50
264.7664486
51
269.932796
0
ARC
8
DEFAULT_255_2_778
10
27.1822799
20
81.5627706
40
0.3142854
50
268.2329815
51
317.5225846
0
ARC
8
DEFAULT_255_2_778
10
27.2267559
20
81.4547295
40
0.2143518
50
330.915683
51
348.7205589
0
ARC
8
DEFAULT_255_2_778
10
27.2896468
20
81.440315
40
0.1498675
50
349.4220916
51
359.8625769
0
ARC
8
DEFAULT_255_2_778
10
27.2829075
20
81.4340483
40
0.1567177
50
2.160177
51
55.1299902
0
ARC
8
DEFAULT_255_2_778
10
27.0976686
20
81.207161
40
0.4493237
50
52.289786
51
68.2153361
0
ARC
8
DEFAULT_255_2_778
10
26.9201298
20
80.802194
40
0.8913773
50
67.2788395
51
72.5467007
0
ARC
8
DEFAULT_255_2_778
10
27.3457995
20
82.3391637
40
0.7046459
50
239.1498617
51
257.0158882
0
ARC
8
DEFAULT_255_2_778
10
27.1679152
20
82.0504872
40
0.3656257
50
183.2539315
51
239.8839137
0
ARC
8
DEFAULT_255_2_778
10
27.6748989
20
82.0508657
40
0.8722758
50
180.0076951
51
181.3881927
0
ARC
8
DEFAULT_255_2_778
10
27.4105665
20
82.0605041
40
0.6080218
50
162.8952378
51
180.9193277
0
ARC
8
DEFAULT_255_2_778
10
27.1891413
20
82.125682
40
0.3772311
50
102.4487266
51
162.4653257
0
ARC
8
DEFAULT_255_2_778
10
27.3067764
20
81.7383723
40
0.7814234
50
90.8851501
51
104.7501022
0
ARC
8
DEFAULT_255_2_778
10
27.3248066
20
81.4073515
40
1.1127582
50
89.9885646
51
91.5501225
0
ARC
8
DEFAULT_255_2_778
10
27.3221364
20
81.1668998
40
1.3532131
50
85.1381713
51
89.8775388
0
ARC
8
DEFAULT_255_2_778
10
27.2862708
20
80.7312122
40
1.7903731
50
81.6716178
51
85.176233
0
ARC
8
DEFAULT_255_2_778
10
27.2121757
20
80.2219678
40
2.3049796
50
78.7215069
51
81.6827668
0
LINE
8
DEFAULT_255_2_778
10
27.6629791
20
82.4824338
11
27.6328791
21
82.2335338
0
ARC
8
DEFAULT_255_2_778
10
30.8603244
20
81.3241192
40
0.9855849
50
66.1919595
51
74.2467542
0
ARC
8
DEFAULT_255_2_778
10
30.9700027
20
81.7209396
40
0.5738962
50
74.0295082
51
86.802266
0
ARC
8
DEFAULT_255_2_778
10
30.9830879
20
81.8764267
40
0.4179443
50
87.4043034
51
89.981927
0
ARC
8
DEFAULT_255_2_778
10
30.9715545
20
82.0196506
40
0.274968
50
87.5685587
51
140.207171
0
ARC
8
DEFAULT_255_2_778
10
30.9887107
20
82.0779732
40
0.2569534
50
152.747894
51
168.078464
0
ARC
8
DEFAULT_255_2_778
10
30.9065974
20
82.0969066
40
0.172707
50
168.5968964
51
179.7901182
0
ARC
8
DEFAULT_255_2_778
10
30.8945549
20
82.1021246
40
0.1607287
50
181.6347917
51
238.7751529
0
ARC
8
DEFAULT_255_2_778
10
31.065866
20
82.3381058
40
0.4519793
50
235.7106749
51
251.6182565
0
ARC
8
DEFAULT_255_2_778
10
31.1938715
20
82.677186
40
0.8142544
50
250.5946309
51
254.1643806
0
ARC
8
DEFAULT_255_2_778
10
30.6710036
20
80.9871722
40
0.9552178
50
59.7528268
51
71.6529712
0
ARC
8
DEFAULT_255_2_778
10
30.8992342
20
81.3701102
40
0.5094639
50
38.2086411
51
60.2320957
0
ARC
8
DEFAULT_255_2_778
10
31.0119881
20
81.4660213
40
0.3615859
50
359.1835443
51
37.3177312
0
ARC
8
DEFAULT_255_2_778
10
30.8645104
20
81.4639808
40
0.5090364
50
347.2470045
51
359.6497389
0
ARC
8
DEFAULT_255_2_778
10
30.6664451
20
81.5068794
40
0.7116878
50
339.6883546
51
347.3985395
0
ARC
8
DEFAULT_255_2_778
10
30.7629449
20
81.5639857
40
0.6468958
50
314.2664256
51
331.9545812
0
ARC
8
DEFAULT_255_2_778
10
30.8882185
20
81.4413131
40
0.471627
50
268.5836984
51
313.7703154
0
ARC
8
DEFAULT_255_2_778
10
30.8814431
20
81.7059731
40
0.7361592
50
257.7914229
51
269.6200583
0
ARC
8
DEFAULT_255_2_778
10
30.9522729
20
82.0438827
40
1.0814075
50
249.8813332
51
257.9095819
0
ARC
8
DEFAULT_255_2_778
10
31.0968625
20
82.4477095
40
1.5103307
50
245.0045996
51
250.0002796
0
ARC
8
DEFAULT_255_2_778
10
10.7745527
20
83.51706
40
19.8345602
50
352.9388742
51
353.685485
0
ARC
8
DEFAULT_255_2_778
10
30.9603262
20
82.3049326
40
1.0780031
50
244.0602017
51
252.0724949
0
ARC
8
DEFAULT_255_2_778
10
30.8288748
20
81.8917883
40
0.6444593
50
251.8855896
51
264.2697362
0
ARC
8
DEFAULT_255_2_778
10
30.8064276
20
81.7079743
40
0.4593399
50
264.7664486
51
269.932796
0
ARC
8
DEFAULT_255_2_778
10
30.8155799
20
81.5627706
40
0.3142854
50
268.2329815
51
317.5225846
0
ARC
8
DEFAULT_255_2_778
10
30.8600559
20
81.4547295
40
0.2143518
50
330.915683
51
348.7205589
0
ARC
8
DEFAULT_255_2_778
10
30.9229468
20
81.440315
40
0.1498675
50
349.4220916
51
359.8625769
0
ARC
8
DEFAULT_255_2_778
10
30.9162075
20
81.4340483
40
0.1567177
50
2.160177
51
55.1299902
0
ARC
8
DEFAULT_255_2_778
10
30.7309686
20
81.207161
40
0.4493237
50
52.289786
51
68.2153361
0
ARC
8
DEFAULT_255_2_778
10
30.5534298
20
80.802194
40
0.8913773
50
67.2788395
51
72.5467007
0
ARC
8
DEFAULT_255_2_778
10
30.9790995
20
82.3391637
40
0.7046459
50
239.1498617
51
257.0158882
0
ARC
8
DEFAULT_255_2_778
10
30.8012152
20
82.0504872
40
0.3656257
50
183.2539315
51
239.8839137
0
ARC
8
DEFAULT_255_2_778
10
31.3081989
20
82.0508657
40
0.8722758
50
180.0076951
51
181.3881927
0
ARC
8
DEFAULT_255_2_778
10
31.0438665
20
82.0605041
40
0.6080218
50
162.8952378
51
180.9193277
0
ARC
8
DEFAULT_255_2_778
10
30.8224413
20
82.125682
40
0.3772311
50
102.4487266
51
162.4653257
0
ARC
8
DEFAULT_255_2_778
10
30.9400764
20
81.7383723
40
0.7814234
50
90.8851501
51
104.7501022
0
ARC
8
DEFAULT_255_2_778
10
30.9581066
20
81.4073515
40
1.1127582
50
89.9885646
51
91.5501225
0
ARC
8
DEFAULT_255_2_778
10
30.9554364
20
81.1668998
40
1.3532131
50
85.1381713
51
89.8775388
0
ARC
8
DEFAULT_255_2_778
10
30.9195708
20
80.7312122
40
1.7903731
50
81.6716178
51
85.176233
0
ARC
8
DEFAULT_255_2_778
10
30.8454757
20
80.2219678
40
2.3049796
50
78.7215069
51
81.6827668
0
LINE
8
DEFAULT_255_2_778
10
31.2962791
20
82.4824338
11
31.2661791
21
82.2335338
0
ARC
8
DEFAULT_255_2_778
10
33.0206474
20
81.6356464
40
0.3858947
50
268.7222721
51
298.6053377
0
ARC
8
DEFAULT_255_2_778
10
32.9564474
20
81.6764703
40
0.4539683
50
303.2573118
51
353.4674935
0
ARC
8
DEFAULT_255_2_778
10
32.5494174
20
81.7817674
40
0.872286
50
349.6347705
51
357.0678758
0
ARC
8
DEFAULT_255_2_778
10
32.4356224
20
81.7893236
40
0.98632
50
356.9676439
51
0.013014
0
ARC
8
DEFAULT_255_2_778
10
33.007445
20
81.9018229
40
0.3858206
50
88.7231361
51
118.604322
0
ARC
8
DEFAULT_255_2_778
10
33.0716788
20
81.8609086
40
0.4539882
50
123.2545218
51
173.4532417
0
ARC
8
DEFAULT_255_2_778
10
33.4785773
20
81.7555536
40
0.8721943
50
169.62216
51
177.0543011
0
ARC
8
DEFAULT_255_2_778
10
33.592033
20
81.7479843
40
0.9858905
50
176.9538229
51
180.0137497
0
ARC
8
DEFAULT_255_2_778
10
33.0063314
20
81.6355606
40
0.3858091
50
241.391369
51
271.2789213
0
ARC
8
DEFAULT_255_2_778
10
33.0705652
20
81.6763775
40
0.4538975
50
186.5217401
51
236.7349678
0
ARC
8
DEFAULT_255_2_778
10
33.4781738
20
81.7817486
40
0.872792
50
182.9291873
51
190.3578995
0
ARC
8
DEFAULT_255_2_778
10
33.5920248
20
81.7893159
40
0.9868824
50
179.9865435
51
183.030176
0
ARC
8
DEFAULT_255_2_778
10
33.0206474
20
81.903549
40
0.3858947
50
61.3946623
51
91.2777279
0
ARC
8
DEFAULT_255_2_778
10
32.9564474
20
81.862725
40
0.4539683
50
6.5325065
51
56.7426882
0
ARC
8
DEFAULT_255_2_778
10
32.5494174
20
81.757428
40
0.872286
50
2.9321242
51
10.3652295
0
ARC
8
DEFAULT_255_2_778
10
32.4356224
20
81.7498717
40
0.98632
50
359.986986
51
3.0323561
0
ARC
8
DEFAULT_255_2_778
10
32.974375
20
81.7721224
40
0.746489
50
86.8002045
51
89.9975562
0
ARC
8
DEFAULT_255_2_778
10
32.9582607
20
81.8760533
40
0.6427611
50
88.5605867
51
150.7357307
0
ARC
8
DEFAULT_255_2_778
10
33.0566382
20
81.8366124
40
0.7479885
50
151.7839423
51
173.2086674
0
ARC
8
DEFAULT_255_2_778
10
33.2889381
20
81.8002733
40
0.9829933
50
172.7065898
51
180.1141532
0
ARC
8
DEFAULT_255_2_778
10
33.4014122
20
81.7983587
40
1.0954655
50
180.0022942
51
181.0833066
0
ARC
8
DEFAULT_255_2_778
10
33.0163358
20
81.9788038
40
0.9589671
50
269.7255564
51
269.9974185
0
ARC
8
DEFAULT_255_2_778
10
33.0530968
20
81.6778353
40
0.6590271
50
266.7985812
51
330.0139613
0
ARC
8
DEFAULT_255_2_778
10
32.9328277
20
81.7182075
40
0.7837787
50
331.852134
51
351.5172406
0
ARC
8
DEFAULT_255_2_778
10
32.6040082
20
81.7767169
40
1.1176711
50
351.0371732
51
359.5350758
0
ARC
8
DEFAULT_255_2_778
10
32.990357
20
81.7965342
40
0.7771112
50
270.0009212
51
271.8941108
0
ARC
8
DEFAULT_255_2_778
10
32.971276
20
81.6786222
40
0.6594757
50
209.2671675
51
271.6590906
0
ARC
8
DEFAULT_255_2_778
10
33.0580163
20
81.7074908
40
0.7494548
50
186.681589
51
207.9504132
0
ARC
8
DEFAULT_255_2_778
10
33.2892989
20
81.7431651
40
0.9833542
50
179.888336
51
187.1781288
0
ARC
8
DEFAULT_255_2_778
10
33.4013336
20
81.7450373
40
1.0953869
50
178.9166498
51
179.9976827
0
ARC
8
DEFAULT_255_2_778
10
33.0166711
20
81.5556628
40
0.9638975
50
90.0024188
51
90.2929704
0
ARC
8
DEFAULT_255_2_778
10
33.0549103
20
81.8614952
40
0.6591773
50
30.73293
51
93.329168
0
ARC
8
DEFAULT_255_2_778
10
32.9443721
20
81.8277406
40
0.7719304
50
8.7045197
51
28.6931866
0
ARC
8
DEFAULT_255_2_778
10
32.6107276
20
81.7671002
40
1.1109494
50
0.4511465
51
9.1918263
0
LINE
8
DEFAULT_255_2_778
10
32.0277823
20
78.4946521
11
32.8992823
21
78.4946521
0
LINE
8
DEFAULT_255_2_778
10
32.8992823
20
78.4946521
11
32.8992823
21
78.2618521
0
LINE
8
DEFAULT_255_2_778
10
32.8992823
20
78.2618521
11
32.3240823
21
78.2618521
0
LINE
8
DEFAULT_255_2_778
10
32.3240823
20
78.2618521
11
32.3240823
21
77.8980521
0
LINE
8
DEFAULT_255_2_778
10
32.3240823
20
77.8980521
11
32.8508823
21
77.8980521
0
LINE
8
DEFAULT_255_2_778
10
32.8508823
20
77.8980521
11
32.8508823
21
77.6651521
0
LINE
8
DEFAULT_255_2_778
10
32.8508823
20
77.6651521
11
32.3240823
21
77.6651521
0
LINE
8
DEFAULT_255_2_778
10
32.3240823
20
77.6651521
11
32.3240823
21
77.2505521
0
LINE
8
DEFAULT_255_2_778
10
32.3240823
20
77.2505521
11
32.9037823
21
77.2505521
0
LINE
8
DEFAULT_255_2_778
10
32.9037823
20
77.2505521
11
32.9037823
21
77.0177521
0
LINE
8
DEFAULT_255_2_778
10
32.9037823
20
77.0177521
11
32.0277823
21
77.0177521
0
LINE
8
DEFAULT_255_2_778
10
32.0277823
20
77.0177521
11
32.0277823
21
78.4943521
0
ARC
8
DEFAULT_255_2_778
10
31.1424416
20
77.8404891
40
0.5449209
50
170.2644647
51
179.7330541
0
ARC
8
DEFAULT_255_2_778
10
31.2712603
20
77.8194319
40
0.675446
50
160.512567
51
170.3517814
0
ARC
8
DEFAULT_255_2_778
10
31.3094225
20
77.8070473
40
0.7155543
50
155.8878024
51
160.5971046
0
ARC
8
DEFAULT_255_2_778
10
31.2977627
20
77.8135989
40
0.7022362
50
135.7772379
51
155.987068
0
ARC
8
DEFAULT_255_2_778
10
31.2803918
20
77.8280034
40
0.6797435
50
116.0026953
51
135.6261414
0
ARC
8
DEFAULT_255_2_778
10
31.3193351
20
77.7444993
40
0.7718697
50
100.614078
51
115.8833305
0
ARC
8
DEFAULT_255_2_778
10
31.358097
20
77.5422448
40
0.9778036
50
89.761409
51
100.6635831
0
ARC
8
DEFAULT_255_2_778
10
31.3605612
20
77.3037925
40
1.2162483
50
84.5311053
51
89.9242678
0
ARC
8
DEFAULT_255_2_778
10
31.339313
20
77.0793571
40
1.4416871
50
79.8903529
51
84.5405795
0
ARC
8
DEFAULT_255_2_778
10
31.2952111
20
76.8288836
40
1.696013
50
76.2219744
51
79.9089046
0
ARC
8
DEFAULT_255_2_778
10
31.2272105
20
76.5513197
40
1.9817851
50
72.8246272
51
76.2237352
0
ARC
8
DEFAULT_255_2_778
10
31.4183564
20
77.5310254
40
0.7108697
50
59.2305539
51
83.4044816
0
ARC
8
DEFAULT_255_2_778
10
31.4280088
20
77.6034215
40
0.6378454
50
83.5188402
51
89.9491416
0
ARC
8
DEFAULT_255_2_778
10
31.4040987
20
77.8207012
40
0.4212771
50
86.6692309
51
149.8440201
0
ARC
8
DEFAULT_255_2_778
10
31.4735553
20
77.8013896
40
0.4913717
50
151.9659828
51
171.8767093
0
ARC
8
DEFAULT_255_2_778
10
31.6546074
20
77.7684215
40
0.6753025
50
171.2782042
51
177.3513563
0
ARC
8
DEFAULT_255_2_778
10
31.1596075
20
77.7623564
40
0.5671729
50
172.5468057
51
179.9580051
0
ARC
8
DEFAULT_255_2_778
10
31.183243
20
77.7616806
40
0.5908092
50
179.8941479
51
180.0096376
0
ARC
8
DEFAULT_255_2_778
10
31.2334649
20
77.7627796
40
0.6410325
50
180.1071133
51
190.6764559
0
ARC
8
DEFAULT_255_2_778
10
31.2702898
20
77.7687603
40
0.6783286
50
190.5966225
51
194.3421307
0
ARC
8
DEFAULT_255_2_778
10
31.2814669
20
77.7713922
40
0.6898094
50
194.3239533
51
221.2941616
0
ARC
8
DEFAULT_255_2_778
10
31.2777441
20
77.7708364
40
0.6866485
50
221.4643195
51
244.1961681
0
ARC
8
DEFAULT_255_2_778
10
31.326368
20
77.8739873
40
0.8006806
50
244.2766803
51
260.3415851
0
ARC
8
DEFAULT_255_2_778
10
31.36371
20
78.0800083
40
1.0100491
50
260.214082
51
270.1926814
0
ARC
8
DEFAULT_255_2_778
10
31.3656143
20
78.2986612
40
1.2286972
50
270.0695931
51
275.4166743
0
ARC
8
DEFAULT_255_2_778
10
31.3457512
20
78.5097411
40
1.4407094
50
275.4106624
51
280.1410939
0
ARC
8
DEFAULT_255_2_778
10
31.3021141
20
78.7552489
40
1.690065
50
280.1318769
51
284.2168816
0
ARC
8
DEFAULT_255_2_778
10
31.2395348
20
79.0053014
40
1.9478282
50
284.1948644
51
287.1446803
0
ARC
8
DEFAULT_255_2_778
10
31.4195617
20
78.0576407
40
0.7107551
50
276.608245
51
300.7838366
0
ARC
8
DEFAULT_255_2_778
10
31.4292348
20
77.9852355
40
0.637719
50
270.0512654
51
276.4935661
0
ARC
8
DEFAULT_255_2_778
10
31.4053337
20
77.7679036
40
0.4210987
50
210.1430227
51
273.3315587
0
ARC
8
DEFAULT_255_2_778
10
31.4748763
20
77.7872575
40
0.4912927
50
188.1109209
51
208.0217829
0
ARC
8
DEFAULT_255_2_778
10
31.655976
20
77.820192
40
0.6752642
50
182.6367022
51
188.7094395
0
LINE
8
DEFAULT_255_2_778
10
31.8124265
20
78.4447279
11
31.7820265
21
78.1418279
0
LINE
8
DEFAULT_255_2_778
10
31.8137265
20
77.1440279
11
31.7833265
21
77.4470279
0
ARC
8
DEFAULT_255_2_778
10
34.8142244
20
77.3242243
40
0.9855849
50
66.1919595
51
74.2467542
0
ARC
8
DEFAULT_255_2_778
10
34.9239027
20
77.7210447
40
0.5738962
50
74.0295082
51
86.802266
0
ARC
8
DEFAULT_255_2_778
10
34.9369879
20
77.8765318
40
0.4179443
50
87.4043034
51
89.981927
0
ARC
8
DEFAULT_255_2_778
10
34.9254545
20
78.0197557
40
0.274968
50
87.5685587
51
140.207171
0
ARC
8
DEFAULT_255_2_778
10
34.9426108
20
78.0780783
40
0.2569534
50
152.747894
51
168.078464
0
ARC
8
DEFAULT_255_2_778
10
34.8604974
20
78.0970116
40
0.172707
50
168.5968964
51
179.7901182
0
ARC
8
DEFAULT_255_2_778
10
34.8484549
20
78.1022297
40
0.1607287
50
181.6347917
51
238.7751529
0
ARC
8
DEFAULT_255_2_778
10
35.019766
20
78.3382109
40
0.4519793
50
235.7106749
51
251.6182565
0
ARC
8
DEFAULT_255_2_778
10
35.1477715
20
78.6772911
40
0.8142544
50
250.5946309
51
254.1643806
0
ARC
8
DEFAULT_255_2_778
10
34.6249036
20
76.9872773
40
0.9552178
50
59.7528268
51
71.6529712
0
ARC
8
DEFAULT_255_2_778
10
34.8531342
20
77.3702152
40
0.5094639
50
38.2086411
51
60.2320957
0
ARC
8
DEFAULT_255_2_778
10
34.9658881
20
77.4661264
40
0.3615859
50
359.1835443
51
37.3177312
0
ARC
8
DEFAULT_255_2_778
10
34.8184104
20
77.4640859
40
0.5090364
50
347.2470045
51
359.6497389
0
ARC
8
DEFAULT_255_2_778
10
34.6203451
20
77.5069845
40
0.7116878
50
339.6883546
51
347.3985395
0
ARC
8
DEFAULT_255_2_778
10
34.7168449
20
77.5640908
40
0.6468958
50
314.2664256
51
331.9545812
0
ARC
8
DEFAULT_255_2_778
10
34.8421185
20
77.4414182
40
0.471627
50
268.5836984
51
313.7703154
0
ARC
8
DEFAULT_255_2_778
10
34.8353431
20
77.7060782
40
0.7361592
50
257.7914229
51
269.6200583
0
ARC
8
DEFAULT_255_2_778
10
34.9061729
20
78.0439878
40
1.0814075
50
249.8813332
51
257.9095819
0
ARC
8
DEFAULT_255_2_778
10
35.0507625
20
78.4478146
40
1.5103307
50
245.0045996
51
250.0002796
0
ARC
8
DEFAULT_255_2_778
10
14.7284527
20
79.5171651
40
19.8345602
50
352.9388742
51
353.685485
0
ARC
8
DEFAULT_255_2_778
10
34.9142262
20
78.3050377
40
1.0780031
50
244.0602017
51
252.0724949
0
ARC
8
DEFAULT_255_2_778
10
34.7827748
20
77.8918934
40
0.6444593
50
251.8855896
51
264.2697362
0
ARC
8
DEFAULT_255_2_778
10
34.7603276
20
77.7080794
40
0.4593399
50
264.7664486
51
269.932796
0
ARC
8
DEFAULT_255_2_778
10
34.7694799
20
77.5628757
40
0.3142854
50
268.2329815
51
317.5225846
0
ARC
8
DEFAULT_255_2_778
10
34.813916
20
77.4548583
40
0.2143983
50
330.915313
51
348.7202662
0
ARC
8
DEFAULT_255_2_778
10
34.8768138
20
77.4404406
40
0.1499064
50
349.4221887
51
359.8621031
0
ARC
8
DEFAULT_255_2_778
10
34.8701152
20
77.4341795
40
0.1567156
50
2.1576987
51
55.1191213
0
ARC
8
DEFAULT_255_2_778
10
34.684966
20
77.2074637
40
0.4491325
50
52.2816519
51
68.2091726
0
ARC
8
DEFAULT_255_2_778
10
34.5074808
20
76.8027243
40
0.8909563
50
67.2730614
51
72.5416277
0
ARC
8
DEFAULT_255_2_778
10
34.9331214
20
78.3395682
40
0.7049426
50
239.1569534
51
257.0196265
0
ARC
8
DEFAULT_255_2_778
10
34.7550918
20
78.0506056
40
0.365603
50
183.2562225
51
239.8941811
0
ARC
8
DEFAULT_255_2_778
10
35.2620989
20
78.0509708
40
0.8722758
50
180.0076951
51
181.3881927
0
ARC
8
DEFAULT_255_2_778
10
34.9977665
20
78.0606091
40
0.6080218
50
162.8952378
51
180.9193277
0
ARC
8
DEFAULT_255_2_778
10
34.7763413
20
78.1257871
40
0.3772311
50
102.4487266
51
162.4653257
0
ARC
8
DEFAULT_255_2_778
10
34.8939764
20
77.7384773
40
0.7814234
50
90.8851501
51
104.7501022
0
ARC
8
DEFAULT_255_2_778
10
34.9120066
20
77.4074566
40
1.1127582
50
89.9885646
51
91.5501225
0
ARC
8
DEFAULT_255_2_778
10
34.9093364
20
77.1670049
40
1.3532131
50
85.1381713
51
89.8775388
0
ARC
8
DEFAULT_255_2_778
10
34.8734708
20
76.7313172
40
1.7903731
50
81.6716178
51
85.176233
0
ARC
8
DEFAULT_255_2_778
10
34.7993757
20
76.2220729
40
2.3049796
50
78.7215069
51
81.6827668
0
LINE
8
DEFAULT_255_2_778
10
35.2501791
20
78.4825389
11
35.2200791
21
78.2336389
0
ARC
8
DEFAULT_255_2_778
10
33.6127292
20
77.3242243
40
0.9855849
50
66.1919595
51
74.2467542
0
ARC
8
DEFAULT_255_2_778
10
33.7224075
20
77.7210447
40
0.5738962
50
74.0295082
51
86.802266
0
ARC
8
DEFAULT_255_2_778
10
33.7354927
20
77.8765318
40
0.4179443
50
87.4043034
51
89.981927
0
ARC
8
DEFAULT_255_2_778
10
33.7239593
20
78.0197557
40
0.274968
50
87.5685587
51
140.207171
0
ARC
8
DEFAULT_255_2_778
10
33.7411156
20
78.0780783
40
0.2569534
50
152.747894
51
168.078464
0
ARC
8
DEFAULT_255_2_778
10
33.6590022
20
78.0970116
40
0.172707
50
168.5968964
51
179.7901182
0
ARC
8
DEFAULT_255_2_778
10
33.6469597
20
78.1022297
40
0.1607287
50
181.6347917
51
238.7751529
0
ARC
8
DEFAULT_255_2_778
10
33.8182708
20
78.3382109
40
0.4519793
50
235.7106749
51
251.6182565
0
ARC
8
DEFAULT_255_2_778
10
33.9462763
20
78.6772911
40
0.8142544
50
250.5946309
51
254.1643806
0
ARC
8
DEFAULT_255_2_778
10
33.4234084
20
76.9872773
40
0.9552178
50
59.7528268
51
71.6529712
0
ARC
8
DEFAULT_255_2_778
10
33.651639
20
77.3702152
40
0.5094639
50
38.2086411
51
60.2320957
0
ARC
8
DEFAULT_255_2_778
10
33.7643929
20
77.4661264
40
0.3615859
50
359.1835443
51
37.3177312
0
ARC
8
DEFAULT_255_2_778
10
33.6169152
20
77.4640859
40
0.5090364
50
347.2470045
51
359.6497389
0
ARC
8
DEFAULT_255_2_778
10
33.4188499
20
77.5069845
40
0.7116878
50
339.6883546
51
347.3985395
0
ARC
8
DEFAULT_255_2_778
10
33.5154047
20
77.5640615
40
0.6468336
50
314.2644914
51
331.9545843
0
ARC
8
DEFAULT_255_2_778
10
33.640594
20
77.44148
40
0.471689
50
268.5827749
51
313.7673275
0
ARC
8
DEFAULT_255_2_778
10
33.6338108
20
77.7062839
40
0.7363649
50
257.7931376
51
269.6200608
0
ARC
8
DEFAULT_255_2_778
10
33.7046512
20
78.0442918
40
1.0817115
50
249.884176
51
257.9112723
0
ARC
8
DEFAULT_255_2_778
10
33.8492806
20
78.4482851
40
1.5108051
50
245.0082465
51
250.0030319
0
ARC
8
DEFAULT_255_2_778
10
14.6848596
20
79.3886094
40
18.6695436
50
352.8935445
51
353.6867819
0
ARC
8
DEFAULT_255_2_778
10
33.7127311
20
78.3050377
40
1.0780031
50
244.0602017
51
252.0724949
0
ARC
8
DEFAULT_255_2_778
10
33.5812796
20
77.8918934
40
0.6444593
50
251.8855896
51
264.2697362
0
ARC
8
DEFAULT_255_2_778
10
33.5588324
20
77.7080794
40
0.4593399
50
264.7664486
51
269.932796
0
ARC
8
DEFAULT_255_2_778
10
33.5679847
20
77.5628757
40
0.3142854
50
268.2329815
51
317.5225846
0
ARC
8
DEFAULT_255_2_778
10
33.6124607
20
77.4548345
40
0.2143518
50
330.915683
51
348.7205589
0
ARC
8
DEFAULT_255_2_778
10
33.6753516
20
77.4404201
40
0.1498675
50
349.4220916
51
359.8625769
0
ARC
8
DEFAULT_255_2_778
10
33.6686124
20
77.4341534
40
0.1567177
50
2.160177
51
55.1299902
0
ARC
8
DEFAULT_255_2_778
10
33.4833734
20
77.207266
40
0.4493237
50
52.289786
51
68.2153361
0
ARC
8
DEFAULT_255_2_778
10
33.3058346
20
76.802299
40
0.8913773
50
67.2788395
51
72.5467007
0
ARC
8
DEFAULT_255_2_778
10
33.7324608
20
78.3422324
40
0.7077488
50
239.3894436
51
256.9943419
0
ARC
8
DEFAULT_255_2_778
10
33.5537724
20
78.0505656
40
0.3657762
50
183.2483918
51
240.215147
0
ARC
8
DEFAULT_255_2_778
10
34.0606037
20
78.0509708
40
0.8722758
50
180.0076951
51
181.3881927
0
ARC
8
DEFAULT_255_2_778
10
33.7962713
20
78.0606091
40
0.6080218
50
162.8952378
51
180.9193277
0
ARC
8
DEFAULT_255_2_778
10
33.5748461
20
78.1257871
40
0.3772311
50
102.4487266
51
162.4653257
0
ARC
8
DEFAULT_255_2_778
10
33.6924812
20
77.7384773
40
0.7814234
50
90.8851501
51
104.7501022
0
ARC
8
DEFAULT_255_2_778
10
33.7105114
20
77.4074566
40
1.1127582
50
89.9885646
51
91.5501225
0
ARC
8
DEFAULT_255_2_778
10
33.7078412
20
77.1670049
40
1.3532131
50
85.1381713
51
89.8775388
0
ARC
8
DEFAULT_255_2_778
10
33.6719756
20
76.7313172
40
1.7903731
50
81.6716178
51
85.176233
0
ARC
8
DEFAULT_255_2_778
10
33.5978805
20
76.2220729
40
2.3049796
50
78.7215069
51
81.6827668
0
LINE
8
DEFAULT_255_2_778
10
34.0486839
20
78.4825389
11
34.0184839
21
78.2336389
0
ARC
8
DEFAULT_255_2_778
10
29.8145416
20
77.8404891
40
0.5449209
50
170.2644647
51
179.7330541
0
ARC
8
DEFAULT_255_2_778
10
29.9433603
20
77.8194319
40
0.675446
50
160.512567
51
170.3517814
0
ARC
8
DEFAULT_255_2_778
10
29.9815225
20
77.8070473
40
0.7155543
50
155.8878024
51
160.5971046
0
ARC
8
DEFAULT_255_2_778
10
29.9698627
20
77.8135989
40
0.7022362
50
135.7772379
51
155.987068
0
ARC
8
DEFAULT_255_2_778
10
29.9524918
20
77.8280034
40
0.6797435
50
116.0026953
51
135.6261414
0
ARC
8
DEFAULT_255_2_778
10
29.9914351
20
77.7444993
40
0.7718697
50
100.614078
51
115.8833305
0
ARC
8
DEFAULT_255_2_778
10
30.030197
20
77.5422448
40
0.9778036
50
89.761409
51
100.6635831
0
ARC
8
DEFAULT_255_2_778
10
30.0326612
20
77.3037925
40
1.2162483
50
84.5311053
51
89.9242678
0
ARC
8
DEFAULT_255_2_778
10
30.011413
20
77.0793571
40
1.4416871
50
79.8903529
51
84.5405795
0
ARC
8
DEFAULT_255_2_778
10
29.9673111
20
76.8288836
40
1.696013
50
76.2219744
51
79.9089046
0
ARC
8
DEFAULT_255_2_778
10
29.8993105
20
76.5513197
40
1.9817851
50
72.8246272
51
76.2237352
0
ARC
8
DEFAULT_255_2_778
10
30.0904564
20
77.5310254
40
0.7108697
50
59.2305539
51
83.4044816
0
ARC
8
DEFAULT_255_2_778
10
30.1001088
20
77.6034215
40
0.6378454
50
83.5188402
51
89.9491416
0
ARC
8
DEFAULT_255_2_778
10
30.0761987
20
77.8207012
40
0.4212771
50
86.6692309
51
149.8440201
0
ARC
8
DEFAULT_255_2_778
10
30.1456553
20
77.8013896
40
0.4913717
50
151.9659828
51
171.8767093
0
ARC
8
DEFAULT_255_2_778
10
30.3267074
20
77.7684215
40
0.6753025
50
171.2782042
51
177.3513563
0
ARC
8
DEFAULT_255_2_778
10
29.8317075
20
77.7623564
40
0.5671729
50
172.5468057
51
179.9580051
0
ARC
8
DEFAULT_255_2_778
10
29.855343
20
77.7616806
40
0.5908092
50
179.8941479
51
180.0096376
0
ARC
8
DEFAULT_255_2_778
10
29.9055649
20
77.7627796
40
0.6410325
50
180.1071133
51
190.6764559
0
ARC
8
DEFAULT_255_2_778
10
29.9423898
20
77.7687603
40
0.6783286
50
190.5966225
51
194.3421307
0
ARC
8
DEFAULT_255_2_778
10
29.9535669
20
77.7713922
40
0.6898094
50
194.3239533
51
221.2941616
0
ARC
8
DEFAULT_255_2_778
10
29.9498441
20
77.7708364
40
0.6866485
50
221.4643195
51
244.1961681
0
ARC
8
DEFAULT_255_2_778
10
29.998468
20
77.8739873
40
0.8006806
50
244.2766803
51
260.3415851
0
ARC
8
DEFAULT_255_2_778
10
30.03581
20
78.0800083
40
1.0100491
50
260.214082
51
270.1926814
0
ARC
8
DEFAULT_255_2_778
10
30.0377143
20
78.2986612
40
1.2286972
50
270.0695931
51
275.4166743
0
ARC
8
DEFAULT_255_2_778
10
30.0178512
20
78.5097411
40
1.4407094
50
275.4106624
51
280.1410939
0
ARC
8
DEFAULT_255_2_778
10
29.9742141
20
78.7552489
40
1.690065
50
280.1318769
51
284.2168816
0
ARC
8
DEFAULT_255_2_778
10
29.9116348
20
79.0053014
40
1.9478282
50
284.1948644
51
287.1446803
0
ARC
8
DEFAULT_255_2_778
10
30.0916617
20
78.0576407
40
0.7107551
50
276.608245
51
300.7838366
0
ARC
8
DEFAULT_255_2_778
10
30.1013348
20
77.9852355
40
0.637719
50
270.0512654
51
276.4935661
0
ARC
8
DEFAULT_255_2_778
10
30.0774337
20
77.7679036
40
0.4210987
50
210.1430227
51
273.3315587
0
ARC
8
DEFAULT_255_2_778
10
30.1469763
20
77.7872575
40
0.4912927
50
188.1109209
51
208.0217829
0
ARC
8
DEFAULT_255_2_778
10
30.328076
20
77.820192
40
0.6752642
50
182.6367022
51
188.7094395
0
LINE
8
DEFAULT_255_2_778
10
30.4845265
20
78.4447279
11
30.4541265
21
78.1418279
0
LINE
8
DEFAULT_255_2_778
10
30.4858265
20
77.1440279
11
30.4554265
21
77.4470279
0
ARC
8
DEFAULT_255_2_778
10
25.9110621
20
77.7702496
40
0.6534012
50
0.5849053
51
17.0018973
0
ARC
8
DEFAULT_255_2_778
10
26.2122425
20
77.864013
40
0.3379709
50
16.7307752
51
83.9523782
0
ARC
8
DEFAULT_255_2_778
10
26.1215962
20
77.4555397
40
0.7551916
50
80.3760809
51
90.4305035
0
ARC
8
DEFAULT_255_2_778
10
26.1171554
20
77.0997211
40
1.1109897
50
90.0636091
51
93.314004
0
ARC
8
DEFAULT_255_2_778
10
26.126714
20
76.9132328
40
1.2977193
50
93.25935
51
94.2284286
0
ARC
8
DEFAULT_255_2_778
10
26.1334405
20
78.3642818
40
1.0364342
50
264.3292808
51
267.3753044
0
ARC
8
DEFAULT_255_2_778
10
26.1266508
20
78.2213895
40
0.8933809
50
267.3906375
51
269.972011
0
ARC
8
DEFAULT_255_2_778
10
26.13515
20
77.9377904
40
0.6098472
50
269.1604554
51
285.8500245
0
ARC
8
DEFAULT_255_2_778
10
26.2095483
20
77.6860872
40
0.3474055
50
285.3842112
51
319.7769516
0
ARC
8
DEFAULT_255_2_778
10
26.1063917
20
77.7350654
40
0.4587291
50
323.4288157
51
2.9067574
0
ARC
8
DEFAULT_255_2_778
10
25.7924951
20
77.7583074
40
0.7720355
50
0.0015198
51
0.9286347
0
LINE
8
DEFAULT_255_2_778
10
26.1416292
20
77.0443198
11
26.1425278
21
77.04432
0
ARC
8
DEFAULT_255_2_778
10
26.1847119
20
77.9876067
40
0.9442295
50
267.4394164
51
298.8030321
0
ARC
8
DEFAULT_255_2_778
10
26.3519631
20
77.6257858
40
0.5472959
50
301.7110944
51
337.2546083
0
ARC
8
DEFAULT_255_2_778
10
26.1219368
20
77.7223154
40
0.7967555
50
337.248425
51
354.1081917
0
ARC
8
DEFAULT_255_2_778
10
25.7334309
20
77.773395
40
1.1885026
50
353.5812882
51
0.1554614
0
ARC
8
DEFAULT_255_2_778
10
25.6059937
20
77.7915594
40
1.3160203
50
359.3495571
51
359.9978742
0
ARC
8
DEFAULT_255_2_778
10
25.925703
20
77.8012959
40
0.996359
50
359.4372862
51
12.8775045
0
ARC
8
DEFAULT_255_2_778
10
26.2972581
20
77.8890454
40
0.6145987
50
12.6225348
51
35.5003504
0
ARC
8
DEFAULT_255_2_778
10
26.2908574
20
77.8363938
40
0.6515619
50
38.9448863
51
87.6892851
0
ARC
8
DEFAULT_255_2_778
10
26.1804047
20
77.1685846
40
1.3259094
50
84.0813531
51
90.1373721
0
ARC
8
DEFAULT_255_2_778
10
26.1773675
20
76.9255889
40
1.5689014
50
90.0051785
51
91.0641825
0
LINE
8
DEFAULT_255_2_778
10
26.0310292
20
78.2074198
11
26.0310292
21
77.3329198
0
LINE
8
DEFAULT_255_2_778
10
26.1482292
20
78.4942198
11
25.6868292
21
78.4942198
0
LINE
8
DEFAULT_255_2_778
10
25.6868292
20
78.4942198
11
25.6868292
21
77.0443198
0
LINE
8
DEFAULT_255_2_778
10
25.6868292
20
77.0443198
11
26.1416292
21
77.0443198
0
LINE
8
DEFAULT_255_2_778
10
28.2263292
20
78.4947198
11
28.5604292
21
78.4947198
0
LINE
8
DEFAULT_255_2_778
10
28.5604292
20
78.4947198
11
29.1401292
21
77.0181198
0
LINE
8
DEFAULT_255_2_778
10
29.1401292
20
77.0181198
11
28.8121292
21
77.0181198
0
LINE
8
DEFAULT_255_2_778
10
28.8121292
20
77.0181198
11
28.6851292
21
77.3565198
0
LINE
8
DEFAULT_255_2_778
10
28.6851292
20
77.3565198
11
28.0866292
21
77.3565198
0
LINE
8
DEFAULT_255_2_778
10
28.0866292
20
77.3565198
11
27.9575292
21
77.0181198
0
LINE
8
DEFAULT_255_2_778
10
27.9575292
20
77.0181198
11
27.6508292
21
77.0181198
0
LINE
8
DEFAULT_255_2_778
10
27.6508292
20
77.0181198
11
28.2263292
21
78.4947198
0
LINE
8
DEFAULT_255_2_778
10
28.3893292
20
78.1986198
11
28.3848292
21
78.1986198
0
LINE
8
DEFAULT_255_2_778
10
28.3848292
20
78.1986198
11
28.1712292
21
77.5893198
0
LINE
8
DEFAULT_255_2_778
10
28.1712292
20
77.5893198
11
28.6030292
21
77.5893198
0
LINE
8
DEFAULT_255_2_778
10
28.6030292
20
77.5893198
11
28.3893292
21
78.1986198
0
ARC
8
DEFAULT_255_2_778
10
21.0887021
20
48.1492904
40
0.9776094
50
0.003975
51
2.7725924
0
ARC
8
DEFAULT_255_2_778
10
21.0641741
20
48.1476715
40
1.0021871
50
2.7972109
51
22.8945259
0
ARC
8
DEFAULT_255_2_778
10
21.0632689
20
48.144872
40
1.0041125
50
23.0215892
51
45.0542162
0
ARC
8
DEFAULT_255_2_778
10
21.0609762
20
48.1452413
40
1.0054725
50
44.9468772
51
66.9525795
0
ARC
8
DEFAULT_255_2_778
10
21.0647592
20
48.1454953
40
1.0037636
50
67.1456093
51
89.9342273
0
ARC
8
DEFAULT_255_2_778
10
21.0658478
20
48.1610246
40
0.7882337
50
86.9140685
51
89.9953692
0
ARC
8
DEFAULT_255_2_778
10
21.0649773
20
48.1453222
40
0.80396
50
67.162328
51
86.9123615
0
ARC
8
DEFAULT_255_2_778
10
21.0609892
20
48.1420411
40
0.8085353
50
45.1099823
51
66.9921181
0
ARC
8
DEFAULT_255_2_778
10
21.0631862
20
48.1459504
40
0.8042161
50
23.0290757
51
45.0243123
0
ARC
8
DEFAULT_255_2_778
10
21.0606988
20
48.148244
40
0.8056139
50
0.1005836
51
22.8097446
0
ARC
8
DEFAULT_255_2_778
10
21.0592191
20
45.5515709
40
0.8070937
50
337.2114556
51
359.8997189
0
ARC
8
DEFAULT_255_2_778
10
21.0618541
20
45.5540181
40
0.8056189
50
315.009934
51
336.978405
0
ARC
8
DEFAULT_255_2_778
10
21.062826
20
45.5532513
40
0.8043895
50
292.9911394
51
314.9996205
0
ARC
8
DEFAULT_255_2_778
10
21.0652413
20
45.5526888
40
0.8029308
50
270.0478282
51
292.8481605
0
ARC
8
DEFAULT_255_2_778
10
21.0651283
20
45.5516997
40
1.0019417
50
270.0447884
51
292.8754004
0
ARC
8
DEFAULT_255_2_778
10
21.0620355
20
45.5538606
40
1.0051369
50
292.9899486
51
337.0208041
0
ARC
8
DEFAULT_255_2_778
10
21.0624446
20
45.5515697
40
1.0038678
50
337.1320672
51
359.9194449
0
LINE
8
DEFAULT_255_2_778
10
21.0659115
20
49.1492583
11
18.0417115
21
49.1492583
0
LINE
8
DEFAULT_255_2_778
10
18.0417115
20
49.1492583
11
18.0417115
21
48.9492583
0
LINE
8
DEFAULT_255_2_778
10
18.0417115
20
48.9492583
11
21.0659115
21
48.9492583
0
LINE
8
DEFAULT_255_2_778
10
21.8663115
20
48.1496583
11
21.8663115
21
45.5501583
0
LINE
8
DEFAULT_255_2_778
10
21.0659115
20
44.7497583
11
18.0417115
21
44.7497583
0
LINE
8
DEFAULT_255_2_778
10
18.0417115
20
44.7497583
11
18.0417115
21
44.5497583
0
LINE
8
DEFAULT_255_2_778
10
18.0417115
20
44.5497583
11
21.0659115
21
44.5497583
0
LINE
8
DEFAULT_255_2_778
10
22.0663115
20
45.5501583
11
22.0663115
21
48.1496583
0
ARC
8
DEFAULT_255_2_778
10
21.0887021
20
36.7514904
40
0.9776094
50
0.003975
51
2.7725924
0
ARC
8
DEFAULT_255_2_778
10
21.0641741
20
36.7498715
40
1.0021871
50
2.7972109
51
22.8945259
0
ARC
8
DEFAULT_255_2_778
10
21.0632689
20
36.747072
40
1.0041125
50
23.0215892
51
45.0542162
0
ARC
8
DEFAULT_255_2_778
10
21.0609762
20
36.7474413
40
1.0054725
50
44.9468772
51
66.9525795
0
ARC
8
DEFAULT_255_2_778
10
21.0647592
20
36.7476953
40
1.0037636
50
67.1456093
51
89.9342273
0
ARC
8
DEFAULT_255_2_778
10
21.0658478
20
36.7632246
40
0.7882337
50
86.9140685
51
89.9953692
0
ARC
8
DEFAULT_255_2_778
10
21.0649773
20
36.7475222
40
0.80396
50
67.162328
51
86.9123615
0
ARC
8
DEFAULT_255_2_778
10
21.0609892
20
36.7442411
40
0.8085353
50
45.1099823
51
66.9921181
0
ARC
8
DEFAULT_255_2_778
10
21.0622367
20
36.7475091
40
0.8053408
50
23.0446333
51
45.0087699
0
ARC
8
DEFAULT_255_2_778
10
21.0606988
20
36.750444
40
0.8056139
50
0.1005836
51
22.8097446
0
ARC
8
DEFAULT_255_2_778
10
21.0592191
20
34.1537709
40
0.8070937
50
337.2114556
51
359.8997189
0
ARC
8
DEFAULT_255_2_778
10
21.0618541
20
34.1562181
40
0.8056189
50
315.009934
51
336.978405
0
ARC
8
DEFAULT_255_2_778
10
21.062826
20
34.1554513
40
0.8043895
50
292.9911394
51
314.9996205
0
ARC
8
DEFAULT_255_2_778
10
21.0652413
20
34.1548888
40
0.8029308
50
270.0478282
51
292.8481605
0
ARC
8
DEFAULT_255_2_778
10
21.0651283
20
34.1538997
40
1.0019417
50
270.0447884
51
292.8754004
0
ARC
8
DEFAULT_255_2_778
10
21.0620355
20
34.1560606
40
1.0051369
50
292.9899486
51
337.0208041
0
ARC
8
DEFAULT_255_2_778
10
21.0624446
20
34.1537697
40
1.0038678
50
337.1320672
51
359.9194449
0
LINE
8
DEFAULT_255_2_778
10
21.0659115
20
37.7514583
11
18.0417115
21
37.7514583
0
LINE
8
DEFAULT_255_2_778
10
18.0417115
20
37.7514583
11
18.0417115
21
37.5514583
0
LINE
8
DEFAULT_255_2_778
10
18.0417115
20
37.5514583
11
21.0659115
21
37.5514583
0
LINE
8
DEFAULT_255_2_778
10
21.8663115
20
36.7518583
11
21.8663115
21
34.1523583
0
LINE
8
DEFAULT_255_2_778
10
21.0659115
20
33.3519583
11
18.0417115
21
33.3519583
0
LINE
8
DEFAULT_255_2_778
10
18.0417115
20
33.3519583
11
18.0417115
21
33.1519583
0
LINE
8
DEFAULT_255_2_778
10
18.0417115
20
33.1519583
11
21.0659115
21
33.1519583
0
LINE
8
DEFAULT_255_2_778
10
22.0663115
20
34.1523583
11
22.0663115
21
36.7518583
0
ARC
8
DEFAULT_255_2_778
10
21.0887021
20
28.651083
40
0.9776094
50
0.003975
51
2.7725924
0
ARC
8
DEFAULT_255_2_778
10
21.0641741
20
28.649464
40
1.0021871
50
2.7972109
51
22.8945259
0
ARC
8
DEFAULT_255_2_778
10
21.0617786
20
28.6466913
40
1.0054739
50
22.9869715
51
67.002295
0
ARC
8
DEFAULT_255_2_778
10
21.0647595
20
28.64729
40
1.0037615
50
67.1455726
51
89.9342396
0
ARC
8
DEFAULT_255_2_778
10
21.0658478
20
28.6628171
40
0.7882337
50
86.9140685
51
89.9953692
0
ARC
8
DEFAULT_255_2_778
10
21.0649773
20
28.6471148
40
0.80396
50
67.162328
51
86.9123615
0
ARC
8
DEFAULT_255_2_778
10
21.0609892
20
28.6438336
40
0.8085353
50
45.1099823
51
66.9921181
0
ARC
8
DEFAULT_255_2_778
10
21.0622367
20
28.6471017
40
0.8053408
50
23.0446333
51
45.0087699
0
ARC
8
DEFAULT_255_2_778
10
21.0606988
20
28.6500366
40
0.8056139
50
0.1005836
51
22.8097446
0
ARC
8
DEFAULT_255_2_778
10
21.0776028
20
26.0520052
40
0.7887087
50
357.2504337
51
359.9960491
0
ARC
8
DEFAULT_255_2_778
10
21.0617429
20
26.0529169
40
0.8045941
50
337.1711564
51
357.2397621
0
ARC
8
DEFAULT_255_2_778
10
21.0623071
20
26.0555048
40
0.8050824
50
315.0025407
51
336.9858354
0
ARC
8
DEFAULT_255_2_778
10
21.0656471
20
26.0508608
40
0.7994374
50
292.9221126
51
315.0686433
0
ARC
8
DEFAULT_255_2_778
10
21.0652413
20
26.0544813
40
0.8029308
50
270.0478282
51
292.8481605
0
ARC
8
DEFAULT_255_2_778
10
21.0645011
20
26.0556135
40
1.0038637
50
270.0805
51
292.8679737
0
ARC
8
DEFAULT_255_2_778
10
21.0620355
20
26.0559531
40
1.0051369
50
292.9899486
51
337.0208041
0
ARC
8
DEFAULT_255_2_778
10
21.0629378
20
26.0535626
40
1.0033747
50
337.1263674
51
359.919385
0
ARC
8
DEFAULT_255_2_778
10
21.0891367
20
17.2533733
40
0.9771748
50
0.0045433
51
3.0693553
0
ARC
8
DEFAULT_255_2_778
10
21.0637163
20
17.2516568
40
1.0026506
50
3.089521
51
22.8899898
0
ARC
8
DEFAULT_255_2_778
10
21.0619686
20
17.2490079
40
1.0052925
50
22.9903312
51
67.009668
0
ARC
8
DEFAULT_255_2_778
10
21.0645011
20
17.2494886
40
1.0038632
50
67.1320182
51
89.9195028
0
ARC
8
DEFAULT_255_2_778
10
21.0636682
20
17.2490374
40
0.8045166
50
45.0941793
51
89.8402398
0
ARC
8
DEFAULT_255_2_778
10
21.0641168
20
17.250447
40
0.8032018
50
23.0285169
51
45.0458558
0
ARC
8
DEFAULT_255_2_778
10
21.0592191
20
17.2520382
40
0.8070937
50
0.1002811
51
22.7885444
0
ARC
8
DEFAULT_255_2_778
10
21.0781261
20
14.6540122
40
0.7881854
50
356.8232163
51
359.9955395
0
ARC
8
DEFAULT_255_2_778
10
21.0592743
20
14.6552517
40
0.807077
50
337.2041622
51
356.8095232
0
ARC
8
DEFAULT_255_2_778
10
21.0609222
20
14.6580152
40
0.8066348
50
315.031391
51
336.9778492
0
ARC
8
DEFAULT_255_2_778
10
21.0637699
20
14.6553449
40
0.8027329
50
292.9681169
51
315.0225828
0
ARC
8
DEFAULT_255_2_778
10
21.0651281
20
14.6580171
40
0.8046667
50
270.0557791
51
292.8048254
0
ARC
8
DEFAULT_255_2_778
10
21.064758
20
14.6573165
40
1.0037663
50
270.065845
51
292.8543987
0
ARC
8
DEFAULT_255_2_778
10
21.061779
20
14.6579097
40
1.0054733
50
292.9976966
51
337.0130524
0
ARC
8
DEFAULT_255_2_778
10
21.0624466
20
14.6553619
40
1.0038659
50
337.1320392
51
359.9194619
0
LINE
8
DEFAULT_255_2_778
10
21.0659115
20
29.6510508
11
18.0417115
21
29.6510508
0
LINE
8
DEFAULT_255_2_778
10
18.0417115
20
29.6510508
11
18.0417115
21
29.4510508
0
LINE
8
DEFAULT_255_2_778
10
18.0417115
20
29.4510508
11
21.0659115
21
29.4510508
0
LINE
8
DEFAULT_255_2_778
10
21.8663115
20
28.6514508
11
21.8663115
21
26.0519508
0
LINE
8
DEFAULT_255_2_778
10
21.0659115
20
25.2515508
11
18.0417115
21
25.2515508
0
LINE
8
DEFAULT_255_2_778
10
18.0417115
20
25.2515508
11
18.0417115
21
25.0517508
0
LINE
8
DEFAULT_255_2_778
10
18.0417115
20
25.0517508
11
21.0659115
21
25.0517508
0
LINE
8
DEFAULT_255_2_778
10
22.0663115
20
26.0521508
11
22.0663115
21
28.6517508
0
LINE
8
DEFAULT_255_2_778
10
21.0659115
20
18.2533508
11
18.0417115
21
18.2533508
0
LINE
8
DEFAULT_255_2_778
10
18.0417115
20
18.2533508
11
18.0417115
21
18.0535508
0
LINE
8
DEFAULT_255_2_778
10
18.0417115
20
18.0535508
11
21.0659115
21
18.0535508
0
LINE
8
DEFAULT_255_2_778
10
21.8663115
20
17.2534508
11
21.8663115
21
14.6539508
0
LINE
8
DEFAULT_255_2_778
10
21.0659115
20
13.8533508
11
18.0417115
21
13.8533508
0
LINE
8
DEFAULT_255_2_778
10
18.0417115
20
13.8533508
11
18.0417115
21
13.6535508
0
LINE
8
DEFAULT_255_2_778
10
18.0417115
20
13.6535508
11
21.0659115
21
13.6535508
0
LINE
8
DEFAULT_255_2_778
10
22.0663115
20
14.6539508
11
22.0663115
21
17.2534508
0
ARC
8
DEFAULT_255_2_778
10
18.3188633
20
46.7701698
40
0.5327908
50
61.3279371
51
72.7349261
0
ARC
8
DEFAULT_255_2_778
10
18.3939349
20
47.0136509
40
0.2780004
50
72.6165482
51
89.1612001
0
ARC
8
DEFAULT_255_2_778
10
18.3947406
20
47.127093
40
0.164561
50
88.8634672
51
148.1916071
0
ARC
8
DEFAULT_255_2_778
10
18.4575426
20
47.1279808
40
0.2200829
50
157.0407646
51
174.2110701
0
ARC
8
DEFAULT_255_2_778
10
18.3959699
20
47.1364873
40
0.1579822
50
175.0280673
51
179.958169
0
ARC
8
DEFAULT_255_2_778
10
18.3850346
20
47.1402678
40
0.1470925
50
181.427815
51
243.7905627
0
ARC
8
DEFAULT_255_2_778
10
18.5117927
20
47.3330058
40
0.3770838
50
239.4404519
51
251.2517657
0
ARC
8
DEFAULT_255_2_778
10
18.1995945
20
46.4965399
40
0.5160384
50
48.3170936
51
68.2765724
0
ARC
8
DEFAULT_255_2_778
10
18.3265938
20
46.6430273
40
0.322191
50
358.5681909
51
47.8605091
0
ARC
8
DEFAULT_255_2_778
10
18.1520742
20
46.6378676
40
0.4966186
50
348.502509
51
359.6664609
0
ARC
8
DEFAULT_255_2_778
10
17.9792928
20
46.6703668
40
0.6724156
50
343.2545173
51
348.723422
0
ARC
8
DEFAULT_255_2_778
10
18.1508201
20
46.6794817
40
0.5140875
50
320.3297472
51
336.7598422
0
ARC
8
DEFAULT_255_2_778
10
18.3318283
20
46.5232091
40
0.2750414
50
269.5226
51
321.3167946
0
ARC
8
DEFAULT_255_2_778
10
18.3345272
20
46.6538636
40
0.405717
50
252.5923353
51
269.2952023
0
ARC
8
DEFAULT_255_2_778
10
18.4141772
20
46.918344
40
0.6819202
50
242.7172743
51
252.8546594
0
ARC
8
DEFAULT_255_2_778
10
18.5339554
20
47.1639952
40
0.9551679
50
240.3334753
51
243.0860927
0
ARC
8
DEFAULT_255_2_778
10
3.997658
20
47.7784162
40
14.1375139
50
354.1360347
51
354.9592319
0
ARC
8
DEFAULT_255_2_778
10
18.3892317
20
47.0496492
40
0.5990979
50
238.9799833
51
249.882568
0
ARC
8
DEFAULT_255_2_778
10
18.2899769
20
46.7718005
40
0.3040718
50
249.4368149
51
268.8904279
0
ARC
8
DEFAULT_255_2_778
10
18.2860488
20
46.653509
40
0.1857336
50
269.3953469
51
325.4331955
0
ARC
8
DEFAULT_255_2_778
10
18.2739026
20
46.6240599
40
0.1817156
50
335.3010149
51
355.9689779
0
ARC
8
DEFAULT_255_2_778
10
18.3179646
20
46.6186187
40
0.1374
50
356.9408096
51
359.9871961
0
ARC
8
DEFAULT_255_2_778
10
18.3096216
20
46.6132742
40
0.1458398
50
2.0880806
51
58.5187509
0
ARC
8
DEFAULT_255_2_778
10
18.1509124
20
46.4019388
40
0.4097125
50
55.0225144
51
69.5899587
0
ARC
8
DEFAULT_255_2_778
10
18.3865756
20
47.1348612
40
0.3610561
50
220.9319126
51
255.1094938
0
ARC
8
DEFAULT_255_2_778
10
18.3634997
20
47.0935698
40
0.3169778
50
181.8874248
51
218.0246904
0
ARC
8
DEFAULT_255_2_778
10
18.8890395
20
47.0999544
40
0.8425135
50
180.0063935
51
181.1442365
0
ARC
8
DEFAULT_255_2_778
10
18.6069248
20
47.1094355
40
0.5604805
50
164.252905
51
180.9788748
0
ARC
8
DEFAULT_255_2_778
10
18.3306954
20
47.1931527
40
0.2719559
50
95.5578533
51
165.4346741
0
ARC
8
DEFAULT_255_2_778
10
18.3795057
20
46.9624426
40
0.5069881
50
89.7423525
51
98.5242049
0
ARC
8
DEFAULT_255_2_778
10
18.3789417
20
46.7363545
40
0.7330766
50
82.8569856
51
89.7777349
0
ARC
8
DEFAULT_255_2_778
10
18.3400253
20
46.4183612
40
1.0534415
50
77.6676411
51
82.9074032
0
ARC
8
DEFAULT_255_2_778
10
18.2848763
20
46.1516964
40
1.3257354
50
76.3029805
51
77.8006821
0
LINE
8
DEFAULT_255_2_778
10
18.598794
20
47.4397299
11
18.579494
21
47.2437299
0
LINE
8
DEFAULT_255_2_778
10
20.0054615
20
46.4504667
11
20.0054615
21
46.2636667
0
LINE
8
DEFAULT_255_2_778
10
20.0054615
20
46.2636667
11
19.4733615
21
46.2636667
0
LINE
8
DEFAULT_255_2_778
10
19.4733615
20
46.2636667
11
19.4733615
21
47.4489667
0
LINE
8
DEFAULT_255_2_778
10
19.4733615
20
47.4489667
11
20.0027615
21
47.4489667
0
LINE
8
DEFAULT_255_2_778
10
20.0027615
20
47.4489667
11
20.0027615
21
47.2618667
0
LINE
8
DEFAULT_255_2_778
10
20.0027615
20
47.2618667
11
19.6532615
21
47.2618667
0
LINE
8
DEFAULT_255_2_778
10
19.6532615
20
47.2618667
11
19.6532615
21
46.9700667
0
LINE
8
DEFAULT_255_2_778
10
19.6532615
20
46.9700667
11
19.9734615
21
46.9700667
0
LINE
8
DEFAULT_255_2_778
10
19.9734615
20
46.9700667
11
19.9734615
21
46.7829667
0
LINE
8
DEFAULT_255_2_778
10
19.9734615
20
46.7829667
11
19.6532615
21
46.7829667
0
LINE
8
DEFAULT_255_2_778
10
19.6532615
20
46.7829667
11
19.6532615
21
46.4501667
0
LINE
8
DEFAULT_255_2_778
10
19.6532615
20
46.4501667
11
20.0054615
21
46.4501667
0
LINE
8
DEFAULT_255_2_778
10
20.7039292
20
46.4504667
11
20.7039292
21
46.2636667
0
LINE
8
DEFAULT_255_2_778
10
20.7039292
20
46.2636667
11
20.1718292
21
46.2636667
0
LINE
8
DEFAULT_255_2_778
10
20.1718292
20
46.2636667
11
20.1718292
21
47.4489667
0
LINE
8
DEFAULT_255_2_778
10
20.1718292
20
47.4489667
11
20.7015292
21
47.4489667
0
LINE
8
DEFAULT_255_2_778
10
20.7015292
20
47.4489667
11
20.7015292
21
47.2618667
0
LINE
8
DEFAULT_255_2_778
10
20.7015292
20
47.2618667
11
20.3520292
21
47.2618667
0
LINE
8
DEFAULT_255_2_778
10
20.3520292
20
47.2618667
11
20.3520292
21
46.9700667
0
LINE
8
DEFAULT_255_2_778
10
20.3520292
20
46.9700667
11
20.6721292
21
46.9700667
0
LINE
8
DEFAULT_255_2_778
10
20.6721292
20
46.9700667
11
20.6721292
21
46.7829667
0
LINE
8
DEFAULT_255_2_778
10
20.6721292
20
46.7829667
11
20.3520292
21
46.7829667
0
LINE
8
DEFAULT_255_2_778
10
20.3520292
20
46.7829667
11
20.3520292
21
46.4501667
0
LINE
8
DEFAULT_255_2_778
10
20.3520292
20
46.4501667
11
20.7041292
21
46.4501667
0
ARC
8
DEFAULT_255_2_778
10
19.0288048
20
47.0737674
40
0.1550356
50
353.3531585
51
86.0417174
0
ARC
8
DEFAULT_255_2_778
10
18.9871586
20
46.878552
40
0.3537756
50
81.4906733
51
90.3174857
0
LINE
8
DEFAULT_255_2_778
10
18.9851982
20
47.2323221
11
18.9851982
21
46.8989221
0
ARC
8
DEFAULT_255_2_778
10
18.9973553
20
47.1681457
40
0.2694979
50
267.4145067
51
295.3353089
0
ARC
8
DEFAULT_255_2_778
10
19.0469017
20
47.0440658
40
0.1364042
50
298.8300111
51
4.9443068
0
ARC
8
DEFAULT_255_2_778
10
19.0520559
20
47.4012221
40
0.7405242
50
264.8200415
51
269.0646901
0
ARC
8
DEFAULT_255_2_778
10
19.0497413
20
47.3114203
40
0.6506972
50
269.139396
51
269.9959272
0
ARC
8
DEFAULT_255_2_778
10
19.0612739
20
47.0827719
40
0.4222074
50
268.4284854
51
293.48215
0
ARC
8
DEFAULT_255_2_778
10
19.1000837
20
46.9626157
40
0.296792
50
295.8539069
51
348.8268845
0
ARC
8
DEFAULT_255_2_778
10
18.7559363
20
47.0576227
40
0.6533649
50
346.5006657
51
0.7566114
0
ARC
8
DEFAULT_255_2_778
10
18.4447412
20
47.0659862
40
0.9645032
50
0.0156903
51
1.7429518
0
ARC
8
DEFAULT_255_2_778
10
18.9829218
20
47.1075492
40
0.4260519
50
358.3554743
51
23.4583492
0
ARC
8
DEFAULT_255_2_778
10
19.1138954
20
47.1508486
40
0.2889334
50
25.9215193
51
81.1448796
0
ARC
8
DEFAULT_255_2_778
10
19.0325142
20
46.8284853
40
0.6207459
50
78.3019589
51
90.5561519
0
ARC
8
DEFAULT_255_2_778
10
19.027042
20
46.5553685
40
0.8938336
50
90.0354503
51
92.683213
0
LINE
8
DEFAULT_255_2_778
10
18.9851982
20
47.4482221
11
18.7591982
21
47.4482221
0
LINE
8
DEFAULT_255_2_778
10
19.1827982
20
47.0558221
11
19.1827982
21
47.0558221
0
LINE
8
DEFAULT_255_2_778
10
18.7591982
20
47.4482221
11
18.7591982
21
46.2714221
0
LINE
8
DEFAULT_255_2_778
10
18.7591982
20
46.2714221
11
18.9851982
21
46.2714221
0
LINE
8
DEFAULT_255_2_778
10
18.9851982
20
46.2714221
11
18.9851982
21
46.6637221
0
LINE
8
DEFAULT_255_2_778
10
18.7591982
20
47.4482221
11
18.7591982
21
47.4482221
0
LINE
8
DEFAULT_255_2_778
10
20.8705989
20
46.26815
11
21.1356989
21
46.26815
0
ARC
8
DEFAULT_255_2_778
10
21.1499449
20
46.6533712
40
0.3854845
50
267.8820962
51
303.5245239
0
ARC
8
DEFAULT_255_2_778
10
21.1341902
20
46.6392805
40
0.3830106
50
306.654985
51
342.7686243
0
ARC
8
DEFAULT_255_2_778
10
20.7208075
20
46.7859327
40
0.8214709
50
341.5400533
51
356.0598813
0
ARC
8
DEFAULT_255_2_778
10
20.2711907
20
46.8343445
40
1.2734704
50
355.2768894
51
357.77259
0
ARC
8
DEFAULT_255_2_778
10
19.8060623
20
46.8896912
40
1.7407965
50
356.5472146
51
358.8357858
0
ARC
8
DEFAULT_255_2_778
10
20.0115063
20
46.8848332
40
1.5352965
50
358.8612662
51
359.9924877
0
ARC
8
DEFAULT_255_2_778
10
20.4872974
20
46.8961811
40
1.0595682
50
359.3754717
51
11.245742
0
ARC
8
DEFAULT_255_2_778
10
21.014552
20
47.0066938
40
0.5209148
50
10.6334137
51
33.5494851
0
ARC
8
DEFAULT_255_2_778
10
21.1528231
20
47.0847776
40
0.3627021
50
35.3412682
51
88.21857
0
ARC
8
DEFAULT_255_2_778
10
21.1156014
20
46.8438713
40
0.6053787
50
85.4051023
51
90.0286289
0
LINE
8
DEFAULT_255_2_778
10
21.1152989
20
47.44925
11
20.8705989
21
47.44925
0
LINE
8
DEFAULT_255_2_778
10
20.8705989
20
47.44925
11
20.8705989
21
46.26845
0
ARC
8
DEFAULT_255_2_778
10
20.6845443
20
46.8859796
40
0.6962132
50
359.256879
51
13.8130611
0
ARC
8
DEFAULT_255_2_778
10
21.0778265
20
46.9900038
40
0.289556
50
12.4044823
51
48.3451
0
ARC
8
DEFAULT_255_2_778
10
21.1065424
20
46.9954902
40
0.2669657
50
52.1700639
51
92.6354676
0
ARC
8
DEFAULT_255_2_778
10
21.0954802
20
46.779006
40
0.4831689
50
90.1438647
51
96.3937956
0
ARC
8
DEFAULT_255_2_778
10
21.1029011
20
46.7006716
40
0.561844
50
96.256258
51
97.0647937
0
LINE
8
DEFAULT_255_2_778
10
21.0337989
20
47.25825
11
21.0337989
21
46.44015
0
ARC
8
DEFAULT_255_2_778
10
21.0707832
20
46.9761418
40
0.5372663
50
266.0527614
51
269.942928
0
ARC
8
DEFAULT_255_2_778
10
21.0824879
20
46.7534672
40
0.3148294
50
267.7718894
51
301.6179537
0
ARC
8
DEFAULT_255_2_778
10
21.0839416
20
46.7170687
40
0.2836337
50
305.2249669
51
347.0453324
0
ARC
8
DEFAULT_255_2_778
10
20.7166993
20
46.820694
40
0.6650215
50
345.4374934
51
0.8657909
0
ARC
8
DEFAULT_255_2_778
10
20.3082732
20
46.8324814
40
1.0733732
50
359.9071928
51
359.9929148
0
ARC
8
DEFAULT_255_2_778
10
20.3019522
20
46.8317299
40
1.0796942
50
0.0328328
51
2.4003799
0
LINE
8
DEFAULT_255_2_778
10
20.8705989
20
46.26845
11
20.8705989
21
46.26815
0
LINE
8
DEFAULT_255_2_778
10
21.3806989
20
46.87695
11
21.3806989
21
46.87695
0
LINE
8
DEFAULT_255_2_778
10
20.3453886
20
42.0504385
11
20.3453886
21
40.2737385
0
LINE
8
DEFAULT_255_2_778
10
20.3453886
20
40.2737385
11
19.9709886
21
40.2737385
0
LINE
8
DEFAULT_255_2_778
10
19.9709886
20
40.2737385
11
19.9709886
21
41.6459385
0
LINE
8
DEFAULT_255_2_778
10
19.9709886
20
41.6459385
11
19.6550886
21
41.4016385
0
LINE
8
DEFAULT_255_2_778
10
19.6550886
20
41.4016385
11
19.4677886
21
41.6332385
0
LINE
8
DEFAULT_255_2_778
10
19.4677886
20
41.6332385
11
20.0135886
21
42.0504385
0
LINE
8
DEFAULT_255_2_778
10
20.0135886
20
42.0504385
11
20.3451886
21
42.0504385
0
ARC
8
DEFAULT_255_2_778
10
18.628655
20
41.4706225
40
0.2330608
50
356.7197023
51
77.4745332
0
ARC
8
DEFAULT_255_2_778
10
18.5009218
20
41.078288
40
0.6449768
50
73.953952
51
89.8988697
0
ARC
8
DEFAULT_255_2_778
10
18.4804813
20
40.6793696
40
1.0441172
50
88.8157761
51
90.0080867
0
LINE
8
DEFAULT_255_2_778
10
18.480334
20
41.7234866
11
18.480334
21
41.2204866
0
ARC
8
DEFAULT_255_2_778
10
18.4925533
20
42.0189006
40
0.7985075
50
269.1231841
51
282.119919
0
ARC
8
DEFAULT_255_2_778
10
18.6045362
20
41.5323237
40
0.299354
50
280.7176227
51
311.485079
0
ARC
8
DEFAULT_255_2_778
10
18.6636905
20
41.4486941
40
0.1978302
50
314.6969639
51
2.4893566
0
ARC
8
DEFAULT_255_2_778
10
18.6124056
20
42.7328319
40
1.8721097
50
265.9545967
51
268.3497837
0
ARC
8
DEFAULT_255_2_778
10
18.6053911
20
42.507813
40
1.6469823
50
268.3682767
51
269.9863166
0
ARC
8
DEFAULT_255_2_778
10
18.6162724
20
42.0321184
40
1.1713417
50
269.4484944
51
281.3554823
0
ARC
8
DEFAULT_255_2_778
10
18.7257967
20
41.5131512
40
0.6409898
50
280.8908545
51
302.9807557
0
ARC
8
DEFAULT_255_2_778
10
18.7981892
20
41.3791229
40
0.4893052
50
304.4132999
51
349.8676298
0
ARC
8
DEFAULT_255_2_778
10
18.4416029
20
41.4659502
40
0.8559071
50
348.3451007
51
0.449934
0
ARC
8
DEFAULT_255_2_778
10
18.1576976
20
41.4722848
40
1.1397862
50
0.0194361
51
2.2124716
0
ARC
8
DEFAULT_255_2_778
10
18.7469267
20
41.529058
40
0.5498556
50
358.6690834
51
24.3967345
0
ARC
8
DEFAULT_255_2_778
10
18.8427128
20
41.5547529
40
0.4522981
50
26.4447957
51
68.8343045
0
ARC
8
DEFAULT_255_2_778
10
18.6686649
20
41.157635
40
0.8856716
50
67.6101915
51
82.7592066
0
ARC
8
DEFAULT_255_2_778
10
18.5690233
20
40.4669479
40
1.5834534
50
82.3324796
51
90.3198012
0
ARC
8
DEFAULT_255_2_778
10
18.5607836
20
39.8954286
40
2.1549481
50
90.0159116
51
91.5981893
0
ARC
8
DEFAULT_255_2_778
10
18.5650208
20
39.7230365
40
2.3273914
50
91.5840959
51
92.0852827
0
LINE
8
DEFAULT_255_2_778
10
18.480334
20
42.0488866
11
18.045134
21
42.0488866
0
LINE
8
DEFAULT_255_2_778
10
18.861334
20
41.4572866
11
18.861334
21
41.4572866
0
LINE
8
DEFAULT_255_2_778
10
18.045134
20
42.0488866
11
18.045134
21
40.2737866
0
LINE
8
DEFAULT_255_2_778
10
18.045134
20
40.2737866
11
18.480334
21
40.2737866
0
LINE
8
DEFAULT_255_2_778
10
18.480334
20
40.2737866
11
18.480334
21
40.8653866
0
LINE
8
DEFAULT_255_2_778
10
18.045134
20
42.0488866
11
18.045134
21
42.0488866
0
ARC
8
DEFAULT_255_2_778
10
18.3567056
20
35.4831877
40
0.5885867
50
83.7630549
51
84.5249945
0
ARC
8
DEFAULT_255_2_778
10
18.3691003
20
35.5635842
40
0.507332
50
66.7995106
51
84.1681593
0
ARC
8
DEFAULT_255_2_778
10
18.3666333
20
35.5173483
40
0.3712777
50
60.0015288
51
89.1928373
0
ARC
8
DEFAULT_255_2_778
10
18.3697901
20
35.7490168
40
0.1395877
50
89.1488794
51
90.0052246
0
ARC
8
DEFAULT_255_2_778
10
18.3695966
20
35.7488408
40
0.1397638
50
89.9259104
51
130.2652087
0
ARC
8
DEFAULT_255_2_778
10
18.3670622
20
35.7589067
40
0.130525
50
132.2725509
51
158.8087614
0
ARC
8
DEFAULT_255_2_778
10
18.4428646
20
35.73253
40
0.2107548
50
159.5721922
51
180.0050418
0
ARC
8
DEFAULT_255_2_778
10
18.4482186
20
35.7323237
40
0.216109
50
179.950206
51
181.2818635
0
ARC
8
DEFAULT_255_2_778
10
18.3615869
20
35.7274031
40
0.1294234
50
179.9619005
51
209.3387745
0
ARC
8
DEFAULT_255_2_778
10
18.3781804
20
35.745115
40
0.152742
50
212.0818308
51
235.9979478
0
ARC
8
DEFAULT_255_2_778
10
18.1948616
20
35.1007025
40
0.5013376
50
52.8295774
51
62.4987079
0
ARC
8
DEFAULT_255_2_778
10
18.305255
20
35.2479205
40
0.3173311
50
36.6152797
51
52.6524129
0
ARC
8
DEFAULT_255_2_778
10
18.3262878
20
35.2672124
40
0.2889575
50
26.5098683
51
36.0323011
0
ARC
8
DEFAULT_255_2_778
10
18.2678469
20
35.2423799
40
0.352359
50
17.3556252
51
25.8816069
0
ARC
8
DEFAULT_255_2_778
10
18.2461426
20
35.2401074
40
0.3737778
50
7.6846335
51
16.6956375
0
ARC
8
DEFAULT_255_2_778
10
18.3078545
20
35.1719184
40
0.3068764
50
338.7488869
51
345.6554739
0
ARC
8
DEFAULT_255_2_778
10
18.3111539
20
35.1683254
40
0.3025067
50
326.2106714
51
339.156625
0
ARC
8
DEFAULT_255_2_778
10
18.3364381
20
35.1529168
40
0.2729268
50
312.6536127
51
325.9470737
0
ARC
8
DEFAULT_255_2_778
10
18.3301035
20
35.1638283
40
0.2852569
50
299.7987886
51
312.1043842
0
ARC
8
DEFAULT_255_2_778
10
18.3210532
20
35.1815591
40
0.3051424
50
288.0229331
51
299.6189464
0
ARC
8
DEFAULT_255_2_778
10
18.2917562
20
35.2820748
40
0.4098033
50
269.9631932
51
287.5699526
0
ARC
8
DEFAULT_255_2_778
10
18.2914934
20
35.2889974
40
0.4167259
50
269.4734246
51
269.9999402
0
ARC
8
DEFAULT_255_2_778
10
18.2875072
20
35.5052001
40
0.632911
50
267.5600184
51
270.0141555
0
ARC
8
DEFAULT_255_2_778
10
18.2819889
20
35.4137492
40
0.5413104
50
258.142732
51
267.7314833
0
ARC
8
DEFAULT_255_2_778
10
18.3381589
20
35.6162268
40
0.7511279
50
250.6824619
51
257.1230142
0
ARC
8
DEFAULT_255_2_778
10
22.1635772
20
47.1232897
40
12.8773009
50
251.5152055
51
251.5569191
0
ARC
8
DEFAULT_255_2_778
10
17.1488479
20
32.1306135
40
2.9318065
50
71.465646
51
71.8841176
0
ARC
8
DEFAULT_255_2_778
10
18.2858122
20
35.3855245
40
0.3307309
50
240.7407718
51
268.6228493
0
ARC
8
DEFAULT_255_2_778
10
18.2778533
20
35.2197525
40
0.1648634
50
270.0035642
51
273.7234179
0
ARC
8
DEFAULT_255_2_778
10
18.2777571
20
35.221267
40
0.1663809
50
273.7226227
51
288.6137242
0
ARC
8
DEFAULT_255_2_778
10
18.2797211
20
35.2228379
40
0.1672594
50
287.8043418
51
307.6388755
0
ARC
8
DEFAULT_255_2_778
10
18.2933744
20
35.2017239
40
0.1425847
50
320.4793305
51
332.8634201
0
ARC
8
DEFAULT_255_2_778
10
18.3018421
20
35.1966726
40
0.1327466
50
333.1366425
51
347.344416
0
ARC
8
DEFAULT_255_2_778
10
18.2865624
20
35.2005767
40
0.1485111
50
347.1663244
51
354.0139996
0
ARC
8
DEFAULT_255_2_778
10
18.2583664
20
35.203606
40
0.17704
50
6.5135621
51
8.512166
0
ARC
8
DEFAULT_255_2_778
10
18.304866
20
35.2108709
40
0.1299776
50
8.3790279
51
13.8518554
0
ARC
8
DEFAULT_255_2_778
10
18.3141069
20
35.2145148
40
0.1201403
50
13.2197015
51
29.5079125
0
ARC
8
DEFAULT_255_2_778
10
18.2920912
20
35.2025222
40
0.1452078
50
29.3474248
51
42.3748787
0
ARC
8
DEFAULT_255_2_778
10
18.1038086
20
34.9598956
40
0.4532708
50
53.3364187
51
62.6199643
0
ARC
8
DEFAULT_255_2_778
10
18.4944939
20
35.8822318
40
0.5451383
50
233.3993019
51
242.2730293
0
ARC
8
DEFAULT_255_2_778
10
18.3569573
20
35.6958043
40
0.3134692
50
217.1981511
51
233.2642821
0
ARC
8
DEFAULT_255_2_778
10
18.3267341
20
35.6709715
40
0.2743859
50
207.0501211
51
216.8831772
0
ARC
8
DEFAULT_255_2_778
10
18.3559874
20
35.6828139
40
0.3058371
50
196.9033738
51
206.5336882
0
ARC
8
DEFAULT_255_2_778
10
18.4205552
20
35.7024552
40
0.3733262
50
188.001409
51
196.9063034
0
ARC
8
DEFAULT_255_2_778
10
18.3672336
20
35.7733397
40
0.3136771
50
147.3025036
51
159.7927336
0
ARC
8
DEFAULT_255_2_778
10
18.3328808
20
35.7952971
40
0.2729065
50
134.1872042
51
147.2857875
0
ARC
8
DEFAULT_255_2_778
10
18.3332844
20
35.7931526
40
0.2747282
50
121.5429905
51
133.9358349
0
ARC
8
DEFAULT_255_2_778
10
18.3386155
20
35.7801148
40
0.2886375
50
109.5637713
51
121.0909726
0
ARC
8
DEFAULT_255_2_778
10
18.351759
20
35.7371032
40
0.3335733
50
94.0426788
51
109.2171558
0
ARC
8
DEFAULT_255_2_778
10
18.3561821
20
35.6960043
40
0.3748849
50
89.9875462
51
94.2741628
0
LINE
8
DEFAULT_255_2_778
10
18.3564636
20
36.0716891
11
18.4128636
21
36.0690891
0
LINE
8
DEFAULT_255_2_778
10
18.5689636
20
36.0298891
11
18.5522636
21
35.8388891
0
LINE
8
DEFAULT_255_2_778
10
18.2927636
20
35.6184891
11
18.3220636
21
35.5996891
0
LINE
8
DEFAULT_255_2_778
10
18.3220636
20
35.5996891
11
18.3548636
21
35.5819891
0
LINE
8
DEFAULT_255_2_778
10
18.3548636
20
35.5819891
11
18.4263636
21
35.5453891
0
LINE
8
DEFAULT_255_2_778
10
18.6165636
20
35.2900891
11
18.6197636
21
35.2575891
0
LINE
8
DEFAULT_255_2_778
10
18.6197636
20
35.2575891
11
18.6207636
21
35.2226891
0
LINE
8
DEFAULT_255_2_778
10
18.6207636
20
35.2226891
11
18.6202636
21
35.1993891
0
LINE
8
DEFAULT_255_2_778
10
18.6202636
20
35.1993891
11
18.6189636
21
35.1768891
0
LINE
8
DEFAULT_255_2_778
10
18.6189636
20
35.1768891
11
18.6136636
21
35.1344891
0
LINE
8
DEFAULT_255_2_778
10
18.6136636
20
35.1344891
11
18.6051636
21
35.0958891
0
LINE
8
DEFAULT_255_2_778
10
18.0604636
20
34.9170891
11
18.0768636
21
35.1262891
0
LINE
8
DEFAULT_255_2_778
10
18.0768636
20
35.1262891
11
18.1241636
21
35.0969891
0
LINE
8
DEFAULT_255_2_778
10
18.3818636
20
35.0903891
11
18.4033636
21
35.1109891
0
LINE
8
DEFAULT_255_2_778
10
18.4342636
20
35.1850891
11
18.4353636
21
35.2038891
0
LINE
8
DEFAULT_255_2_778
10
18.4353636
20
35.2038891
11
18.4342636
21
35.2236891
0
LINE
8
DEFAULT_255_2_778
10
18.3993636
20
35.3003891
11
18.3744636
21
35.3234891
0
LINE
8
DEFAULT_255_2_778
10
18.3122636
20
35.3623891
11
18.2408636
21
35.3996891
0
LINE
8
DEFAULT_255_2_778
10
18.0508636
20
35.6504891
11
18.0477636
21
35.6824891
0
LINE
8
DEFAULT_255_2_778
10
18.0477636
20
35.6824891
11
18.0466636
21
35.7171891
0
LINE
8
DEFAULT_255_2_778
10
18.0466636
20
35.7171891
11
18.0471636
21
35.7409891
0
LINE
8
DEFAULT_255_2_778
10
18.0471636
20
35.7409891
11
18.0485636
21
35.7639891
0
LINE
8
DEFAULT_255_2_778
10
18.0485636
20
35.7639891
11
18.0535636
21
35.8068891
0
LINE
8
DEFAULT_255_2_778
10
18.0535636
20
35.8068891
11
18.0617636
21
35.8459891
0
LINE
8
DEFAULT_255_2_778
10
18.0617636
20
35.8459891
11
18.0728636
21
35.8816891
0
LINE
8
DEFAULT_255_2_778
10
19.9590636
20
36.0716891
11
19.6489636
21
34.8722891
0
LINE
8
DEFAULT_255_2_778
10
19.6489636
20
34.8722891
11
19.5169636
21
34.8722891
0
LINE
8
DEFAULT_255_2_778
10
19.5169636
20
34.8722891
11
19.8270636
21
36.0716891
0
LINE
8
DEFAULT_255_2_778
10
19.8270636
20
36.0716891
11
19.9593636
21
36.0716891
0
LINE
8
DEFAULT_255_2_778
10
20.832766
20
34.8963854
11
21.112666
21
34.8963854
0
ARC
8
DEFAULT_255_2_778
10
21.1261828
20
35.341486
40
0.4453058
50
268.2605849
51
297.6355284
0
ARC
8
DEFAULT_255_2_778
10
21.1431609
20
35.2703045
40
0.374801
50
300.3845816
51
342.8929906
0
ARC
8
DEFAULT_255_2_778
10
20.7495771
20
35.4120037
40
0.7928969
50
341.4725802
51
356.768352
0
ARC
8
DEFAULT_255_2_778
10
20.3536734
20
35.4518588
40
1.190546
50
355.9274026
51
357.5894741
0
ARC
8
DEFAULT_255_2_778
10
19.9679069
20
35.5041154
40
1.5785793
50
356.2832469
51
358.7467531
0
ARC
8
DEFAULT_255_2_778
10
20.1535478
20
35.4993707
40
1.3928791
50
358.774859
51
359.9919358
0
ARC
8
DEFAULT_255_2_778
10
20.5859335
20
35.5105583
40
0.960561
50
359.3209699
51
12.2474504
0
ARC
8
DEFAULT_255_2_778
10
21.0578449
20
35.619205
40
0.4763808
50
11.5179264
51
38.0886155
0
ARC
8
DEFAULT_255_2_778
10
21.1410878
20
35.6647193
40
0.3831019
50
40.4116577
51
84.8227242
0
ARC
8
DEFAULT_255_2_778
10
21.0925475
20
35.4008699
40
0.6507175
50
82.6620608
51
90.1392479
0
LINE
8
DEFAULT_255_2_778
10
21.090966
20
36.0515854
11
20.832766
21
36.0515854
0
LINE
8
DEFAULT_255_2_778
10
20.832766
20
36.0515854
11
20.832766
21
34.8963854
0
ARC
8
DEFAULT_255_2_778
10
20.7408659
20
35.5011127
40
0.6301662
50
359.1701
51
15.1337912
0
ARC
8
DEFAULT_255_2_778
10
21.097553
20
35.6097852
40
0.2577472
50
12.5138281
51
88.2349212
0
ARC
8
DEFAULT_255_2_778
10
21.0692397
20
35.4305984
40
0.4383132
50
85.2557301
51
90.073038
0
ARC
8
DEFAULT_255_2_778
10
21.0699199
20
35.3199777
40
0.5489349
50
90.1293094
51
95.8700636
0
ARC
8
DEFAULT_255_2_778
10
21.0782179
20
35.2260982
40
0.6431722
50
95.7500816
51
96.5396921
0
LINE
8
DEFAULT_255_2_778
10
21.004966
20
35.8650854
11
21.004966
21
35.0649854
0
ARC
8
DEFAULT_255_2_778
10
21.0440546
20
35.675208
40
0.6114732
50
266.3348487
51
269.9474276
0
ARC
8
DEFAULT_255_2_778
10
21.0553101
20
35.4268753
40
0.3633326
50
268.1362608
51
296.685084
0
ARC
8
DEFAULT_255_2_778
10
21.0794209
20
35.3455143
40
0.2802113
50
299.7527072
51
348.3312981
0
ARC
8
DEFAULT_255_2_778
10
20.7405489
20
35.4393677
40
0.6314948
50
346.2098874
51
0.816702
0
ARC
8
DEFAULT_255_2_778
10
20.3934414
20
35.447754
40
0.9785383
50
0.0359962
51
2.6083192
0
LINE
8
DEFAULT_255_2_778
10
20.832766
20
34.8963854
11
20.832766
21
34.8963854
0
LINE
8
DEFAULT_255_2_778
10
21.370966
20
35.4922854
11
21.370966
21
35.4919854
0
ARC
8
DEFAULT_255_2_778
10
20.351652
20
35.715445
40
0.1206503
50
355.0086209
51
91.3172646
0
ARC
8
DEFAULT_255_2_778
10
20.3150677
20
35.5241595
40
0.3137312
50
83.8132356
51
90.1829903
0
ARC
8
DEFAULT_255_2_778
10
20.315915
20
35.3729219
40
0.4649709
50
90.2278783
51
96.3497752
0
ARC
8
DEFAULT_255_2_778
10
20.3258014
20
35.2648709
40
0.5734564
50
96.1375141
51
96.4939176
0
LINE
8
DEFAULT_255_2_778
10
20.2609448
20
35.8346477
11
20.2609448
21
35.5750477
0
ARC
8
DEFAULT_255_2_778
10
20.3251162
20
36.0305468
40
0.4599971
50
261.9808638
51
268.6032862
0
ARC
8
DEFAULT_255_2_778
10
20.3208953
20
35.9228088
40
0.352192
50
268.8625306
51
269.9918894
0
ARC
8
DEFAULT_255_2_778
10
20.3313475
20
35.7481903
40
0.1778837
50
266.6153486
51
301.9142805
0
ARC
8
DEFAULT_255_2_778
10
20.3495351
20
35.6937612
40
0.1227933
50
308.1490289
51
5.0863871
0
ARC
8
DEFAULT_255_2_778
10
20.2793462
20
35.0160425
40
0.3363355
50
90.0362209
51
92.5393376
0
ARC
8
DEFAULT_255_2_778
10
20.290514
20
35.2080312
40
0.1447946
50
53.7048643
51
94.507913
0
ARC
8
DEFAULT_255_2_778
10
20.3231688
20
35.2638952
40
0.0807223
50
22.3168955
51
48.9087054
0
ARC
8
DEFAULT_255_2_778
10
20.463538
20
35.3467428
40
0.1363664
50
18.6485949
51
61.9111312
0
ARC
8
DEFAULT_255_2_778
10
20.4463209
20
35.6800356
40
0.2280212
50
290.9215318
51
354.5834962
0
ARC
8
DEFAULT_255_2_778
10
20.1579413
20
35.7461474
40
0.5227804
50
350.3497049
51
0.3996631
0
ARC
8
DEFAULT_255_2_778
10
19.9961429
20
35.7497725
40
0.6845662
50
0.0017917
51
0.7846947
0
ARC
8
DEFAULT_255_2_778
10
20.3256488
20
35.7587964
40
0.3549962
50
0.0567104
51
28.3342452
0
ARC
8
DEFAULT_255_2_778
10
20.4224484
20
35.794055
40
0.2534983
50
31.7057071
51
85.2928931
0
ARC
8
DEFAULT_255_2_778
10
20.3707271
20
35.5380603
40
0.5137825
50
81.8852008
51
90.2575116
0
ARC
8
DEFAULT_255_2_778
10
20.3685585
20
35.4014646
40
0.650373
50
90.0123892
51
91.7105424
0
LINE
8
DEFAULT_255_2_778
10
20.3491448
20
36.0515477
11
20.0533448
21
36.0515477
0
LINE
8
DEFAULT_255_2_778
10
20.4718448
20
35.7046477
11
20.4718448
21
35.7049477
0
LINE
8
DEFAULT_255_2_778
10
20.0530448
20
36.0512477
11
20.0530448
21
34.8921477
0
LINE
8
DEFAULT_255_2_778
10
20.0530448
20
34.8921477
11
20.2644448
21
34.8921477
0
LINE
8
DEFAULT_255_2_778
10
20.2644448
20
34.8921477
11
20.2644448
21
35.3520477
0
LINE
8
DEFAULT_255_2_778
10
20.3978448
20
35.2945477
11
20.4986448
21
34.8969477
0
LINE
8
DEFAULT_255_2_778
10
20.4986448
20
34.8969477
11
20.7163448
21
34.8921477
0
LINE
8
DEFAULT_255_2_778
10
20.7163448
20
34.8921477
11
20.5927448
21
35.3903477
0
LINE
8
DEFAULT_255_2_778
10
20.0533448
20
36.0515477
11
20.0530448
21
36.0512477
0
LINE
8
DEFAULT_255_2_778
10
18.757366
20
34.8963854
11
19.037266
21
34.8963854
0
ARC
8
DEFAULT_255_2_778
10
19.0507828
20
35.341486
40
0.4453058
50
268.2605849
51
297.6355284
0
ARC
8
DEFAULT_255_2_778
10
19.0677609
20
35.2703045
40
0.374801
50
300.3845816
51
342.8929906
0
ARC
8
DEFAULT_255_2_778
10
18.6741771
20
35.4120037
40
0.7928969
50
341.4725802
51
356.768352
0
ARC
8
DEFAULT_255_2_778
10
18.2782734
20
35.4518588
40
1.190546
50
355.9274026
51
357.5894741
0
ARC
8
DEFAULT_255_2_778
10
17.8925069
20
35.5041154
40
1.5785793
50
356.2832469
51
358.7467531
0
ARC
8
DEFAULT_255_2_778
10
18.0781478
20
35.4993707
40
1.3928791
50
358.774859
51
359.9919358
0
ARC
8
DEFAULT_255_2_778
10
18.5105335
20
35.5105583
40
0.960561
50
359.3209699
51
12.2474504
0
ARC
8
DEFAULT_255_2_778
10
18.9824449
20
35.619205
40
0.4763808
50
11.5179264
51
38.0886155
0
ARC
8
DEFAULT_255_2_778
10
19.0656878
20
35.6647193
40
0.3831019
50
40.4116577
51
84.8227242
0
ARC
8
DEFAULT_255_2_778
10
19.0171475
20
35.4008699
40
0.6507175
50
82.6620608
51
90.1392479
0
LINE
8
DEFAULT_255_2_778
10
19.015566
20
36.0515854
11
18.757366
21
36.0515854
0
LINE
8
DEFAULT_255_2_778
10
18.757366
20
36.0515854
11
18.757366
21
34.8963854
0
ARC
8
DEFAULT_255_2_778
10
18.6652515
20
35.5009568
40
0.6303784
50
359.1845492
51
15.1432489
0
ARC
8
DEFAULT_255_2_778
10
19.0220907
20
35.6097546
40
0.2577789
50
12.5192357
51
88.2269219
0
ARC
8
DEFAULT_255_2_778
10
18.9938227
20
35.4308003
40
0.4381114
50
85.2546338
51
90.0730231
0
ARC
8
DEFAULT_255_2_778
10
18.9945026
20
35.3202667
40
0.5486459
50
90.1293125
51
95.8716083
0
ARC
8
DEFAULT_255_2_778
10
19.0028001
20
35.2264262
40
0.6428443
50
95.7516474
51
96.5414479
0
LINE
8
DEFAULT_255_2_778
10
18.929566
20
35.8650854
11
18.929566
21
35.0649854
0
ARC
8
DEFAULT_255_2_778
10
18.9686546
20
35.675208
40
0.6114732
50
266.3348487
51
269.9474276
0
ARC
8
DEFAULT_255_2_778
10
18.9799101
20
35.4268753
40
0.3633326
50
268.1362608
51
296.685084
0
ARC
8
DEFAULT_255_2_778
10
19.0040209
20
35.3455143
40
0.2802113
50
299.7527072
51
348.3312981
0
ARC
8
DEFAULT_255_2_778
10
18.6651489
20
35.4393677
40
0.6314948
50
346.2098874
51
0.816702
0
ARC
8
DEFAULT_255_2_778
10
18.3180414
20
35.447754
40
0.9785383
50
0.0359962
51
2.6083192
0
LINE
8
DEFAULT_255_2_778
10
18.757366
20
34.8963854
11
18.757366
21
34.8963854
0
LINE
8
DEFAULT_255_2_778
10
19.295566
20
35.4922854
11
19.295566
21
35.4919854
0
ARC
8
DEFAULT_255_2_778
10
18.3586695
20
15.9939903
40
0.5793925
50
83.8590435
51
84.6329348
0
ARC
8
DEFAULT_255_2_778
10
18.3700777
20
16.0680884
40
0.5045106
50
66.7829446
51
84.2470043
0
ARC
8
DEFAULT_255_2_778
10
18.366724
20
16.0201766
40
0.3703018
50
59.9305312
51
89.2047385
0
ARC
8
DEFAULT_255_2_778
10
18.3697932
20
16.2494447
40
0.1410132
50
89.1587432
51
89.9997329
0
ARC
8
DEFAULT_255_2_778
10
18.3697984
20
16.250143
40
0.140315
50
90.001855
51
130.182541
0
ARC
8
DEFAULT_255_2_778
10
18.367422
20
16.2606091
40
0.130879
50
132.344581
51
158.8448033
0
ARC
8
DEFAULT_255_2_778
10
18.4432805
20
16.234211
40
0.21117
50
159.5931186
51
179.9863468
0
ARC
8
DEFAULT_255_2_778
10
18.4414691
20
16.2342533
40
0.2093586
50
179.9978067
51
181.2892687
0
ARC
8
DEFAULT_255_2_778
10
18.3618698
20
16.2295304
40
0.1297063
50
179.9945694
51
209.3059411
0
ARC
8
DEFAULT_255_2_778
10
18.3799348
20
16.2488651
40
0.1551304
50
212.2685978
51
235.8111809
0
ARC
8
DEFAULT_255_2_778
10
18.1940687
20
15.6024899
40
0.5020288
50
52.7758191
51
62.4377353
0
ARC
8
DEFAULT_255_2_778
10
18.3057906
20
15.7502027
40
0.3168245
50
36.6543746
51
52.7043293
0
ARC
8
DEFAULT_255_2_778
10
18.3162662
20
15.7632797
40
0.3006436
50
26.695344
51
35.8468319
0
ARC
8
DEFAULT_255_2_778
10
18.2678469
20
15.7445334
40
0.352359
50
17.3556252
51
25.8816069
0
ARC
8
DEFAULT_255_2_778
10
18.2436248
20
15.7417169
40
0.3763458
50
7.7154632
51
16.664855
0
ARC
8
DEFAULT_255_2_778
10
18.3078545
20
15.6742719
40
0.3068764
50
338.7488869
51
345.6554739
0
ARC
8
DEFAULT_255_2_778
10
18.3111539
20
15.670679
40
0.3025067
50
326.2106714
51
339.156625
0
ARC
8
DEFAULT_255_2_778
10
18.3364381
20
15.6552704
40
0.2729268
50
312.6536127
51
325.9470737
0
ARC
8
DEFAULT_255_2_778
10
18.3301035
20
15.6661818
40
0.2852569
50
299.7987886
51
312.1043842
0
ARC
8
DEFAULT_255_2_778
10
18.3210532
20
15.6839126
40
0.3051424
50
288.0229331
51
299.6189464
0
ARC
8
DEFAULT_255_2_778
10
18.2917562
20
15.7844283
40
0.4098033
50
269.9631932
51
287.5699526
0
ARC
8
DEFAULT_255_2_778
10
18.2914934
20
15.791351
40
0.4167259
50
269.4734246
51
269.9999402
0
ARC
8
DEFAULT_255_2_778
10
18.2875072
20
16.0075536
40
0.632911
50
267.5600184
51
270.0141555
0
ARC
8
DEFAULT_255_2_778
10
18.2819889
20
15.9161027
40
0.5413104
50
258.142732
51
267.7314833
0
ARC
8
DEFAULT_255_2_778
10
18.3381589
20
16.1185803
40
0.7511279
50
250.6824619
51
257.1230142
0
ARC
8
DEFAULT_255_2_778
10
22.1635772
20
27.6256432
40
12.8773009
50
251.5152055
51
251.5569191
0
ARC
8
DEFAULT_255_2_778
10
17.1488479
20
12.6329671
40
2.9318065
50
71.465646
51
71.8841176
0
ARC
8
DEFAULT_255_2_778
10
18.2858121
20
15.8878779
40
0.3307307
50
240.7407673
51
268.6228627
0
ARC
8
DEFAULT_255_2_778
10
18.2778533
20
15.7221061
40
0.1648634
50
270.0035642
51
273.7234179
0
ARC
8
DEFAULT_255_2_778
10
18.2777571
20
15.7236205
40
0.1663809
50
273.7226227
51
288.6137242
0
ARC
8
DEFAULT_255_2_778
10
18.2797211
20
15.7251914
40
0.1672594
50
287.8043418
51
307.6388755
0
ARC
8
DEFAULT_255_2_778
10
18.2976255
20
15.7008015
40
0.1372209
50
320.404928
51
333.3453999
0
ARC
8
DEFAULT_255_2_778
10
18.3010875
20
15.6994027
40
0.1334997
50
333.2153954
51
347.3833168
0
ARC
8
DEFAULT_255_2_778
10
18.2847684
20
15.7036186
40
0.1503466
50
347.1738788
51
353.9001985
0
ARC
8
DEFAULT_255_2_778
10
18.2950353
20
15.7116265
40
0.140025
50
6.1150275
51
13.7222737
0
ARC
8
DEFAULT_255_2_778
10
18.3141069
20
15.7173683
40
0.1201403
50
13.2197015
51
29.5079125
0
ARC
8
DEFAULT_255_2_778
10
18.2913591
20
15.7052133
40
0.1459257
50
29.2621551
51
42.2572843
0
ARC
8
DEFAULT_255_2_778
10
18.1182992
20
15.4859211
40
0.4260364
50
53.0388458
51
62.9172736
0
ARC
8
DEFAULT_255_2_778
10
18.4953122
20
16.3854108
40
0.5458074
50
233.3444599
51
242.212896
0
ARC
8
DEFAULT_255_2_778
10
18.3564267
20
16.1985298
40
0.3129693
50
217.2382078
51
233.3171589
0
ARC
8
DEFAULT_255_2_778
10
18.3232013
20
16.1713141
40
0.2700531
50
206.8976269
51
216.9069182
0
ARC
8
DEFAULT_255_2_778
10
18.3442361
20
16.1807353
40
0.2930765
50
196.5926586
51
206.6798077
0
ARC
8
DEFAULT_255_2_778
10
18.4205552
20
16.2056087
40
0.3733262
50
188.001409
51
196.9063034
0
ARC
8
DEFAULT_255_2_778
10
18.3697801
20
16.2752261
40
0.3165047
50
147.3584837
51
159.7366919
0
ARC
8
DEFAULT_255_2_778
10
18.3328799
20
16.2984513
40
0.2729054
50
134.1871768
51
147.2858131
0
ARC
8
DEFAULT_255_2_778
10
18.3295995
20
16.3004335
40
0.2691994
50
121.3452775
51
133.9805797
0
ARC
8
DEFAULT_255_2_778
10
18.3392007
20
16.2830293
40
0.2890591
50
109.6572051
51
121.1760727
0
ARC
8
DEFAULT_255_2_778
10
18.351759
20
16.2402568
40
0.3335733
50
94.0426788
51
109.2171558
0
ARC
8
DEFAULT_255_2_778
10
18.3561821
20
16.1991579
40
0.3748849
50
89.9875462
51
94.2741628
0
LINE
8
DEFAULT_255_2_778
10
18.3564636
20
16.5735427
11
18.4128636
21
16.5708427
0
LINE
8
DEFAULT_255_2_778
10
18.5689636
20
16.5317427
11
18.5522636
21
16.3406427
0
LINE
8
DEFAULT_255_2_778
10
18.2927636
20
16.1205427
11
18.3220636
21
16.1017427
0
LINE
8
DEFAULT_255_2_778
10
18.3220636
20
16.1017427
11
18.3548636
21
16.0840427
0
LINE
8
DEFAULT_255_2_778
10
18.3548636
20
16.0840427
11
18.4263636
21
16.0475427
0
LINE
8
DEFAULT_255_2_778
10
18.6165636
20
15.7922427
11
18.6197636
21
15.7596427
0
LINE
8
DEFAULT_255_2_778
10
18.6197636
20
15.7596427
11
18.6207636
21
15.7247427
0
LINE
8
DEFAULT_255_2_778
10
18.6207636
20
15.7247427
11
18.6202636
21
15.7014427
0
LINE
8
DEFAULT_255_2_778
10
18.6202636
20
15.7014427
11
18.6189636
21
15.6789427
0
LINE
8
DEFAULT_255_2_778
10
18.6189636
20
15.6789427
11
18.6136636
21
15.6368427
0
LINE
8
DEFAULT_255_2_778
10
18.6136636
20
15.6368427
11
18.6051636
21
15.5982427
0
LINE
8
DEFAULT_255_2_778
10
18.0604636
20
15.4194427
11
18.0768636
21
15.6286427
0
LINE
8
DEFAULT_255_2_778
10
18.0768636
20
15.6286427
11
18.1241636
21
15.5993427
0
LINE
8
DEFAULT_255_2_778
10
18.3818636
20
15.5927427
11
18.4033636
21
15.6133427
0
LINE
8
DEFAULT_255_2_778
10
18.4342636
20
15.6876427
11
18.4353636
21
15.7067427
0
LINE
8
DEFAULT_255_2_778
10
18.4353636
20
15.7067427
11
18.4342636
21
15.7265427
0
LINE
8
DEFAULT_255_2_778
10
18.3993636
20
15.8033427
11
18.3744636
21
15.8263427
0
LINE
8
DEFAULT_255_2_778
10
18.3122636
20
15.8652427
11
18.2408636
21
15.9025427
0
LINE
8
DEFAULT_255_2_778
10
18.0508636
20
16.1536427
11
18.0477636
21
16.1856427
0
LINE
8
DEFAULT_255_2_778
10
18.0477636
20
16.1856427
11
18.0466636
21
16.2203427
0
LINE
8
DEFAULT_255_2_778
10
18.0466636
20
16.2203427
11
18.0471636
21
16.2441427
0
LINE
8
DEFAULT_255_2_778
10
18.0471636
20
16.2441427
11
18.0485636
21
16.2671427
0
LINE
8
DEFAULT_255_2_778
10
18.0485636
20
16.2671427
11
18.0535636
21
16.3099427
0
LINE
8
DEFAULT_255_2_778
10
18.0535636
20
16.3099427
11
18.0617636
21
16.3491427
0
LINE
8
DEFAULT_255_2_778
10
18.0617636
20
16.3491427
11
18.0728636
21
16.3848427
0
LINE
8
DEFAULT_255_2_778
10
19.9590636
20
16.5735427
11
19.6489636
21
15.3741427
0
LINE
8
DEFAULT_255_2_778
10
19.6489636
20
15.3741427
11
19.5169636
21
15.3741427
0
LINE
8
DEFAULT_255_2_778
10
19.5169636
20
15.3741427
11
19.8270636
21
16.5735427
0
LINE
8
DEFAULT_255_2_778
10
19.8270636
20
16.5735427
11
19.9593636
21
16.5735427
0
LINE
8
DEFAULT_255_2_778
10
20.832766
20
15.3981854
11
21.112666
21
15.3981854
0
ARC
8
DEFAULT_255_2_778
10
21.1261828
20
15.843286
40
0.4453058
50
268.2605849
51
297.6355284
0
ARC
8
DEFAULT_255_2_778
10
21.1431609
20
15.7721045
40
0.374801
50
300.3845816
51
342.8929906
0
ARC
8
DEFAULT_255_2_778
10
20.7495771
20
15.9138037
40
0.7928969
50
341.4725802
51
356.768352
0
ARC
8
DEFAULT_255_2_778
10
20.3536734
20
15.9536588
40
1.190546
50
355.9274026
51
357.5894741
0
ARC
8
DEFAULT_255_2_778
10
19.9679069
20
16.0059154
40
1.5785793
50
356.2832469
51
358.7467531
0
ARC
8
DEFAULT_255_2_778
10
20.1535478
20
16.0011707
40
1.3928791
50
358.774859
51
359.9919358
0
ARC
8
DEFAULT_255_2_778
10
20.5859335
20
16.0123583
40
0.960561
50
359.3209699
51
12.2474504
0
ARC
8
DEFAULT_255_2_778
10
21.0578449
20
16.121005
40
0.4763808
50
11.5179264
51
38.0886155
0
ARC
8
DEFAULT_255_2_778
10
21.1410878
20
16.1665193
40
0.3831019
50
40.4116577
51
84.8227242
0
ARC
8
DEFAULT_255_2_778
10
21.0925475
20
15.9026699
40
0.6507175
50
82.6620608
51
90.1392479
0
LINE
8
DEFAULT_255_2_778
10
21.090966
20
16.5533854
11
20.832766
21
16.5533854
0
LINE
8
DEFAULT_255_2_778
10
20.832766
20
16.5533854
11
20.832766
21
15.3981854
0
ARC
8
DEFAULT_255_2_778
10
20.7408659
20
16.0029127
40
0.6301662
50
359.1701
51
15.1337912
0
ARC
8
DEFAULT_255_2_778
10
21.097553
20
16.1115852
40
0.2577472
50
12.5138281
51
88.2349212
0
ARC
8
DEFAULT_255_2_778
10
21.0692397
20
15.9323984
40
0.4383132
50
85.2557301
51
90.073038
0
ARC
8
DEFAULT_255_2_778
10
21.0699199
20
15.8217777
40
0.5489349
50
90.1293094
51
95.8700636
0
ARC
8
DEFAULT_255_2_778
10
21.0782179
20
15.7278982
40
0.6431722
50
95.7500816
51
96.5396921
0
LINE
8
DEFAULT_255_2_778
10
21.004966
20
16.3668854
11
21.004966
21
15.5667854
0
ARC
8
DEFAULT_255_2_778
10
21.0440546
20
16.177008
40
0.6114732
50
266.3348487
51
269.9474276
0
ARC
8
DEFAULT_255_2_778
10
21.0553101
20
15.9286753
40
0.3633326
50
268.1362608
51
296.685084
0
ARC
8
DEFAULT_255_2_778
10
21.0794209
20
15.8473143
40
0.2802113
50
299.7527072
51
348.3312981
0
ARC
8
DEFAULT_255_2_778
10
20.7405489
20
15.9411677
40
0.6314948
50
346.2098874
51
0.816702
0
ARC
8
DEFAULT_255_2_778
10
20.3934414
20
15.949554
40
0.9785383
50
0.0359962
51
2.6083192
0
LINE
8
DEFAULT_255_2_778
10
20.832766
20
15.3981854
11
20.832766
21
15.3981854
0
LINE
8
DEFAULT_255_2_778
10
21.370966
20
15.9940854
11
21.370966
21
15.9937854
0
ARC
8
DEFAULT_255_2_778
10
20.3516919
20
16.2172645
40
0.1206155
50
354.9803955
51
91.2811728
0
ARC
8
DEFAULT_255_2_778
10
20.315218
20
16.0266045
40
0.3130728
50
83.8063787
51
90.1835007
0
ARC
8
DEFAULT_255_2_778
10
20.3160785
20
15.8752922
40
0.4643875
50
90.2298782
51
96.3767566
0
ARC
8
DEFAULT_255_2_778
10
20.3264936
20
15.7627692
40
0.577375
50
96.16372
51
96.5187933
0
LINE
8
DEFAULT_255_2_778
10
20.2609448
20
16.3364111
11
20.2609448
21
16.0768111
0
ARC
8
DEFAULT_255_2_778
10
20.3250855
20
16.5321018
40
0.4597865
50
261.9810304
51
268.6032008
0
ARC
8
DEFAULT_255_2_778
10
20.3208454
20
16.4242343
40
0.3518514
50
268.8652755
51
269.9952246
0
ARC
8
DEFAULT_255_2_778
10
20.3313176
20
16.2499183
40
0.1778459
50
266.6148041
51
301.9297119
0
ARC
8
DEFAULT_255_2_778
10
20.3494192
20
16.1956106
40
0.1229099
50
308.169657
51
5.0880482
0
ARC
8
DEFAULT_255_2_778
10
20.279632
20
15.5188035
40
0.3353517
50
90.0369668
51
92.5956697
0
ARC
8
DEFAULT_255_2_778
10
20.2907579
20
15.7102426
40
0.1443587
50
53.6770093
51
94.5063442
0
ARC
8
DEFAULT_255_2_778
10
20.3232321
20
15.7657877
40
0.0806526
50
22.3147654
51
48.8852753
0
ARC
8
DEFAULT_255_2_778
10
20.4631826
20
15.848305
40
0.1367995
50
18.7205075
51
61.8392186
0
ARC
8
DEFAULT_255_2_778
10
20.4465533
20
16.1816899
40
0.227743
50
290.8857039
51
354.5272924
0
ARC
8
DEFAULT_255_2_778
10
20.1581775
20
16.2479742
40
0.5225447
50
350.3043072
51
0.4034159
0
ARC
8
DEFAULT_255_2_778
10
19.9955642
20
16.251632
40
0.6851449
50
0.0017905
51
0.7843614
0
ARC
8
DEFAULT_255_2_778
10
20.3257238
20
16.260656
40
0.3549212
50
0.0573207
51
28.311796
0
ARC
8
DEFAULT_255_2_778
10
20.4228682
20
16.2961401
40
0.2530033
50
31.6728769
51
85.2792664
0
ARC
8
DEFAULT_255_2_778
10
20.3713015
20
16.0410536
40
0.5123709
50
81.8779733
51
90.2575495
0
ARC
8
DEFAULT_255_2_778
10
20.3691549
20
15.9033002
40
0.6501191
50
90.0138044
51
91.763797
0
LINE
8
DEFAULT_255_2_778
10
20.3491448
20
16.5531111
11
20.0533448
21
16.5531111
0
LINE
8
DEFAULT_255_2_778
10
20.4718448
20
16.2065111
11
20.4718448
21
16.2067111
0
LINE
8
DEFAULT_255_2_778
10
20.0530448
20
16.5531111
11
20.0530448
21
15.3940111
0
LINE
8
DEFAULT_255_2_778
10
20.0530448
20
15.3940111
11
20.2644448
21
15.3940111
0
LINE
8
DEFAULT_255_2_778
10
20.2644448
20
15.3940111
11
20.2644448
21
15.8538111
0
LINE
8
DEFAULT_255_2_778
10
20.3978448
20
15.7964111
11
20.4986448
21
15.3987111
0
LINE
8
DEFAULT_255_2_778
10
20.4986448
20
15.3987111
11
20.7163448
21
15.3940111
0
LINE
8
DEFAULT_255_2_778
10
20.7163448
20
15.3940111
11
20.5927448
21
15.8922111
0
LINE
8
DEFAULT_255_2_778
10
20.0533448
20
16.5531111
11
20.0530448
21
16.5531111
0
LINE
8
DEFAULT_255_2_778
10
18.757366
20
15.3981854
11
19.037266
21
15.3981854
0
ARC
8
DEFAULT_255_2_778
10
19.0507828
20
15.843286
40
0.4453058
50
268.2605849
51
297.6355284
0
ARC
8
DEFAULT_255_2_778
10
19.0677609
20
15.7721045
40
0.374801
50
300.3845816
51
342.8929906
0
ARC
8
DEFAULT_255_2_778
10
18.6741771
20
15.9138037
40
0.7928969
50
341.4725802
51
356.768352
0
ARC
8
DEFAULT_255_2_778
10
18.2782734
20
15.9536588
40
1.190546
50
355.9274026
51
357.5894741
0
ARC
8
DEFAULT_255_2_778
10
17.8925069
20
16.0059154
40
1.5785793
50
356.2832469
51
358.7467531
0
ARC
8
DEFAULT_255_2_778
10
18.0781478
20
16.0011707
40
1.3928791
50
358.774859
51
359.9919358
0
ARC
8
DEFAULT_255_2_778
10
18.5105335
20
16.0123583
40
0.960561
50
359.3209699
51
12.2474504
0
ARC
8
DEFAULT_255_2_778
10
18.9824449
20
16.121005
40
0.4763808
50
11.5179264
51
38.0886155
0
ARC
8
DEFAULT_255_2_778
10
19.0656878
20
16.1665193
40
0.3831019
50
40.4116577
51
84.8227242
0
ARC
8
DEFAULT_255_2_778
10
19.0171475
20
15.9026699
40
0.6507175
50
82.6620608
51
90.1392479
0
LINE
8
DEFAULT_255_2_778
10
19.015566
20
16.5533854
11
18.757366
21
16.5533854
0
LINE
8
DEFAULT_255_2_778
10
18.757366
20
16.5533854
11
18.757366
21
15.3981854
0
ARC
8
DEFAULT_255_2_778
10
18.6652515
20
16.0027568
40
0.6303784
50
359.1845492
51
15.1432489
0
ARC
8
DEFAULT_255_2_778
10
19.0220907
20
16.1115546
40
0.2577789
50
12.5192357
51
88.2269219
0
ARC
8
DEFAULT_255_2_778
10
18.9938227
20
15.9326003
40
0.4381114
50
85.2546338
51
90.0730231
0
ARC
8
DEFAULT_255_2_778
10
18.9945026
20
15.8220667
40
0.5486459
50
90.1293125
51
95.8716083
0
ARC
8
DEFAULT_255_2_778
10
19.0028001
20
15.7282262
40
0.6428443
50
95.7516474
51
96.5414479
0
LINE
8
DEFAULT_255_2_778
10
18.929566
20
16.3668854
11
18.929566
21
15.5667854
0
ARC
8
DEFAULT_255_2_778
10
18.9686546
20
16.177008
40
0.6114732
50
266.3348487
51
269.9474276
0
ARC
8
DEFAULT_255_2_778
10
18.9799101
20
15.9286753
40
0.3633326
50
268.1362608
51
296.685084
0
ARC
8
DEFAULT_255_2_778
10
19.0040209
20
15.8473143
40
0.2802113
50
299.7527072
51
348.3312981
0
ARC
8
DEFAULT_255_2_778
10
18.6651489
20
15.9411677
40
0.6314948
50
346.2098874
51
0.816702
0
ARC
8
DEFAULT_255_2_778
10
18.3180414
20
15.949554
40
0.9785383
50
0.0359962
51
2.6083192
0
LINE
8
DEFAULT_255_2_778
10
18.757366
20
15.3981854
11
18.757366
21
15.3981854
0
LINE
8
DEFAULT_255_2_778
10
19.295566
20
15.9940854
11
19.295566
21
15.9937854
0
ARC
8
DEFAULT_255_2_778
10
18.3188633
20
27.2719698
40
0.5327908
50
61.3279371
51
72.7349261
0
ARC
8
DEFAULT_255_2_778
10
18.3939349
20
27.5154509
40
0.2780004
50
72.6165482
51
89.1612001
0
ARC
8
DEFAULT_255_2_778
10
18.3947406
20
27.628893
40
0.164561
50
88.8634672
51
148.1916071
0
ARC
8
DEFAULT_255_2_778
10
18.4575426
20
27.6297808
40
0.2200829
50
157.0407646
51
174.2110701
0
ARC
8
DEFAULT_255_2_778
10
18.3959699
20
27.6382873
40
0.1579822
50
175.0280673
51
179.958169
0
ARC
8
DEFAULT_255_2_778
10
18.3850346
20
27.6420678
40
0.1470925
50
181.427815
51
243.7905627
0
ARC
8
DEFAULT_255_2_778
10
18.5117927
20
27.8348058
40
0.3770838
50
239.4404519
51
251.2517657
0
ARC
8
DEFAULT_255_2_778
10
18.1995945
20
26.9983399
40
0.5160384
50
48.3170936
51
68.2765724
0
ARC
8
DEFAULT_255_2_778
10
18.3265938
20
27.1448273
40
0.322191
50
358.5681909
51
47.8605091
0
ARC
8
DEFAULT_255_2_778
10
18.1520742
20
27.1396676
40
0.4966186
50
348.502509
51
359.6664609
0
ARC
8
DEFAULT_255_2_778
10
17.9792928
20
27.1721668
40
0.6724156
50
343.2545173
51
348.723422
0
ARC
8
DEFAULT_255_2_778
10
18.1508201
20
27.1812817
40
0.5140875
50
320.3297472
51
336.7598422
0
ARC
8
DEFAULT_255_2_778
10
18.3318283
20
27.0250091
40
0.2750414
50
269.5226
51
321.3167946
0
ARC
8
DEFAULT_255_2_778
10
18.3345272
20
27.1556636
40
0.405717
50
252.5923353
51
269.2952023
0
ARC
8
DEFAULT_255_2_778
10
18.4141772
20
27.420144
40
0.6819202
50
242.7172743
51
252.8546594
0
ARC
8
DEFAULT_255_2_778
10
18.5339554
20
27.6657952
40
0.9551679
50
240.3334753
51
243.0860927
0
ARC
8
DEFAULT_255_2_778
10
3.997658
20
28.2802162
40
14.1375139
50
354.1360347
51
354.9592319
0
ARC
8
DEFAULT_255_2_778
10
18.3892317
20
27.5514492
40
0.5990979
50
238.9799833
51
249.882568
0
ARC
8
DEFAULT_255_2_778
10
18.2899769
20
27.2736005
40
0.3040718
50
249.4368149
51
268.8904279
0
ARC
8
DEFAULT_255_2_778
10
18.2860488
20
27.155309
40
0.1857336
50
269.3953469
51
325.4331955
0
ARC
8
DEFAULT_255_2_778
10
18.2739026
20
27.1258599
40
0.1817156
50
335.3010149
51
355.9689779
0
ARC
8
DEFAULT_255_2_778
10
18.3179646
20
27.1204187
40
0.1374
50
356.9408096
51
359.9871961
0
ARC
8
DEFAULT_255_2_778
10
18.3096216
20
27.1150742
40
0.1458398
50
2.0880806
51
58.5187509
0
ARC
8
DEFAULT_255_2_778
10
18.1509124
20
26.9037388
40
0.4097125
50
55.0225144
51
69.5899587
0
ARC
8
DEFAULT_255_2_778
10
18.3865756
20
27.6366612
40
0.3610561
50
220.9319126
51
255.1094938
0
ARC
8
DEFAULT_255_2_778
10
18.3634997
20
27.5953698
40
0.3169778
50
181.8874248
51
218.0246904
0
ARC
8
DEFAULT_255_2_778
10
18.8890395
20
27.6017544
40
0.8425135
50
180.0063935
51
181.1442365
0
ARC
8
DEFAULT_255_2_778
10
18.6069248
20
27.6112355
40
0.5604805
50
164.252905
51
180.9788748
0
ARC
8
DEFAULT_255_2_778
10
18.3306954
20
27.6949527
40
0.2719559
50
95.5578533
51
165.4346741
0
ARC
8
DEFAULT_255_2_778
10
18.3795057
20
27.4642426
40
0.5069881
50
89.7423525
51
98.5242049
0
ARC
8
DEFAULT_255_2_778
10
18.3789417
20
27.2381545
40
0.7330766
50
82.8569856
51
89.7777349
0
ARC
8
DEFAULT_255_2_778
10
18.3400253
20
26.9201612
40
1.0534415
50
77.6676411
51
82.9074032
0
ARC
8
DEFAULT_255_2_778
10
18.2848763
20
26.6534964
40
1.3257354
50
76.3029805
51
77.8006821
0
LINE
8
DEFAULT_255_2_778
10
18.598794
20
27.9415299
11
18.579494
21
27.7455299
0
LINE
8
DEFAULT_255_2_778
10
20.0054615
20
26.9522667
11
20.0054615
21
26.7654667
0
LINE
8
DEFAULT_255_2_778
10
20.0054615
20
26.7654667
11
19.4733615
21
26.7654667
0
LINE
8
DEFAULT_255_2_778
10
19.4733615
20
26.7654667
11
19.4733615
21
27.9507667
0
LINE
8
DEFAULT_255_2_778
10
19.4733615
20
27.9507667
11
20.0027615
21
27.9507667
0
LINE
8
DEFAULT_255_2_778
10
20.0027615
20
27.9507667
11
20.0027615
21
27.7636667
0
LINE
8
DEFAULT_255_2_778
10
20.0027615
20
27.7636667
11
19.6532615
21
27.7636667
0
LINE
8
DEFAULT_255_2_778
10
19.6532615
20
27.7636667
11
19.6532615
21
27.4718667
0
LINE
8
DEFAULT_255_2_778
10
19.6532615
20
27.4718667
11
19.9734615
21
27.4718667
0
LINE
8
DEFAULT_255_2_778
10
19.9734615
20
27.4718667
11
19.9734615
21
27.2847667
0
LINE
8
DEFAULT_255_2_778
10
19.9734615
20
27.2847667
11
19.6532615
21
27.2847667
0
LINE
8
DEFAULT_255_2_778
10
19.6532615
20
27.2847667
11
19.6532615
21
26.9519667
0
LINE
8
DEFAULT_255_2_778
10
19.6532615
20
26.9519667
11
20.0054615
21
26.9519667
0
LINE
8
DEFAULT_255_2_778
10
20.7039292
20
26.9522667
11
20.7039292
21
26.7654667
0
LINE
8
DEFAULT_255_2_778
10
20.7039292
20
26.7654667
11
20.1718292
21
26.7654667
0
LINE
8
DEFAULT_255_2_778
10
20.1718292
20
26.7654667
11
20.1718292
21
27.9507667
0
LINE
8
DEFAULT_255_2_778
10
20.1718292
20
27.9507667
11
20.7015292
21
27.9507667
0
LINE
8
DEFAULT_255_2_778
10
20.7015292
20
27.9507667
11
20.7015292
21
27.7636667
0
LINE
8
DEFAULT_255_2_778
10
20.7015292
20
27.7636667
11
20.3520292
21
27.7636667
0
LINE
8
DEFAULT_255_2_778
10
20.3520292
20
27.7636667
11
20.3520292
21
27.4718667
0
LINE
8
DEFAULT_255_2_778
10
20.3520292
20
27.4718667
11
20.6721292
21
27.4718667
0
LINE
8
DEFAULT_255_2_778
10
20.6721292
20
27.4718667
11
20.6721292
21
27.2847667
0
LINE
8
DEFAULT_255_2_778
10
20.6721292
20
27.2847667
11
20.3520292
21
27.2847667
0
LINE
8
DEFAULT_255_2_778
10
20.3520292
20
27.2847667
11
20.3520292
21
26.9519667
0
LINE
8
DEFAULT_255_2_778
10
20.3520292
20
26.9519667
11
20.7041292
21
26.9519667
0
ARC
8
DEFAULT_255_2_778
10
19.0288048
20
27.5755674
40
0.1550356
50
353.3531585
51
86.0417174
0
ARC
8
DEFAULT_255_2_778
10
18.9871586
20
27.380352
40
0.3537756
50
81.4906733
51
90.3174857
0
LINE
8
DEFAULT_255_2_778
10
18.9851982
20
27.7341221
11
18.9851982
21
27.4007221
0
ARC
8
DEFAULT_255_2_778
10
18.9973553
20
27.6699457
40
0.2694979
50
267.4145067
51
295.3353089
0
ARC
8
DEFAULT_255_2_778
10
19.0469017
20
27.5458658
40
0.1364042
50
298.8300111
51
4.9443068
0
ARC
8
DEFAULT_255_2_778
10
19.0520559
20
27.9030221
40
0.7405242
50
264.8200415
51
269.0646901
0
ARC
8
DEFAULT_255_2_778
10
19.0497413
20
27.8132203
40
0.6506972
50
269.139396
51
269.9959272
0
ARC
8
DEFAULT_255_2_778
10
19.0612739
20
27.5845719
40
0.4222074
50
268.4284854
51
293.48215
0
ARC
8
DEFAULT_255_2_778
10
19.1000837
20
27.4644157
40
0.296792
50
295.8539069
51
348.8268845
0
ARC
8
DEFAULT_255_2_778
10
18.7559363
20
27.5594227
40
0.6533649
50
346.5006657
51
0.7566114
0
ARC
8
DEFAULT_255_2_778
10
18.4447412
20
27.5677862
40
0.9645032
50
0.0156903
51
1.7429518
0
ARC
8
DEFAULT_255_2_778
10
18.9829218
20
27.6093492
40
0.4260519
50
358.3554743
51
23.4583492
0
ARC
8
DEFAULT_255_2_778
10
19.1138954
20
27.6526486
40
0.2889334
50
25.9215193
51
81.1448796
0
ARC
8
DEFAULT_255_2_778
10
19.0325142
20
27.3302853
40
0.6207459
50
78.3019589
51
90.5561519
0
ARC
8
DEFAULT_255_2_778
10
19.027042
20
27.0571685
40
0.8938336
50
90.0354503
51
92.683213
0
LINE
8
DEFAULT_255_2_778
10
18.9851982
20
27.9500221
11
18.7591982
21
27.9500221
0
LINE
8
DEFAULT_255_2_778
10
19.1827982
20
27.5576221
11
19.1827982
21
27.5576221
0
LINE
8
DEFAULT_255_2_778
10
18.7591982
20
27.9500221
11
18.7591982
21
26.7732221
0
LINE
8
DEFAULT_255_2_778
10
18.7591982
20
26.7732221
11
18.9851982
21
26.7732221
0
LINE
8
DEFAULT_255_2_778
10
18.9851982
20
26.7732221
11
18.9851982
21
27.1655221
0
LINE
8
DEFAULT_255_2_778
10
18.7591982
20
27.9500221
11
18.7591982
21
27.9500221
0
LINE
8
DEFAULT_255_2_778
10
20.8705989
20
26.76995
11
21.1356989
21
26.76995
0
ARC
8
DEFAULT_255_2_778
10
21.1499449
20
27.1551712
40
0.3854845
50
267.8820962
51
303.5245239
0
ARC
8
DEFAULT_255_2_778
10
21.1341902
20
27.1410805
40
0.3830106
50
306.654985
51
342.7686243
0
ARC
8
DEFAULT_255_2_778
10
20.7208075
20
27.2877327
40
0.8214709
50
341.5400533
51
356.0598813
0
ARC
8
DEFAULT_255_2_778
10
20.2711907
20
27.3361445
40
1.2734704
50
355.2768894
51
357.77259
0
ARC
8
DEFAULT_255_2_778
10
19.8060623
20
27.3914912
40
1.7407965
50
356.5472146
51
358.8357858
0
ARC
8
DEFAULT_255_2_778
10
20.0115063
20
27.3866332
40
1.5352965
50
358.8612662
51
359.9924877
0
ARC
8
DEFAULT_255_2_778
10
20.4872974
20
27.3979811
40
1.0595682
50
359.3754717
51
11.245742
0
ARC
8
DEFAULT_255_2_778
10
21.014552
20
27.5084938
40
0.5209148
50
10.6334137
51
33.5494851
0
ARC
8
DEFAULT_255_2_778
10
21.1528231
20
27.5865776
40
0.3627021
50
35.3412682
51
88.21857
0
ARC
8
DEFAULT_255_2_778
10
21.1156014
20
27.3456713
40
0.6053787
50
85.4051023
51
90.0286289
0
LINE
8
DEFAULT_255_2_778
10
21.1152989
20
27.95105
11
20.8705989
21
27.95105
0
LINE
8
DEFAULT_255_2_778
10
20.8705989
20
27.95105
11
20.8705989
21
26.77025
0
ARC
8
DEFAULT_255_2_778
10
20.6845443
20
27.3877796
40
0.6962132
50
359.256879
51
13.8130611
0
ARC
8
DEFAULT_255_2_778
10
21.0778265
20
27.4918038
40
0.289556
50
12.4044823
51
48.3451
0
ARC
8
DEFAULT_255_2_778
10
21.1065424
20
27.4972902
40
0.2669657
50
52.1700639
51
92.6354676
0
ARC
8
DEFAULT_255_2_778
10
21.0954802
20
27.280806
40
0.4831689
50
90.1438647
51
96.3937956
0
ARC
8
DEFAULT_255_2_778
10
21.1029011
20
27.2024716
40
0.561844
50
96.256258
51
97.0647937
0
LINE
8
DEFAULT_255_2_778
10
21.0337989
20
27.76005
11
21.0337989
21
26.94195
0
ARC
8
DEFAULT_255_2_778
10
21.0707832
20
27.4779418
40
0.5372663
50
266.0527614
51
269.942928
0
ARC
8
DEFAULT_255_2_778
10
21.0824879
20
27.2552672
40
0.3148294
50
267.7718894
51
301.6179537
0
ARC
8
DEFAULT_255_2_778
10
21.0839416
20
27.2188687
40
0.2836337
50
305.2249669
51
347.0453324
0
ARC
8
DEFAULT_255_2_778
10
20.7166993
20
27.322494
40
0.6650215
50
345.4374934
51
0.8657909
0
ARC
8
DEFAULT_255_2_778
10
20.3082732
20
27.3342814
40
1.0733732
50
359.9071928
51
359.9929148
0
ARC
8
DEFAULT_255_2_778
10
20.3019522
20
27.3335299
40
1.0796942
50
0.0328328
51
2.4003799
0
LINE
8
DEFAULT_255_2_778
10
20.8705989
20
26.77025
11
20.8705989
21
26.76995
0
LINE
8
DEFAULT_255_2_778
10
21.3806989
20
27.37875
11
21.3806989
21
27.37875
0
ARC
8
DEFAULT_255_2_778
10
18.4266802
20
23.6158575
40
3.1581081
50
309.0944565
51
314.0814528
0
ARC
8
DEFAULT_255_2_778
10
19.1809524
20
22.8415408
40
2.0771465
50
313.9944035
51
321.139806
0
ARC
8
DEFAULT_255_2_778
10
19.7954936
20
22.3508048
40
1.2907218
50
320.98662
51
331.8014622
0
ARC
8
DEFAULT_255_2_778
10
20.2514127
20
22.1108711
40
0.7755479
50
331.5076235
51
349.9379176
0
ARC
8
DEFAULT_255_2_778
10
20.4357451
20
22.07153
40
0.5872137
50
350.5751061
51
359.9223996
0
ARC
8
DEFAULT_255_2_778
10
20.4637549
20
22.0697923
40
0.5592041
50
0.096561
51
25.7602889
0
ARC
8
DEFAULT_255_2_778
10
20.5043622
20
22.0209168
40
0.5473589
50
32.2290723
51
83.7559327
0
ARC
8
DEFAULT_255_2_778
10
20.4511472
20
21.7413179
40
0.8313912
50
82.2059021
51
90.167364
0
ARC
8
DEFAULT_255_2_778
10
20.453796
20
21.4414235
40
1.1312935
50
90.25715
51
98.6165695
0
ARC
8
DEFAULT_255_2_778
10
20.5216924
20
20.9785474
40
1.599119
50
98.5370763
51
104.451083
0
ARC
8
DEFAULT_255_2_778
10
20.6732228
20
20.3864953
40
2.2102544
50
104.4248365
51
109.1906224
0
ARC
8
DEFAULT_255_2_778
10
20.8960456
20
19.777905
40
2.5105515
50
108.6169686
51
111.7440204
0
ARC
8
DEFAULT_255_2_778
10
20.6096098
20
20.6327229
40
1.6090218
50
104.3294565
51
108.668398
0
ARC
8
DEFAULT_255_2_778
10
20.4508773
20
21.2598552
40
0.9621157
50
98.2120129
51
104.413985
0
ARC
8
DEFAULT_255_2_778
10
20.3934186
20
21.660081
40
0.5577864
50
90.3711697
51
98.2425505
0
ARC
8
DEFAULT_255_2_778
10
20.3956041
20
21.9355451
40
0.2823702
50
72.6918393
51
91.1767387
0
ARC
8
DEFAULT_255_2_778
10
20.4371928
20
22.0693859
40
0.1422168
50
358.9867724
51
72.6460531
0
ARC
8
DEFAULT_255_2_778
10
20.3007682
20
22.0479144
40
0.2792634
50
359.9437771
51
3.8922752
0
ARC
8
DEFAULT_255_2_778
10
20.2037622
20
22.0495138
40
0.3762738
50
351.9083964
51
359.7147407
0
ARC
8
DEFAULT_255_2_778
10
20.0152586
20
22.0756138
40
0.5665751
50
346.2498088
51
351.9784636
0
ARC
8
DEFAULT_255_2_778
10
19.8529733
20
22.1131761
40
0.7331405
50
344.8058102
51
346.4129593
0
ARC
8
DEFAULT_255_2_778
10
19.0727413
20
22.6217893
40
1.6445216
50
320.3047262
51
334.7784451
0
ARC
8
DEFAULT_255_2_778
10
18.4624662
20
23.1194728
40
2.4319814
50
311.2210152
51
320.4659128
0
ARC
8
DEFAULT_255_2_778
10
17.9267666
20
23.7107733
40
3.2297765
50
307.9813147
51
311.4568201
0
LINE
8
DEFAULT_255_2_778
10
19.9143854
20
21.1650263
11
19.9143854
21
20.8430263
0
LINE
8
DEFAULT_255_2_778
10
19.9143854
20
20.8430263
11
21.0451854
21
20.8430263
0
ARC
8
DEFAULT_255_2_778
10
21.0910251
20
20.8598728
40
0.0488373
50
176.1507089
51
200.1787677
0
ARC
8
DEFAULT_255_2_778
10
22.8552841
20
20.9565312
40
1.8153894
50
180.7141824
51
182.9484783
0
ARC
8
DEFAULT_255_2_778
10
29.5394447
20
21.077294
40
8.5006185
50
180.3067959
51
180.9665265
0
ARC
8
DEFAULT_255_2_778
10
42.5475497
20
21.1569315
40
21.5089659
50
179.9784368
51
180.33339
0
LINE
8
DEFAULT_255_2_778
10
21.0385854
20
21.1650263
11
20.4183854
21
21.1650263
0
LINE
8
DEFAULT_255_2_778
10
19.9466854
20
22.4739263
11
19.9659854
21
22.1098263
0
LINE
8
DEFAULT_255_2_778
10
20.4183854
20
21.1650263
11
20.4181854
21
21.1648263
0
ARC
8
DEFAULT_255_2_778
10
19.1293442
20
21.9857915
40
0.2248525
50
357.383981
51
79.2179655
0
ARC
8
DEFAULT_255_2_778
10
18.9964051
20
21.5653207
40
0.6648013
50
74.7375301
51
89.8947548
0
ARC
8
DEFAULT_255_2_778
10
18.9765142
20
21.1588467
40
1.0714822
50
88.8709956
51
90.0081149
0
LINE
8
DEFAULT_255_2_778
10
18.9763625
20
22.2303288
11
18.9763625
21
21.7487288
0
ARC
8
DEFAULT_255_2_778
10
18.9885096
20
22.5676012
40
0.8189625
50
269.1501371
51
281.7032312
0
ARC
8
DEFAULT_255_2_778
10
19.1002143
20
22.0641158
40
0.3033722
50
280.3330338
51
309.7791794
0
ARC
8
DEFAULT_255_2_778
10
19.1685726
20
21.9674164
40
0.1855544
50
312.6634265
51
2.4130263
0
ARC
8
DEFAULT_255_2_778
10
19.1086889
20
23.3541006
40
1.9493683
50
266.1076704
51
267.9618291
0
ARC
8
DEFAULT_255_2_778
10
19.1004667
20
23.1215915
40
1.7167138
50
267.9600872
51
269.977938
0
ARC
8
DEFAULT_255_2_778
10
19.1110313
20
22.6061716
40
1.2013462
50
269.4646079
51
280.9690461
0
ARC
8
DEFAULT_255_2_778
10
19.2201875
20
22.0690722
40
0.6533082
50
280.5337452
51
301.3969839
0
ARC
8
DEFAULT_255_2_778
10
19.3051143
20
21.9100887
40
0.4734723
50
302.6475167
51
351.9363668
0
ARC
8
DEFAULT_255_2_778
10
18.9658311
20
21.9858657
40
0.8204891
50
350.0201512
51
0.3252772
0
ARC
8
DEFAULT_255_2_778
10
18.732638
20
21.9901471
40
1.0536692
50
0.0204782
51
2.2943394
0
ARC
8
DEFAULT_255_2_778
10
19.2827227
20
22.0454855
40
0.5029119
50
358.5009073
51
26.9898737
0
ARC
8
DEFAULT_255_2_778
10
19.3452329
20
22.0572028
40
0.4422557
50
29.3131621
51
68.4629549
0
ARC
8
DEFAULT_255_2_778
10
19.1716555
20
21.6635033
40
0.8723522
50
67.3509126
51
82.4189386
0
ARC
8
DEFAULT_255_2_778
10
19.0651201
20
20.9456715
40
1.5980019
50
82.0280653
51
90.356332
0
ARC
8
DEFAULT_255_2_778
10
19.0557624
20
20.3311523
40
2.2124902
50
90.0150327
51
91.5362742
0
ARC
8
DEFAULT_255_2_778
10
19.0599689
20
20.1541943
40
2.3894975
50
91.5233449
51
92.0051392
0
LINE
8
DEFAULT_255_2_778
10
18.9763625
20
22.5422288
11
18.5448625
21
22.5422288
0
LINE
8
DEFAULT_255_2_778
10
19.3539625
20
21.9752288
11
19.3539625
21
21.9755288
0
LINE
8
DEFAULT_255_2_778
10
18.5448625
20
22.5419288
11
18.5448625
21
20.8428288
0
LINE
8
DEFAULT_255_2_778
10
18.5448625
20
20.8428288
11
18.9763625
21
20.8428288
0
LINE
8
DEFAULT_255_2_778
10
18.9763625
20
20.8428288
11
18.9763625
21
21.4092288
0
LINE
8
DEFAULT_255_2_778
10
18.5448625
20
22.5422288
11
18.5448625
21
22.5419288
0
ARC
8
DEFAULT_255_2_778
10
10.0344153
20
27.2179679
40
0.1904732
50
0.1722187
51
89.8579298
0
ARC
8
DEFAULT_255_2_778
10
10.0329279
20
27.2060221
40
0.2024278
50
89.4453182
51
176.4545188
0
LINE
8
DEFAULT_255_2_778
10
6.7595876
20
28.8996404
11
5.9610876
21
28.8996404
0
LINE
8
DEFAULT_255_2_778
10
5.9610876
20
28.8996404
11
5.9610876
21
14.7936404
0
LINE
8
DEFAULT_255_2_778
10
5.9610876
20
14.7936404
11
6.7595876
21
14.7936404
0
LINE
8
DEFAULT_255_2_778
10
6.7595876
20
14.7936404
11
6.7595876
21
16.4748404
0
LINE
8
DEFAULT_255_2_778
10
6.7595876
20
16.4748404
11
7.1799876
21
16.4748404
0
LINE
8
DEFAULT_255_2_778
10
7.1799876
20
16.4748404
11
7.1799876
21
27.2182404
0
LINE
8
DEFAULT_255_2_778
10
7.1799876
20
27.2182404
11
6.7595876
21
27.2182404
0
LINE
8
DEFAULT_255_2_778
10
6.7595876
20
27.2182404
11
6.7595876
21
28.8996404
0
LINE
8
DEFAULT_255_2_778
10
9.8281876
20
16.4750404
11
9.8281876
21
16.6558404
0
LINE
8
DEFAULT_255_2_778
10
9.8281876
20
16.6558404
11
7.2223876
21
16.6558404
0
LINE
8
DEFAULT_255_2_778
10
7.2223876
20
16.6558404
11
7.2223876
21
27.0377404
0
LINE
8
DEFAULT_255_2_778
10
7.2223876
20
27.0377404
11
7.4114876
21
26.8486404
0
LINE
8
DEFAULT_255_2_778
10
7.4114876
20
26.8486404
11
10.2250876
21
26.8486404
0
LINE
8
DEFAULT_255_2_778
10
9.8308876
20
27.2185404
11
8.3147876
21
27.2185404
0
LINE
8
DEFAULT_255_2_778
10
8.3147876
20
27.2185404
11
8.3147876
21
29.2359404
0
LINE
8
DEFAULT_255_2_778
10
7.2220272
20
27.0377292
11
9.8279272
21
27.0377292
0
LINE
8
DEFAULT_255_2_778
10
9.8279272
20
27.0377292
11
9.8279272
21
27.2184292
0
LINE
8
DEFAULT_255_2_778
10
10.2247272
20
27.2369292
11
10.2247272
21
26.3778292
0
LINE
8
DEFAULT_255_2_778
10
10.2247272
20
26.3778292
11
11.9818272
21
26.3778292
0
LINE
8
DEFAULT_255_2_778
10
11.9818272
20
26.3778292
11
11.9818272
21
27.2301292
0
LINE
8
DEFAULT_255_2_778
10
6.7595272
20
27.3949292
11
8.3147272
21
27.3949292
0
LINE
8
DEFAULT_255_2_778
10
5.9610885
20
18.8372667
11
5.9597885
21
18.8351667
0
LINE
8
DEFAULT_255_2_778
10
5.9597885
20
18.8351667
11
5.9560885
21
18.8330667
0
LINE
8
DEFAULT_255_2_778
10
5.9560885
20
18.8330667
11
5.9414885
21
18.8287667
0
LINE
8
DEFAULT_255_2_778
10
5.9414885
20
18.8287667
11
5.9182885
21
18.8245667
0
LINE
8
DEFAULT_255_2_778
10
5.9182885
20
18.8245667
11
5.8875885
21
18.8203667
0
LINE
8
DEFAULT_255_2_778
10
5.8875885
20
18.8203667
11
5.5406885
21
18.8203667
0
ARC
8
DEFAULT_255_2_778
10
6.1386201
20
14.7933431
40
0.177542
50
179.9087639
51
180.0304109
0
ARC
8
DEFAULT_255_2_778
10
6.297004
20
14.7932712
40
0.335926
50
180.0038002
51
225.0023603
0
ARC
8
DEFAULT_255_2_778
10
6.2970236
20
14.7932516
40
0.335926
50
224.9976397
51
269.9961998
0
LINE
8
DEFAULT_255_2_778
10
6.2970013
20
14.4573256
11
6.2973783
21
14.4573258
0
ARC
8
DEFAULT_255_2_778
10
5.961459
20
14.4576065
40
0.4207808
50
180.0382173
51
269.9481555
0
ARC
8
DEFAULT_255_2_778
10
5.961459
20
14.4576065
40
0.4207808
50
180.0382173
51
269.9481555
0
LINE
8
DEFAULT_255_2_778
10
6.2973783
20
14.4573258
11
15.4604783
21
14.4573258
0
LINE
8
DEFAULT_255_2_778
10
5.9610783
20
14.0368258
11
15.7966783
21
14.0368258
0
LINE
8
DEFAULT_255_2_778
10
5.5406783
20
28.0087258
11
5.9610783
21
28.0087258
0
LINE
8
DEFAULT_255_2_778
10
5.9610885
20
26.0669667
11
5.9597885
21
26.0648667
0
LINE
8
DEFAULT_255_2_778
10
5.9597885
20
26.0648667
11
5.9560885
21
26.0627667
0
LINE
8
DEFAULT_255_2_778
10
5.9560885
20
26.0627667
11
5.9414885
21
26.0584667
0
LINE
8
DEFAULT_255_2_778
10
5.9414885
20
26.0584667
11
5.9182885
21
26.0542667
0
LINE
8
DEFAULT_255_2_778
10
5.9182885
20
26.0542667
11
5.8875885
21
26.0500667
0
LINE
8
DEFAULT_255_2_778
10
5.8875885
20
26.0500667
11
5.5406885
21
26.0500667
0
LINE
8
DEFAULT_255_2_778
10
5.5406512
20
24.8728831
11
5.8875512
21
24.8728831
0
LINE
8
DEFAULT_255_2_778
10
5.8875512
20
24.8728831
11
5.9182512
21
24.8686831
0
LINE
8
DEFAULT_255_2_778
10
5.9182512
20
24.8686831
11
5.9414512
21
24.8644831
0
LINE
8
DEFAULT_255_2_778
10
5.9414512
20
24.8644831
11
5.9560512
21
24.8601831
0
LINE
8
DEFAULT_255_2_778
10
5.9560512
20
24.8601831
11
5.9597512
21
24.8580831
0
LINE
8
DEFAULT_255_2_778
10
5.9597512
20
24.8580831
11
5.9610512
21
24.8559831
0
LINE
8
DEFAULT_255_2_778
10
16.7211512
20
23.9481831
11
16.7211512
21
19.7449831
0
LINE
8
DEFAULT_255_2_778
10
16.7211512
20
19.7449831
11
16.7211512
21
23.9481831
0
LINE
8
DEFAULT_255_2_778
10
16.7211512
20
23.9481831
11
16.2168512
21
23.9481831
0
LINE
8
DEFAULT_255_2_778
10
16.2168512
20
23.9481831
11
16.7211512
21
23.9481831
0
LINE
8
DEFAULT_255_2_778
10
16.2168512
20
19.7449831
11
16.2168512
21
14.4572831
0
LINE
8
DEFAULT_255_2_778
10
16.2168512
20
14.4572831
11
16.2168512
21
19.7449831
0
LINE
8
DEFAULT_255_2_778
10
16.2168512
20
19.7449831
11
16.7211512
21
19.7449831
0
LINE
8
DEFAULT_255_2_778
10
7.4321512
20
16.8448831
11
7.4321512
21
26.8485831
0
LINE
8
DEFAULT_255_2_778
10
16.2168512
20
23.9481831
11
16.2168512
21
29.2358831
0
LINE
8
DEFAULT_255_2_778
10
10.0380512
20
26.8485831
11
10.0380512
21
27.4054831
0
LINE
8
DEFAULT_255_2_778
10
10.0171512
20
26.8485831
11
9.8279512
21
27.0376831
0
LINE
8
DEFAULT_255_2_778
10
7.4742512
20
25.0369831
11
7.4742512
21
26.2180831
0
LINE
8
DEFAULT_255_2_778
10
7.4742512
20
26.2180831
11
7.4321512
21
26.2180831
0
LINE
8
DEFAULT_255_2_778
10
7.4321512
20
18.6564831
11
9.5760512
21
18.6564831
0
LINE
8
DEFAULT_255_2_778
10
7.4321512
20
19.5140831
11
9.5760512
21
19.5140831
0
LINE
8
DEFAULT_255_2_778
10
9.5760512
20
19.8923831
11
7.4321512
21
19.8923831
0
LINE
8
DEFAULT_255_2_778
10
7.4321512
20
20.3715831
11
9.5760512
21
20.3715831
0
LINE
8
DEFAULT_255_2_778
10
9.5760512
20
20.7498831
11
7.4321512
21
20.7498831
0
LINE
8
DEFAULT_255_2_778
10
7.4321512
20
21.2290831
11
9.5760512
21
21.2290831
0
LINE
8
DEFAULT_255_2_778
10
9.5760512
20
21.6073831
11
7.4321512
21
21.6073831
0
LINE
8
DEFAULT_255_2_778
10
7.4321512
20
22.0865831
11
9.5760512
21
22.0865831
0
LINE
8
DEFAULT_255_2_778
10
9.5760512
20
22.4648831
11
7.4321512
21
22.4648831
0
LINE
8
DEFAULT_255_2_778
10
7.4321512
20
22.9440831
11
9.5760512
21
22.9440831
0
LINE
8
DEFAULT_255_2_778
10
9.5760512
20
23.3224831
11
7.4321512
21
23.3224831
0
LINE
8
DEFAULT_255_2_778
10
7.4321512
20
23.8015831
11
9.5760512
21
23.8015831
0
LINE
8
DEFAULT_255_2_778
10
9.5760512
20
24.1799831
11
7.4321512
21
24.1799831
0
LINE
8
DEFAULT_255_2_778
10
7.4321512
20
24.6590831
11
9.5760512
21
24.6590831
0
LINE
8
DEFAULT_255_2_778
10
9.5760512
20
25.0374831
11
7.4321512
21
25.0374831
0
LINE
8
DEFAULT_255_2_778
10
7.4742512
20
19.0351831
11
7.4742512
21
19.5142831
0
LINE
8
DEFAULT_255_2_778
10
7.4742512
20
19.8926831
11
7.4742512
21
20.3717831
0
LINE
8
DEFAULT_255_2_778
10
7.4742512
20
20.7501831
11
7.4742512
21
21.2292831
0
LINE
8
DEFAULT_255_2_778
10
7.4742512
20
21.6076831
11
7.4742512
21
22.0868831
0
LINE
8
DEFAULT_255_2_778
10
7.4742512
20
22.4651831
11
7.4742512
21
22.9443831
0
LINE
8
DEFAULT_255_2_778
10
7.4742512
20
23.3226831
11
7.4742512
21
23.8018831
0
LINE
8
DEFAULT_255_2_778
10
7.4742512
20
24.1801831
11
7.4742512
21
24.6593831
0
LINE
8
DEFAULT_255_2_778
10
7.4321512
20
17.3920831
11
7.6004512
21
17.3920831
0
LINE
8
DEFAULT_255_2_778
10
7.6004512
20
17.3920831
11
7.6004512
21
18.5940831
0
LINE
8
DEFAULT_255_2_778
10
7.6004512
20
18.5940831
11
9.5760512
21
18.5940831
0
LINE
8
DEFAULT_255_2_778
10
9.5760512
20
18.5940831
11
9.5760512
21
19.0983831
0
LINE
8
DEFAULT_255_2_778
10
9.5760512
20
19.0983831
11
7.6004512
21
19.0983831
0
LINE
8
DEFAULT_255_2_778
10
7.6004512
20
19.0983831
11
7.6004512
21
19.4512831
0
LINE
8
DEFAULT_255_2_778
10
7.6004512
20
19.4512831
11
9.5760512
21
19.4512831
0
LINE
8
DEFAULT_255_2_778
10
9.5760512
20
19.4512831
11
9.5760512
21
19.9555831
0
LINE
8
DEFAULT_255_2_778
10
9.5760512
20
19.9555831
11
7.6004512
21
19.9555831
0
LINE
8
DEFAULT_255_2_778
10
7.6004512
20
19.9555831
11
7.6004512
21
20.3085831
0
LINE
8
DEFAULT_255_2_778
10
7.6004512
20
20.3085831
11
9.5760512
21
20.3085831
0
LINE
8
DEFAULT_255_2_778
10
9.5760512
20
20.3085831
11
9.5760512
21
20.8128831
0
LINE
8
DEFAULT_255_2_778
10
9.5760512
20
20.8128831
11
7.6004512
21
20.8128831
0
LINE
8
DEFAULT_255_2_778
10
7.6004512
20
20.8128831
11
7.6004512
21
21.1657831
0
LINE
8
DEFAULT_255_2_778
10
7.6004512
20
21.1657831
11
9.5760512
21
21.1657831
0
LINE
8
DEFAULT_255_2_778
10
9.5760512
20
21.1657831
11
9.5760512
21
21.6700831
0
LINE
8
DEFAULT_255_2_778
10
9.5760512
20
21.6700831
11
7.6004512
21
21.6700831
0
LINE
8
DEFAULT_255_2_778
10
7.6004512
20
21.6700831
11
7.6004512
21
22.0230831
0
LINE
8
DEFAULT_255_2_778
10
7.6004512
20
22.0230831
11
9.5760512
21
22.0230831
0
LINE
8
DEFAULT_255_2_778
10
9.5760512
20
22.0230831
11
9.5760512
21
22.5273831
0
LINE
8
DEFAULT_255_2_778
10
9.5760512
20
22.5273831
11
7.6004512
21
22.5273831
0
LINE
8
DEFAULT_255_2_778
10
7.6004512
20
22.5273831
11
7.6004512
21
22.8802831
0
LINE
8
DEFAULT_255_2_778
10
7.6004512
20
22.8802831
11
9.5760512
21
22.8802831
0
LINE
8
DEFAULT_255_2_778
10
9.5760512
20
22.8802831
11
9.5760512
21
23.3845831
0
LINE
8
DEFAULT_255_2_778
10
9.5760512
20
23.3845831
11
7.6004512
21
23.3845831
0
LINE
8
DEFAULT_255_2_778
10
7.6004512
20
23.3845831
11
7.6004512
21
23.7375831
0
LINE
8
DEFAULT_255_2_778
10
7.6004512
20
23.7375831
11
9.5760512
21
23.7375831
0
LINE
8
DEFAULT_255_2_778
10
9.5760512
20
23.7375831
11
9.5760512
21
24.2418831
0
LINE
8
DEFAULT_255_2_778
10
9.5760512
20
24.2418831
11
7.6004512
21
24.2418831
0
LINE
8
DEFAULT_255_2_778
10
7.6004512
20
24.2418831
11
7.6004512
21
24.5947831
0
LINE
8
DEFAULT_255_2_778
10
7.6004512
20
24.5947831
11
9.5760512
21
24.5947831
0
LINE
8
DEFAULT_255_2_778
10
9.5760512
20
24.5947831
11
9.5758512
21
25.0990831
0
LINE
8
DEFAULT_255_2_778
10
9.5758512
20
25.0990831
11
7.6004512
21
25.0990831
0
LINE
8
DEFAULT_255_2_778
10
7.6004512
20
25.0990831
11
7.6004512
21
26.3010831
0
LINE
8
DEFAULT_255_2_778
10
7.6004512
20
26.3010831
11
7.4324512
21
26.3010831
0
LINE
8
DEFAULT_255_2_778
10
7.4324512
20
17.4743831
11
7.4744512
21
17.4743831
0
LINE
8
DEFAULT_255_2_778
10
7.4744512
20
17.4743831
11
7.4744512
21
18.6554831
0
LINE
8
DEFAULT_255_2_778
10
7.4324512
20
19.0337831
11
9.5763512
21
19.0337831
0
ARC
8
DEFAULT_255_2_778
10
10.0343945
20
16.4755482
40
0.1904732
50
270.1420809
51
359.8277554
0
ARC
8
DEFAULT_255_2_778
10
10.0353391
20
16.4755481
40
0.1904732
50
180.1722339
51
269.8579449
0
ARC
8
DEFAULT_255_2_778
10
15.2917339
20
16.7648427
40
0.0842671
50
180.0456254
51
269.9543888
0
ARC
8
DEFAULT_255_2_778
10
15.272875
20
16.7621275
40
0.0655987
50
141.5983218
51
168.616058
0
ARC
8
DEFAULT_255_2_778
10
15.3202117
20
16.7098468
40
0.1369501
50
105.563624
51
126.9613856
0
ARC
8
DEFAULT_255_2_778
10
15.3320932
20
16.6788148
40
0.170061
50
91.851848
51
106.6147535
0
ARC
8
DEFAULT_255_2_778
10
15.3320682
20
16.6803263
40
0.1685493
50
90.0004665
51
91.859943
0
ARC
8
DEFAULT_255_2_778
10
15.3321974
20
18.5302004
40
0.1681249
50
252.9374109
51
269.9555087
0
ARC
8
DEFAULT_255_2_778
10
15.3194997
20
18.4993132
40
0.1349065
50
232.2281061
51
254.2439245
0
ARC
8
DEFAULT_255_2_778
10
15.2893771
20
18.4596113
40
0.0850748
50
210.6227593
51
231.8862311
0
ARC
8
DEFAULT_255_2_778
10
15.2692381
20
18.4473154
40
0.061482
50
181.0622546
51
210.322069
0
ARC
8
DEFAULT_255_2_778
10
15.2919273
20
18.4461152
40
0.0841605
50
90.0411959
51
179.9589064
0
ARC
8
DEFAULT_255_2_778
10
15.1397124
20
19.8382659
40
0.2363554
50
359.8326511
51
0.0151859
0
ARC
8
DEFAULT_255_2_778
10
15.1246937
20
19.8383518
40
0.2513743
50
359.9947083
51
45.0242832
0
ARC
8
DEFAULT_255_2_778
10
15.1246055
20
19.8383117
40
0.251465
50
45.0165113
51
89.9969796
0
ARC
8
DEFAULT_255_2_778
10
15.1244306
20
19.9131282
40
0.1766486
50
89.9390031
51
90.1828794
0
ARC
8
DEFAULT_255_2_778
10
14.955303
20
19.9131282
40
0.1766482
50
89.8171206
51
90.0609969
0
ARC
8
DEFAULT_255_2_778
10
14.9551282
20
19.8383117
40
0.251465
50
90.0030204
51
134.9834887
0
ARC
8
DEFAULT_255_2_778
10
14.9550399
20
19.8383518
40
0.2513743
50
134.9757168
51
180.0052917
0
ARC
8
DEFAULT_255_2_778
10
14.9400212
20
19.8382659
40
0.2363555
50
179.9848141
51
180.1673489
0
ARC
8
DEFAULT_255_2_778
10
14.4404701
20
19.0379516
40
0.2631992
50
0.0000399
51
0.2446746
0
ARC
8
DEFAULT_255_2_778
10
14.453036
20
19.0379936
40
0.2506333
50
314.9374041
51
359.9904449
0
ARC
8
DEFAULT_255_2_778
10
14.4523055
20
19.0384394
40
0.251465
50
270.0030204
51
314.9834887
0
ARC
8
DEFAULT_255_2_778
10
14.4521308
20
18.9637169
40
0.1767426
50
269.817153
51
270.0608996
0
ARC
8
DEFAULT_255_2_778
10
13.871003
20
18.6103329
40
0.1766435
50
89.8171206
51
90.0609969
0
ARC
8
DEFAULT_255_2_778
10
13.8707944
20
18.5358345
40
0.2511422
50
89.995312
51
135.0462151
0
ARC
8
DEFAULT_255_2_778
10
13.870757
20
18.535586
40
0.2512914
50
135.0001138
51
180.0131061
0
ARC
8
DEFAULT_255_2_778
10
13.8558275
20
18.5354659
40
0.2363618
50
179.9848141
51
180.1673489
0
ARC
8
DEFAULT_255_2_778
10
13.3831061
20
16.7267852
40
0.2363617
50
359.9848141
51
0.1673489
0
ARC
8
DEFAULT_255_2_778
10
13.3677705
20
16.7267332
40
0.2516975
50
315.0384258
51
359.997579
0
ARC
8
DEFAULT_255_2_778
10
13.3680092
20
16.7269719
40
0.2516975
50
270.002421
51
314.9615742
0
ARC
8
DEFAULT_255_2_778
10
13.3678317
20
16.6525615
40
0.1772872
50
269.817444
51
270.0608023
0
ARC
8
DEFAULT_255_2_778
10
12.1713943
20
16.4757478
40
0.1904731
50
270.1722294
51
359.8579556
0
ARC
8
DEFAULT_255_2_778
10
12.1725247
20
16.4758335
40
0.1905587
50
180.1677458
51
269.8322479
0
ARC
8
DEFAULT_255_2_778
10
15.7964502
20
14.4578923
40
0.4207168
50
270.0295037
51
359.9568691
0
ARC
8
DEFAULT_255_2_778
10
15.7964502
20
14.4578923
40
0.4207168
50
270.0295037
51
359.9568691
0
ARC
8
DEFAULT_255_2_778
10
12.1721391
20
27.217903
40
0.1904732
50
90.1420809
51
179.8277554
0
ARC
8
DEFAULT_255_2_778
10
12.1696835
20
27.2298412
40
0.1785454
50
356.3502755
51
89.3635399
0
ARC
8
DEFAULT_255_2_778
10
13.3666101
20
26.9653303
40
0.2531456
50
45.0781908
51
89.8966403
0
ARC
8
DEFAULT_255_2_778
10
13.368149
20
26.9668004
40
0.2510182
50
359.9663137
51
45.0899428
0
ARC
8
DEFAULT_255_2_778
10
13.4412665
20
26.9665585
40
0.1779006
50
359.9088603
51
0.0303783
0
ARC
8
DEFAULT_255_2_778
10
13.8547596
20
25.1581863
40
0.2355938
50
179.8323762
51
180.0152347
0
ARC
8
DEFAULT_255_2_778
10
13.8706307
20
25.1581369
40
0.251465
50
180.0030204
51
224.9834887
0
ARC
8
DEFAULT_255_2_778
10
13.8706244
20
25.1584719
40
0.2516975
50
225.0384258
51
269.997579
0
ARC
8
DEFAULT_255_2_778
10
13.8708021
20
25.0839674
40
0.177193
50
269.9391007
51
270.1825883
0
ARC
8
DEFAULT_255_2_778
10
14.4518317
20
24.7294896
40
0.1772869
50
89.9391977
51
90.182556
0
ARC
8
DEFAULT_255_2_778
10
14.4520092
20
24.6550792
40
0.2516975
50
45.0384258
51
89.997579
0
ARC
8
DEFAULT_255_2_778
10
14.4517705
20
24.6553179
40
0.2516975
50
0.002421
51
44.9615742
0
ARC
8
DEFAULT_255_2_778
10
14.4671061
20
24.6552659
40
0.2363618
50
359.8326511
51
0.0151859
0
ARC
8
DEFAULT_255_2_778
10
14.9390596
20
23.8553863
40
0.2355938
50
179.8323762
51
180.0152347
0
ARC
8
DEFAULT_255_2_778
10
14.9549307
20
23.8553369
40
0.251465
50
180.0030204
51
224.9834887
0
ARC
8
DEFAULT_255_2_778
10
14.9548282
20
23.8554394
40
0.251465
50
225.0165113
51
269.9969796
0
ARC
8
DEFAULT_255_2_778
10
14.955003
20
23.7806229
40
0.1766486
50
269.9390031
51
270.1828794
0
ARC
8
DEFAULT_255_2_778
10
15.1244306
20
23.7806229
40
0.1766482
50
269.8171206
51
270.0609969
0
ARC
8
DEFAULT_255_2_778
10
15.1246055
20
23.8554394
40
0.251465
50
270.0030204
51
314.9834887
0
ARC
8
DEFAULT_255_2_778
10
15.1249257
20
23.8553031
40
0.2511423
50
314.9537849
51
0.004688
0
ARC
8
DEFAULT_255_2_778
10
15.1404803
20
23.8553863
40
0.2355876
50
359.9847653
51
0.1676238
0
ARC
8
DEFAULT_255_2_778
10
15.2919485
20
25.2475572
40
0.0841817
50
179.987491
51
269.9444213
0
ARC
8
DEFAULT_255_2_778
10
15.2686791
20
25.2463878
40
0.0609238
50
148.4391214
51
178.8828664
0
ARC
8
DEFAULT_255_2_778
10
15.2932602
20
25.2310164
40
0.0899147
50
127.7870076
51
148.2913661
0
ARC
8
DEFAULT_255_2_778
10
15.3203518
20
25.1931348
40
0.1364642
50
105.594351
51
127.030909
0
ARC
8
DEFAULT_255_2_778
10
15.3324002
20
25.1608764
40
0.1707992
50
90.0111877
51
106.5783022
0
ARC
8
DEFAULT_255_2_778
10
15.3323503
20
27.0120222
40
0.1671466
50
252.8872348
51
270.0056748
0
ARC
8
DEFAULT_255_2_778
10
15.3197623
20
26.9819366
40
0.1347265
50
232.1350056
51
254.2388241
0
ARC
8
DEFAULT_255_2_778
10
15.2759123
20
26.9329947
40
0.0683619
50
192.0907206
51
218.0332959
0
ARC
8
DEFAULT_255_2_778
10
15.2921486
20
26.9288938
40
0.0841818
50
89.9875832
51
179.9443632
0
ARC
8
DEFAULT_255_2_778
10
15.7964502
20
29.2355589
40
0.4207168
50
0.0431309
51
89.9704963
0
ARC
8
DEFAULT_255_2_778
10
15.7964502
20
29.2355589
40
0.4207168
50
0.0431309
51
89.9704963
0
ARC
8
DEFAULT_255_2_778
10
6.1389086
20
28.8998583
40
0.177542
50
179.9695891
51
180.0912361
0
ARC
8
DEFAULT_255_2_778
10
6.2972926
20
28.8999302
40
0.335926
50
134.9976397
51
179.9961998
0
ARC
8
DEFAULT_255_2_778
10
6.2973121
20
28.8999498
40
0.335926
50
90.0038002
51
135.0023603
0
LINE
8
DEFAULT_255_2_778
10
6.2972899
20
29.2358758
11
6.2976668
21
29.2358756
0
ARC
8
DEFAULT_255_2_778
10
5.961534
20
29.2357083
40
0.4205672
50
90.0227747
51
179.9772089
0
ARC
8
DEFAULT_255_2_778
10
5.961534
20
29.2357083
40
0.4205673
50
90.0227747
51
179.9772089
0
ARC
8
DEFAULT_255_2_778
10
10.1989613
20
46.6404569
40
0.1759058
50
359.9083741
51
0.0305399
0
ARC
8
DEFAULT_255_2_778
10
10.1791784
20
46.6404182
40
0.1956888
50
0.0387702
51
45.03497
0
ARC
8
DEFAULT_255_2_778
10
10.178981
20
46.6405175
40
0.1957582
50
44.9735714
51
90.062695
0
ARC
8
DEFAULT_255_2_778
10
10.1769469
20
46.6274131
40
0.2088703
50
89.5007662
51
176.4969247
0
LINE
8
DEFAULT_255_2_778
10
9.1553668
20
14.0371756
11
9.1553668
21
14.4570756
0
LINE
8
DEFAULT_255_2_778
10
9.5758668
20
14.4570756
11
9.5758668
21
14.0371756
0
LINE
8
DEFAULT_255_2_778
10
9.8448668
20
16.4749756
11
8.3148668
21
16.4749756
0
LINE
8
DEFAULT_255_2_778
10
8.3148668
20
16.4749756
11
8.3148668
21
14.4575756
0
LINE
8
DEFAULT_255_2_778
10
7.2220668
20
16.6557756
11
7.4112668
21
16.8448756
0
LINE
8
DEFAULT_255_2_778
10
7.4112668
20
16.8448756
11
10.2248668
21
16.8448756
0
LINE
8
DEFAULT_255_2_778
10
5.9610668
20
15.2309756
11
5.5406668
21
15.2309756
0
LINE
8
DEFAULT_255_2_778
10
5.5406668
20
17.6436756
11
5.8875668
21
17.6436756
0
LINE
8
DEFAULT_255_2_778
10
5.8875668
20
17.6436756
11
5.9182668
21
17.6394756
0
LINE
8
DEFAULT_255_2_778
10
5.9182668
20
17.6394756
11
5.9414668
21
17.6351756
0
LINE
8
DEFAULT_255_2_778
10
5.9414668
20
17.6351756
11
5.9560668
21
17.6309756
0
LINE
8
DEFAULT_255_2_778
10
5.9560668
20
17.6309756
11
5.9597668
21
17.6288756
0
LINE
8
DEFAULT_255_2_778
10
5.9597668
20
17.6288756
11
5.9610668
21
17.6267756
0
LINE
8
DEFAULT_255_2_778
10
6.7595668
20
16.2985756
11
8.3148668
21
16.2985756
0
LINE
8
DEFAULT_255_2_778
10
15.4604668
20
18.3622756
11
15.4604668
21
25.3311756
0
LINE
8
DEFAULT_255_2_778
10
14.6957668
20
18.9885756
11
13.3167668
21
18.9885756
0
LINE
8
DEFAULT_255_2_778
10
13.3167668
20
18.9885756
11
13.1066668
21
19.1986756
0
LINE
8
DEFAULT_255_2_778
10
13.1066668
20
19.1986756
11
13.1066668
21
16.8448756
0
LINE
8
DEFAULT_255_2_778
10
14.6997668
20
19.0348756
11
14.5356668
21
19.1988756
0
LINE
8
DEFAULT_255_2_778
10
14.5356668
20
19.1988756
11
11.1310668
21
19.1988756
0
LINE
8
DEFAULT_255_2_778
10
11.1310668
20
19.1988756
11
11.1310668
21
24.4950756
0
LINE
8
DEFAULT_255_2_778
10
11.1310668
20
24.4950756
11
14.5356668
21
24.4950756
0
LINE
8
DEFAULT_255_2_778
10
14.5356668
20
24.4950756
11
14.6997668
21
24.6590756
0
LINE
8
DEFAULT_255_2_778
10
14.5356668
20
19.1991756
11
14.5356668
21
24.4953756
0
LINE
8
DEFAULT_255_2_778
10
10.0380668
20
16.2876756
11
10.0380668
21
16.8446756
0
LINE
8
DEFAULT_255_2_778
10
12.1396668
20
16.8446756
11
12.1396668
21
16.2876756
0
LINE
8
DEFAULT_255_2_778
10
12.3497668
20
16.6554756
11
12.3497668
21
16.4088756
0
LINE
8
DEFAULT_255_2_778
10
10.0168668
20
16.8446756
11
9.8276668
21
16.6554756
0
LINE
8
DEFAULT_255_2_778
10
13.3162668
20
18.9882756
11
13.3162668
21
16.6554756
0
LINE
8
DEFAULT_255_2_778
10
10.2444668
20
14.4570756
11
10.2444668
21
14.0365756
0
LINE
8
DEFAULT_255_2_778
10
11.4212668
20
14.0365756
11
11.4212668
21
14.4570756
0
LINE
8
DEFAULT_255_2_778
10
12.1602668
20
16.8443756
11
12.3494668
21
16.6551756
0
LINE
8
DEFAULT_255_2_778
10
12.3494668
20
16.6551756
11
13.3162668
21
16.6551756
0
LINE
8
DEFAULT_255_2_778
10
13.3162668
20
16.6551756
11
13.1270668
21
16.8443756
0
LINE
8
DEFAULT_255_2_778
10
13.1270668
20
16.8443756
11
11.9811668
21
16.8443756
0
LINE
8
DEFAULT_255_2_778
10
15.3757668
20
14.4570756
11
15.3757668
21
16.6805756
0
LINE
8
DEFAULT_255_2_778
10
15.3757668
20
16.6805756
11
15.2916668
21
16.6805756
0
LINE
8
DEFAULT_255_2_778
10
15.2074668
20
16.7647756
11
15.2085668
21
16.7750756
0
LINE
8
DEFAULT_255_2_778
10
15.2214668
20
16.8028756
11
15.2378668
21
16.8192756
0
LINE
8
DEFAULT_255_2_778
10
15.3320668
20
16.8488756
11
15.5437668
21
16.8488756
0
LINE
8
DEFAULT_255_2_778
10
15.5437668
20
16.8488756
11
15.5437668
21
18.3620756
0
LINE
8
DEFAULT_255_2_778
10
15.5437668
20
18.3620756
11
15.3320668
21
18.3620756
0
LINE
8
DEFAULT_255_2_778
10
15.2918668
20
18.5302756
11
15.3760668
21
18.5302756
0
LINE
8
DEFAULT_255_2_778
10
15.3760668
20
18.5302756
11
15.3760668
21
19.8375756
0
LINE
8
DEFAULT_255_2_778
10
15.1238668
20
20.0897756
11
14.9558668
21
20.0897756
0
LINE
8
DEFAULT_255_2_778
10
14.7036668
20
19.8375756
11
14.7036668
21
19.0390756
0
LINE
8
DEFAULT_255_2_778
10
14.4515668
20
18.7869756
11
13.8715668
21
18.7869756
0
LINE
8
DEFAULT_255_2_778
10
13.6194668
20
18.5347756
11
13.6194668
21
16.7274756
0
LINE
8
DEFAULT_255_2_778
10
13.3672668
20
16.4752756
11
12.3618668
21
16.4752756
0
LINE
8
DEFAULT_255_2_778
10
10.2250668
20
16.3731756
11
10.2250668
21
17.3158756
0
LINE
8
DEFAULT_255_2_778
10
10.2250668
20
17.3158756
11
11.9819668
21
17.3158756
0
LINE
8
DEFAULT_255_2_778
10
11.9819668
20
17.3158756
11
11.9819668
21
16.3731756
0
LINE
8
DEFAULT_255_2_778
10
16.2171668
20
14.4575756
11
16.2171668
21
14.4575756
0
LINE
8
DEFAULT_255_2_778
10
15.4604668
20
14.0371756
11
15.4604668
21
16.8491756
0
LINE
8
DEFAULT_255_2_778
10
16.2171668
20
24.6209756
11
15.4604668
21
24.6209756
0
LINE
8
DEFAULT_255_2_778
10
12.2658668
20
19.1986756
11
12.2658668
21
16.8448756
0
LINE
8
DEFAULT_255_2_778
10
16.2168668
20
19.0726756
11
15.4601668
21
19.0726756
0
LINE
8
DEFAULT_255_2_778
10
12.1396668
20
27.4057756
11
12.1396668
21
26.8485756
0
LINE
8
DEFAULT_255_2_778
10
12.1607668
20
26.8485756
11
12.3499668
21
27.0376756
0
LINE
8
DEFAULT_255_2_778
10
12.3499668
20
27.0376756
11
12.3499668
21
27.2215756
0
LINE
8
DEFAULT_255_2_778
10
15.4604668
20
20.1400756
11
14.5356668
21
20.1400756
0
LINE
8
DEFAULT_255_2_778
10
14.5356668
20
23.5531756
11
15.4604668
21
23.5531756
0
LINE
8
DEFAULT_255_2_778
10
14.7457668
20
23.7195756
11
14.7457668
21
23.5531756
0
LINE
8
DEFAULT_255_2_778
10
14.7457668
20
20.1400756
11
14.7457668
21
19.9735756
0
LINE
8
DEFAULT_255_2_778
10
13.1064668
20
26.8485756
11
13.1064668
21
24.4947756
0
LINE
8
DEFAULT_255_2_778
10
13.1064668
20
24.4947756
11
13.3164668
21
24.7048756
0
LINE
8
DEFAULT_255_2_778
10
13.3164668
20
24.7048756
11
14.6954668
21
24.7048756
0
LINE
8
DEFAULT_255_2_778
10
12.2655668
20
26.8485756
11
12.2655668
21
24.4947756
0
LINE
8
DEFAULT_255_2_778
10
13.3164668
20
27.0376756
11
12.3497668
21
27.0376756
0
LINE
8
DEFAULT_255_2_778
10
11.9814668
20
26.8485756
11
13.1273668
21
26.8485756
0
LINE
8
DEFAULT_255_2_778
10
13.1273668
20
26.8485756
11
13.3164668
21
27.0376756
0
LINE
8
DEFAULT_255_2_778
10
13.3164668
20
27.0376756
11
13.3164668
21
24.7048756
0
LINE
8
DEFAULT_255_2_778
10
12.3478668
20
27.2184756
11
13.3670668
21
27.2184756
0
LINE
8
DEFAULT_255_2_778
10
13.6191668
20
26.9662756
11
13.6191668
21
25.1588756
0
LINE
8
DEFAULT_255_2_778
10
13.8713668
20
24.9067756
11
14.4512668
21
24.9067756
0
LINE
8
DEFAULT_255_2_778
10
14.7034668
20
24.6545756
11
14.7034668
21
23.8560756
0
LINE
8
DEFAULT_255_2_778
10
14.9555668
20
23.6039756
11
15.1238668
21
23.6039756
0
LINE
8
DEFAULT_255_2_778
10
15.3760668
20
23.8560756
11
15.3760668
21
25.1633756
0
LINE
8
DEFAULT_255_2_778
10
15.3760668
20
25.1633756
11
15.2918668
21
25.1633756
0
LINE
8
DEFAULT_255_2_778
10
15.3323668
20
25.3316756
11
15.5440668
21
25.3316756
0
LINE
8
DEFAULT_255_2_778
10
15.5440668
20
25.3316756
11
15.5440668
21
26.8448756
0
LINE
8
DEFAULT_255_2_778
10
15.5440668
20
26.8448756
11
15.3323668
21
26.8448756
0
LINE
8
DEFAULT_255_2_778
10
15.2370668
20
26.8755756
11
15.2220668
21
26.8908756
0
LINE
8
DEFAULT_255_2_778
10
15.2090668
20
26.9186756
11
15.2079668
21
26.9289756
0
LINE
8
DEFAULT_255_2_778
10
15.2921668
20
27.0130756
11
15.3762668
21
27.0130756
0
LINE
8
DEFAULT_255_2_778
10
15.3762668
20
27.0130756
11
15.3762668
21
29.2366756
0
LINE
8
DEFAULT_255_2_778
10
15.4604668
20
26.8450756
11
15.4604668
21
29.6562756
0
LINE
8
DEFAULT_255_2_778
10
15.7966668
20
29.6562756
11
5.9610668
21
29.6562756
0
LINE
8
DEFAULT_255_2_778
10
5.9610668
20
29.6562756
11
15.7966668
21
29.6562756
0
LINE
8
DEFAULT_255_2_778
10
10.2449668
20
29.6562756
11
10.2449668
21
29.2358756
0
LINE
8
DEFAULT_255_2_778
10
11.4218668
20
29.2358756
11
11.4218668
21
29.6562756
0
LINE
8
DEFAULT_255_2_778
10
9.1556668
20
29.2480756
11
9.1556668
21
29.6562756
0
LINE
8
DEFAULT_255_2_778
10
9.5760668
20
29.6562756
11
9.5760668
21
29.2340756
0
LINE
8
DEFAULT_255_2_778
10
6.2976668
20
29.2358756
11
15.4606668
21
29.2358756
0
LINE
8
DEFAULT_255_2_778
10
5.5409668
20
29.2358756
11
5.5409668
21
14.4572756
0
LINE
8
DEFAULT_255_2_778
10
5.5409668
20
14.4572756
11
5.5409668
21
29.2358756
0
LINE
8
DEFAULT_255_2_778
10
6.7987668
20
48.3755756
11
5.9745668
21
48.3755756
0
LINE
8
DEFAULT_255_2_778
10
5.9745668
20
48.3755756
11
5.9745668
21
33.8179756
0
LINE
8
DEFAULT_255_2_778
10
5.9745668
20
33.8179756
11
6.7987668
21
33.8179756
0
LINE
8
DEFAULT_255_2_778
10
6.7987668
20
33.8179756
11
6.7987668
21
35.5530756
0
LINE
8
DEFAULT_255_2_778
10
6.7987668
20
35.5530756
11
7.2326668
21
35.5530756
0
LINE
8
DEFAULT_255_2_778
10
7.2326668
20
35.5530756
11
7.2326668
21
46.6404756
0
LINE
8
DEFAULT_255_2_778
10
7.2326668
20
46.6404756
11
6.7987668
21
46.6404756
0
LINE
8
DEFAULT_255_2_778
10
6.7987668
20
46.6404756
11
6.7987668
21
48.3755756
0
LINE
8
DEFAULT_255_2_778
10
9.9652668
20
35.5530756
11
9.9652668
21
35.7395756
0
LINE
8
DEFAULT_255_2_778
10
9.9652668
20
35.7395756
11
7.2757668
21
35.7395756
0
LINE
8
DEFAULT_255_2_778
10
7.2757668
20
35.7395756
11
7.2757668
21
46.4538756
0
LINE
8
DEFAULT_255_2_778
10
7.2757668
20
46.4538756
11
7.4710668
21
46.2586756
0
LINE
8
DEFAULT_255_2_778
10
7.4710668
20
46.2586756
11
10.3748668
21
46.2586756
0
LINE
8
DEFAULT_255_2_778
10
9.9684668
20
46.6401756
11
8.4039668
21
46.6401756
0
LINE
8
DEFAULT_255_2_778
10
8.4039668
20
46.6401756
11
8.4039668
21
48.7221756
0
LINE
8
DEFAULT_255_2_778
10
7.2757511
20
46.4539333
11
9.9652511
21
46.4539333
0
LINE
8
DEFAULT_255_2_778
10
9.9652511
20
46.4539333
11
9.9652511
21
46.6404333
0
LINE
8
DEFAULT_255_2_778
10
10.3748511
20
46.6595333
11
10.3748511
21
45.7728333
0
LINE
8
DEFAULT_255_2_778
10
10.3748511
20
45.7728333
11
12.1880511
21
45.7728333
0
LINE
8
DEFAULT_255_2_778
10
12.1880511
20
45.7728333
11
12.1880511
21
46.6523333
0
LINE
8
DEFAULT_255_2_778
10
6.7987511
20
46.8227333
11
8.4037511
21
46.8227333
0
LINE
8
DEFAULT_255_2_778
10
5.9745417
20
37.9909312
11
5.9732417
21
37.9888312
0
LINE
8
DEFAULT_255_2_778
10
5.9732417
20
37.9888312
11
5.9695417
21
37.9867312
0
LINE
8
DEFAULT_255_2_778
10
5.9695417
20
37.9867312
11
5.9544417
21
37.9824312
0
LINE
8
DEFAULT_255_2_778
10
5.9544417
20
37.9824312
11
5.9303417
21
37.9779312
0
LINE
8
DEFAULT_255_2_778
10
5.9303417
20
37.9779312
11
5.8986417
21
37.9734312
0
LINE
8
DEFAULT_255_2_778
10
5.8986417
20
37.9734312
11
5.5406417
21
37.9734312
0
ARC
8
DEFAULT_255_2_778
10
6.1526785
20
33.8177156
40
0.1781744
50
179.9089572
51
180.0303465
0
ARC
8
DEFAULT_255_2_778
10
6.3217222
20
33.8176212
40
0.3472181
50
179.9999877
51
224.9538579
0
ARC
8
DEFAULT_255_2_778
10
6.3212308
20
33.8177844
40
0.3469859
50
225.0302665
51
269.9993511
0
LINE
8
DEFAULT_255_2_778
10
6.3212268
20
33.4707986
11
6.3216043
21
33.4707988
0
ARC
8
DEFAULT_255_2_778
10
5.9748086
20
33.4708028
40
0.4339041
50
180.0269402
51
269.9598247
0
ARC
8
DEFAULT_255_2_778
10
5.9748086
20
33.4708028
40
0.4339043
50
180.0269402
51
269.9598247
0
LINE
8
DEFAULT_255_2_778
10
6.3216043
20
33.4707988
11
15.7781043
21
33.4707988
0
LINE
8
DEFAULT_255_2_778
10
5.9745043
20
33.0368988
11
16.1250043
21
33.0368988
0
LINE
8
DEFAULT_255_2_778
10
5.5406043
20
47.4558988
11
5.9743043
21
47.4558988
0
LINE
8
DEFAULT_255_2_778
10
5.9745417
20
45.4519312
11
5.9732417
21
45.4498312
0
LINE
8
DEFAULT_255_2_778
10
5.9732417
20
45.4498312
11
5.9695417
21
45.4477312
0
LINE
8
DEFAULT_255_2_778
10
5.9695417
20
45.4477312
11
5.9544417
21
45.4434312
0
LINE
8
DEFAULT_255_2_778
10
5.9544417
20
45.4434312
11
5.9303417
21
45.4389312
0
LINE
8
DEFAULT_255_2_778
10
5.9303417
20
45.4389312
11
5.8986417
21
45.4344312
0
LINE
8
DEFAULT_255_2_778
10
5.8986417
20
45.4344312
11
5.5406417
21
45.4344312
0
LINE
8
DEFAULT_255_2_778
10
5.5406606
20
44.2200207
11
5.8986606
21
44.2200207
0
LINE
8
DEFAULT_255_2_778
10
5.8986606
20
44.2200207
11
5.9303606
21
44.2155207
0
LINE
8
DEFAULT_255_2_778
10
5.9303606
20
44.2155207
11
5.9544606
21
44.2113207
0
LINE
8
DEFAULT_255_2_778
10
5.9544606
20
44.2113207
11
5.9695606
21
44.2068207
0
LINE
8
DEFAULT_255_2_778
10
5.9695606
20
44.2068207
11
5.9732606
21
44.2046207
0
LINE
8
DEFAULT_255_2_778
10
5.9732606
20
44.2046207
11
5.9745606
21
44.2025207
0
LINE
8
DEFAULT_255_2_778
10
17.0791606
20
43.2656207
11
17.0791606
21
38.9278207
0
LINE
8
DEFAULT_255_2_778
10
17.0791606
20
38.9278207
11
17.0791606
21
43.2656207
0
LINE
8
DEFAULT_255_2_778
10
17.0791606
20
43.2656207
11
16.5586606
21
43.2656207
0
LINE
8
DEFAULT_255_2_778
10
16.5586606
20
43.2656207
11
17.0791606
21
43.2656207
0
LINE
8
DEFAULT_255_2_778
10
16.5586606
20
38.9278207
11
16.5586606
21
33.4708207
0
LINE
8
DEFAULT_255_2_778
10
16.5586606
20
33.4708207
11
16.5586606
21
38.9278207
0
LINE
8
DEFAULT_255_2_778
10
16.5586606
20
38.9278207
11
17.0791606
21
38.9278207
0
LINE
8
DEFAULT_255_2_778
10
7.4927606
20
35.9346207
11
7.4927606
21
46.2586207
0
LINE
8
DEFAULT_255_2_778
10
16.5586939
20
43.265478
11
16.5586939
21
48.722478
0
LINE
8
DEFAULT_255_2_778
10
10.1822939
20
46.258678
11
10.1822939
21
46.833578
0
LINE
8
DEFAULT_255_2_778
10
10.1605939
20
46.258678
11
9.9652939
21
46.453978
0
LINE
8
DEFAULT_255_2_778
10
7.5361939
20
44.389178
11
7.5361939
21
45.608078
0
LINE
8
DEFAULT_255_2_778
10
7.5361939
20
45.608078
11
7.4927939
21
45.608078
0
LINE
8
DEFAULT_255_2_778
10
7.4927939
20
37.804478
11
9.7051939
21
37.804478
0
LINE
8
DEFAULT_255_2_778
10
7.4927939
20
38.689478
11
9.7051939
21
38.689478
0
LINE
8
DEFAULT_255_2_778
10
9.7051939
20
39.079978
11
7.4927939
21
39.079978
0
LINE
8
DEFAULT_255_2_778
10
7.4927939
20
39.574478
11
9.7051939
21
39.574478
0
LINE
8
DEFAULT_255_2_778
10
9.7051939
20
39.965078
11
7.4927939
21
39.965078
0
LINE
8
DEFAULT_255_2_778
10
7.4927939
20
40.459578
11
9.7051939
21
40.459578
0
LINE
8
DEFAULT_255_2_778
10
9.7051939
20
40.850078
11
7.4927939
21
40.850078
0
LINE
8
DEFAULT_255_2_778
10
7.4927939
20
41.344578
11
9.7051939
21
41.344578
0
LINE
8
DEFAULT_255_2_778
10
9.7051939
20
41.735078
11
7.4927939
21
41.735078
0
LINE
8
DEFAULT_255_2_778
10
7.4927939
20
42.229578
11
9.7051939
21
42.229578
0
LINE
8
DEFAULT_255_2_778
10
9.7051939
20
42.620178
11
7.4927939
21
42.620178
0
LINE
8
DEFAULT_255_2_778
10
7.4927939
20
43.114678
11
9.7051939
21
43.114678
0
LINE
8
DEFAULT_255_2_778
10
9.7051939
20
43.505178
11
7.4927939
21
43.505178
0
LINE
8
DEFAULT_255_2_778
10
7.4927939
20
43.999678
11
9.7051939
21
43.999678
0
LINE
8
DEFAULT_255_2_778
10
9.7051939
20
44.390178
11
7.4927939
21
44.390178
0
LINE
8
DEFAULT_255_2_778
10
7.5361939
20
38.195778
11
7.5361939
21
38.690278
0
LINE
8
DEFAULT_255_2_778
10
7.5361939
20
39.080578
11
7.5361939
21
39.575078
0
LINE
8
DEFAULT_255_2_778
10
7.5361939
20
39.965578
11
7.5361939
21
40.460078
0
LINE
8
DEFAULT_255_2_778
10
7.5361939
20
40.850578
11
7.5361939
21
41.345078
0
LINE
8
DEFAULT_255_2_778
10
7.5361939
20
41.735378
11
7.5361939
21
42.229878
0
LINE
8
DEFAULT_255_2_778
10
7.5361939
20
42.620378
11
7.5361939
21
43.114878
0
LINE
8
DEFAULT_255_2_778
10
7.5361939
20
43.505178
11
7.5361939
21
43.999678
0
LINE
8
DEFAULT_255_2_778
10
7.4927939
20
36.499478
11
7.6662939
21
36.499478
0
LINE
8
DEFAULT_255_2_778
10
7.6662939
20
36.499478
11
7.6662939
21
37.739378
0
LINE
8
DEFAULT_255_2_778
10
7.6662939
20
37.739378
11
9.7051939
21
37.739378
0
LINE
8
DEFAULT_255_2_778
10
9.7051939
20
37.739378
11
9.7051939
21
38.259778
0
LINE
8
DEFAULT_255_2_778
10
9.7051939
20
38.259778
11
7.6662939
21
38.259778
0
LINE
8
DEFAULT_255_2_778
10
7.6662939
20
38.259778
11
7.6662939
21
38.624078
0
LINE
8
DEFAULT_255_2_778
10
7.6662939
20
38.624078
11
9.7051939
21
38.624078
0
LINE
8
DEFAULT_255_2_778
10
9.7051939
20
38.624078
11
9.7051939
21
39.144578
0
LINE
8
DEFAULT_255_2_778
10
9.7051939
20
39.144578
11
7.6662939
21
39.144578
0
LINE
8
DEFAULT_255_2_778
10
7.6662939
20
39.144578
11
7.6662939
21
39.508878
0
LINE
8
DEFAULT_255_2_778
10
7.6662939
20
39.508878
11
9.7051939
21
39.508878
0
LINE
8
DEFAULT_255_2_778
10
9.7051939
20
39.508878
11
9.7051939
21
40.029378
0
LINE
8
DEFAULT_255_2_778
10
9.7051939
20
40.029378
11
7.6662939
21
40.029378
0
LINE
8
DEFAULT_255_2_778
10
7.6662939
20
40.029378
11
7.6662939
21
40.393678
0
LINE
8
DEFAULT_255_2_778
10
7.6662939
20
40.393678
11
9.7051939
21
40.393678
0
LINE
8
DEFAULT_255_2_778
10
9.7051939
20
40.393678
11
9.7051939
21
40.914078
0
LINE
8
DEFAULT_255_2_778
10
9.7051939
20
40.914078
11
7.6662939
21
40.914078
0
LINE
8
DEFAULT_255_2_778
10
7.6662939
20
40.914078
11
7.6662939
21
41.278378
0
LINE
8
DEFAULT_255_2_778
10
7.6662939
20
41.278378
11
9.7051939
21
41.278378
0
LINE
8
DEFAULT_255_2_778
10
9.7051939
20
41.278378
11
9.7051939
21
41.798878
0
LINE
8
DEFAULT_255_2_778
10
9.7051939
20
41.798878
11
7.6662939
21
41.798878
0
LINE
8
DEFAULT_255_2_778
10
7.6662939
20
41.798878
11
7.6662939
21
42.163178
0
LINE
8
DEFAULT_255_2_778
10
7.6662939
20
42.163178
11
9.7051939
21
42.163178
0
LINE
8
DEFAULT_255_2_778
10
9.7051939
20
42.163178
11
9.7051939
21
42.683678
0
LINE
8
DEFAULT_255_2_778
10
9.7051939
20
42.683678
11
7.6662939
21
42.683678
0
LINE
8
DEFAULT_255_2_778
10
7.6662939
20
42.683678
11
7.6662939
21
43.047978
0
LINE
8
DEFAULT_255_2_778
10
7.6662939
20
43.047978
11
9.7051939
21
43.047978
0
LINE
8
DEFAULT_255_2_778
10
9.7051939
20
43.047978
11
9.7051939
21
43.568378
0
LINE
8
DEFAULT_255_2_778
10
9.7051939
20
43.568378
11
7.6662939
21
43.568378
0
LINE
8
DEFAULT_255_2_778
10
7.6662939
20
43.568378
11
7.6662939
21
43.932678
0
LINE
8
DEFAULT_255_2_778
10
7.6662939
20
43.932678
11
9.7051939
21
43.932678
0
LINE
8
DEFAULT_255_2_778
10
9.7051939
20
43.932678
11
9.7048939
21
44.453178
0
LINE
8
DEFAULT_255_2_778
10
9.7048939
20
44.453178
11
7.6660939
21
44.453178
0
LINE
8
DEFAULT_255_2_778
10
7.6660939
20
44.453178
11
7.6660939
21
45.693778
0
LINE
8
DEFAULT_255_2_778
10
7.6660939
20
45.693778
11
7.4924939
21
45.693778
0
LINE
8
DEFAULT_255_2_778
10
7.4924939
20
36.584478
11
7.5358939
21
36.584478
0
LINE
8
DEFAULT_255_2_778
10
7.5358939
20
36.584478
11
7.5358939
21
37.803378
0
LINE
8
DEFAULT_255_2_778
10
7.4924939
20
38.193878
11
9.7051939
21
38.193878
0
ARC
8
DEFAULT_255_2_778
10
10.1785113
20
35.5531324
40
0.1960378
50
300.0063822
51
359.9816364
0
ARC
8
DEFAULT_255_2_778
10
10.1785086
20
35.5527699
40
0.1957254
50
269.9972208
51
300.0601233
0
ARC
8
DEFAULT_255_2_778
10
10.1784896
20
35.5527698
40
0.1957252
50
239.9398703
51
270.0027978
0
ARC
8
DEFAULT_255_2_778
10
10.1782773
20
35.5530115
40
0.1958283
50
179.9829982
51
240.0290398
0
ARC
8
DEFAULT_255_2_778
10
15.6045983
20
35.8521187
40
0.0868492
50
180.0324192
51
269.9675341
0
ARC
8
DEFAULT_255_2_778
10
15.5854728
20
35.8487077
40
0.0680709
50
141.2988138
51
168.1641665
0
ARC
8
DEFAULT_255_2_778
10
15.6340191
20
35.7963914
40
0.1402865
50
105.6611679
51
127.1758487
0
ARC
8
DEFAULT_255_2_778
10
15.6471745
20
35.7593177
40
0.1795546
50
90.3271984
51
106.5096855
0
ARC
8
DEFAULT_255_2_778
10
15.6470926
20
37.6781193
40
0.1776523
50
253.0664097
51
269.6956933
0
ARC
8
DEFAULT_255_2_778
10
15.6304352
20
37.6362711
40
0.1328195
50
231.608037
51
254.6827471
0
ARC
8
DEFAULT_255_2_778
10
15.602087
20
37.6012356
40
0.0877555
50
210.5961134
51
231.908639
0
ARC
8
DEFAULT_255_2_778
10
15.578744
20
37.5881373
40
0.0609986
50
180.6272209
51
211.1657721
0
ARC
8
DEFAULT_255_2_778
10
15.6045981
20
37.5874206
40
0.086849
50
90.0323394
51
179.9677266
0
ARC
8
DEFAULT_255_2_778
10
15.4300634
20
39.0231421
40
0.2612858
50
0.0498853
51
44.8979358
0
ARC
8
DEFAULT_255_2_778
10
15.4313101
20
39.0239064
40
0.2598633
50
44.9725837
51
90.0575404
0
ARC
8
DEFAULT_255_2_778
10
15.2576766
20
39.0224838
40
0.2612858
50
90.0498853
51
134.8979358
0
ARC
8
DEFAULT_255_2_778
10
15.2569684
20
39.0237072
40
0.2599195
50
134.9777018
51
180.0744271
0
ARC
8
DEFAULT_255_2_778
10
14.7359953
20
38.1994013
40
0.2610539
50
315.0810265
51
359.9491411
0
ARC
8
DEFAULT_255_2_778
10
14.7372553
20
38.1981404
40
0.2592713
50
269.8881423
51
315.0817215
0
ARC
8
DEFAULT_255_2_778
10
14.1384763
20
37.6775848
40
0.2612849
50
90.0498129
51
134.8980314
0
ARC
8
DEFAULT_255_2_778
10
14.1377695
20
37.6788067
40
0.2599206
50
134.9777883
51
180.0743139
0
ARC
8
DEFAULT_255_2_778
10
13.6167969
20
35.8134008
40
0.2610523
50
315.0808616
51
359.9492542
0
ARC
8
DEFAULT_255_2_778
10
13.6181267
20
35.8119679
40
0.2590989
50
269.872271
51
315.0975849
0
ARC
8
DEFAULT_255_2_778
10
12.384187
20
35.5528463
40
0.1959621
50
299.9598395
51
0.0067896
0
ARC
8
DEFAULT_255_2_778
10
12.3841353
20
35.5525561
40
0.1957366
50
269.9857608
51
300.0153989
0
LINE
8
DEFAULT_255_2_778
10
12.3840866
20
35.3568196
11
12.3837253
21
35.3568199
0
ARC
8
DEFAULT_255_2_778
10
12.3840726
20
35.5529648
40
0.1961452
50
240.0165985
51
269.8985728
0
ARC
8
DEFAULT_255_2_778
10
12.3839174
20
35.5527345
40
0.1958683
50
179.9604906
51
240.0222353
0
ARC
8
DEFAULT_255_2_778
10
16.1247662
20
33.4708524
40
0.433883
50
270.0373604
51
359.9626462
0
ARC
8
DEFAULT_255_2_778
10
16.1247662
20
33.4708524
40
0.433883
50
270.0373604
51
359.9626462
0
ARC
8
DEFAULT_255_2_778
10
12.3655569
20
46.6410522
40
0.1775081
50
179.9695898
51
180.0912368
0
ARC
8
DEFAULT_255_2_778
10
12.3836397
20
46.6411528
40
0.1955909
50
134.994566
51
180.0018564
0
ARC
8
DEFAULT_255_2_778
10
12.3836659
20
46.641179
40
0.1955909
50
89.9981436
51
135.005434
0
LINE
8
DEFAULT_255_2_778
10
12.3836722
20
46.8367699
11
12.3840491
21
46.8367696
0
ARC
8
DEFAULT_255_2_778
10
12.3817764
20
46.6523471
40
0.1844365
50
356.4010322
51
89.2939532
0
ARC
8
DEFAULT_255_2_778
10
13.6178237
20
46.3809387
40
0.2598309
50
44.9696716
51
89.9944063
0
ARC
8
DEFAULT_255_2_778
10
13.6170883
20
46.380359
40
0.2607609
50
0.0023217
51
44.945576
0
ARC
8
DEFAULT_255_2_778
10
14.1393258
20
44.5154764
40
0.261477
50
180.0891384
51
224.8807066
0
ARC
8
DEFAULT_255_2_778
10
14.1376656
20
44.514096
40
0.2593266
50
224.9234373
51
270.062641
0
ARC
8
DEFAULT_255_2_778
10
14.7363424
20
43.9932931
40
0.2614767
50
45.1192576
51
89.9108741
0
ARC
8
DEFAULT_255_2_778
10
14.7375469
20
43.9948797
40
0.2595027
50
359.8873636
51
45.0605153
0
ARC
8
DEFAULT_255_2_778
10
15.2585249
20
43.1705761
40
0.2614761
50
180.0890757
51
224.8808068
0
ARC
8
DEFAULT_255_2_778
10
15.256939
20
43.1693718
40
0.2595027
50
224.9394847
51
270.1126364
0
ARC
8
DEFAULT_255_2_778
10
15.4308173
20
43.1709233
40
0.2610539
50
270.0508777
51
314.9189982
0
ARC
8
DEFAULT_255_2_778
10
15.4319059
20
43.1697348
40
0.2594436
50
314.9340955
51
0.0960219
0
ARC
8
DEFAULT_255_2_778
10
15.6045982
20
44.6061186
40
0.0868491
50
180.0323725
51
269.9676002
0
ARC
8
DEFAULT_255_2_778
10
15.5825505
20
44.6043782
40
0.0648234
50
148.891835
51
178.5048879
0
ARC
8
DEFAULT_255_2_778
10
15.6015725
20
44.592934
40
0.0870227
50
126.9603651
51
148.9111833
0
ARC
8
DEFAULT_255_2_778
10
15.6344498
20
44.5498231
40
0.1412388
50
105.7343161
51
127.1022133
0
ARC
8
DEFAULT_255_2_778
10
15.6474604
20
44.5116626
40
0.1815105
50
90.3507792
51
106.4208306
0
ARC
8
DEFAULT_255_2_778
10
15.646584
20
46.4299186
40
0.1751492
50
253.0594253
51
269.9231552
0
ARC
8
DEFAULT_255_2_778
10
15.6328012
20
46.3939494
40
0.1367515
50
231.8086424
51
254.1924593
0
ARC
8
DEFAULT_255_2_778
10
15.5862352
20
46.3446815
40
0.0682771
50
191.5853364
51
218.2948476
0
ARC
8
DEFAULT_255_2_778
10
15.6051772
20
46.3414417
40
0.0868281
50
90.084499
51
179.9815811
0
ARC
8
DEFAULT_255_2_778
10
16.1255879
20
48.7228083
40
0.4338613
50
0.0212961
51
89.9787039
0
ARC
8
DEFAULT_255_2_778
10
16.1255879
20
48.7228083
40
0.4338613
50
0.0212961
51
89.9787039
0
ARC
8
DEFAULT_255_2_778
10
6.3269342
20
48.3764205
40
0.3523859
50
180.0000018
51
180.1221024
0
ARC
8
DEFAULT_255_2_778
10
6.3211179
20
48.3762148
40
0.3465697
50
135.0016465
51
179.9659945
0
ARC
8
DEFAULT_255_2_778
10
6.3212033
20
48.3759586
40
0.3468112
50
89.9887076
51
134.9816817
0
LINE
8
DEFAULT_255_2_778
10
6.3212716
20
48.7227698
11
6.3216491
21
48.7227696
0
ARC
8
DEFAULT_255_2_778
10
5.9747958
20
48.7224227
40
0.4339468
50
90.0061636
51
179.9541978
0
ARC
8
DEFAULT_255_2_778
10
5.9747957
20
48.7224227
40
0.4339469
50
90.0061449
51
179.9542016
0
LINE
8
DEFAULT_255_2_778
10
9.2712491
20
33.0371696
11
9.2712491
21
33.4705696
0
LINE
8
DEFAULT_255_2_778
10
9.7048491
20
33.4705696
11
9.7048491
21
33.0371696
0
LINE
8
DEFAULT_255_2_778
10
9.9824491
20
35.5530696
11
8.4034491
21
35.5530696
0
LINE
8
DEFAULT_255_2_778
10
8.4034491
20
35.5530696
11
8.4034491
21
33.4708696
0
LINE
8
DEFAULT_255_2_778
10
7.2754491
20
35.7393696
11
7.4707491
21
35.9346696
0
LINE
8
DEFAULT_255_2_778
10
7.4707491
20
35.9346696
11
10.3745491
21
35.9346696
0
LINE
8
DEFAULT_255_2_778
10
5.9742491
20
34.2688696
11
5.5403491
21
34.2688696
0
LINE
8
DEFAULT_255_2_778
10
5.5403491
20
36.7588696
11
5.8983491
21
36.7588696
0
LINE
8
DEFAULT_255_2_778
10
5.8983491
20
36.7588696
11
5.9300491
21
36.7543696
0
LINE
8
DEFAULT_255_2_778
10
5.9300491
20
36.7543696
11
5.9541491
21
36.7500696
0
LINE
8
DEFAULT_255_2_778
10
5.9541491
20
36.7500696
11
5.9692491
21
36.7455696
0
LINE
8
DEFAULT_255_2_778
10
5.9692491
20
36.7455696
11
5.9729491
21
36.7434696
0
LINE
8
DEFAULT_255_2_778
10
5.9729491
20
36.7434696
11
5.9742491
21
36.7413696
0
LINE
8
DEFAULT_255_2_778
10
6.7984491
20
35.3708696
11
8.4034491
21
35.3708696
0
LINE
8
DEFAULT_255_2_778
10
15.7776491
20
37.5006696
11
15.7776491
21
44.6928696
0
LINE
8
DEFAULT_255_2_778
10
14.9886491
20
38.1470696
11
13.5654491
21
38.1470696
0
LINE
8
DEFAULT_255_2_778
10
13.5654491
20
38.1470696
11
13.3484491
21
38.3640696
0
LINE
8
DEFAULT_255_2_778
10
13.3484491
20
38.3640696
11
13.3484491
21
35.9348696
0
LINE
8
DEFAULT_255_2_778
10
14.9925491
20
38.1949696
11
14.8235491
21
38.3640696
0
LINE
8
DEFAULT_255_2_778
10
14.8235491
20
38.3640696
11
11.3098491
21
38.3640696
0
LINE
8
DEFAULT_255_2_778
10
11.3098491
20
38.3640696
11
11.3098491
21
43.8295696
0
LINE
8
DEFAULT_255_2_778
10
11.3098491
20
43.8295696
11
14.8235491
21
43.8295696
0
LINE
8
DEFAULT_255_2_778
10
14.8235491
20
43.8295696
11
14.9925491
21
43.9985696
0
LINE
8
DEFAULT_255_2_778
10
14.8235491
20
38.3637696
11
14.8235491
21
43.8292696
0
LINE
8
DEFAULT_255_2_778
10
10.1821491
20
35.3596696
11
10.1821491
21
35.9346696
0
LINE
8
DEFAULT_255_2_778
10
12.3509491
20
35.9346696
11
12.3509491
21
35.3599696
0
LINE
8
DEFAULT_255_2_778
10
12.5679491
20
35.7393696
11
12.5679491
21
35.4848696
0
LINE
8
DEFAULT_255_2_778
10
10.1605491
20
35.9346696
11
9.9652491
21
35.7393696
0
LINE
8
DEFAULT_255_2_778
10
13.5656491
20
38.1468696
11
13.5656491
21
35.7393696
0
LINE
8
DEFAULT_255_2_778
10
10.3954491
20
33.4705696
11
10.3954491
21
33.0369696
0
LINE
8
DEFAULT_255_2_778
10
11.6101491
20
33.0369696
11
11.6101491
21
33.4705696
0
LINE
8
DEFAULT_255_2_778
10
12.3729491
20
35.9343696
11
12.5682491
21
35.7391696
0
LINE
8
DEFAULT_255_2_778
10
12.5682491
20
35.7391696
11
13.5659491
21
35.7391696
0
LINE
8
DEFAULT_255_2_778
10
13.5659491
20
35.7391696
11
13.3706491
21
35.9343696
0
LINE
8
DEFAULT_255_2_778
10
13.3706491
20
35.9343696
11
12.1882491
21
35.9343696
0
LINE
8
DEFAULT_255_2_778
10
15.6913491
20
33.4705696
11
15.6913491
21
35.7652696
0
LINE
8
DEFAULT_255_2_778
10
15.6913491
20
35.7652696
11
15.6045491
21
35.7652696
0
LINE
8
DEFAULT_255_2_778
10
15.5177491
20
35.8520696
11
15.5188491
21
35.8626696
0
LINE
8
DEFAULT_255_2_778
10
15.5323491
20
35.8912696
11
15.5492491
21
35.9081696
0
LINE
8
DEFAULT_255_2_778
10
15.6461491
20
35.9388696
11
15.8646491
21
35.9388696
0
LINE
8
DEFAULT_255_2_778
10
15.8646491
20
35.9388696
11
15.8646491
21
37.5004696
0
LINE
8
DEFAULT_255_2_778
10
15.8646491
20
37.5004696
11
15.6461491
21
37.5004696
0
LINE
8
DEFAULT_255_2_778
10
15.6045491
20
37.6742696
11
15.6913491
21
37.6742696
0
LINE
8
DEFAULT_255_2_778
10
15.6913491
20
37.6742696
11
15.6913491
21
39.0233696
0
LINE
8
DEFAULT_255_2_778
10
15.4310491
20
39.2837696
11
15.2574491
21
39.2837696
0
LINE
8
DEFAULT_255_2_778
10
14.9970491
20
39.0233696
11
14.9970491
21
38.1991696
0
LINE
8
DEFAULT_255_2_778
10
14.7367491
20
37.9388696
11
14.1382491
21
37.9388696
0
LINE
8
DEFAULT_255_2_778
10
13.8778491
20
37.6784696
11
13.8778491
21
35.8131696
0
LINE
8
DEFAULT_255_2_778
10
13.6175491
20
35.5528696
11
12.5801491
21
35.5528696
0
LINE
8
DEFAULT_255_2_778
10
10.3748491
20
35.4475696
11
10.3748491
21
36.4204696
0
LINE
8
DEFAULT_255_2_778
10
10.3748491
20
36.4204696
11
12.1880491
21
36.4204696
0
LINE
8
DEFAULT_255_2_778
10
12.1880491
20
36.4204696
11
12.1880491
21
35.4475696
0
LINE
8
DEFAULT_255_2_778
10
16.5586491
20
33.4705696
11
16.5586491
21
33.4705696
0
LINE
8
DEFAULT_255_2_778
10
15.7778491
20
33.0369696
11
15.7778491
21
35.9388696
0
LINE
8
DEFAULT_255_2_778
10
16.5586491
20
43.9594696
11
15.7778491
21
43.9594696
0
LINE
8
DEFAULT_255_2_778
10
12.4811491
20
38.3637696
11
12.4811491
21
35.9346696
0
LINE
8
DEFAULT_255_2_778
10
16.5586491
20
38.2335696
11
15.7778491
21
38.2335696
0
LINE
8
DEFAULT_255_2_778
10
12.3509491
20
46.8336696
11
12.3509491
21
46.2586696
0
LINE
8
DEFAULT_255_2_778
10
12.3726491
20
46.2586696
11
12.5679491
21
46.4539696
0
LINE
8
DEFAULT_255_2_778
10
12.5679491
20
46.4539696
11
12.5679491
21
46.6436696
0
LINE
8
DEFAULT_255_2_778
10
15.7778491
20
39.3355696
11
14.8235491
21
39.3355696
0
LINE
8
DEFAULT_255_2_778
10
14.8235491
20
42.8579696
11
15.7778491
21
42.8579696
0
LINE
8
DEFAULT_255_2_778
10
15.0404491
20
43.0296696
11
15.0404491
21
42.8579696
0
LINE
8
DEFAULT_255_2_778
10
15.0404491
20
39.3355696
11
15.0404491
21
39.1638696
0
LINE
8
DEFAULT_255_2_778
10
13.3487491
20
46.2589696
11
13.3487491
21
43.8297696
0
LINE
8
DEFAULT_255_2_778
10
13.3487491
20
43.8297696
11
13.5656491
21
44.0467696
0
LINE
8
DEFAULT_255_2_778
10
13.5656491
20
44.0467696
11
14.9888491
21
44.0467696
0
LINE
8
DEFAULT_255_2_778
10
12.4811491
20
46.2589696
11
12.4811491
21
43.8297696
0
LINE
8
DEFAULT_255_2_778
10
13.5656491
20
46.4541696
11
12.5679491
21
46.4541696
0
LINE
8
DEFAULT_255_2_778
10
12.1880491
20
46.2589696
11
13.3704491
21
46.2589696
0
LINE
8
DEFAULT_255_2_778
10
13.3704491
20
46.2589696
11
13.5656491
21
46.4541696
0
LINE
8
DEFAULT_255_2_778
10
13.5656491
20
46.4541696
11
13.5656491
21
44.0467696
0
LINE
8
DEFAULT_255_2_778
10
12.5658491
20
46.6407696
11
13.6178491
21
46.6407696
0
LINE
8
DEFAULT_255_2_778
10
13.8778491
20
46.3803696
11
13.8778491
21
44.5150696
0
LINE
8
DEFAULT_255_2_778
10
14.1379491
20
44.2547696
11
14.7367491
21
44.2547696
0
LINE
8
DEFAULT_255_2_778
10
14.9970491
20
43.9943696
11
14.9970491
21
43.1701696
0
LINE
8
DEFAULT_255_2_778
10
15.2574491
20
42.9098696
11
15.4310491
21
42.9098696
0
LINE
8
DEFAULT_255_2_778
10
15.6913491
20
43.1701696
11
15.6913491
21
44.5192696
0
LINE
8
DEFAULT_255_2_778
10
15.6913491
20
44.5192696
11
15.6045491
21
44.5192696
0
LINE
8
DEFAULT_255_2_778
10
15.6463491
20
44.6931696
11
15.8649491
21
44.6931696
0
LINE
8
DEFAULT_255_2_778
10
15.8649491
20
44.6931696
11
15.8649491
21
46.2547696
0
LINE
8
DEFAULT_255_2_778
10
15.8649491
20
46.2547696
11
15.6463491
21
46.2547696
0
LINE
8
DEFAULT_255_2_778
10
15.5482491
20
46.2864696
11
15.5326491
21
46.3023696
0
LINE
8
DEFAULT_255_2_778
10
15.5193491
20
46.3309696
11
15.5183491
21
46.3414696
0
LINE
8
DEFAULT_255_2_778
10
15.6050491
20
46.4282696
11
15.6918491
21
46.4282696
0
LINE
8
DEFAULT_255_2_778
10
15.6918491
20
46.4282696
11
15.6918491
21
48.7229696
0
LINE
8
DEFAULT_255_2_778
10
15.7786491
20
46.2547696
11
15.7786491
21
49.1566696
0
LINE
8
DEFAULT_255_2_778
10
16.1257491
20
49.1566696
11
5.9745491
21
49.1566696
0
LINE
8
DEFAULT_255_2_778
10
5.9745491
20
49.1566696
11
16.1257491
21
49.1566696
0
LINE
8
DEFAULT_255_2_778
10
10.3962491
20
49.1566696
11
10.3962491
21
48.7229696
0
LINE
8
DEFAULT_255_2_778
10
11.6109491
20
48.7229696
11
11.6109491
21
49.1566696
0
LINE
8
DEFAULT_255_2_778
10
9.2720491
20
48.7351696
11
9.2720491
21
49.1566696
0
LINE
8
DEFAULT_255_2_778
10
9.7056491
20
49.1566696
11
9.7056491
21
48.7208696
0
LINE
8
DEFAULT_255_2_778
10
6.3216491
20
48.7227696
11
15.7781491
21
48.7227696
0
LINE
8
DEFAULT_255_2_778
10
5.5408491
20
48.7227696
11
5.5408491
21
33.4710696
0
LINE
8
DEFAULT_255_2_778
10
5.5408491
20
33.4710696
11
5.5408491
21
48.7227696
0
ARC
8
DEFAULT_255_2_778
10
36.4392696
20
77.7574304
40
0.5488398
50
89.8682888
51
180.1317112
0
ARC
8
DEFAULT_255_2_778
10
36.4417145
20
77.7574518
40
0.5488182
50
359.8660481
51
90.1235281
0
ARC
8
DEFAULT_255_2_778
10
36.4417359
20
77.7549642
40
0.5487967
50
269.874236
51
0.1257567
0
ARC
8
DEFAULT_255_2_778
10
36.4392483
20
77.7549855
40
0.5488182
50
179.8764683
51
270.1339357
0
LINE
8
DEFAULT_255_2_778
10
35.8904313
20
77.7561687
11
35.8904313
21
77.7561687
0
ARC
8
DEFAULT_255_2_778
10
36.4392696
20
81.7577304
40
0.5488398
50
89.8682888
51
180.1317112
0
ARC
8
DEFAULT_255_2_778
10
36.4417145
20
81.7577518
40
0.5488182
50
359.8660481
51
90.1235281
0
ARC
8
DEFAULT_255_2_778
10
36.4417359
20
81.7552642
40
0.5487967
50
269.874236
51
0.1257567
0
ARC
8
DEFAULT_255_2_778
10
36.4392483
20
81.7552855
40
0.5488182
50
179.8764683
51
270.1339357
0
LINE
8
DEFAULT_255_2_778
10
35.8904313
20
81.7564687
11
35.8904313
21
81.7564687
0
ARC
8
DEFAULT_255_2_778
10
36.4392696
20
85.7576304
40
0.5488398
50
89.8682888
51
180.1317112
0
ARC
8
DEFAULT_255_2_778
10
36.4417145
20
85.7576518
40
0.5488182
50
359.8660481
51
90.1235281
0
ARC
8
DEFAULT_255_2_778
10
36.4417359
20
85.7551642
40
0.5487967
50
269.874236
51
0.1257567
0
ARC
8
DEFAULT_255_2_778
10
36.4392483
20
85.7551855
40
0.5488182
50
179.8764683
51
270.1339357
0
LINE
8
DEFAULT_255_2_778
10
35.8904313
20
85.7563687
11
35.8904313
21
85.7563687
0
ARC
8
DEFAULT_255_2_778
10
36.4392696
20
62.7574304
40
0.5488398
50
89.8682888
51
180.1317112
0
ARC
8
DEFAULT_255_2_778
10
36.4417145
20
62.7574518
40
0.5488182
50
359.8660481
51
90.1235281
0
ARC
8
DEFAULT_255_2_778
10
36.4417359
20
62.7549642
40
0.5487967
50
269.874236
51
0.1257567
0
ARC
8
DEFAULT_255_2_778
10
36.4392483
20
62.7549855
40
0.5488182
50
179.8764683
51
270.1339357
0
LINE
8
DEFAULT_255_2_778
10
35.8904313
20
62.7561687
11
35.8904313
21
62.7561687
0
ARC
8
DEFAULT_255_2_778
10
36.4392696
20
65.2575304
40
0.5488398
50
89.8682888
51
180.1317112
0
ARC
8
DEFAULT_255_2_778
10
36.4417145
20
65.2575518
40
0.5488182
50
359.8660481
51
90.1235281
0
ARC
8
DEFAULT_255_2_778
10
36.4417359
20
65.2550642
40
0.5487967
50
269.874236
51
0.1257567
0
ARC
8
DEFAULT_255_2_778
10
36.4392483
20
65.2550855
40
0.5488182
50
179.8764683
51
270.1339357
0
LINE
8
DEFAULT_255_2_778
10
35.8904313
20
65.2562687
11
35.8904313
21
65.2562687
0
ARC
8
DEFAULT_255_2_778
10
36.4392696
20
67.7575304
40
0.5488398
50
89.8682888
51
180.1317112
0
ARC
8
DEFAULT_255_2_778
10
36.4417145
20
67.7575518
40
0.5488182
50
359.8660481
51
90.1235281
0
ARC
8
DEFAULT_255_2_778
10
36.4417359
20
67.7550642
40
0.5487967
50
269.874236
51
0.1257567
0
ARC
8
DEFAULT_255_2_778
10
36.4392483
20
67.7550855
40
0.5488182
50
179.8764683
51
270.1339357
0
LINE
8
DEFAULT_255_2_778
10
35.8904313
20
67.7562687
11
35.8904313
21
67.7562687
0
ENDSEC
0
EOF