0
SECTION
2
HEADER
9
$MEASUREMENT
70
1
0
ENDSEC
0
SECTION
2
TABLES
0
TABLE
2
LTYPE
0
LTYPE
72
65
70
64
2
CONTINUOUS
3
______
73
0
40
0
0
ENDTAB
0
TABLE
2
LAYER
0
LAYER
2
DEFAULT_255_2_778
70
0
62
255
6
CONTINUOUS
0
ENDTAB
0
ENDSEC
0
SECTION
2
ENTITIES
0
LINE
8
DEFAULT_255_2_778
10
75.9440506
20
0.2164395
11
75.9440506
21
9.2149395
0
LINE
8
DEFAULT_255_2_778
10
75.9440506
20
9.2149395
11
71.9440506
21
9.2149395
0
LINE
8
DEFAULT_255_2_778
10
71.9440506
20
9.2149395
11
32.7005506
21
0.2164395
0
LINE
8
DEFAULT_255_2_778
10
83.9438811
20
0.2150352
11
22.2438811
21
0.2150352
0
LINE
8
DEFAULT_255_2_778
10
22.2438811
20
0.2150352
11
22.2438811
21
90.2149352
0
LINE
8
DEFAULT_255_2_778
10
22.2438811
20
90.2149352
11
83.9438811
21
90.2149352
0
LINE
8
DEFAULT_255_2_778
10
83.9438811
20
90.2149352
11
83.9438811
21
62.6149352
0
LINE
8
DEFAULT_255_2_778
10
83.9438811
20
62.6149352
11
80.9437811
21
62.6149352
0
ARC
8
DEFAULT_255_2_778
10
83.4438508
20
27.0147743
40
0.5000969
50
359.9996485
51
90.0003515
0
LINE
8
DEFAULT_255_2_778
10
66.9439477
20
23.2148713
11
66.9439477
21
67.2147713
0
LINE
8
DEFAULT_255_2_778
10
66.9439477
20
67.2147713
11
25.9438477
21
67.2147713
0
LINE
8
DEFAULT_255_2_778
10
25.9438477
20
67.2147713
11
25.9438477
21
23.2148713
0
LINE
8
DEFAULT_255_2_778
10
25.9438477
20
23.2148713
11
66.9439477
21
23.2148713
0
LINE
8
DEFAULT_255_2_778
10
80.9438477
20
62.8856713
11
80.9438477
21
27.5148713
0
LINE
8
DEFAULT_255_2_778
10
80.9438477
20
27.5148713
11
83.4438477
21
27.5148713
0
ARC
8
DEFAULT_255_2_778
10
83.643825
20
61.2146134
40
0.3001094
50
270.0208901
51
359.9791099
0
ARC
8
DEFAULT_255_2_778
10
82.5067122
20
27.9567743
40
0.1629819
50
179.9904339
51
180.4114393
0
ARC
8
DEFAULT_255_2_778
10
82.6021954
20
27.9493965
40
0.2585713
50
160.0540371
51
178.3589308
0
ARC
8
DEFAULT_255_2_778
10
83.1019692
20
27.787611
40
0.7837729
50
154.3160057
51
161.3998992
0
ARC
8
DEFAULT_255_2_778
10
2.9439301
20
89.7148576
40
0.5000956
50
134.9958871
51
179.9946851
0
ARC
8
DEFAULT_255_2_778
10
2.9438366
20
89.7152565
40
0.4997474
50
89.9887792
51
135.0206486
0
ARC
8
DEFAULT_255_2_778
10
2.9439314
20
0.7152009
40
0.5000969
50
179.9996485
51
270.0003515
0
ARC
8
DEFAULT_255_2_778
10
80.5941671
20
60.2147627
40
0.7497674
50
306.8514534
51
0.0107957
0
ARC
8
DEFAULT_255_2_778
10
80.593884
20
60.2149036
40
0.7500504
50
0.0000295
51
53.1377317
0
LINE
8
DEFAULT_255_2_778
10
82.3437345
20
27.814804
11
81.0438345
21
27.814804
0
LINE
8
DEFAULT_255_2_778
10
81.0438345
20
27.514804
11
81.0438345
21
28.314904
0
LINE
8
DEFAULT_255_2_778
10
81.0438345
20
28.314904
11
82.0440345
21
28.314904
0
LINE
8
DEFAULT_255_2_778
10
82.0440345
20
28.314904
11
82.2440345
21
29.614804
0
LINE
8
DEFAULT_255_2_778
10
82.2440345
20
29.614804
11
82.6440345
21
29.614804
0
LINE
8
DEFAULT_255_2_778
10
82.6440345
20
29.614804
11
83.9439345
21
27.314804
0
LINE
8
DEFAULT_255_2_778
10
83.9439345
20
27.314804
11
83.9439345
21
0.216704
0
LINE
8
DEFAULT_255_2_778
10
82.1937345
20
62.614704
11
82.3437345
21
61.714604
0
LINE
8
DEFAULT_255_2_778
10
82.3437345
20
61.714604
11
82.9438345
21
60.914504
0
LINE
8
DEFAULT_255_2_778
10
82.9438345
20
60.914504
11
83.6439345
21
60.914504
0
LINE
8
DEFAULT_255_2_778
10
83.9439345
20
61.214504
11
83.9439345
21
62.502804
0
LINE
8
DEFAULT_255_2_778
10
83.9439345
20
62.914704
11
80.9438345
21
62.914704
0
LINE
8
DEFAULT_255_2_778
10
75.9443345
20
90.206504
11
75.9437345
21
81.214904
0
LINE
8
DEFAULT_255_2_778
10
75.9437345
20
81.214904
11
71.9438345
21
81.214904
0
LINE
8
DEFAULT_255_2_778
10
71.9438345
20
81.214904
11
32.7346345
21
90.222904
0
LINE
8
DEFAULT_255_2_778
10
82.3437345
20
27.514804
11
82.3437345
21
27.956104
0
LINE
8
DEFAULT_255_2_778
10
21.9439345
20
89.914904
11
22.2439345
21
89.914904
0
LINE
8
DEFAULT_255_2_778
10
82.3956345
20
28.127304
11
82.4424345
21
28.220404
0
LINE
8
DEFAULT_255_2_778
10
82.4424345
20
28.220404
11
82.4935345
21
28.314904
0
LINE
8
DEFAULT_255_2_778
10
2.4438345
20
70.714904
11
2.4438345
21
89.714904
0
LINE
8
DEFAULT_255_2_778
10
2.9439345
20
90.215004
11
21.9439345
21
90.215004
0
LINE
8
DEFAULT_255_2_778
10
21.9439345
20
90.215004
11
21.9439345
21
0.215104
0
LINE
8
DEFAULT_255_2_778
10
21.9439345
20
0.215104
11
2.9439345
21
0.215104
0
LINE
8
DEFAULT_255_2_778
10
2.4438345
20
0.715204
11
2.4438345
21
19.715104
0
ARC
8
DEFAULT_255_2_778
10
18.4439756
20
81.2146501
40
0.5000956
50
44.9958871
51
89.9946851
0
ARC
8
DEFAULT_255_2_778
10
18.4443705
20
81.2148833
40
0.4996515
50
359.9727611
51
45.0090046
0
ARC
8
DEFAULT_255_2_778
10
18.4440226
20
73.2146523
40
0.4999994
50
315.0075237
51
0.0107106
0
ARC
8
DEFAULT_255_2_778
10
18.4439756
20
73.2147414
40
0.5000956
50
270.0053149
51
315.0041129
0
ARC
8
DEFAULT_255_2_778
10
16.4440683
20
73.2147414
40
0.5000956
50
224.9958871
51
269.9946851
0
ARC
8
DEFAULT_255_2_778
10
16.4440176
20
73.2147921
40
0.5000956
50
180.0053149
51
225.0041129
0
ARC
8
DEFAULT_255_2_778
10
16.4436694
20
81.2147436
40
0.4997474
50
134.9793514
51
180.0112208
0
ARC
8
DEFAULT_255_2_778
10
16.4440683
20
81.2146501
40
0.5000956
50
90.0053149
51
135.0041129
0
ARC
8
DEFAULT_255_2_778
10
15.7869914
20
73.1669158
40
0.7201076
50
325.5099803
51
335.6270454
0
ARC
8
DEFAULT_255_2_778
10
15.9007758
20
73.1189189
40
0.5964638
50
339.4602961
51
354.5285053
0
ARC
8
DEFAULT_255_2_778
10
18.544113
20
73.5148545
40
0.3001087
50
269.9826105
51
314.9730267
0
ARC
8
DEFAULT_255_2_778
10
18.5439139
20
73.5146545
40
0.3001081
50
315.0269039
51
0.0174139
0
ARC
8
DEFAULT_255_2_778
10
18.5439132
20
80.9147368
40
0.3001087
50
359.9826105
51
44.9730267
0
ARC
8
DEFAULT_255_2_778
10
18.5442866
20
80.9149568
40
0.299689
50
44.9937205
51
90.0505906
0
ARC
8
DEFAULT_255_2_778
10
15.898555
20
81.3103721
40
0.5986841
50
5.4608026
51
20.5010259
0
ARC
8
DEFAULT_255_2_778
10
15.7948028
20
81.2682422
40
0.7107386
50
24.2314187
51
34.4742567
0
ARC
8
DEFAULT_255_2_778
10
18.1868851
20
80.5386171
40
0.8436319
50
30.0637518
51
37.4621852
0
ARC
8
DEFAULT_255_2_778
10
18.4728075
20
80.7577633
40
0.4833865
50
37.4574882
51
51.5152562
0
ARC
8
DEFAULT_255_2_778
10
18.5328659
20
80.8305448
40
0.3890442
50
51.7685413
51
69.2466685
0
ARC
8
DEFAULT_255_2_778
10
18.537243
20
73.591702
40
0.3805344
50
290.5342395
51
307.9042539
0
ARC
8
DEFAULT_255_2_778
10
18.4728405
20
73.6697302
40
0.4816755
50
308.2468226
51
321.9644543
0
ARC
8
DEFAULT_255_2_778
10
18.1654867
20
73.9070175
40
0.8699644
50
322.1279074
51
329.6884999
0
ARC
8
DEFAULT_255_2_778
10
16.4440189
20
17.2148488
40
0.5000969
50
89.9996485
51
180.0003515
0
ARC
8
DEFAULT_255_2_778
10
18.4439463
20
17.2148702
40
0.5000756
50
359.9971984
51
89.9913379
0
ARC
8
DEFAULT_255_2_778
10
18.4439463
20
9.2149214
40
0.5000756
50
270.0086621
51
0.0027902
0
ARC
8
DEFAULT_255_2_778
10
16.4440189
20
9.2149427
40
0.5000969
50
179.9996485
51
270.0003515
0
ARC
8
DEFAULT_255_2_778
10
15.7828433
20
9.1691561
40
0.7248519
50
325.5431754
51
335.5938506
0
ARC
8
DEFAULT_255_2_778
10
15.9026745
20
9.1184803
40
0.5945319
50
339.4356717
51
354.5531297
0
ARC
8
DEFAULT_255_2_778
10
18.5441468
20
9.514431
40
0.2997853
50
269.976134
51
315.0256554
0
ARC
8
DEFAULT_255_2_778
10
18.5442617
20
9.5145106
40
0.2997603
50
314.9993769
51
0.0449409
0
ARC
8
DEFAULT_255_2_778
10
18.5439132
20
16.9149368
40
0.3001087
50
359.9826105
51
44.9730267
0
ARC
8
DEFAULT_255_2_778
10
18.5442866
20
16.9151568
40
0.299689
50
44.9937205
51
90.0505906
0
ARC
8
DEFAULT_255_2_778
10
15.901724
20
17.3108917
40
0.595499
50
5.4592121
51
20.5519772
0
ARC
8
DEFAULT_255_2_778
10
15.782845
20
17.2604363
40
0.72485
50
24.4061355
51
34.4568382
0
ARC
8
DEFAULT_255_2_778
10
18.198499
20
16.5456865
40
0.8298158
50
30.0439703
51
37.5696079
0
ARC
8
DEFAULT_255_2_778
10
18.4727134
20
16.7582227
40
0.4828829
50
37.4196627
51
51.4837926
0
ARC
8
DEFAULT_255_2_778
10
18.5318727
20
16.8290424
40
0.3906368
50
51.8044388
51
69.2107558
0
ARC
8
DEFAULT_255_2_778
10
18.5391182
20
9.5875786
40
0.3759454
50
290.4585043
51
308.0287581
0
ARC
8
DEFAULT_255_2_778
10
18.4775549
20
9.6651936
40
0.4750099
50
308.1105633
51
322.0302125
0
ARC
8
DEFAULT_255_2_778
10
18.1545518
20
9.9147531
40
0.8831873
50
322.1593003
51
329.6011527
0
ARC
8
DEFAULT_255_2_778
10
1.4439963
20
70.2150239
40
0.4999219
50
89.9970574
51
135.0123564
0
ARC
8
DEFAULT_255_2_778
10
1.4436112
20
70.2149677
40
0.4996893
50
134.9765888
51
180.002517
0
LINE
8
DEFAULT_255_2_778
10
80.9438219
20
60.8147457
11
81.0439219
21
60.8147457
0
LINE
8
DEFAULT_255_2_778
10
81.0439219
20
60.8147457
11
81.0439219
21
59.6148457
0
LINE
8
DEFAULT_255_2_778
10
81.0439219
20
59.6148457
11
80.9438219
21
59.6148457
0
LINE
8
DEFAULT_255_2_778
10
33.8261219
20
-0.1983543
11
33.8922219
21
-0.2645543
0
LINE
8
DEFAULT_255_2_778
10
18.9440219
20
81.2146457
11
18.9440219
21
73.2147457
0
LINE
8
DEFAULT_255_2_778
10
18.4440219
20
72.7146457
11
16.4440219
21
72.7146457
0
LINE
8
DEFAULT_255_2_778
10
15.9439219
20
73.2147457
11
15.9439219
21
81.2146457
0
LINE
8
DEFAULT_255_2_778
10
16.4440219
20
81.7147457
11
18.4440219
21
81.7147457
0
LINE
8
DEFAULT_255_2_778
10
16.3598219
20
72.7302457
11
16.3805219
21
72.7591457
0
LINE
8
DEFAULT_255_2_778
10
16.4429219
20
72.8697457
11
16.4593219
21
72.9096457
0
LINE
8
DEFAULT_255_2_778
10
16.4945219
20
73.0620457
11
16.4969219
21
73.1147457
0
LINE
8
DEFAULT_255_2_778
10
16.4969219
20
73.1147457
11
16.4969219
21
73.2147457
0
LINE
8
DEFAULT_255_2_778
10
16.4969219
20
73.2147457
11
18.5440219
21
73.2147457
0
LINE
8
DEFAULT_255_2_778
10
18.8440219
20
73.5147457
11
18.8440219
21
80.9146457
0
LINE
8
DEFAULT_255_2_778
10
18.5440219
20
81.2146457
11
16.4969219
21
81.2146457
0
LINE
8
DEFAULT_255_2_778
10
16.4969219
20
81.2146457
11
16.4969219
21
81.3147457
0
LINE
8
DEFAULT_255_2_778
10
16.4969219
20
81.3147457
11
16.4945219
21
81.3673457
0
LINE
8
DEFAULT_255_2_778
10
16.4593219
20
81.5200457
11
16.4429219
21
81.5599457
0
LINE
8
DEFAULT_255_2_778
10
16.3807219
20
81.6705457
11
16.3601219
21
81.6994457
0
LINE
8
DEFAULT_255_2_778
10
18.2442219
20
73.2147457
11
18.2442219
21
81.2146457
0
LINE
8
DEFAULT_255_2_778
10
18.7443219
20
81.1382457
11
18.7443219
21
73.2909457
0
LINE
8
DEFAULT_255_2_778
10
18.9443219
20
80.9146457
11
18.9170219
21
80.9612457
0
LINE
8
DEFAULT_255_2_778
10
18.6707219
20
81.1943457
11
18.6265219
21
81.2070457
0
LINE
8
DEFAULT_255_2_778
10
18.6265219
20
73.2224457
11
18.6707219
21
73.2353457
0
LINE
8
DEFAULT_255_2_778
10
18.9165219
20
73.4679457
11
18.9440219
21
73.5147457
0
LINE
8
DEFAULT_255_2_778
10
16.4440219
20
17.7149457
11
18.4440219
21
17.7149457
0
LINE
8
DEFAULT_255_2_778
10
18.9440219
20
17.2148457
11
18.9440219
21
9.2149457
0
LINE
8
DEFAULT_255_2_778
10
18.4440219
20
8.7148457
11
16.4440219
21
8.7148457
0
LINE
8
DEFAULT_255_2_778
10
15.9439219
20
9.2149457
11
15.9439219
21
17.2148457
0
LINE
8
DEFAULT_255_2_778
10
16.3598219
20
8.7302457
11
16.3805219
21
8.7590457
0
LINE
8
DEFAULT_255_2_778
10
16.4429219
20
8.8696457
11
16.4593219
21
8.9096457
0
LINE
8
DEFAULT_255_2_778
10
16.4945219
20
9.0620457
11
16.4969219
21
9.1146457
0
LINE
8
DEFAULT_255_2_778
10
16.4969219
20
9.1146457
11
16.4969219
21
9.2146457
0
LINE
8
DEFAULT_255_2_778
10
16.4969219
20
9.2146457
11
18.5440219
21
9.2146457
0
LINE
8
DEFAULT_255_2_778
10
18.8440219
20
9.5147457
11
18.8440219
21
16.9148457
0
LINE
8
DEFAULT_255_2_778
10
18.5440219
20
17.2148457
11
16.4969219
21
17.2148457
0
LINE
8
DEFAULT_255_2_778
10
16.4969219
20
17.2148457
11
16.4969219
21
17.3149457
0
LINE
8
DEFAULT_255_2_778
10
16.4969219
20
17.3149457
11
16.4945219
21
17.3675457
0
LINE
8
DEFAULT_255_2_778
10
16.4593219
20
17.5199457
11
16.4429219
21
17.5599457
0
LINE
8
DEFAULT_255_2_778
10
16.3805219
20
17.6705457
11
16.3598219
21
17.6993457
0
LINE
8
DEFAULT_255_2_778
10
18.2439219
20
9.2146457
11
18.2439219
21
17.2146457
0
LINE
8
DEFAULT_255_2_778
10
18.7440219
20
17.1381457
11
18.7440219
21
9.2908457
0
LINE
8
DEFAULT_255_2_778
10
18.9440219
20
16.9145457
11
18.9168219
21
16.9611457
0
LINE
8
DEFAULT_255_2_778
10
18.6705219
20
17.1942457
11
18.6263219
21
17.2069457
0
LINE
8
DEFAULT_255_2_778
10
18.6263219
20
9.2223457
11
18.6705219
21
9.2353457
0
LINE
8
DEFAULT_255_2_778
10
18.9163219
20
9.4678457
11
18.9438219
21
9.5147457
0
LINE
8
DEFAULT_255_2_778
10
2.4438219
20
70.7149457
11
1.4440219
21
70.7149457
0
LINE
8
DEFAULT_255_2_778
10
0.9439219
20
70.2149457
11
0.9439219
21
21.2148457
0
ARC
8
DEFAULT_255_2_778
10
4.443794
20
35.7650703
40
0.5000969
50
179.9996485
51
270.0003515
0
ARC
8
DEFAULT_255_2_778
10
4.4437725
20
54.7649979
40
0.5000754
50
89.9971846
51
179.9913517
0
ARC
8
DEFAULT_255_2_778
10
4.4437213
20
55.7651492
40
0.5000758
50
270.008676
51
0.0027763
0
ARC
8
DEFAULT_255_2_778
10
1.4434797
20
20.2155476
40
0.5000744
50
215.8214543
51
269.989171
0
LINE
8
DEFAULT_255_2_778
10
1.4433852
20
19.7154733
11
1.4436971
21
19.7154734
0
ARC
8
DEFAULT_255_2_778
10
4.4435855
20
34.7654618
40
0.5000116
50
0.0013268
51
90.0101312
0
ARC
8
DEFAULT_255_2_778
10
0.6935728
20
20.2655491
40
0.5000758
50
180.008676
51
270.0027763
0
ARC
8
DEFAULT_255_2_778
10
6.9411051
20
56.9745013
40
1.9938633
50
236.3004774
51
262.9358021
0
ARC
8
DEFAULT_255_2_778
10
6.9479977
20
56.9836822
40
2.0053258
50
216.8775149
51
236.2821781
0
ARC
8
DEFAULT_255_2_778
10
6.9346447
20
56.9767124
40
1.9904633
50
186.1122816
51
216.9476917
0
ARC
8
DEFAULT_255_2_778
10
6.9394377
20
33.4504977
40
1.9959385
50
143.0865803
51
170.9406441
0
ARC
8
DEFAULT_255_2_778
10
6.9495607
20
33.4503182
40
2.005964
50
170.9811072
51
180.0326988
0
ARC
8
DEFAULT_255_2_778
10
11.1559734
20
36.2263894
40
0.2878541
50
313.0020768
51
357.7071874
0
ARC
8
DEFAULT_255_2_778
10
11.1563344
20
54.203323
40
0.2874868
50
2.2627133
51
47.0280308
0
ARC
8
DEFAULT_255_2_778
10
12.4435327
20
53.7733763
40
0.4999643
50
359.9996675
51
82.8690511
0
ARC
8
DEFAULT_255_2_778
10
12.4434585
20
36.6562361
40
0.5000386
50
277.1384623
51
359.9928135
0
ARC
8
DEFAULT_255_2_778
10
6.9409249
20
33.4548322
40
1.9940898
50
97.0668608
51
123.6982306
0
ARC
8
DEFAULT_255_2_778
10
6.9475992
20
33.4458936
40
2.0052294
50
123.715189
51
143.1214582
0
ARC
8
DEFAULT_255_2_778
10
1.4435992
20
59.7145208
40
0.4997474
50
224.9793514
51
270.0112208
0
ARC
8
DEFAULT_255_2_778
10
1.4436927
20
59.7149198
40
0.5000956
50
180.0053149
51
225.0041129
0
LINE
8
DEFAULT_255_2_778
10
3.9436971
20
35.7650734
11
3.9436971
21
54.7650734
0
LINE
8
DEFAULT_255_2_778
10
4.9437971
20
55.7651734
11
4.9437971
21
56.7650734
0
LINE
8
DEFAULT_255_2_778
10
3.5438971
20
59.1650734
11
4.9437971
21
59.1650734
0
LINE
8
DEFAULT_255_2_778
10
0.9514971
20
59.1650734
11
1.1948971
21
59.1650734
0
LINE
8
DEFAULT_255_2_778
10
1.1948971
20
59.1650734
11
3.6303971
21
59.1650734
0
LINE
8
DEFAULT_255_2_778
10
4.9437971
20
55.7651734
11
4.9437971
21
55.2650734
0
LINE
8
DEFAULT_255_2_778
10
4.9437971
20
55.2650734
11
4.4437971
21
55.2650734
0
LINE
8
DEFAULT_255_2_778
10
4.9437971
20
19.7117734
11
4.9437971
21
21.3650734
0
LINE
8
DEFAULT_255_2_778
10
4.9366971
20
19.7151734
11
2.9435971
21
19.7151734
0
LINE
8
DEFAULT_255_2_778
10
2.9435971
20
19.7151734
11
2.9435971
21
20.2652734
0
LINE
8
DEFAULT_255_2_778
10
2.9435971
20
20.2652734
11
1.2435971
21
20.2652734
0
LINE
8
DEFAULT_255_2_778
10
1.2435971
20
20.2652734
11
1.0379971
21
19.9228734
0
LINE
8
DEFAULT_255_2_778
10
1.4436971
20
19.7154734
11
2.9435971
21
19.7154734
0
LINE
8
DEFAULT_255_2_778
10
4.9435971
20
33.7655734
11
4.9435971
21
34.7654734
0
LINE
8
DEFAULT_255_2_778
10
4.4434971
20
35.2654734
11
4.9435971
21
35.2654734
0
LINE
8
DEFAULT_255_2_778
10
4.9416971
20
35.7155734
11
7.1101971
21
35.7155734
0
LINE
8
DEFAULT_255_2_778
10
7.1101971
20
35.7155734
11
8.9434971
21
35.7155734
0
LINE
8
DEFAULT_255_2_778
10
2.9435971
20
21.3489734
11
3.1935971
21
21.3656734
0
LINE
8
DEFAULT_255_2_778
10
3.1935971
20
21.3656734
11
4.9435971
21
21.3656734
0
LINE
8
DEFAULT_255_2_778
10
4.9435971
20
21.3656734
11
4.9435971
21
22.6655734
0
LINE
8
DEFAULT_255_2_778
10
0.9435971
20
22.6655734
11
2.9435971
21
22.6655734
0
LINE
8
DEFAULT_255_2_778
10
2.9435971
20
22.6655734
11
2.9435971
21
21.3489734
0
LINE
8
DEFAULT_255_2_778
10
2.9435971
20
21.3489734
11
0.9435971
21
21.2155734
0
LINE
8
DEFAULT_255_2_778
10
0.9435971
20
21.2155734
11
0.1934971
21
21.1655734
0
LINE
8
DEFAULT_255_2_778
10
0.1934971
20
21.1655734
11
0.1934971
21
20.2654734
0
LINE
8
DEFAULT_255_2_778
10
0.6935971
20
19.7654734
11
0.9435971
21
19.7654734
0
LINE
8
DEFAULT_255_2_778
10
0.9435971
20
19.7654734
11
1.0379971
21
19.9228734
0
LINE
8
DEFAULT_255_2_778
10
4.9533971
20
59.2005734
11
4.9533971
21
56.7531734
0
LINE
8
DEFAULT_255_2_778
10
5.3438971
20
55.7804734
11
5.3438971
21
55.2648734
0
LINE
8
DEFAULT_255_2_778
10
5.3438971
20
55.2648734
11
4.9437971
21
55.2648734
0
LINE
8
DEFAULT_255_2_778
10
4.9437971
20
55.2648734
11
4.9437971
21
54.7248734
0
LINE
8
DEFAULT_255_2_778
10
4.9437971
20
54.7248734
11
4.9437971
21
35.7047734
0
LINE
8
DEFAULT_255_2_778
10
4.9437971
20
35.7047734
11
4.9437971
21
35.2647734
0
LINE
8
DEFAULT_255_2_778
10
4.9437971
20
35.2647734
11
5.3438971
21
35.2647734
0
LINE
8
DEFAULT_255_2_778
10
5.3438971
20
35.2647734
11
5.3438971
21
34.6492734
0
LINE
8
DEFAULT_255_2_778
10
8.9440971
20
54.7147734
11
6.6958971
21
54.9957734
0
LINE
8
DEFAULT_255_2_778
10
11.3525971
20
54.4136734
11
8.9440971
21
54.7147734
0
LINE
8
DEFAULT_255_2_778
10
8.9440971
20
54.7147734
11
4.9501971
21
54.7147734
0
LINE
8
DEFAULT_255_2_778
10
5.3435971
20
34.6265734
11
5.3435971
21
34.6492734
0
LINE
8
DEFAULT_255_2_778
10
4.9435971
20
33.4491734
11
4.9435971
21
22.6647734
0
LINE
8
DEFAULT_255_2_778
10
4.9435971
20
22.6647734
11
2.9435971
21
22.6647734
0
LINE
8
DEFAULT_255_2_778
10
4.9816971
20
33.7647734
11
4.9683971
21
33.7647734
0
LINE
8
DEFAULT_255_2_778
10
4.9683971
20
33.7647734
11
4.9435971
21
33.7647734
0
LINE
8
DEFAULT_255_2_778
10
4.9435971
20
33.7647734
11
4.9435971
21
33.4491734
0
LINE
8
DEFAULT_255_2_778
10
11.4435971
20
36.2148734
11
11.4435971
21
54.2146734
0
LINE
8
DEFAULT_255_2_778
10
11.3522971
20
54.4136734
11
12.5055971
21
54.2694734
0
LINE
8
DEFAULT_255_2_778
10
12.9434971
20
53.7733734
11
12.9434971
21
36.6561734
0
LINE
8
DEFAULT_255_2_778
10
12.5055971
20
36.1600734
11
11.3522971
21
36.0158734
0
LINE
8
DEFAULT_255_2_778
10
11.3506971
20
36.0140734
11
8.9434971
21
35.7147734
0
LINE
8
DEFAULT_255_2_778
10
8.9434971
20
35.7147734
11
6.6955971
21
35.4337734
0
LINE
8
DEFAULT_255_2_778
10
4.9435971
20
59.1647734
11
4.9435971
21
59.2147734
0
LINE
8
DEFAULT_255_2_778
10
4.9435971
20
59.2147734
11
1.4436971
21
59.2147734
0
ENDSEC
0
EOF