0
SECTION
2
HEADER
9
$MEASUREMENT
70
1
0
ENDSEC
0
SECTION
2
TABLES
0
TABLE
2
LTYPE
0
LTYPE
72
65
70
64
2
CONTINUOUS
3
______
73
0
40
0
0
ENDTAB
0
TABLE
2
LAYER
0
LAYER
2
DEFAULT_255_2_778
70
0
62
255
6
CONTINUOUS
0
ENDTAB
0
ENDSEC
0
SECTION
2
ENTITIES
0
LINE
8
DEFAULT_255_2_778
10
5.1563366
20
34.7561591
11
3.1563366
21
34.7561591
0
LINE
8
DEFAULT_255_2_778
10
3.1563366
20
34.7561591
11
3.1563366
21
54.7562591
0
LINE
8
DEFAULT_255_2_778
10
3.1563366
20
54.7562591
11
5.1563366
21
54.7562591
0
LINE
8
DEFAULT_255_2_778
10
5.1563366
20
54.7562591
11
13.1562366
21
53.7561591
0
LINE
8
DEFAULT_255_2_778
10
13.1562366
20
53.7561591
11
13.1562366
21
35.7562591
0
LINE
8
DEFAULT_255_2_778
10
13.1562366
20
35.7562591
11
5.1563366
21
34.7561591
0
ARC
8
DEFAULT_255_2_778
10
1.1525702
20
0.7550071
40
0.9963191
50
179.916016
51
221.6459452
0
ARC
8
DEFAULT_255_2_778
10
1.1551977
20
0.7540262
40
0.9976339
50
221.5035703
51
268.2692494
0
ARC
8
DEFAULT_255_2_778
10
1.1563425
20
0.7751266
40
1.0187593
50
268.2407389
51
270.0005447
0
ARC
8
DEFAULT_255_2_778
10
3.6550076
20
88.7599916
40
0.996477
50
89.9169422
51
131.6424919
0
ARC
8
DEFAULT_255_2_778
10
3.6538721
20
88.7574889
40
0.9975959
50
131.4982452
51
178.2672879
0
ARC
8
DEFAULT_255_2_778
10
3.6750113
20
88.7563772
40
1.0187592
50
178.2407388
51
180.0005446
0
ARC
8
DEFAULT_255_2_778
10
30.1507713
20
56.3825893
40
29.9968505
50
161.7905208
51
179.2856607
0
LINE
8
DEFAULT_255_2_778
10
1.1563522
20
-0.2436325
11
5.1563522
21
-0.2436325
0
LINE
8
DEFAULT_255_2_778
10
5.1563522
20
-0.2436325
11
5.1563522
21
89.7564675
0
LINE
8
DEFAULT_255_2_778
10
5.1563522
20
89.7564675
11
3.6564522
21
89.7564675
0
LINE
8
DEFAULT_255_2_778
10
2.6562522
20
88.7563675
11
2.6562522
21
65.7563675
0
LINE
8
DEFAULT_255_2_778
10
2.6562522
20
65.7563675
11
1.6561522
21
65.7563675
0
LINE
8
DEFAULT_255_2_778
10
0.1562522
20
56.7565675
11
0.1562522
21
0.7564675
0
ARC
8
DEFAULT_255_2_778
10
30.1537653
20
33.1306401
40
29.9998327
50
180.7146201
51
198.208579
0
ARC
8
DEFAULT_255_2_778
10
3.6527012
20
0.7550286
40
0.9964361
50
179.9166792
51
221.6442336
0
ARC
8
DEFAULT_255_2_778
10
3.6553066
20
0.7540168
40
0.997714
50
221.501386
51
268.2693554
0
ARC
8
DEFAULT_255_2_778
10
3.6564564
20
0.7754014
40
1.0191238
50
268.2410549
51
270.0005447
0
LINE
8
DEFAULT_255_2_778
10
1.6561661
20
23.7563777
11
2.6562661
21
23.7563777
0
LINE
8
DEFAULT_255_2_778
10
2.6562661
20
23.7563777
11
2.6562661
21
0.7564777
0
LINE
8
DEFAULT_255_2_778
10
32.4563661
20
0.0563777
11
32.1562661
21
0.0563777
0
ARC
8
DEFAULT_255_2_778
10
86.6561909
20
24.8161213
40
0.500112
50
359.9938381
51
51.3263272
0
ARC
8
DEFAULT_255_2_778
10
84.4808738
20
26.5561013
40
0.5004662
50
51.3709377
51
90.0081268
0
LINE
8
DEFAULT_255_2_778
10
87.1563028
20
24.8160675
11
87.1563028
21
-0.2436325
0
LINE
8
DEFAULT_255_2_778
10
87.1563028
20
-0.2436325
11
32.4563028
21
-0.2436325
0
LINE
8
DEFAULT_255_2_778
10
32.4563028
20
-0.2436325
11
32.4563028
21
44.7563675
0
LINE
8
DEFAULT_255_2_778
10
32.4563028
20
44.7563675
11
32.4563028
21
89.7564675
0
LINE
8
DEFAULT_255_2_778
10
32.4563028
20
89.7564675
11
87.1563028
21
89.7564675
0
LINE
8
DEFAULT_255_2_778
10
87.1563028
20
89.7564675
11
87.1563028
21
62.4564675
0
LINE
8
DEFAULT_255_2_778
10
87.1563028
20
62.4564675
11
83.1563028
21
62.4564675
0
LINE
8
DEFAULT_255_2_778
10
83.1563028
20
62.4564675
11
83.1563028
21
27.0565675
0
LINE
8
DEFAULT_255_2_778
10
83.1563028
20
27.0565675
11
84.4808028
21
27.0565675
0
LINE
8
DEFAULT_255_2_778
10
84.7933028
20
26.9470675
11
86.9687028
21
25.2065675
0
LINE
8
DEFAULT_255_2_778
10
32.1563028
20
89.4564675
11
32.4563028
21
89.4564675
0
ARC
8
DEFAULT_255_2_778
10
86.6562177
20
60.9565864
40
0.5000969
50
269.9996485
51
0.0003515
0
LINE
8
DEFAULT_255_2_778
10
87.1563146
20
62.4564895
11
87.1563146
21
60.9565895
0
LINE
8
DEFAULT_255_2_778
10
86.6562146
20
60.4564895
11
85.1563146
21
60.4564895
0
LINE
8
DEFAULT_255_2_778
10
85.1563146
20
60.4564895
11
84.4562146
21
61.2565895
0
LINE
8
DEFAULT_255_2_778
10
84.4562146
20
61.2565895
11
84.3395146
21
61.9566895
0
LINE
8
DEFAULT_255_2_778
10
83.1563146
20
58.7565895
11
83.9064146
21
57.2565895
0
LINE
8
DEFAULT_255_2_778
10
83.9064146
20
57.2565895
11
83.1563146
21
55.7566895
0
LINE
8
DEFAULT_255_2_778
10
87.1562355
20
61.9564352
11
83.1563355
21
61.9564352
0
LINE
8
DEFAULT_255_2_778
10
5.1563355
20
-0.2434648
11
32.1562355
21
-0.2434648
0
LINE
8
DEFAULT_255_2_778
10
32.1562355
20
-0.2434648
11
32.1562355
21
89.7564352
0
LINE
8
DEFAULT_255_2_778
10
32.1562355
20
89.7564352
11
5.1563355
21
89.7564352
0
LINE
8
DEFAULT_255_2_778
10
34.1562355
20
22.5565352
11
34.1562355
21
22.2564352
0
LINE
8
DEFAULT_255_2_778
10
34.1562355
20
22.2564352
11
34.4520355
21
22.2564352
0
LINE
8
DEFAULT_255_2_778
10
34.4520355
20
22.2564352
11
74.1562355
21
22.2564352
0
LINE
8
DEFAULT_255_2_778
10
74.1562355
20
22.2564352
11
74.1562355
21
67.2565352
0
LINE
8
DEFAULT_255_2_778
10
74.1562355
20
67.2565352
11
34.1562355
21
67.2565352
0
LINE
8
DEFAULT_255_2_778
10
34.1562355
20
67.2565352
11
34.1562355
21
22.5525352
0
ENDSEC
0
EOF