0
SECTION
2
HEADER
9
$MEASUREMENT
70
1
0
ENDSEC
0
SECTION
2
TABLES
0
TABLE
2
LTYPE
0
LTYPE
72
65
70
64
2
CONTINUOUS
3
______
73
0
40
0
0
ENDTAB
0
TABLE
2
LAYER
0
LAYER
2
DEFAULT_255_2_778
70
0
62
255
6
CONTINUOUS
0
LAYER
2
DEFAULT_255_1_388
70
0
62
255
6
CONTINUOUS
0
ENDTAB
0
ENDSEC
0
SECTION
2
ENTITIES
0
ARC
8
DEFAULT_255_2_778
10
3.5700693
20
51.9926534
40
0.7914215
50
129.1312896
51
180.1450914
0
ARC
8
DEFAULT_255_2_778
10
3.5703345
20
51.9931405
40
0.7912112
50
89.854026
51
129.1684493
0
ARC
8
DEFAULT_255_2_778
10
25.7993937
20
51.992827
40
0.7915249
50
39.4792447
51
90.147911
0
ARC
8
DEFAULT_255_2_778
10
25.7999935
20
51.9926737
40
0.7911595
50
359.8533901
51
39.5154338
0
ARC
8
DEFAULT_255_2_778
10
25.7996693
20
-1.9863989
40
0.7914836
50
309.4761667
51
0.1482649
0
ARC
8
DEFAULT_255_2_778
10
25.799398
20
-1.98683
40
0.7913235
50
269.8517415
51
309.511178
0
ARC
8
DEFAULT_255_2_778
10
3.570342
20
-1.9867718
40
0.7913815
50
219.1282118
51
270.1454017
0
ARC
8
DEFAULT_255_2_778
10
3.5700247
20
-1.9863893
40
0.7913769
50
179.8524075
51
219.1641908
0
LINE
8
DEFAULT_255_2_778
10
3.5723503
20
52.7843492
11
25.7973503
21
52.7843492
0
LINE
8
DEFAULT_255_2_778
10
26.5911503
20
51.9906492
11
26.5911503
21
-1.9843508
0
LINE
8
DEFAULT_255_2_778
10
25.7973503
20
-2.7781508
11
3.5723503
21
-2.7781508
0
LINE
8
DEFAULT_255_2_778
10
2.7786503
20
-1.9843508
11
2.7786503
21
51.9906492
0
LINE
8
DEFAULT_255_1_388
10
10.4541646
20
0.0830516
11
10.4541646
21
-0.0588081
0
LINE
8
DEFAULT_255_1_388
10
10.4541646
20
-0.0588081
11
9.9020868
21
-0.0588081
0
LINE
8
DEFAULT_255_1_388
10
9.9020868
20
-0.0588081
11
9.9020868
21
-0.6398
0
LINE
8
DEFAULT_255_1_388
10
9.9020868
20
-0.6398
11
9.7286024
21
-0.6398
0
LINE
8
DEFAULT_255_1_388
10
9.7286024
20
-0.6398
11
9.7286024
21
0.6757898
0
LINE
8
DEFAULT_255_1_388
10
9.7286024
20
0.6757898
11
10.5436175
21
0.6757898
0
LINE
8
DEFAULT_255_1_388
10
10.5436175
20
0.6757898
11
10.5436175
21
0.5330267
0
LINE
8
DEFAULT_255_1_388
10
10.5436175
20
0.5330267
11
9.9020868
21
0.5330267
0
LINE
8
DEFAULT_255_1_388
10
9.9020868
20
0.5330267
11
9.9020868
21
0.0830516
0
LINE
8
DEFAULT_255_1_388
10
9.9020868
20
0.0830516
11
10.4541646
21
0.0830516
0
LINE
8
DEFAULT_255_1_388
10
10.8634793
20
0.6757898
11
11.1806305
21
0.1716009
0
LINE
8
DEFAULT_255_1_388
10
11.1806305
20
0.1716009
11
11.4959745
21
0.6757898
0
LINE
8
DEFAULT_255_1_388
10
11.4959745
20
0.6757898
11
11.70018
21
0.6757898
0
LINE
8
DEFAULT_255_1_388
10
11.70018
20
0.6757898
11
11.2845404
21
0.0234163
0
LINE
8
DEFAULT_255_1_388
10
11.2845404
20
0.0234163
11
11.7101192
21
-0.6398
0
LINE
8
DEFAULT_255_1_388
10
11.7101192
20
-0.6398
11
11.5041065
21
-0.6398
0
LINE
8
DEFAULT_255_1_388
10
11.5041065
20
-0.6398
11
11.1806305
21
-0.1265754
0
LINE
8
DEFAULT_255_1_388
10
11.1806305
20
-0.1265754
11
10.8553473
21
-0.6398
0
LINE
8
DEFAULT_255_1_388
10
10.8553473
20
-0.6398
11
10.6502381
21
-0.6398
0
LINE
8
DEFAULT_255_1_388
10
10.6502381
20
-0.6398
11
11.0767206
21
0.0234163
0
LINE
8
DEFAULT_255_1_388
10
11.0767206
20
0.0234163
11
10.6601773
21
0.6757898
0
LINE
8
DEFAULT_255_1_388
10
10.6601773
20
0.6757898
11
10.8634793
21
0.6757898
0
LINE
8
DEFAULT_255_1_388
10
12.0787735
20
-0.0145334
11
11.945046
21
0.0198021
0
LINE
8
DEFAULT_255_1_388
10
11.945046
20
0.0198021
11
12.0119098
21
0.6757898
0
LINE
8
DEFAULT_255_1_388
10
12.0119098
20
0.6757898
11
12.6859688
21
0.6757898
0
LINE
8
DEFAULT_255_1_388
10
12.6859688
20
0.6757898
11
12.6859688
21
0.5212803
0
LINE
8
DEFAULT_255_1_388
10
12.6859688
20
0.5212803
11
12.1537694
21
0.5212803
0
LINE
8
DEFAULT_255_1_388
10
12.1537694
20
0.5212803
11
12.1140125
21
0.1625652
0
LINE
8
DEFAULT_255_1_388
10
11.8980606
20
-0.2937348
11
12.0561844
21
-0.2937348
0
LINE
8
DEFAULT_255_1_388
10
12.1230482
20
0.0216092
11
12.0787735
21
-0.0145334
0
ARC
8
DEFAULT_255_1_388
10
12.3226739
20
-0.1951759
40
0.4141476
50
93.7181681
51
120.253934
0
ARC
8
DEFAULT_255_1_388
10
12.3332791
20
-0.2860716
40
0.5055616
50
89.9660471
51
94.2495185
0
ARC
8
DEFAULT_255_1_388
10
12.3378613
20
-0.2197846
40
0.4392953
50
73.8045384
51
90.5585736
0
ARC
8
DEFAULT_255_1_388
10
12.3642871
20
-0.123248
40
0.3392225
50
41.3071072
51
73.543002
0
ARC
8
DEFAULT_255_1_388
10
12.3174691
20
-0.1635539
40
0.4009977
50
13.5075837
51
41.2174839
0
ARC
8
DEFAULT_255_1_388
10
12.1327788
20
-0.2119093
40
0.5918864
50
1.1330171
51
13.8830737
0
ARC
8
DEFAULT_255_1_388
10
11.9731434
20
-0.2204478
40
0.7516787
50
359.9925091
51
1.5431298
0
ARC
8
DEFAULT_255_1_388
10
12.1176049
20
-0.2250973
40
0.6072343
50
347.8572712
51
0.4294349
0
ARC
8
DEFAULT_255_1_388
10
12.3145184
20
-0.2697102
40
0.4053482
50
323.6727442
51
348.1674594
0
ARC
8
DEFAULT_255_1_388
10
12.3476148
20
-0.2898825
40
0.3667495
50
316.8171818
51
323.1486802
0
ARC
8
DEFAULT_255_1_388
10
12.3545272
20
-0.2940388
40
0.358869
50
281.839603
51
316.5458142
0
ARC
8
DEFAULT_255_1_388
10
12.3122559
20
-0.1190637
40
0.5388223
50
269.5770964
51
282.4214641
0
ARC
8
DEFAULT_255_1_388
10
12.304248
20
-0.143107
40
0.5147801
50
256.2425863
51
270.4486481
0
ARC
8
DEFAULT_255_1_388
10
12.2706008
20
-0.2780876
40
0.3756708
50
228.9024379
51
256.33135
0
ARC
8
DEFAULT_255_1_388
10
12.2622988
20
-0.2911946
40
0.360344
50
193.7536029
51
228.5272638
0
ARC
8
DEFAULT_255_1_388
10
12.4015553
20
-0.2503537
40
0.5053599
50
184.9244437
51
194.4976052
0
ARC
8
DEFAULT_255_1_388
10
12.4232194
20
-0.2463278
40
0.3700839
50
187.3596909
51
198.6733728
0
ARC
8
DEFAULT_255_1_388
10
12.3051438
20
-0.2872627
40
0.2451195
50
198.4453795
51
217.7945479
0
ARC
8
DEFAULT_255_1_388
10
12.271861
20
-0.3108437
40
0.2043754
50
218.2887146
51
228.5613203
0
ARC
8
DEFAULT_255_1_388
10
12.2828617
20
-0.2960098
40
0.2227819
50
228.9652423
51
258.1237049
0
ARC
8
DEFAULT_255_1_388
10
12.3060055
20
-0.1969036
40
0.3245374
50
257.7260585
51
270.4013717
0
ARC
8
DEFAULT_255_1_388
10
12.3110553
20
-0.2469745
40
0.2744726
50
269.4204315
51
286.420998
0
ARC
8
DEFAULT_255_1_388
10
12.3277608
20
-0.3076295
40
0.2115721
50
286.7250065
51
320.6004665
0
ARC
8
DEFAULT_255_1_388
10
12.2846524
20
-0.2726473
40
0.2670878
50
320.6712228
51
344.5440474
0
ARC
8
DEFAULT_255_1_388
10
12.1545238
20
-0.2344606
40
0.4026927
50
344.241448
51
356.735803
0
ARC
8
DEFAULT_255_1_388
10
12.0141545
20
-0.2228344
40
0.5435085
50
356.3547471
51
0.0507222
0
ARC
8
DEFAULT_255_1_388
10
12.164381
20
-0.2193188
40
0.3932934
50
359.5579289
51
12.9534322
0
ARC
8
DEFAULT_255_1_388
10
12.283065
20
-0.1905414
40
0.2711827
50
12.6489751
51
41.608121
0
ARC
8
DEFAULT_255_1_388
10
12.308981
20
-0.1685054
40
0.2371737
50
41.7851122
51
85.9892156
0
ARC
8
DEFAULT_255_1_388
10
12.295112
20
-0.2600262
40
0.3295244
50
84.6965848
51
90.0672125
0
ARC
8
DEFAULT_255_1_388
10
12.2924687
20
-0.3351882
40
0.4046926
50
89.6804991
51
99.161352
0
ARC
8
DEFAULT_255_1_388
10
12.2693697
20
-0.1971152
40
0.2647044
50
98.9836248
51
113.8905702
0
ARC
8
DEFAULT_255_1_388
10
12.2435372
20
-0.1361882
40
0.1985386
50
114.195234
51
127.3641866
0
LINE
8
DEFAULT_255_1_388
10
13.2723822
20
-0.0127263
11
13.2723822
21
-0.1491645
0
LINE
8
DEFAULT_255_1_388
10
13.2723822
20
-0.1491645
11
12.8314427
21
-0.1491645
0
LINE
8
DEFAULT_255_1_388
10
12.8314427
20
-0.1491645
11
12.8314427
21
-0.0127263
0
LINE
8
DEFAULT_255_1_388
10
12.8314427
20
-0.0127263
11
13.2723822
21
-0.0127263
0
LINE
8
DEFAULT_255_1_388
10
14.3132884
20
-0.6398
11
14.187693
21
-0.2964455
0
LINE
8
DEFAULT_255_1_388
10
14.187693
20
-0.2964455
11
13.6365187
21
-0.2964455
0
LINE
8
DEFAULT_255_1_388
10
13.6365187
20
-0.2964455
11
13.5127303
21
-0.6398
0
LINE
8
DEFAULT_255_1_388
10
13.5127303
20
-0.6398
11
13.3338246
21
-0.6398
0
LINE
8
DEFAULT_255_1_388
10
13.3338246
20
-0.6398
11
13.8362064
21
0.6757898
0
LINE
8
DEFAULT_255_1_388
10
13.8362064
20
0.6757898
11
13.9880052
21
0.6757898
0
LINE
8
DEFAULT_255_1_388
10
13.9880052
20
0.6757898
11
14.4912906
21
-0.6398
0
LINE
8
DEFAULT_255_1_388
10
14.4912906
20
-0.6398
11
14.3132884
21
-0.6398
0
LINE
8
DEFAULT_255_1_388
10
13.9121058
20
0.4616451
11
13.6889254
21
-0.1536823
0
LINE
8
DEFAULT_255_1_388
10
13.6889254
20
-0.1536823
11
14.1361898
21
-0.1536823
0
LINE
8
DEFAULT_255_1_388
10
14.1361898
20
-0.1536823
11
13.9121058
21
0.4616451
0
LINE
8
DEFAULT_255_1_388
10
15.5412325
20
0.2953892
11
15.3668446
21
0.2953892
0
LINE
8
DEFAULT_255_1_388
10
14.587972
20
-0.2584958
11
14.76236
21
-0.2584958
0
ARC
8
DEFAULT_255_1_388
10
15.4409173
20
1.3017821
40
1.4087688
50
248.9196578
51
254.1442424
0
ARC
8
DEFAULT_255_1_388
10
15.2519053
20
0.8151805
40
0.8867498
50
241.6337352
51
249.0064643
0
ARC
8
DEFAULT_255_1_388
10
15.0799366
20
0.5000764
40
0.5277799
50
230.4982261
51
241.8087583
0
ARC
8
DEFAULT_255_1_388
10
14.9917137
20
0.3876686
40
0.3849419
50
227.4062979
51
229.9877433
0
ARC
8
DEFAULT_255_1_388
10
14.9368484
20
0.3341155
40
0.3084129
50
200.6782127
51
228.1765252
0
ARC
8
DEFAULT_255_1_388
10
14.9449853
20
0.3324277
40
0.315461
50
179.506278
51
199.8695278
0
ARC
8
DEFAULT_255_1_388
10
14.9439442
20
0.3407671
40
0.3144584
50
132.4834401
51
181.0242352
0
ARC
8
DEFAULT_255_1_388
10
15.0108646
20
0.2775788
40
0.4063094
50
129.2526113
51
133.4249077
0
ARC
8
DEFAULT_255_1_388
10
15.0274238
20
0.2527619
40
0.436014
50
101.9878945
51
128.8741833
0
ARC
8
DEFAULT_255_1_388
10
15.0722654
20
0.059136
40
0.6347415
50
89.5906376
51
102.3170567
0
ARC
8
DEFAULT_255_1_388
10
15.0801965
20
0.0949586
40
0.5989122
50
77.2359491
51
90.3248968
0
ARC
8
DEFAULT_255_1_388
10
15.1034896
20
0.2037554
40
0.4876594
50
63.8379856
51
77.0808925
0
ARC
8
DEFAULT_255_1_388
10
15.134743
20
0.2619882
40
0.4216191
50
45.9863127
51
64.1608798
0
ARC
8
DEFAULT_255_1_388
10
15.1640823
20
0.295499
40
0.3771394
50
32.2747934
51
45.6544796
0
ARC
8
DEFAULT_255_1_388
10
15.171563
20
0.2976426
40
0.3696765
50
359.6507495
51
32.6129943
0
ARC
8
DEFAULT_255_1_388
10
15.0654813
20
0.2981788
40
0.3013762
50
359.469654
51
14.983205
0
ARC
8
DEFAULT_255_1_388
10
15.1448065
20
0.3194288
40
0.2192542
50
14.9781954
51
48.2004799
0
ARC
8
DEFAULT_255_1_388
10
15.1263176
20
0.2961937
40
0.2489048
50
48.5926661
51
74.1242559
0
ARC
8
DEFAULT_255_1_388
10
15.0887978
20
0.1723607
40
0.3782845
50
73.7889321
51
86.6653996
0
ARC
8
DEFAULT_255_1_388
10
15.0772793
20
0.0365955
40
0.5145025
50
86.2642725
51
90.0533288
0
ARC
8
DEFAULT_255_1_388
10
15.0740885
20
0.0810376
40
0.4700681
50
89.669455
51
99.2313411
0
ARC
8
DEFAULT_255_1_388
10
15.0468045
20
0.2435401
40
0.3052945
50
99.0695987
51
113.7659242
0
ARC
8
DEFAULT_255_1_388
10
15.016004
20
0.3161772
40
0.226407
50
114.0402885
51
127.9848946
0
ARC
8
DEFAULT_255_1_388
10
14.9889516
20
0.3494884
40
0.1835045
50
127.7287217
51
176.7106493
0
ARC
8
DEFAULT_255_1_388
10
15.0653181
20
0.338121
40
0.2604907
50
175.1780759
51
180.0581213
0
ARC
8
DEFAULT_255_1_388
10
14.9704524
20
0.3367411
40
0.1656287
50
179.6140658
51
228.124674
0
ARC
8
DEFAULT_255_1_388
10
15.0201882
20
0.382794
40
0.2332038
50
226.5785315
51
230.8792476
0
ARC
8
DEFAULT_255_1_388
10
15.0731368
20
0.4530908
40
0.3211664
50
231.4636401
51
241.9261664
0
ARC
8
DEFAULT_255_1_388
10
15.2078152
20
0.7009349
40
0.6032345
50
241.7177136
51
248.3259138
0
ARC
8
DEFAULT_255_1_388
10
15.3636747
20
1.0870771
40
1.0196417
50
248.2007377
51
252.4527713
0
ARC
8
DEFAULT_255_1_388
10
15.4990273
20
1.5055092
40
1.4594143
50
252.3388938
51
254.347037
0
ARC
8
DEFAULT_255_1_388
10
14.6505574
20
-1.5292905
40
1.6917621
50
71.0197462
51
74.4085467
0
ARC
8
DEFAULT_255_1_388
10
14.8412662
20
-0.9787856
40
1.1091618
50
66.1845203
51
71.086519
0
ARC
8
DEFAULT_255_1_388
10
15.0163211
20
-0.5846561
40
0.6779073
50
59.3537334
51
66.269255
0
ARC
8
DEFAULT_255_1_388
10
15.1162937
20
-0.4155223
40
0.4814366
50
49.1021732
51
59.3294421
0
ARC
8
DEFAULT_255_1_388
10
15.2083925
20
-0.3105425
40
0.3417875
50
32.7924183
51
49.2503526
0
ARC
8
DEFAULT_255_1_388
10
15.2433539
20
-0.2855689
40
0.2988789
50
31.121225
51
32.3977355
0
ARC
8
DEFAULT_255_1_388
10
15.2345717
20
-0.2888272
40
0.3080861
50
8.1116803
51
30.7958224
0
ARC
8
DEFAULT_255_1_388
10
15.1434063
20
-0.3043563
40
0.4005385
50
359.8390945
51
8.4707348
0
ARC
8
DEFAULT_255_1_388
10
15.213811
20
-0.3098249
40
0.3301608
50
337.4732479
51
0.7538283
0
ARC
8
DEFAULT_255_1_388
10
15.2339135
20
-0.3120446
40
0.3107929
50
307.5917028
51
336.4313755
0
ARC
8
DEFAULT_255_1_388
10
15.1828193
20
-0.2552491
40
0.3870096
50
307.6560665
51
308.4561779
0
ARC
8
DEFAULT_255_1_388
10
15.156241
20
-0.2144168
40
0.435591
50
284.3733666
51
307.1426212
0
ARC
8
DEFAULT_255_1_388
10
15.1005304
20
-0.0094609
40
0.6479685
50
272.4384566
51
284.6464689
0
ARC
8
DEFAULT_255_1_388
10
15.0862689
20
0.1929434
40
0.8508149
50
269.9708517
51
272.8180721
0
ARC
8
DEFAULT_255_1_388
10
15.0814371
20
-0.0362717
40
0.6216151
50
248.2707343
51
270.4054609
0
ARC
8
DEFAULT_255_1_388
10
15.0753243
20
-0.0577327
40
0.5994203
50
246.1380358
51
248.054058
0
ARC
8
DEFAULT_255_1_388
10
15.0282386
20
-0.1566295
40
0.4899388
50
233.1671897
51
246.4951656
0
ARC
8
DEFAULT_255_1_388
10
14.9659021
20
-0.2407863
40
0.3852115
50
215.3403381
51
233.084328
0
ARC
8
DEFAULT_255_1_388
10
14.9352385
20
-0.2630907
40
0.3472969
50
179.2419235
51
215.2648426
0
ARC
8
DEFAULT_255_1_388
10
15.0215936
20
-0.2615021
40
0.259251
50
179.3355796
51
199.1045873
0
ARC
8
DEFAULT_255_1_388
10
14.9842078
20
-0.2712777
40
0.2207454
50
199.8830064
51
232.7061328
0
ARC
8
DEFAULT_255_1_388
10
15.0373352
20
-0.2044544
40
0.306101
50
232.3736206
51
255.5136621
0
ARC
8
DEFAULT_255_1_388
10
15.0756858
20
-0.0644823
40
0.4512213
50
255.2447928
51
267.5318292
0
ARC
8
DEFAULT_255_1_388
10
15.0855325
20
0.0741709
40
0.5901825
50
267.1564563
51
270.0294721
0
ARC
8
DEFAULT_255_1_388
10
15.088665
20
0.0242623
40
0.5402814
50
269.6999944
51
278.1662446
0
ARC
8
DEFAULT_255_1_388
10
15.1174677
20
-0.1704026
40
0.3435003
50
278.0229022
51
290.6255326
0
ARC
8
DEFAULT_255_1_388
10
15.1565844
20
-0.2747453
40
0.2320666
50
290.6616368
51
307.0374127
0
ARC
8
DEFAULT_255_1_388
10
15.1903744
20
-0.316196
40
0.1786372
50
306.3942078
51
355.303191
0
ARC
8
DEFAULT_255_1_388
10
15.1328037
20
-0.3075814
40
0.2367516
50
354.3662092
51
0.0709489
0
ARC
8
DEFAULT_255_1_388
10
15.1487906
20
-0.3050439
40
0.2207761
50
359.4175379
51
16.1975911
0
ARC
8
DEFAULT_255_1_388
10
15.2000023
20
-0.2910046
40
0.1676828
50
16.4721294
51
52.6261798
0
ARC
8
DEFAULT_255_1_388
10
15.1076531
20
-0.4129394
40
0.3206412
50
52.7381828
51
62.4979144
0
ARC
8
DEFAULT_255_1_388
10
14.9518284
20
-0.7061764
40
0.6527035
50
62.2517425
51
68.1219454
0
ARC
8
DEFAULT_255_1_388
10
14.7583772
20
-1.1816049
40
1.1659797
50
68.006043
51
71.8055127
0
ARC
8
DEFAULT_255_1_388
10
14.556368
20
-1.7874277
40
1.8045908
50
71.718361
51
73.9260743
0
LINE
8
DEFAULT_255_1_388
10
15.940608
20
0.6757898
11
15.940608
21
-0.4979404
0
LINE
8
DEFAULT_255_1_388
10
15.940608
20
-0.4979404
11
16.5640675
21
-0.4979404
0
LINE
8
DEFAULT_255_1_388
10
16.5640675
20
-0.4979404
11
16.5640675
21
-0.6398
0
LINE
8
DEFAULT_255_1_388
10
16.5640675
20
-0.6398
11
15.7662201
21
-0.6398
0
LINE
8
DEFAULT_255_1_388
10
15.7662201
20
-0.6398
11
15.7662201
21
0.6757898
0
LINE
8
DEFAULT_255_1_388
10
15.7662201
20
0.6757898
11
15.940608
21
0.6757898
0
LINE
8
DEFAULT_255_1_388
10
17.083617
20
-0.0127263
11
17.083617
21
-0.1491645
0
LINE
8
DEFAULT_255_1_388
10
17.083617
20
-0.1491645
11
16.6426776
21
-0.1491645
0
LINE
8
DEFAULT_255_1_388
10
16.6426776
20
-0.1491645
11
16.6426776
21
-0.0127263
0
LINE
8
DEFAULT_255_1_388
10
16.6426776
20
-0.0127263
11
17.083617
21
-0.0127263
0
LINE
8
DEFAULT_255_1_388
10
17.272462
20
0.6757898
11
17.496546
21
0.6757898
0
LINE
8
DEFAULT_255_1_388
10
17.496546
20
0.6757898
11
17.9266427
21
-0.3976447
0
LINE
8
DEFAULT_255_1_388
10
17.9266427
20
-0.3976447
11
18.3567394
21
0.6757898
0
LINE
8
DEFAULT_255_1_388
10
18.3567394
20
0.6757898
11
18.5817269
21
0.6757898
0
LINE
8
DEFAULT_255_1_388
10
18.5817269
20
0.6757898
11
18.5817269
21
-0.6398
0
LINE
8
DEFAULT_255_1_388
10
18.5817269
20
-0.6398
11
18.4082425
21
-0.6398
0
LINE
8
DEFAULT_255_1_388
10
18.4082425
20
-0.6398
11
18.4082425
21
-0.127479
0
LINE
8
DEFAULT_255_1_388
10
18.4082425
20
-0.127479
11
18.4245067
21
0.4255025
0
LINE
8
DEFAULT_255_1_388
10
18.4245067
20
0.4255025
11
17.9926029
21
-0.6398
0
LINE
8
DEFAULT_255_1_388
10
17.9926029
20
-0.6398
11
17.8597789
21
-0.6398
0
LINE
8
DEFAULT_255_1_388
10
17.8597789
20
-0.6398
11
17.4287787
21
0.4227918
0
LINE
8
DEFAULT_255_1_388
10
17.4287787
20
0.4227918
11
17.4459464
21
-0.127479
0
LINE
8
DEFAULT_255_1_388
10
17.4459464
20
-0.127479
11
17.4459464
21
-0.6398
0
LINE
8
DEFAULT_255_1_388
10
17.4459464
20
-0.6398
11
17.272462
21
-0.6398
0
LINE
8
DEFAULT_255_1_388
10
17.272462
20
-0.6398
11
17.272462
21
0.6757898
0
LINE
8
DEFAULT_255_1_388
10
10.0636155
20
47.3014567
11
10.0636155
21
46.3238
0
LINE
8
DEFAULT_255_1_388
10
10.0636155
20
46.3238
11
9.8964561
21
46.3238
0
LINE
8
DEFAULT_255_1_388
10
9.8964561
20
46.3238
11
9.8964561
21
47.3014567
0
LINE
8
DEFAULT_255_1_388
10
9.8964561
20
47.3014567
11
10.0636155
21
47.3014567
0
ARC
8
DEFAULT_255_1_388
10
9.9929923
20
47.5618428
40
0.1100948
50
161.4148232
51
180.5532607
0
ARC
8
DEFAULT_255_1_388
10
9.9790233
20
47.5656875
40
0.0956324
50
138.1830164
51
160.9307633
0
ARC
8
DEFAULT_255_1_388
10
9.966642
20
47.5764313
40
0.0792417
50
104.6371663
51
138.0036136
0
ARC
8
DEFAULT_255_1_388
10
9.9786959
20
47.5351963
40
0.1221906
50
92.0601206
51
105.2198859
0
ARC
8
DEFAULT_255_1_388
10
9.9813323
20
47.4963583
40
0.161103
50
89.9790681
51
92.5006086
0
ARC
8
DEFAULT_255_1_388
10
9.9824499
20
47.5219998
40
0.1354654
50
78.0234649
51
90.4478111
0
ARC
8
DEFAULT_255_1_388
10
9.9928083
20
47.5685203
40
0.0878096
50
55.0521508
51
78.336297
0
ARC
8
DEFAULT_255_1_388
10
9.9984618
20
47.5780168
40
0.0767913
50
42.0506198
51
54.4508489
0
ARC
8
DEFAULT_255_1_388
10
9.983265
20
47.5640821
40
0.0974091
50
1.7493657
51
42.1498724
0
ARC
8
DEFAULT_255_1_388
10
9.9546556
20
47.5608166
40
0.1261276
50
359.9832635
51
2.8353994
0
ARC
8
DEFAULT_255_1_388
10
9.9732966
20
47.5597412
40
0.1074916
50
342.1062453
51
0.5535864
0
ARC
8
DEFAULT_255_1_388
10
9.989339
20
47.5553197
40
0.0908695
50
316.7110111
51
341.6513114
0
ARC
8
DEFAULT_255_1_388
10
9.9968822
20
47.5485607
40
0.0807447
50
285.4398289
51
316.5320129
0
ARC
8
DEFAULT_255_1_388
10
9.9844993
20
47.5897023
40
0.1237022
50
272.3543902
51
285.8951677
0
ARC
8
DEFAULT_255_1_388
10
9.9814703
20
47.6312742
40
0.1653687
50
269.9725761
51
272.8112722
0
ARC
8
DEFAULT_255_1_388
10
9.9803755
20
47.6061727
40
0.1402709
50
258.8433431
51
270.4148607
0
ARC
8
DEFAULT_255_1_388
10
9.9702535
20
47.5571739
40
0.0902407
50
238.54281
51
259.1289544
0
ARC
8
DEFAULT_255_1_388
10
9.9625856
20
47.5432694
40
0.0743817
50
222.5056676
51
237.9918132
0
ARC
8
DEFAULT_255_1_388
10
9.976945
20
47.5563295
40
0.0937918
50
184.1070774
51
222.4604165
0
ARC
8
DEFAULT_255_1_388
10
10.0071863
20
47.5606538
40
0.1242838
50
179.9419581
51
185.0970785
0
LINE
8
DEFAULT_255_1_388
10
11.3620376
20
47.0231589
11
11.3620376
21
46.9391274
0
LINE
8
DEFAULT_255_1_388
10
11.1316287
20
46.3951816
11
11.3665554
21
46.2108544
0
LINE
8
DEFAULT_255_1_388
10
11.3665554
20
46.2108544
11
11.2481885
21
46.1015231
0
LINE
8
DEFAULT_255_1_388
10
11.2481885
20
46.1015231
11
10.9707942
21
46.3219929
0
LINE
8
DEFAULT_255_1_388
10
10.3030601
20
46.9273811
11
10.3030601
21
47.0222553
0
LINE
8
DEFAULT_255_1_388
10
11.1885532
20
46.9264775
11
11.1885532
21
47.0240625
0
LINE
8
DEFAULT_255_1_388
10
10.4765444
20
47.0358088
11
10.4765444
21
46.9391274
0
ARC
8
DEFAULT_255_1_388
10
10.3547256
20
46.9347529
40
1.0073215
50
351.4530536
51
0.2488167
0
ARC
8
DEFAULT_255_1_388
10
10.6455424
20
46.8897749
40
0.7130509
50
338.6860608
51
351.554089
0
ARC
8
DEFAULT_255_1_388
10
10.7507881
20
46.8525573
40
0.6014866
50
336.2886209
51
338.3448103
0
ARC
8
DEFAULT_255_1_388
10
10.7888125
20
46.8316952
40
0.5582958
50
321.1168943
51
336.6796496
0
ARC
8
DEFAULT_255_1_388
10
10.8598899
20
46.7769644
40
0.4686152
50
305.4418419
51
320.8706891
0
ARC
8
DEFAULT_255_1_388
10
10.8377763
20
46.8610492
40
0.5552257
50
271.6372169
51
283.8614231
0
ARC
8
DEFAULT_255_1_388
10
10.8335217
20
46.9351271
40
0.6293984
50
269.993693
51
271.8317035
0
ARC
8
DEFAULT_255_1_388
10
10.8293041
20
46.843968
40
0.5382553
50
252.5221437
51
270.441579
0
ARC
8
DEFAULT_255_1_388
10
10.8131292
20
46.7833046
40
0.4755426
50
237.5349961
51
252.1858334
0
ARC
8
DEFAULT_255_1_388
10
10.8231668
20
46.796112
40
0.4917393
50
209.0632754
51
237.3492577
0
ARC
8
DEFAULT_255_1_388
10
10.9210993
20
46.8576104
40
0.6072464
50
205.118533
51
209.6465345
0
ARC
8
DEFAULT_255_1_388
10
11.0106995
20
46.8956174
40
0.7045164
50
188.7216633
51
204.8239753
0
ARC
8
DEFAULT_255_1_388
10
11.2353771
20
46.9334387
40
0.9323368
50
180.3722704
51
188.9253909
0
ARC
8
DEFAULT_255_1_388
10
11.2323332
20
47.0267416
40
0.929284
50
169.5253055
51
180.2766048
0
ARC
8
DEFAULT_255_1_388
10
11.0183131
20
47.0661024
40
0.7116745
50
155.8314601
51
169.5088611
0
ARC
8
DEFAULT_255_1_388
10
10.8742594
20
47.1329312
40
0.5528904
50
139.6259579
51
156.0379072
0
ARC
8
DEFAULT_255_1_388
10
10.8079128
20
47.1863143
40
0.4677708
50
122.6414784
51
139.3431662
0
ARC
8
DEFAULT_255_1_388
10
10.8192383
20
47.1656787
40
0.4912586
50
93.0224537
51
122.4556091
0
ARC
8
DEFAULT_255_1_388
10
10.8313904
20
47.0570776
40
0.6003837
50
89.9756766
51
93.6340839
0
ARC
8
DEFAULT_255_1_388
10
10.8357602
20
47.0998547
40
0.5576216
50
73.9666049
51
90.4228101
0
ARC
8
DEFAULT_255_1_388
10
10.8564251
20
47.1803139
40
0.4745905
50
57.5177173
51
73.6814962
0
ARC
8
DEFAULT_255_1_388
10
10.8514474
20
47.1762592
40
0.4806881
50
28.7260666
51
57.2767723
0
ARC
8
DEFAULT_255_1_388
10
10.7489881
20
47.1129397
40
0.6010032
50
24.2451459
51
29.3250018
0
ARC
8
DEFAULT_255_1_388
10
10.6448346
20
47.0698744
40
0.713663
50
9.0643887
51
23.9639114
0
ARC
8
DEFAULT_255_1_388
10
10.3910783
20
47.0272505
40
0.9709678
50
359.7585581
51
9.1891216
0
ARC
8
DEFAULT_255_1_388
10
10.2499372
20
47.0287562
40
0.9386278
50
359.7134836
51
7.9655743
0
ARC
8
DEFAULT_255_1_388
10
10.5832071
20
47.0768391
40
0.6019121
50
7.8289718
51
20.0423308
0
ARC
8
DEFAULT_255_1_388
10
10.7659538
20
47.1433145
40
0.4074504
50
20.0676743
51
35.9162425
0
ARC
8
DEFAULT_255_1_388
10
10.8531417
20
47.2081196
40
0.2988273
50
35.659429
51
85.1578517
0
ARC
8
DEFAULT_255_1_388
10
10.8323579
20
47.0826214
40
0.4257521
50
83.7963246
51
90.0959039
0
ARC
8
DEFAULT_255_1_388
10
10.8275124
20
47.1651384
40
0.3432594
50
89.3101324
51
109.9889786
0
ARC
8
DEFAULT_255_1_388
10
10.8182314
20
47.2051665
40
0.3025108
50
110.9286914
51
143.9411475
0
ARC
8
DEFAULT_255_1_388
10
10.9229616
20
47.1250455
40
0.434348
50
143.5289166
51
163.2980252
0
ARC
8
DEFAULT_255_1_388
10
11.1375903
20
47.0575685
40
0.659321
50
163.0418884
51
174.3139873
0
ARC
8
DEFAULT_255_1_388
10
11.4080867
20
47.0263378
40
0.9315905
50
174.050934
51
179.4174954
0
ARC
8
DEFAULT_255_1_388
10
11.3502582
20
46.9342922
40
0.8737271
50
179.6829249
51
188.9631837
0
ARC
8
DEFAULT_255_1_388
10
11.0498313
20
46.8853648
40
0.569348
50
188.8098723
51
202.9300437
0
ARC
8
DEFAULT_255_1_388
10
10.9130044
20
46.8296968
40
0.4216493
50
203.2071737
51
215.7877161
0
ARC
8
DEFAULT_255_1_388
10
10.8175328
20
46.754185
40
0.3000949
50
214.7520738
51
264.283405
0
ARC
8
DEFAULT_255_1_388
10
10.8327919
20
46.8503645
40
0.3973553
50
263.4754673
51
270.0952411
0
ARC
8
DEFAULT_255_1_388
10
10.8375312
20
46.8209808
40
0.3679937
50
269.3649295
51
287.5149684
0
ARC
8
DEFAULT_255_1_388
10
10.8575752
20
46.7481714
40
0.2925408
50
288.0629019
51
323.8115617
0
ARC
8
DEFAULT_255_1_388
10
10.7595729
20
46.8212754
40
0.4148018
50
323.6546541
51
342.6591359
0
ARC
8
DEFAULT_255_1_388
10
10.5310386
20
46.895628
40
0.6551163
50
342.4092446
51
353.6451501
0
ARC
8
DEFAULT_255_1_388
10
10.212518
20
46.9352565
40
0.9760748
50
353.4027553
51
359.4846611
0
LINE
8
DEFAULT_255_1_388
10
11.9511616
20
46.9508737
11
11.9511616
21
46.8144355
0
LINE
8
DEFAULT_255_1_388
10
11.9511616
20
46.8144355
11
11.5102222
21
46.8144355
0
LINE
8
DEFAULT_255_1_388
10
11.5102222
20
46.8144355
11
11.5102222
21
46.9508737
0
LINE
8
DEFAULT_255_1_388
10
11.5102222
20
46.9508737
11
11.9511616
21
46.9508737
0
LINE
8
DEFAULT_255_1_388
10
12.8655688
20
47.0466516
11
12.8655688
21
46.9047919
0
LINE
8
DEFAULT_255_1_388
10
12.8655688
20
46.9047919
11
12.313491
21
46.9047919
0
LINE
8
DEFAULT_255_1_388
10
12.313491
20
46.9047919
11
12.313491
21
46.3238
0
LINE
8
DEFAULT_255_1_388
10
12.313491
20
46.3238
11
12.1400066
21
46.3238
0
LINE
8
DEFAULT_255_1_388
10
12.1400066
20
46.3238
11
12.1400066
21
47.6393898
0
LINE
8
DEFAULT_255_1_388
10
12.1400066
20
47.6393898
11
12.9550217
21
47.6393898
0
LINE
8
DEFAULT_255_1_388
10
12.9550217
20
47.6393898
11
12.9550217
21
47.4966267
0
LINE
8
DEFAULT_255_1_388
10
12.9550217
20
47.4966267
11
12.313491
21
47.4966267
0
LINE
8
DEFAULT_255_1_388
10
12.313491
20
47.4966267
11
12.313491
21
47.0466516
0
LINE
8
DEFAULT_255_1_388
10
12.313491
20
47.0466516
11
12.8655688
21
47.0466516
0
LINE
8
DEFAULT_255_1_388
10
14.493792
20
47.2589892
11
14.3194041
21
47.2589892
0
LINE
8
DEFAULT_255_1_388
10
13.5405315
20
46.7051042
11
13.7149194
21
46.7051042
0
ARC
8
DEFAULT_255_1_388
10
14.3934768
20
48.2653821
40
1.4087688
50
248.9196578
51
254.1442424
0
ARC
8
DEFAULT_255_1_388
10
14.2044648
20
47.7787805
40
0.8867498
50
241.6337352
51
249.0064643
0
ARC
8
DEFAULT_255_1_388
10
14.0324961
20
47.4636764
40
0.5277799
50
230.4982261
51
241.8087583
0
ARC
8
DEFAULT_255_1_388
10
13.9442732
20
47.3512686
40
0.3849419
50
227.4062979
51
229.9877433
0
ARC
8
DEFAULT_255_1_388
10
13.8894079
20
47.2977155
40
0.3084129
50
200.6782127
51
228.1765252
0
ARC
8
DEFAULT_255_1_388
10
13.8975447
20
47.2960277
40
0.315461
50
179.506278
51
199.8695278
0
ARC
8
DEFAULT_255_1_388
10
13.8965036
20
47.3043671
40
0.3144584
50
132.4834401
51
181.0242352
0
ARC
8
DEFAULT_255_1_388
10
13.9634241
20
47.2411788
40
0.4063094
50
129.2526113
51
133.4249077
0
ARC
8
DEFAULT_255_1_388
10
13.9799833
20
47.2163619
40
0.436014
50
101.9878945
51
128.8741833
0
ARC
8
DEFAULT_255_1_388
10
14.0248249
20
47.022736
40
0.6347415
50
89.5906376
51
102.3170567
0
ARC
8
DEFAULT_255_1_388
10
14.032756
20
47.0585586
40
0.5989122
50
77.2359491
51
90.3248968
0
ARC
8
DEFAULT_255_1_388
10
14.0560491
20
47.1673554
40
0.4876594
50
63.8379856
51
77.0808925
0
ARC
8
DEFAULT_255_1_388
10
14.0873025
20
47.2255882
40
0.4216191
50
45.9863127
51
64.1608798
0
ARC
8
DEFAULT_255_1_388
10
14.1166418
20
47.259099
40
0.3771394
50
32.2747934
51
45.6544796
0
ARC
8
DEFAULT_255_1_388
10
14.1241225
20
47.2612426
40
0.3696765
50
359.6507495
51
32.6129943
0
ARC
8
DEFAULT_255_1_388
10
14.0180407
20
47.2617788
40
0.3013762
50
359.469654
51
14.983205
0
ARC
8
DEFAULT_255_1_388
10
14.0973659
20
47.2830288
40
0.2192542
50
14.9781954
51
48.2004799
0
ARC
8
DEFAULT_255_1_388
10
14.078877
20
47.2597937
40
0.2489048
50
48.5926661
51
74.1242559
0
ARC
8
DEFAULT_255_1_388
10
14.0413573
20
47.1359607
40
0.3782845
50
73.7889321
51
86.6653996
0
ARC
8
DEFAULT_255_1_388
10
14.0298387
20
47.0001955
40
0.5145025
50
86.2642725
51
90.0533288
0
ARC
8
DEFAULT_255_1_388
10
14.026648
20
47.0446376
40
0.4700681
50
89.669455
51
99.2313411
0
ARC
8
DEFAULT_255_1_388
10
13.999364
20
47.2071401
40
0.3052945
50
99.0695987
51
113.7659242
0
ARC
8
DEFAULT_255_1_388
10
13.9685634
20
47.2797772
40
0.226407
50
114.0402885
51
127.9848946
0
ARC
8
DEFAULT_255_1_388
10
13.941511
20
47.3130884
40
0.1835045
50
127.7287217
51
176.7106493
0
ARC
8
DEFAULT_255_1_388
10
14.0178776
20
47.301721
40
0.2604907
50
175.1780759
51
180.0581213
0
ARC
8
DEFAULT_255_1_388
10
13.9230119
20
47.3003411
40
0.1656287
50
179.6140658
51
228.124674
0
ARC
8
DEFAULT_255_1_388
10
13.9727477
20
47.346394
40
0.2332038
50
226.5785315
51
230.8792476
0
ARC
8
DEFAULT_255_1_388
10
14.0256963
20
47.4166908
40
0.3211664
50
231.4636401
51
241.9261664
0
ARC
8
DEFAULT_255_1_388
10
14.1603747
20
47.6645349
40
0.6032345
50
241.7177136
51
248.3259138
0
ARC
8
DEFAULT_255_1_388
10
14.3162341
20
48.0506771
40
1.0196417
50
248.2007377
51
252.4527713
0
ARC
8
DEFAULT_255_1_388
10
14.4515868
20
48.4691092
40
1.4594143
50
252.3388938
51
254.347037
0
ARC
8
DEFAULT_255_1_388
10
13.6031169
20
45.4343095
40
1.6917621
50
71.0197462
51
74.4085467
0
ARC
8
DEFAULT_255_1_388
10
13.7938256
20
45.9848144
40
1.1091618
50
66.1845203
51
71.086519
0
ARC
8
DEFAULT_255_1_388
10
13.9688805
20
46.3789439
40
0.6779073
50
59.3537334
51
66.269255
0
ARC
8
DEFAULT_255_1_388
10
14.0688531
20
46.5480777
40
0.4814366
50
49.1021732
51
59.3294421
0
ARC
8
DEFAULT_255_1_388
10
14.160952
20
46.6530575
40
0.3417875
50
32.7924183
51
49.2503526
0
ARC
8
DEFAULT_255_1_388
10
14.1959134
20
46.6780311
40
0.2988789
50
31.121225
51
32.3977355
0
ARC
8
DEFAULT_255_1_388
10
14.1871312
20
46.6747728
40
0.3080861
50
8.1116803
51
30.7958224
0
ARC
8
DEFAULT_255_1_388
10
14.0959657
20
46.6592437
40
0.4005385
50
359.8390945
51
8.4707348
0
ARC
8
DEFAULT_255_1_388
10
14.1663705
20
46.6537751
40
0.3301608
50
337.4732479
51
0.7538283
0
ARC
8
DEFAULT_255_1_388
10
14.186473
20
46.6515554
40
0.3107929
50
307.5917028
51
336.4313755
0
ARC
8
DEFAULT_255_1_388
10
14.1353788
20
46.7083509
40
0.3870096
50
307.6560665
51
308.4561779
0
ARC
8
DEFAULT_255_1_388
10
14.1088004
20
46.7491832
40
0.435591
50
284.3733666
51
307.1426212
0
ARC
8
DEFAULT_255_1_388
10
14.0530899
20
46.9541391
40
0.6479685
50
272.4384566
51
284.6464689
0
ARC
8
DEFAULT_255_1_388
10
14.0388283
20
47.1565434
40
0.8508149
50
269.9708517
51
272.8180721
0
ARC
8
DEFAULT_255_1_388
10
14.0339966
20
46.9273283
40
0.6216151
50
248.2707343
51
270.4054609
0
ARC
8
DEFAULT_255_1_388
10
14.0278838
20
46.9058673
40
0.5994203
50
246.1380358
51
248.054058
0
ARC
8
DEFAULT_255_1_388
10
13.980798
20
46.8069705
40
0.4899388
50
233.1671897
51
246.4951656
0
ARC
8
DEFAULT_255_1_388
10
13.9184615
20
46.7228137
40
0.3852115
50
215.3403381
51
233.084328
0
ARC
8
DEFAULT_255_1_388
10
13.8877979
20
46.7005093
40
0.3472969
50
179.2419235
51
215.2648426
0
ARC
8
DEFAULT_255_1_388
10
13.974153
20
46.7020979
40
0.259251
50
179.3355796
51
199.1045873
0
ARC
8
DEFAULT_255_1_388
10
13.9367672
20
46.6923223
40
0.2207454
50
199.8830064
51
232.7061328
0
ARC
8
DEFAULT_255_1_388
10
13.9898946
20
46.7591456
40
0.306101
50
232.3736206
51
255.5136621
0
ARC
8
DEFAULT_255_1_388
10
14.0282452
20
46.8991177
40
0.4512213
50
255.2447928
51
267.5318292
0
ARC
8
DEFAULT_255_1_388
10
14.0380919
20
47.0377709
40
0.5901825
50
267.1564563
51
270.0294721
0
ARC
8
DEFAULT_255_1_388
10
14.0412245
20
46.9878623
40
0.5402814
50
269.6999944
51
278.1662446
0
ARC
8
DEFAULT_255_1_388
10
14.0700272
20
46.7931974
40
0.3435003
50
278.0229022
51
290.6255326
0
ARC
8
DEFAULT_255_1_388
10
14.1091439
20
46.6888547
40
0.2320666
50
290.6616368
51
307.0374127
0
ARC
8
DEFAULT_255_1_388
10
14.1429339
20
46.647404
40
0.1786372
50
306.3942078
51
355.303191
0
ARC
8
DEFAULT_255_1_388
10
14.0853632
20
46.6560186
40
0.2367516
50
354.3662092
51
0.0709489
0
ARC
8
DEFAULT_255_1_388
10
14.10135
20
46.6585561
40
0.2207761
50
359.4175379
51
16.1975911
0
ARC
8
DEFAULT_255_1_388
10
14.1525618
20
46.6725954
40
0.1676828
50
16.4721294
51
52.6261798
0
ARC
8
DEFAULT_255_1_388
10
14.0602126
20
46.5506606
40
0.3206412
50
52.7381828
51
62.4979144
0
ARC
8
DEFAULT_255_1_388
10
13.9043878
20
46.2574236
40
0.6527035
50
62.2517425
51
68.1219454
0
ARC
8
DEFAULT_255_1_388
10
13.7109366
20
45.7819951
40
1.1659797
50
68.006043
51
71.8055127
0
ARC
8
DEFAULT_255_1_388
10
13.5089274
20
45.1761723
40
1.8045908
50
71.718361
51
73.9260743
0
LINE
8
DEFAULT_255_1_388
10
14.6501086
20
46.7855214
11
14.6501086
21
46.8162426
0
LINE
8
DEFAULT_255_1_388
10
15.4795808
20
46.8343139
11
15.4795808
21
46.7647395
0
LINE
8
DEFAULT_255_1_388
10
15.4795808
20
46.7647395
11
14.8172681
21
46.7647395
0
LINE
8
DEFAULT_255_1_388
10
15.3648281
20
46.5740874
11
15.4669309
21
46.4945737
0
LINE
8
DEFAULT_255_1_388
10
14.8226895
20
46.9020813
11
15.3124214
21
46.9020813
0
LINE
8
DEFAULT_255_1_388
10
15.3124214
20
46.9020813
11
15.3124214
21
46.9147312
0
ARC
8
DEFAULT_255_1_388
10
15.0932847
20
46.798021
40
0.4923176
50
252.326534
51
270.5809615
0
ARC
8
DEFAULT_255_1_388
10
15.0702312
20
46.714694
40
0.4059384
50
223.3000488
51
251.8562489
0
ARC
8
DEFAULT_255_1_388
10
15.0940092
20
46.7377898
40
0.4390832
50
190.9374369
51
223.3654369
0
ARC
8
DEFAULT_255_1_388
10
15.288077
20
46.7816598
40
0.63798
50
179.6531919
51
191.4988561
0
ARC
8
DEFAULT_255_1_388
10
15.3017797
20
46.8198571
40
0.6516811
50
167.4005523
51
180.3177836
0
ARC
8
DEFAULT_255_1_388
10
15.1834468
20
46.8448853
40
0.5307402
50
154.1835149
51
167.2508278
0
ARC
8
DEFAULT_255_1_388
10
15.1124059
20
46.8822925
40
0.4505076
50
134.3150225
51
154.5315008
0
ARC
8
DEFAULT_255_1_388
10
15.0879394
20
46.903755
40
0.4180662
50
122.8617482
51
133.9707159
0
ARC
8
DEFAULT_255_1_388
10
15.0763001
20
46.9287882
40
0.3907416
50
89.8248474
51
123.4199325
0
ARC
8
DEFAULT_255_1_388
10
15.0819299
20
46.8560352
40
0.4635141
50
74.7874349
51
90.5482648
0
ARC
8
DEFAULT_255_1_388
10
15.1149763
20
46.9780987
40
0.3370565
50
39.8178888
51
74.7634383
0
ARC
8
DEFAULT_255_1_388
10
15.0573005
20
46.9331356
40
0.4101553
50
16.8990848
51
39.4830125
0
ARC
8
DEFAULT_255_1_388
10
14.844162
20
46.8648711
40
0.6339427
50
4.9634768
51
17.2027767
0
ARC
8
DEFAULT_255_1_388
10
14.5721025
20
46.83616
40
0.9074803
50
359.8834402
51
5.2832409
0
ARC
8
DEFAULT_255_1_388
10
15.2513382
20
46.7721981
40
0.4341343
50
180.9844233
51
194.9402766
0
ARC
8
DEFAULT_255_1_388
10
15.1332548
20
46.739917
40
0.3117211
50
194.8030557
51
222.0412897
0
ARC
8
DEFAULT_255_1_388
10
15.099042
20
46.7059715
40
0.2635903
50
221.541578
51
268.8616004
0
ARC
8
DEFAULT_255_1_388
10
15.1072541
20
46.782028
40
0.3398611
50
267.7321071
51
270.009808
0
ARC
8
DEFAULT_255_1_388
10
15.1092604
20
46.8047178
40
0.3625561
50
269.6921218
51
280.4122297
0
ARC
8
DEFAULT_255_1_388
10
15.1291016
20
46.7013767
40
0.2573323
50
280.2257165
51
298.633539
0
ARC
8
DEFAULT_255_1_388
10
15.141643
20
46.6749578
40
0.2281403
50
299.0485543
51
300.4624141
0
ARC
8
DEFAULT_255_1_388
10
15.065741
20
46.8014796
40
0.3756797
50
300.6578578
51
322.037749
0
ARC
8
DEFAULT_255_1_388
10
15.0286931
20
46.8338266
40
0.4247956
50
321.671786
51
322.3059078
0
ARC
8
DEFAULT_255_1_388
10
15.1310494
20
46.7044267
40
0.3960488
50
276.9729088
51
328.0035579
0
ARC
8
DEFAULT_255_1_388
10
15.0998965
20
46.8709609
40
0.5652345
50
269.8358003
51
278.0581296
0
ARC
8
DEFAULT_255_1_388
10
15.0743264
20
46.954782
40
0.2274263
50
89.2017936
51
117.2852353
0
ARC
8
DEFAULT_255_1_388
10
15.0803014
20
46.9500637
40
0.2343798
50
118.0546404
51
137.4544511
0
ARC
8
DEFAULT_255_1_388
10
15.1224658
20
46.9117556
40
0.2913471
50
137.5109688
51
158.8516701
0
ARC
8
DEFAULT_255_1_388
10
15.2504759
20
46.8600902
40
0.4293804
50
158.5845496
51
170.1719753
0
ARC
8
DEFAULT_255_1_388
10
15.3821094
20
46.8339519
40
0.5635533
50
169.8378964
51
173.0563877
0
ARC
8
DEFAULT_255_1_388
10
14.8536378
20
46.8914187
40
0.4593755
50
2.9089079
51
12.88469
0
ARC
8
DEFAULT_255_1_388
10
15.0078297
20
46.9277082
40
0.3009753
50
12.6957404
51
28.6405841
0
ARC
8
DEFAULT_255_1_388
10
15.0687794
20
46.9592577
40
0.232366
50
29.016559
51
41.1492981
0
ARC
8
DEFAULT_255_1_388
10
15.0915773
20
46.979108
40
0.2021373
50
41.1646967
51
85.001362
0
ARC
8
DEFAULT_255_1_388
10
15.0779777
20
46.8964775
40
0.2857091
50
83.728216
51
90.0968824
0
LINE
8
DEFAULT_255_1_388
10
16.1455078
20
47.3068781
11
16.1455078
21
47.151465
0
LINE
8
DEFAULT_255_1_388
10
15.840103
20
47.0177375
11
15.840103
21
46.3238
0
LINE
8
DEFAULT_255_1_388
10
15.840103
20
46.3238
11
15.6729436
21
46.3238
0
LINE
8
DEFAULT_255_1_388
10
15.6729436
20
46.3238
11
15.6729436
21
47.3014567
0
LINE
8
DEFAULT_255_1_388
10
15.6729436
20
47.3014567
11
15.8355852
21
47.3014567
0
LINE
8
DEFAULT_255_1_388
10
15.8355852
20
47.3014567
11
15.8382959
21
47.1885112
0
ARC
8
DEFAULT_255_1_388
10
16.0705238
20
46.6948068
40
0.4627735
50
80.6751522
51
86.893806
0
ARC
8
DEFAULT_255_1_388
10
16.0637068
20
46.5856103
40
0.5721798
50
86.8046851
51
90.0423898
0
ARC
8
DEFAULT_255_1_388
10
16.0595487
20
46.8623197
40
0.2954939
50
89.2758283
51
106.6212906
0
ARC
8
DEFAULT_255_1_388
10
16.0365512
20
46.9459009
40
0.2088351
50
107.1347109
51
157.6456887
0
ARC
8
DEFAULT_255_1_388
10
16.1133574
20
46.9031908
40
0.296292
50
155.6557383
51
157.256838
0
ARC
8
DEFAULT_255_1_388
10
16.0913188
20
47.0342472
40
0.296341
50
127.8167201
51
148.6300223
0
ARC
8
DEFAULT_255_1_388
10
16.0627936
20
47.0635066
40
0.2557782
50
91.3329934
51
126.7875218
0
ARC
8
DEFAULT_255_1_388
10
16.0713323
20
46.9831718
40
0.3363561
50
89.9858247
51
92.4688453
0
ARC
8
DEFAULT_255_1_388
10
16.0722816
20
47.0140114
40
0.3055179
50
85.3587643
51
90.1624243
0
ARC
8
DEFAULT_255_1_388
10
16.0817881
20
47.1269458
40
0.1921848
50
78.4019195
51
85.4592653
0
ARC
8
DEFAULT_255_1_388
10
16.0980942
20
47.2047142
40
0.1127267
50
67.7849217
51
78.573798
0
ARC
8
DEFAULT_255_1_388
10
16.1102576
20
47.2362374
40
0.0789473
50
63.4805074
51
67.3074739
0
LINE
8
DEFAULT_255_1_388
10
16.4807302
20
47.3014567
11
16.4807302
21
46.3238
0
LINE
8
DEFAULT_255_1_388
10
16.4807302
20
46.3238
11
16.3135708
21
46.3238
0
LINE
8
DEFAULT_255_1_388
10
16.3135708
20
46.3238
11
16.3135708
21
47.3014567
0
LINE
8
DEFAULT_255_1_388
10
16.3135708
20
47.3014567
11
16.4807302
21
47.3014567
0
ARC
8
DEFAULT_255_1_388
10
16.410107
20
47.5618428
40
0.1100948
50
161.4148232
51
180.5532607
0
ARC
8
DEFAULT_255_1_388
10
16.396138
20
47.5656875
40
0.0956324
50
138.1830164
51
160.9307633
0
ARC
8
DEFAULT_255_1_388
10
16.3837567
20
47.5764313
40
0.0792417
50
104.6371663
51
138.0036136
0
ARC
8
DEFAULT_255_1_388
10
16.3958106
20
47.5351963
40
0.1221906
50
92.0601206
51
105.2198859
0
ARC
8
DEFAULT_255_1_388
10
16.398447
20
47.4963583
40
0.161103
50
89.9790681
51
92.5006086
0
ARC
8
DEFAULT_255_1_388
10
16.3995646
20
47.5219998
40
0.1354654
50
78.0234649
51
90.4478111
0
ARC
8
DEFAULT_255_1_388
10
16.409923
20
47.5685203
40
0.0878096
50
55.0521508
51
78.336297
0
ARC
8
DEFAULT_255_1_388
10
16.4155765
20
47.5780168
40
0.0767913
50
42.0506198
51
54.4508489
0
ARC
8
DEFAULT_255_1_388
10
16.4003798
20
47.5640821
40
0.0974091
50
1.7493657
51
42.1498724
0
ARC
8
DEFAULT_255_1_388
10
16.3717703
20
47.5608166
40
0.1261276
50
359.9832635
51
2.8353994
0
ARC
8
DEFAULT_255_1_388
10
16.3904113
20
47.5597412
40
0.1074916
50
342.1062453
51
0.5535864
0
ARC
8
DEFAULT_255_1_388
10
16.4064537
20
47.5553197
40
0.0908695
50
316.7110111
51
341.6513114
0
ARC
8
DEFAULT_255_1_388
10
16.4139969
20
47.5485607
40
0.0807447
50
285.4398289
51
316.5320129
0
ARC
8
DEFAULT_255_1_388
10
16.401614
20
47.5897023
40
0.1237022
50
272.3543902
51
285.8951677
0
ARC
8
DEFAULT_255_1_388
10
16.398585
20
47.6312742
40
0.1653687
50
269.9725761
51
272.8112722
0
ARC
8
DEFAULT_255_1_388
10
16.3974902
20
47.6061727
40
0.1402709
50
258.8433431
51
270.4148607
0
ARC
8
DEFAULT_255_1_388
10
16.3873682
20
47.5571739
40
0.0902407
50
238.54281
51
259.1289544
0
ARC
8
DEFAULT_255_1_388
10
16.3797004
20
47.5432694
40
0.0743817
50
222.5056676
51
237.9918132
0
ARC
8
DEFAULT_255_1_388
10
16.3940597
20
47.5563295
40
0.0937918
50
184.1070774
51
222.4604165
0
ARC
8
DEFAULT_255_1_388
10
16.4243011
20
47.5606538
40
0.1242838
50
179.9419581
51
185.0970785
0
LINE
8
DEFAULT_255_1_388
10
16.7057178
20
46.7855214
11
16.7057178
21
46.8162426
0
LINE
8
DEFAULT_255_1_388
10
17.5351899
20
46.8343139
11
17.5351899
21
46.7647395
0
LINE
8
DEFAULT_255_1_388
10
17.5351899
20
46.7647395
11
16.8728772
21
46.7647395
0
LINE
8
DEFAULT_255_1_388
10
17.4204373
20
46.5740874
11
17.52254
21
46.4945737
0
LINE
8
DEFAULT_255_1_388
10
16.8782986
20
46.9020813
11
17.3680305
21
46.9020813
0
LINE
8
DEFAULT_255_1_388
10
17.3680305
20
46.9020813
11
17.3680305
21
46.9147312
0
ARC
8
DEFAULT_255_1_388
10
17.1488939
20
46.798021
40
0.4923176
50
252.326534
51
270.5809615
0
ARC
8
DEFAULT_255_1_388
10
17.1258403
20
46.714694
40
0.4059384
50
223.3000488
51
251.8562489
0
ARC
8
DEFAULT_255_1_388
10
17.1496183
20
46.7377898
40
0.4390832
50
190.9374369
51
223.3654369
0
ARC
8
DEFAULT_255_1_388
10
17.3436861
20
46.7816598
40
0.63798
50
179.6531919
51
191.4988561
0
ARC
8
DEFAULT_255_1_388
10
17.3573888
20
46.8198571
40
0.6516811
50
167.4005523
51
180.3177836
0
ARC
8
DEFAULT_255_1_388
10
17.2390559
20
46.8448853
40
0.5307402
50
154.1835149
51
167.2508278
0
ARC
8
DEFAULT_255_1_388
10
17.168015
20
46.8822925
40
0.4505076
50
134.3150225
51
154.5315008
0
ARC
8
DEFAULT_255_1_388
10
17.1435485
20
46.903755
40
0.4180662
50
122.8617482
51
133.9707159
0
ARC
8
DEFAULT_255_1_388
10
17.1319093
20
46.9287882
40
0.3907416
50
89.8248474
51
123.4199325
0
ARC
8
DEFAULT_255_1_388
10
17.1375391
20
46.8560352
40
0.4635141
50
74.7874349
51
90.5482648
0
ARC
8
DEFAULT_255_1_388
10
17.1705855
20
46.9780987
40
0.3370565
50
39.8178888
51
74.7634383
0
ARC
8
DEFAULT_255_1_388
10
17.1129097
20
46.9331356
40
0.4101553
50
16.8990848
51
39.4830125
0
ARC
8
DEFAULT_255_1_388
10
16.8997711
20
46.8648711
40
0.6339427
50
4.9634768
51
17.2027767
0
ARC
8
DEFAULT_255_1_388
10
16.6277116
20
46.83616
40
0.9074803
50
359.8834402
51
5.2832409
0
ARC
8
DEFAULT_255_1_388
10
17.3069474
20
46.7721981
40
0.4341343
50
180.9844233
51
194.9402766
0
ARC
8
DEFAULT_255_1_388
10
17.1888639
20
46.739917
40
0.3117211
50
194.8030557
51
222.0412897
0
ARC
8
DEFAULT_255_1_388
10
17.1546512
20
46.7059715
40
0.2635903
50
221.541578
51
268.8616004
0
ARC
8
DEFAULT_255_1_388
10
17.1628632
20
46.782028
40
0.3398611
50
267.7321071
51
270.009808
0
ARC
8
DEFAULT_255_1_388
10
17.1648696
20
46.8047178
40
0.3625561
50
269.6921218
51
280.4122297
0
ARC
8
DEFAULT_255_1_388
10
17.1847107
20
46.7013767
40
0.2573323
50
280.2257165
51
298.633539
0
ARC
8
DEFAULT_255_1_388
10
17.1972521
20
46.6749578
40
0.2281403
50
299.0485543
51
300.4624141
0
ARC
8
DEFAULT_255_1_388
10
17.1213501
20
46.8014796
40
0.3756797
50
300.6578578
51
322.037749
0
ARC
8
DEFAULT_255_1_388
10
17.0843023
20
46.8338266
40
0.4247956
50
321.671786
51
322.3059078
0
ARC
8
DEFAULT_255_1_388
10
17.1866586
20
46.7044267
40
0.3960488
50
276.9729088
51
328.0035579
0
ARC
8
DEFAULT_255_1_388
10
17.1555056
20
46.8709609
40
0.5652345
50
269.8358003
51
278.0581296
0
ARC
8
DEFAULT_255_1_388
10
17.1299355
20
46.954782
40
0.2274263
50
89.2017936
51
117.2852353
0
ARC
8
DEFAULT_255_1_388
10
17.1359106
20
46.9500637
40
0.2343798
50
118.0546404
51
137.4544511
0
ARC
8
DEFAULT_255_1_388
10
17.1780749
20
46.9117556
40
0.2913471
50
137.5109688
51
158.8516701
0
ARC
8
DEFAULT_255_1_388
10
17.306085
20
46.8600902
40
0.4293804
50
158.5845496
51
170.1719753
0
ARC
8
DEFAULT_255_1_388
10
17.4377186
20
46.8339519
40
0.5635533
50
169.8378964
51
173.0563877
0
ARC
8
DEFAULT_255_1_388
10
16.9092469
20
46.8914187
40
0.4593755
50
2.9089079
51
12.88469
0
ARC
8
DEFAULT_255_1_388
10
17.0634389
20
46.9277082
40
0.3009753
50
12.6957404
51
28.6405841
0
ARC
8
DEFAULT_255_1_388
10
17.1243886
20
46.9592577
40
0.232366
50
29.016559
51
41.1492981
0
ARC
8
DEFAULT_255_1_388
10
17.1471865
20
46.979108
40
0.2021373
50
41.1646967
51
85.001362
0
ARC
8
DEFAULT_255_1_388
10
17.1335869
20
46.8964775
40
0.2857091
50
83.728216
51
90.0968824
0
LINE
8
DEFAULT_255_1_388
10
18.4559221
20
47.0141232
11
18.2878591
21
47.0141232
0
LINE
8
DEFAULT_255_1_388
10
17.6878923
20
46.624687
11
17.8550518
21
46.624687
0
ARC
8
DEFAULT_255_1_388
10
18.1541882
20
46.5847935
40
0.1436198
50
359.3335374
51
18.5869869
0
ARC
8
DEFAULT_255_1_388
10
18.1776622
20
46.5910015
40
0.1194022
50
19.3538149
51
54.6486387
0
ARC
8
DEFAULT_255_1_388
10
18.1209609
20
46.5128077
40
0.2159877
50
54.3821575
51
65.0627557
0
ARC
8
DEFAULT_255_1_388
10
18.0344956
20
46.3309032
40
0.4173927
50
64.8282172
51
71.4204388
0
ARC
8
DEFAULT_255_1_388
10
17.9329852
20
46.0330782
40
0.7320403
50
71.3166092
51
75.8005927
0
ARC
8
DEFAULT_255_1_388
10
17.8383737
20
45.6685881
40
1.108605
50
75.6810806
51
78.0063886
0
ARC
8
DEFAULT_255_1_388
10
18.3388326
20
48.028753
40
1.3040363
50
254.69024
51
258.0465557
0
ARC
8
DEFAULT_255_1_388
10
18.2220195
20
47.6057742
40
0.8652254
50
249.9010634
51
254.7555005
0
ARC
8
DEFAULT_255_1_388
10
18.1091247
20
47.299168
40
0.5384962
50
243.3097375
51
249.970939
0
ARC
8
DEFAULT_255_1_388
10
18.0383661
20
47.1580721
40
0.380652
50
234.4047808
51
243.2861752
0
ARC
8
DEFAULT_255_1_388
10
17.9683297
20
47.0613645
40
0.2612502
50
220.8665526
51
234.5497192
0
ARC
8
DEFAULT_255_1_388
10
17.9298296
20
47.0263203
40
0.2092097
50
214.3063391
51
220.5075055
0
ARC
8
DEFAULT_255_1_388
10
17.926941
20
47.0228577
40
0.2048755
50
186.9131438
51
213.9617385
0
ARC
8
DEFAULT_255_1_388
10
17.98678
20
47.0325431
40
0.2654563
50
179.8802037
51
187.4338578
0
ARC
8
DEFAULT_255_1_388
10
17.9693764
20
47.0348049
40
0.2480581
50
132.0053393
51
180.3942351
0
ARC
8
DEFAULT_255_1_388
10
18.0432677
20
46.9665997
40
0.3483116
50
129.2317021
51
133.5294826
0
ARC
8
DEFAULT_255_1_388
10
18.0492646
20
46.9560383
40
0.360291
50
100.440976
51
128.9081567
0
ARC
8
DEFAULT_255_1_388
10
18.0800764
20
46.8114357
40
0.5080996
50
89.6985063
51
100.9029043
0
ARC
8
DEFAULT_255_1_388
10
18.0864918
20
46.7933739
40
0.5261675
50
77.6967144
51
90.4074623
0
ARC
8
DEFAULT_255_1_388
10
18.1237271
20
46.9539503
40
0.3613511
50
50.7278431
51
78.0397473
0
ARC
8
DEFAULT_255_1_388
10
18.1737314
20
47.0122173
40
0.2845966
50
25.754382
51
51.0957456
0
ARC
8
DEFAULT_255_1_388
10
18.1738681
20
47.0178311
40
0.2820785
50
359.2468358
51
24.7393861
0
ARC
8
DEFAULT_255_1_388
10
18.1418568
20
47.0146204
40
0.1460032
50
359.8048924
51
45.1543866
0
ARC
8
DEFAULT_255_1_388
10
18.0960302
20
46.9754291
40
0.2061641
50
43.8053172
51
49.625485
0
ARC
8
DEFAULT_255_1_388
10
18.0969744
20
46.9755849
40
0.2054344
50
49.7979696
51
82.121802
0
ARC
8
DEFAULT_255_1_388
10
18.0835827
20
46.9028473
40
0.2793404
50
81.4458692
51
90.1707936
0
ARC
8
DEFAULT_255_1_388
10
18.0808404
20
46.8436478
40
0.3385438
50
89.6768097
51
99.1267111
0
ARC
8
DEFAULT_255_1_388
10
18.0615386
20
46.9599405
40
0.2206627
50
98.9679878
51
113.4573418
0
ARC
8
DEFAULT_255_1_388
10
18.0395066
20
47.0126193
40
0.1635691
50
113.7230234
51
127.4758155
0
ARC
8
DEFAULT_255_1_388
10
18.0205648
20
47.0351433
40
0.1341757
50
126.9086647
51
150.3160891
0
ARC
8
DEFAULT_255_1_388
10
18.0151979
20
47.040868
40
0.1266992
50
151.363328
51
180.0701537
0
ARC
8
DEFAULT_255_1_388
10
18.04622
20
47.038523
40
0.1577364
50
179.2045432
51
180.0012892
0
ARC
8
DEFAULT_255_1_388
10
18.0093311
20
47.0370515
40
0.1208564
50
179.3040542
51
198.4225767
0
ARC
8
DEFAULT_255_1_388
10
17.9877453
20
47.0314337
40
0.0986126
50
199.2893055
51
238.6036855
0
ARC
8
DEFAULT_255_1_388
10
18.0555546
20
47.1378752
40
0.2248082
50
237.9844191
51
246.8751643
0
ARC
8
DEFAULT_255_1_388
10
18.1520406
20
47.3585861
40
0.4656832
50
246.6226408
51
251.8174794
0
ARC
8
DEFAULT_255_1_388
10
18.2680873
20
47.7070909
40
0.8329993
50
251.7140983
51
255.0775146
0
ARC
8
DEFAULT_255_1_388
10
18.4030397
20
48.2097708
40
1.3534786
50
255.0370864
51
257.4701577
0
ARC
8
DEFAULT_255_1_388
10
17.8282942
20
45.6203535
40
1.298957
50
73.6835762
51
77.5015749
0
ARC
8
DEFAULT_255_1_388
10
17.9507857
20
46.0365699
40
0.8650912
50
68.7042835
51
73.7249997
0
ARC
8
DEFAULT_255_1_388
10
18.0523421
20
46.2982853
40
0.584363
50
63.5907059
51
68.6622978
0
ARC
8
DEFAULT_255_1_388
10
18.1391162
20
46.4713157
40
0.3907955
50
54.7106507
51
63.7018033
0
ARC
8
DEFAULT_255_1_388
10
18.2093549
20
46.5694287
40
0.2701345
50
41.0624597
51
54.8488532
0
ARC
8
DEFAULT_255_1_388
10
18.2477328
20
46.6046439
40
0.2180695
50
34.4952722
51
40.7097584
0
ARC
8
DEFAULT_255_1_388
10
18.2530293
20
46.6101204
40
0.2106083
50
9.3761233
51
34.0834046
0
ARC
8
DEFAULT_255_1_388
10
18.1795422
20
46.5960174
40
0.2854177
50
359.7695264
51
9.7660556
0
ARC
8
DEFAULT_255_1_388
10
18.2017715
20
46.5911841
40
0.2632121
50
335.8653103
51
0.8022272
0
ARC
8
DEFAULT_255_1_388
10
18.210212
20
46.5926951
40
0.2561728
50
307.7357819
51
334.7849324
0
ARC
8
DEFAULT_255_1_388
10
18.1656761
20
46.6426553
40
0.3229737
50
307.0217048
51
308.5596894
0
ARC
8
DEFAULT_255_1_388
10
18.1361346
20
46.6868063
40
0.3760237
50
282.9361285
51
306.5649033
0
ARC
8
DEFAULT_255_1_388
10
18.0954407
20
46.8518871
40
0.5460314
50
271.1026197
51
283.2199962
0
ARC
8
DEFAULT_255_1_388
10
18.0882596
20
46.9919744
40
0.6862456
50
269.9926344
51
271.4770056
0
ARC
8
DEFAULT_255_1_388
10
18.0853166
20
46.8702633
40
0.5645418
50
259.0723633
51
270.2897324
0
ARC
8
DEFAULT_255_1_388
10
18.0614391
20
46.7445887
40
0.4366198
50
245.4965026
51
259.0225745
0
ARC
8
DEFAULT_255_1_388
10
18.0301607
20
46.6791491
40
0.3641037
50
228.9686619
51
245.7042678
0
ARC
8
DEFAULT_255_1_388
10
18.0002882
20
46.6423573
40
0.3167435
50
214.4015391
51
228.6759028
0
ARC
8
DEFAULT_255_1_388
10
17.9677379
20
46.6245429
40
0.2798456
50
179.9704983
51
215.1574389
0
ARC
8
DEFAULT_255_1_388
10
18.0465592
20
46.6328148
40
0.1916798
50
182.430239
51
203.0329751
0
ARC
8
DEFAULT_255_1_388
10
18.0258188
20
46.6264675
40
0.1701248
50
203.7987464
51
232.5483345
0
ARC
8
DEFAULT_255_1_388
10
18.0569272
20
46.6660049
40
0.2204299
50
232.3784541
51
256.3934343
0
ARC
8
DEFAULT_255_1_388
10
18.0828419
20
46.7661359
40
0.3238512
50
256.1048329
51
268.4627478
0
ARC
8
DEFAULT_255_1_388
10
18.0880839
20
46.8565297
40
0.4143627
50
268.0734924
51
270.0121004
0
ARC
8
DEFAULT_255_1_388
10
18.0901557
20
46.8251191
40
0.3829573
50
269.7031202
51
278.8338867
0
ARC
8
DEFAULT_255_1_388
10
18.1106421
20
46.6979553
40
0.2541568
50
278.6727378
51
292.82331
0
ARC
8
DEFAULT_255_1_388
10
18.1331968
20
46.6415546
40
0.1934264
50
293.1457581
51
303.6656964
0
ARC
8
DEFAULT_255_1_388
10
18.1630041
20
46.5992159
40
0.1416713
50
303.1245849
51
321.7434683
0
ARC
8
DEFAULT_255_1_388
10
18.1839122
20
46.580878
40
0.1139081
50
322.4747616
51
1.1293039
0
LINE
8
DEFAULT_255_2_778
10
10.5738396
20
48.8368073
11
9.3932396
21
48.8368073
0
LINE
8
DEFAULT_255_2_778
10
9.3932396
20
48.8368073
11
9.9837396
21
49.8594073
0
LINE
8
DEFAULT_255_2_778
10
9.9837396
20
49.8594073
11
11.1643396
21
49.8594073
0
LINE
8
DEFAULT_255_2_778
10
11.1643396
20
49.8594073
11
10.5738396
21
48.8368073
0
LINE
8
DEFAULT_255_2_778
10
10.5738396
20
48.8368073
11
10.5738396
21
48.8368073
0
LINE
8
DEFAULT_255_2_778
10
11.7546396
20
48.8368073
11
12.9354396
21
48.8368073
0
LINE
8
DEFAULT_255_2_778
10
12.9354396
20
48.8368073
11
12.3451396
21
49.8594073
0
LINE
8
DEFAULT_255_2_778
10
12.3451396
20
49.8594073
11
11.1643396
21
49.8594073
0
LINE
8
DEFAULT_255_2_778
10
11.1643396
20
49.8594073
11
11.7546396
21
48.8368073
0
LINE
8
DEFAULT_255_2_778
10
11.7546396
20
48.8368073
11
11.7546396
21
48.8368073
0
LINE
8
DEFAULT_255_2_778
10
11.7545823
20
50.8820146
11
11.1642823
21
51.9046146
0
LINE
8
DEFAULT_255_2_778
10
11.1642823
20
51.9046146
11
10.5737823
21
50.8820146
0
LINE
8
DEFAULT_255_2_778
10
10.5737823
20
50.8820146
11
11.1642823
21
49.8594146
0
LINE
8
DEFAULT_255_2_778
10
11.1642823
20
49.8594146
11
11.7545823
21
50.8820146
0
LINE
8
DEFAULT_255_2_778
10
11.7545823
20
50.8820146
11
11.7545823
21
50.8820146
0
ARC
8
DEFAULT_255_2_778
10
16.5183731
20
50.5282426
40
0.5650491
50
268.7543645
51
289.1417717
0
ARC
8
DEFAULT_255_2_778
10
16.606208
20
50.2730531
40
0.2951681
50
289.2776255
51
3.7648372
0
ARC
8
DEFAULT_255_2_778
10
16.3901618
20
50.2996085
40
0.5106278
50
359.1949826
51
0.0020862
0
ARC
8
DEFAULT_255_2_778
10
16.547449
20
50.2855832
40
0.1541914
50
280.2616216
51
358.5297855
0
ARC
8
DEFAULT_255_2_778
10
16.5080075
20
50.398155
40
0.2726346
50
269.5969454
51
284.2065679
0
ARC
8
DEFAULT_255_2_778
10
16.4981883
20
50.3823788
40
0.2569732
50
246.5218562
51
271.7619895
0
ARC
8
DEFAULT_255_2_778
10
16.4527498
20
50.2744164
40
0.1398527
50
188.0764216
51
245.9747848
0
ARC
8
DEFAULT_255_2_778
10
16.4833113
20
50.2814608
40
0.1711218
50
179.9443312
51
188.9740498
0
ARC
8
DEFAULT_255_2_778
10
16.4924507
20
50.2882849
40
0.3763411
50
178.2272621
51
205.8283807
0
ARC
8
DEFAULT_255_2_778
10
16.4132476
20
50.2705833
40
0.2979176
50
209.4028057
51
263.0375728
0
ARC
8
DEFAULT_255_2_778
10
16.5005111
20
50.6452629
40
0.6816586
50
259.5722942
51
270.4689037
0
ARC
8
DEFAULT_255_2_778
10
17.411252
20
50.7014767
40
0.1217154
50
2.0482843
51
87.015299
0
ARC
8
DEFAULT_255_2_778
10
17.4057913
20
50.7058868
40
0.1270984
50
353.0742102
51
359.9730821
0
ARC
8
DEFAULT_255_2_778
10
17.4111345
20
50.7026717
40
0.1214332
50
270.7420557
51
354.2761882
0
ARC
8
DEFAULT_255_2_778
10
17.4065072
20
50.7392509
40
0.1581238
50
269.9936646
51
272.2471507
0
ARC
8
DEFAULT_255_2_778
10
17.414084
20
50.2880295
40
0.1400686
50
358.2807293
51
95.6106825
0
ARC
8
DEFAULT_255_2_778
10
17.4103233
20
50.2841963
40
0.1437669
50
266.9962473
51
359.8528392
0
ARC
8
DEFAULT_255_2_778
10
17.4725249
20
50.3244988
40
0.3335288
50
268.2414507
51
302.0223478
0
ARC
8
DEFAULT_255_2_778
10
17.5091261
20
50.249183
40
0.2504234
50
304.0600275
51
2.0468005
0
ARC
8
DEFAULT_255_2_778
10
17.4835388
20
50.255988
40
0.2758592
50
0.4442832
51
66.1293704
0
ARC
8
DEFAULT_255_2_778
10
17.5193244
20
50.320936
40
0.202088
50
67.956084
51
75.8901834
0
ARC
8
DEFAULT_255_2_778
10
17.5042026
20
50.728222
40
0.2208874
50
286.9473417
51
358.0074963
0
ARC
8
DEFAULT_255_2_778
10
17.4710866
20
50.7370045
40
0.2544031
50
356.2897886
51
0.0050857
0
ARC
8
DEFAULT_255_2_778
10
17.497262
20
50.7420946
40
0.2282839
50
358.7280137
51
81.8073164
0
ARC
8
DEFAULT_255_2_778
10
17.4216369
20
50.4906283
40
0.4895182
50
77.2355086
51
90.5088275
0
ARC
8
DEFAULT_255_2_778
10
17.5842747
20
49.5260989
40
0.1302704
50
89.9972707
51
92.6773048
0
ARC
8
DEFAULT_255_2_778
10
17.5844071
20
49.52687
40
0.1294993
50
45.0546048
51
90.0558451
0
ARC
8
DEFAULT_255_2_778
10
17.5844118
20
49.526719
40
0.1296029
50
0.001866
51
45.1031959
0
ARC
8
DEFAULT_255_2_778
10
17.5845123
20
49.5267202
40
0.1295026
50
357.4803735
51
0.0013544
0
ARC
8
DEFAULT_255_2_778
10
17.5901979
20
49.5228512
40
0.1237052
50
339.8672523
51
359.1550732
0
ARC
8
DEFAULT_255_2_778
10
17.5794513
20
49.5200079
40
0.1329691
50
272.0853006
51
342.6124646
0
ARC
8
DEFAULT_255_2_778
10
17.6596145
20
49.5582661
40
0.2575135
50
286.787355
51
290.6121696
0
ARC
8
DEFAULT_255_2_778
10
17.6689461
20
49.5439533
40
0.24086
50
289.7330405
51
342.3216972
0
ARC
8
DEFAULT_255_2_778
10
17.641261
20
49.5487954
40
0.268735
50
343.130572
51
0.3905272
0
ARC
8
DEFAULT_255_2_778
10
17.6578783
20
49.5661767
40
0.2525904
50
356.4706028
51
80.1788963
0
ARC
8
DEFAULT_255_2_778
10
17.5921649
20
49.3392163
40
0.4881286
50
77.1212301
51
90.4900821
0
ARC
8
DEFAULT_255_2_778
10
17.5166337
20
49.041536
40
0.1865405
50
50.1507009
51
92.9634648
0
ARC
8
DEFAULT_255_2_778
10
17.5301354
20
49.0698678
40
0.1563319
50
12.621233
51
47.2950617
0
ARC
8
DEFAULT_255_2_778
10
16.8485884
20
48.9369726
40
0.8506657
50
2.8173892
51
11.3253986
0
ARC
8
DEFAULT_255_2_778
10
-29.2295733
20
45.4406175
40
47.060992
50
4.3048394
51
4.3117143
0
ARC
8
DEFAULT_255_2_778
10
18.5500859
20
49.013084
40
0.8523717
50
182.6850102
51
191.2954256
0
ARC
8
DEFAULT_255_2_778
10
17.9656837
20
48.9067399
40
0.2586603
50
193.5512904
51
195.3825538
0
ARC
8
DEFAULT_255_2_778
10
19.3507425
20
49.1656408
40
1.4700994
50
182.6283124
51
192.8725697
0
ARC
8
DEFAULT_255_2_778
10
17.6207606
20
49.0927215
40
0.261487
50
1.2064311
51
30.4123358
0
ARC
8
DEFAULT_255_2_778
10
17.6663626
20
49.107776
40
0.2147766
50
33.1081154
51
71.7312197
0
LINE
8
DEFAULT_255_2_778
10
13.4657897
20
49.2723271
11
13.9385897
21
49.2723271
0
LINE
8
DEFAULT_255_2_778
10
13.9385897
20
49.2723271
11
13.9385897
21
49.4437271
0
LINE
8
DEFAULT_255_2_778
10
13.9385897
20
49.4437271
11
13.4657897
21
49.4437271
0
LINE
8
DEFAULT_255_2_778
10
13.4657897
20
49.4437271
11
13.4657897
21
49.6546271
0
LINE
8
DEFAULT_255_2_778
10
13.4657897
20
49.6546271
11
13.9977897
21
49.6546271
0
LINE
8
DEFAULT_255_2_778
10
13.9977897
20
49.6546271
11
13.9977897
21
49.8260271
0
LINE
8
DEFAULT_255_2_778
10
13.9977897
20
49.8260271
11
13.4657897
21
49.8260271
0
LINE
8
DEFAULT_255_2_778
10
13.4657897
20
49.8260271
11
13.2651897
21
49.8260271
0
LINE
8
DEFAULT_255_2_778
10
13.2651897
20
49.8260271
11
13.2651897
21
49.6546271
0
LINE
8
DEFAULT_255_2_778
10
13.2651897
20
49.6546271
11
13.2651897
21
49.0082271
0
LINE
8
DEFAULT_255_2_778
10
13.2651897
20
49.0082271
11
13.2651897
21
48.8367271
0
LINE
8
DEFAULT_255_2_778
10
13.2651897
20
48.8367271
11
13.4657897
21
48.8367271
0
LINE
8
DEFAULT_255_2_778
10
13.4657897
20
48.8367271
11
14.0118897
21
48.8367271
0
LINE
8
DEFAULT_255_2_778
10
14.0118897
20
48.8367271
11
14.0118897
21
49.0082271
0
LINE
8
DEFAULT_255_2_778
10
14.0118897
20
49.0082271
11
13.4657897
21
49.0082271
0
LINE
8
DEFAULT_255_2_778
10
13.4657897
20
49.0082271
11
13.4657897
21
49.2720271
0
LINE
8
DEFAULT_255_2_778
10
13.4657897
20
49.2720271
11
13.4657897
21
49.2723271
0
LINE
8
DEFAULT_255_2_778
10
13.4519897
20
50.7264271
11
13.6620897
21
49.9911271
0
LINE
8
DEFAULT_255_2_778
10
13.6620897
20
49.9911271
11
13.6704897
21
49.9911271
0
LINE
8
DEFAULT_255_2_778
10
13.6704897
20
49.9911271
11
13.8464897
21
49.9911271
0
LINE
8
DEFAULT_255_2_778
10
13.8464897
20
49.9911271
11
13.8546897
21
49.9911271
0
LINE
8
DEFAULT_255_2_778
10
13.8546897
20
49.9911271
11
14.0647897
21
50.7264271
0
LINE
8
DEFAULT_255_2_778
10
14.0647897
20
50.7264271
11
14.0647897
21
49.9911271
0
LINE
8
DEFAULT_255_2_778
10
14.0647897
20
49.9911271
11
14.2515897
21
49.9911271
0
LINE
8
DEFAULT_255_2_778
10
14.2515897
20
49.9911271
11
14.2515897
21
50.9804271
0
LINE
8
DEFAULT_255_2_778
10
14.2515897
20
50.9804271
11
14.1496897
21
50.9804271
0
LINE
8
DEFAULT_255_2_778
10
14.1496897
20
50.9804271
11
14.0615897
21
50.9804271
0
LINE
8
DEFAULT_255_2_778
10
14.0615897
20
50.9804271
11
13.9655897
21
50.9804271
0
LINE
8
DEFAULT_255_2_778
10
13.9655897
20
50.9804271
11
13.7583897
21
50.2861271
0
LINE
8
DEFAULT_255_2_778
10
13.7583897
20
50.2861271
11
13.5511897
21
50.9804271
0
LINE
8
DEFAULT_255_2_778
10
13.5511897
20
50.9804271
11
13.4551897
21
50.9804271
0
LINE
8
DEFAULT_255_2_778
10
13.4551897
20
50.9804271
11
13.3670897
21
50.9804271
0
LINE
8
DEFAULT_255_2_778
10
13.3670897
20
50.9804271
11
13.2651897
21
50.9804271
0
LINE
8
DEFAULT_255_2_778
10
13.2651897
20
50.9804271
11
13.2651897
21
49.9911271
0
LINE
8
DEFAULT_255_2_778
10
13.2651897
20
49.9911271
11
13.4519897
21
49.9911271
0
LINE
8
DEFAULT_255_2_778
10
13.4519897
20
49.9911271
11
13.4519897
21
50.7264271
0
LINE
8
DEFAULT_255_2_778
10
13.4519897
20
50.7264271
11
13.4519897
21
50.7264271
0
LINE
8
DEFAULT_255_2_778
10
18.0057897
20
50.9804271
11
17.8064897
21
50.9804271
0
LINE
8
DEFAULT_255_2_778
10
17.8064897
20
50.9804271
11
17.8064897
21
49.9911271
0
LINE
8
DEFAULT_255_2_778
10
17.8064897
20
49.9911271
11
18.0057897
21
49.9911271
0
LINE
8
DEFAULT_255_2_778
10
18.0057897
20
49.9911271
11
18.0057897
21
50.9804271
0
LINE
8
DEFAULT_255_2_778
10
18.0057897
20
50.9804271
11
18.0057897
21
50.9804271
0
LINE
8
DEFAULT_255_2_778
10
18.1681897
20
49.8263271
11
17.9689897
21
49.8263271
0
LINE
8
DEFAULT_255_2_778
10
17.9689897
20
49.8263271
11
17.9689897
21
48.8370271
0
LINE
8
DEFAULT_255_2_778
10
17.9689897
20
48.8370271
11
18.1681897
21
48.8370271
0
LINE
8
DEFAULT_255_2_778
10
18.1681897
20
48.8370271
11
18.1681897
21
49.8263271
0
LINE
8
DEFAULT_255_2_778
10
18.1681897
20
49.8263271
11
18.1681897
21
49.8263271
0
LINE
8
DEFAULT_255_2_778
10
19.9765897
20
50.9804271
11
19.7773897
21
50.9804271
0
LINE
8
DEFAULT_255_2_778
10
19.7773897
20
50.9804271
11
19.7773897
21
49.9911271
0
LINE
8
DEFAULT_255_2_778
10
19.7773897
20
49.9911271
11
19.9765897
21
49.9911271
0
LINE
8
DEFAULT_255_2_778
10
19.9765897
20
49.9911271
11
19.9765897
21
50.9804271
0
LINE
8
DEFAULT_255_2_778
10
19.9765897
20
50.9804271
11
19.9765897
21
50.9804271
0
LINE
8
DEFAULT_255_2_778
10
14.5298897
20
50.9804271
11
14.3306897
21
50.9804271
0
LINE
8
DEFAULT_255_2_778
10
14.3306897
20
50.9804271
11
14.3306897
21
49.9911271
0
LINE
8
DEFAULT_255_2_778
10
14.3306897
20
49.9911271
11
14.5298897
21
49.9911271
0
LINE
8
DEFAULT_255_2_778
10
14.5298897
20
49.9911271
11
14.5298897
21
50.9804271
0
LINE
8
DEFAULT_255_2_778
10
14.5298897
20
50.9804271
11
14.5298897
21
50.9804271
0
LINE
8
DEFAULT_255_2_778
10
19.4989897
20
50.5944271
11
19.1029897
21
50.5944271
0
LINE
8
DEFAULT_255_2_778
10
19.1029897
20
50.5944271
11
19.1029897
21
50.9801271
0
LINE
8
DEFAULT_255_2_778
10
19.1029897
20
50.9801271
11
18.9068897
21
50.9801271
0
LINE
8
DEFAULT_255_2_778
10
18.9068897
20
50.9801271
11
18.9068897
21
49.9911271
0
LINE
8
DEFAULT_255_2_778
10
18.9068897
20
49.9911271
11
19.1029897
21
49.9911271
0
LINE
8
DEFAULT_255_2_778
10
19.1029897
20
49.9911271
11
19.1029897
21
50.4229271
0
LINE
8
DEFAULT_255_2_778
10
19.1029897
20
50.4229271
11
19.4989897
21
50.4229271
0
LINE
8
DEFAULT_255_2_778
10
19.4989897
20
50.4229271
11
19.4989897
21
49.9911271
0
LINE
8
DEFAULT_255_2_778
10
19.4989897
20
49.9911271
11
19.6950897
21
49.9911271
0
LINE
8
DEFAULT_255_2_778
10
19.6950897
20
49.9911271
11
19.6950897
21
50.9801271
0
LINE
8
DEFAULT_255_2_778
10
19.6950897
20
50.9801271
11
19.4989897
21
50.9801271
0
LINE
8
DEFAULT_255_2_778
10
19.4989897
20
50.9801271
11
19.4989897
21
50.5944271
0
LINE
8
DEFAULT_255_2_778
10
19.4989897
20
50.5944271
11
19.4989897
21
50.5944271
0
LINE
8
DEFAULT_255_2_778
10
14.8246897
20
49.9911271
11
15.0280897
21
49.9911271
0
LINE
8
DEFAULT_255_2_778
10
15.0280897
20
49.9911271
11
15.0280897
21
50.8090271
0
LINE
8
DEFAULT_255_2_778
10
15.0280897
20
50.8090271
11
15.2696897
21
50.8090271
0
LINE
8
DEFAULT_255_2_778
10
15.2696897
20
50.8090271
11
15.2696897
21
50.9804271
0
LINE
8
DEFAULT_255_2_778
10
15.2696897
20
50.9804271
11
15.0280897
21
50.9804271
0
LINE
8
DEFAULT_255_2_778
10
15.0280897
20
50.9804271
11
14.8246897
21
50.9804271
0
LINE
8
DEFAULT_255_2_778
10
14.8246897
20
50.9804271
11
14.5830897
21
50.9804271
0
LINE
8
DEFAULT_255_2_778
10
14.5830897
20
50.9804271
11
14.5830897
21
50.8090271
0
LINE
8
DEFAULT_255_2_778
10
14.5830897
20
50.8090271
11
14.8246897
21
50.8090271
0
LINE
8
DEFAULT_255_2_778
10
14.8246897
20
50.8090271
11
14.8246897
21
49.9911271
0
LINE
8
DEFAULT_255_2_778
10
14.8246897
20
49.9911271
11
14.8246897
21
49.9911271
0
LINE
8
DEFAULT_255_2_778
10
16.6422897
20
48.8370271
11
16.8454897
21
48.8370271
0
LINE
8
DEFAULT_255_2_778
10
16.8454897
20
48.8370271
11
16.8454897
21
49.6548271
0
LINE
8
DEFAULT_255_2_778
10
16.8454897
20
49.6548271
11
17.0873897
21
49.6548271
0
LINE
8
DEFAULT_255_2_778
10
17.0873897
20
49.6548271
11
17.0873897
21
49.8266271
0
LINE
8
DEFAULT_255_2_778
10
17.0873897
20
49.8266271
11
16.8454897
21
49.8266271
0
LINE
8
DEFAULT_255_2_778
10
16.8454897
20
49.8266271
11
16.6422897
21
49.8266271
0
LINE
8
DEFAULT_255_2_778
10
16.6422897
20
49.8266271
11
16.4004897
21
49.8266271
0
LINE
8
DEFAULT_255_2_778
10
16.4004897
20
49.8266271
11
16.4004897
21
49.6548271
0
LINE
8
DEFAULT_255_2_778
10
16.4004897
20
49.6548271
11
16.6422897
21
49.6548271
0
LINE
8
DEFAULT_255_2_778
10
16.6422897
20
49.6548271
11
16.6422897
21
48.8370271
0
LINE
8
DEFAULT_255_2_778
10
16.6422897
20
48.8370271
11
16.6422897
21
48.8370271
0
LINE
8
DEFAULT_255_2_778
10
16.9007897
20
50.2996271
11
16.9007897
21
50.9801271
0
LINE
8
DEFAULT_255_2_778
10
16.9007897
20
50.9801271
11
16.7015897
21
50.9801271
0
LINE
8
DEFAULT_255_2_778
10
16.7015897
20
50.9801271
11
16.7015897
21
50.2816271
0
LINE
8
DEFAULT_255_2_778
10
16.3121897
20
50.2816271
11
16.3121897
21
50.9801271
0
LINE
8
DEFAULT_255_2_778
10
16.3121897
20
50.9801271
11
16.1162897
21
50.9801271
0
LINE
8
DEFAULT_255_2_778
10
16.1162897
20
50.9801271
11
16.1162897
21
50.2999271
0
LINE
8
DEFAULT_255_2_778
10
15.0000897
20
49.2723271
11
15.4730897
21
49.2723271
0
LINE
8
DEFAULT_255_2_778
10
15.4730897
20
49.2723271
11
15.4730897
21
49.4437271
0
LINE
8
DEFAULT_255_2_778
10
15.4730897
20
49.4437271
11
15.0000897
21
49.4437271
0
LINE
8
DEFAULT_255_2_778
10
15.0000897
20
49.4437271
11
15.0000897
21
49.6546271
0
LINE
8
DEFAULT_255_2_778
10
15.0000897
20
49.6546271
11
15.5321897
21
49.6546271
0
LINE
8
DEFAULT_255_2_778
10
15.5321897
20
49.6546271
11
15.5321897
21
49.8260271
0
LINE
8
DEFAULT_255_2_778
10
15.5321897
20
49.8260271
11
15.0000897
21
49.8260271
0
LINE
8
DEFAULT_255_2_778
10
15.0000897
20
49.8260271
11
14.7997897
21
49.8260271
0
LINE
8
DEFAULT_255_2_778
10
14.7997897
20
49.8260271
11
14.7997897
21
49.6546271
0
LINE
8
DEFAULT_255_2_778
10
14.7997897
20
49.6546271
11
14.7997897
21
49.0082271
0
LINE
8
DEFAULT_255_2_778
10
14.7997897
20
49.0082271
11
14.7997897
21
48.8367271
0
LINE
8
DEFAULT_255_2_778
10
14.7997897
20
48.8367271
11
15.0000897
21
48.8367271
0
LINE
8
DEFAULT_255_2_778
10
15.0000897
20
48.8367271
11
15.5461897
21
48.8367271
0
LINE
8
DEFAULT_255_2_778
10
15.5461897
20
48.8367271
11
15.5461897
21
49.0082271
0
LINE
8
DEFAULT_255_2_778
10
15.5461897
20
49.0082271
11
15.0000897
21
49.0082271
0
LINE
8
DEFAULT_255_2_778
10
15.0000897
20
49.0082271
11
15.0000897
21
49.2720271
0
LINE
8
DEFAULT_255_2_778
10
15.0000897
20
49.2720271
11
15.0000897
21
49.2723271
0
LINE
8
DEFAULT_255_2_778
10
17.4064897
20
50.5811271
11
17.1690897
21
50.5811271
0
LINE
8
DEFAULT_255_2_778
10
17.1690897
20
50.5811271
11
17.1690897
21
50.8227271
0
LINE
8
DEFAULT_255_2_778
10
17.1690897
20
50.8227271
11
17.4175897
21
50.8227271
0
LINE
8
DEFAULT_255_2_778
10
17.4175897
20
50.8227271
11
17.4175897
21
50.8230271
0
LINE
8
DEFAULT_255_2_778
10
17.4027897
20
50.1403271
11
17.1690897
21
50.1403271
0
LINE
8
DEFAULT_255_2_778
10
17.1690897
20
50.1403271
11
17.1690897
21
50.4274271
0
LINE
8
DEFAULT_255_2_778
10
17.1690897
20
50.4274271
11
17.4003897
21
50.4274271
0
LINE
8
DEFAULT_255_2_778
10
17.1767897
20
49.9911271
11
17.4622897
21
49.9911271
0
LINE
8
DEFAULT_255_2_778
10
17.4172897
20
50.9801271
11
17.1770897
21
50.9801271
0
LINE
8
DEFAULT_255_2_778
10
17.1770897
20
50.9801271
11
16.9722897
21
50.9801271
0
LINE
8
DEFAULT_255_2_778
10
16.9722897
20
50.9801271
11
16.9711897
21
50.9801271
0
LINE
8
DEFAULT_255_2_778
10
16.9711897
20
50.9801271
11
16.9711897
21
49.9911271
0
LINE
8
DEFAULT_255_2_778
10
16.9711897
20
49.9911271
11
16.9722897
21
49.9911271
0
LINE
8
DEFAULT_255_2_778
10
16.9722897
20
49.9911271
11
17.1770897
21
49.9911271
0
LINE
8
DEFAULT_255_2_778
10
17.1770897
20
49.9911271
11
17.1767897
21
49.9911271
0
LINE
8
DEFAULT_255_2_778
10
17.3368897
20
49.3868271
11
17.3368897
21
49.6562271
0
LINE
8
DEFAULT_255_2_778
10
17.3368897
20
49.6562271
11
17.5781897
21
49.6562271
0
LINE
8
DEFAULT_255_2_778
10
17.5842897
20
49.3871271
11
17.3370897
21
49.3871271
0
LINE
8
DEFAULT_255_2_778
10
17.3370897
20
49.3871271
11
17.3368897
21
49.3868271
0
LINE
8
DEFAULT_255_2_778
10
17.5879897
20
49.8273271
11
17.3368897
21
49.8273271
0
LINE
8
DEFAULT_255_2_778
10
17.3368897
20
49.8273271
11
17.1383897
21
49.8273271
0
LINE
8
DEFAULT_255_2_778
10
17.1383897
20
49.8273271
11
17.1362897
21
49.8273271
0
LINE
8
DEFAULT_255_2_778
10
17.1362897
20
49.8273271
11
17.1362897
21
48.8381271
0
LINE
8
DEFAULT_255_2_778
10
17.1362897
20
48.8381271
11
17.3368897
21
48.8381271
0
LINE
8
DEFAULT_255_2_778
10
17.3368897
20
48.8381271
11
17.3368897
21
49.2278271
0
LINE
8
DEFAULT_255_2_778
10
17.3368897
20
49.2278271
11
17.5069897
21
49.2278271
0
LINE
8
DEFAULT_255_2_778
10
17.7162897
20
48.8381271
11
17.9175897
21
48.8381271
0
LINE
8
DEFAULT_255_2_778
10
14.2763897
20
49.8263271
11
14.0760897
21
49.8263271
0
LINE
8
DEFAULT_255_2_778
10
14.0760897
20
49.8263271
11
14.0760897
21
49.0085271
0
LINE
8
DEFAULT_255_2_778
10
14.0760897
20
49.0085271
11
14.0760897
21
48.8370271
0
LINE
8
DEFAULT_255_2_778
10
14.0760897
20
48.8370271
11
14.2763897
21
48.8370271
0
LINE
8
DEFAULT_255_2_778
10
14.2763897
20
48.8370271
11
14.7428897
21
48.8370271
0
LINE
8
DEFAULT_255_2_778
10
14.7428897
20
48.8370271
11
14.7428897
21
49.0085271
0
LINE
8
DEFAULT_255_2_778
10
14.7428897
20
49.0085271
11
14.2763897
21
49.0085271
0
LINE
8
DEFAULT_255_2_778
10
14.2763897
20
49.0085271
11
14.2763897
21
49.8263271
0
LINE
8
DEFAULT_255_2_778
10
14.2763897
20
49.8263271
11
14.2763897
21
49.8263271
0
ARC
8
DEFAULT_255_2_778
10
15.4584271
20
49.4521969
40
0.9681224
50
72.4822103
51
81.3184214
0
ARC
8
DEFAULT_255_2_778
10
15.7160297
20
50.2288918
40
0.1503783
50
28.8883513
51
77.0092434
0
ARC
8
DEFAULT_255_2_778
10
15.7432379
20
50.2578196
40
0.113238
50
358.9917455
51
22.7117017
0
ARC
8
DEFAULT_255_2_778
10
15.7394861
20
50.2619918
40
0.1171346
50
289.2958104
51
356.9831562
0
ARC
8
DEFAULT_255_2_778
10
15.6668261
20
50.4194882
40
0.2902651
50
268.4665462
51
292.5613311
0
ARC
8
DEFAULT_255_2_778
10
15.6496856
20
50.3604179
40
0.2312808
50
236.4956947
51
272.3225735
0
ARC
8
DEFAULT_255_2_778
10
15.6106646
20
50.2921839
40
0.1529307
50
178.9722202
51
234.5742435
0
ARC
8
DEFAULT_255_2_778
10
15.5656113
20
50.2826079
40
0.3002058
50
177.6481608
51
245.5596397
0
ARC
8
DEFAULT_255_2_778
10
15.6409971
20
50.4548561
40
0.488217
50
245.8690375
51
267.169035
0
ARC
8
DEFAULT_255_2_778
10
15.6671503
20
50.7058916
40
0.7403648
50
266.1069867
51
270.0547972
0
ARC
8
DEFAULT_255_2_778
10
15.6772894
20
50.5371135
40
0.5716642
50
269.0547216
51
287.7147747
0
ARC
8
DEFAULT_255_2_778
10
15.7598889
20
50.2914091
40
0.3125017
50
286.995984
51
325.1221533
0
ARC
8
DEFAULT_255_2_778
10
15.7678294
20
50.274861
40
0.2966627
50
326.8673922
51
0.8625726
0
ARC
8
DEFAULT_255_2_778
10
15.7898286
20
50.2834409
40
0.2746606
50
359.1417932
51
76.9739731
0
ARC
8
DEFAULT_255_2_778
10
15.6705461
20
50.0025719
40
0.577616
50
71.7185727
51
79.1315439
0
ARC
8
DEFAULT_255_2_778
10
14.2492968
20
42.648967
40
8.0673056
50
79.0662148
51
79.6216572
0
ARC
8
DEFAULT_255_2_778
10
16.4356585
20
54.5266581
40
4.0099443
50
259.1227669
51
259.4665204
0
ARC
8
DEFAULT_255_2_778
10
15.7836732
20
51.2316142
40
0.6513291
50
249.9945768
51
260.7485895
0
ARC
8
DEFAULT_255_2_778
10
15.5880401
20
50.7205999
40
0.1046098
50
178.6705173
51
254.9333545
0
ARC
8
DEFAULT_255_2_778
10
15.6049957
20
50.7171688
40
0.1216785
50
93.288632
51
177.2403935
0
ARC
8
DEFAULT_255_2_778
10
15.6585677
20
50.5301752
40
0.3143588
50
89.6189463
51
101.1057977
0
ARC
8
DEFAULT_255_2_778
10
15.6722733
20
50.642016
40
0.2028439
50
53.5634072
51
93.2825843
0
ARC
8
DEFAULT_255_2_778
10
15.7018505
20
50.7002144
40
0.1388739
50
357.1985816
51
49.1152298
0
ARC
8
DEFAULT_255_2_778
10
15.7254907
20
50.6934274
40
0.3087677
50
359.9999335
51
2.3703878
0
ARC
8
DEFAULT_255_2_778
10
15.7353555
20
50.6949337
40
0.298851
50
2.1600756
51
60.1092229
0
ARC
8
DEFAULT_255_2_778
10
15.6766212
20
50.5883133
40
0.4205645
50
60.4106856
51
86.1444419
0
ARC
8
DEFAULT_255_2_778
10
15.6536151
20
50.4116228
40
0.5985046
50
85.0843314
51
90.0628677
0
ARC
8
DEFAULT_255_2_778
10
15.6529718
20
50.5350466
40
0.4750804
50
90.001616
51
92.2300394
0
ARC
8
DEFAULT_255_2_778
10
15.6281193
20
50.640187
40
0.3696351
50
89.0131319
51
149.6364996
0
ARC
8
DEFAULT_255_2_778
10
15.5505461
20
50.7124055
40
0.2671974
50
154.5962367
51
180.4885883
0
ARC
8
DEFAULT_255_2_778
10
15.5651524
20
50.710884
40
0.281795
50
180.1539064
51
255.1120325
0
ARC
8
DEFAULT_255_2_778
10
15.7094242
20
51.033732
40
0.6333958
50
249.9962237
51
260.4976723
0
ARC
8
DEFAULT_255_2_778
10
18.2470963
20
49.4533351
40
0.967002
50
72.4685023
51
81.3064395
0
ARC
8
DEFAULT_255_2_778
10
18.5045397
20
50.228927
40
0.1503535
50
28.8782248
51
76.9904304
0
ARC
8
DEFAULT_255_2_778
10
18.5317197
20
50.2578189
40
0.1132561
50
358.9922779
51
22.7082666
0
ARC
8
DEFAULT_255_2_778
10
18.5280402
20
50.2619088
40
0.1170763
50
289.2761556
51
357.0223042
0
ARC
8
DEFAULT_255_2_778
10
18.4553612
20
50.4197836
40
0.2905613
50
268.4611814
51
292.5289055
0
ARC
8
DEFAULT_255_2_778
10
18.4381801
20
50.3613175
40
0.2321799
50
236.6698634
51
272.3149402
0
ARC
8
DEFAULT_255_2_778
10
18.39878
20
50.2921762
40
0.1528464
50
178.9687581
51
234.7686008
0
ARC
8
DEFAULT_255_2_778
10
18.3540113
20
50.2826079
40
0.3002058
50
177.6481608
51
245.5596397
0
ARC
8
DEFAULT_255_2_778
10
18.4293971
20
50.4548561
40
0.488217
50
245.8690375
51
267.169035
0
ARC
8
DEFAULT_255_2_778
10
18.4555503
20
50.7058916
40
0.7403648
50
266.1069867
51
270.0547972
0
ARC
8
DEFAULT_255_2_778
10
18.4656836
20
50.5377451
40
0.5722957
50
269.0563423
51
287.7048702
0
ARC
8
DEFAULT_255_2_778
10
18.548344
20
50.2917682
40
0.312856
50
286.9832601
51
325.0871916
0
ARC
8
DEFAULT_255_2_778
10
18.5567708
20
50.2748856
40
0.2964208
50
326.8311942
51
0.8585267
0
ARC
8
DEFAULT_255_2_778
10
18.5785756
20
50.2835282
40
0.2746149
50
359.1234265
51
76.9343785
0
ARC
8
DEFAULT_255_2_778
10
18.4596421
20
50.0036965
40
0.5764934
50
71.6999697
51
79.1198353
0
ARC
8
DEFAULT_255_2_778
10
17.0173657
20
42.5269392
40
8.1910887
50
79.0843627
51
79.6321368
0
ARC
8
DEFAULT_255_2_778
10
19.2200266
20
54.5064177
40
3.9892176
50
259.1314419
51
259.4772924
0
ARC
8
DEFAULT_255_2_778
10
18.5723251
20
51.2310131
40
0.6507003
50
249.9919323
51
260.7592458
0
ARC
8
DEFAULT_255_2_778
10
18.376901
20
50.7205546
40
0.1045718
50
178.6452075
51
254.9151907
0
ARC
8
DEFAULT_255_2_778
10
18.3939581
20
50.7171016
40
0.121744
50
93.2745253
51
177.21023
0
ARC
8
DEFAULT_255_2_778
10
18.4475726
20
50.5300052
40
0.3145287
50
89.6200387
51
101.1027534
0
ARC
8
DEFAULT_255_2_778
10
18.4613489
20
50.6433453
40
0.2015212
50
53.1490002
51
93.3256649
0
ARC
8
DEFAULT_255_2_778
10
18.4902753
20
50.7001519
40
0.1391457
50
357.2298288
51
48.6469881
0
ARC
8
DEFAULT_255_2_778
10
18.5137232
20
50.6934226
40
0.3092351
50
0.0008291
51
2.3676985
0
ARC
8
DEFAULT_255_2_778
10
18.5240744
20
50.6949868
40
0.2988304
50
2.1500394
51
60.0956838
0
ARC
8
DEFAULT_255_2_778
10
18.4654399
20
50.5884909
40
0.4203859
50
60.40452
51
86.1455285
0
ARC
8
DEFAULT_255_2_778
10
18.4424157
20
50.4116686
40
0.5984588
50
85.0841409
51
90.0629301
0
ARC
8
DEFAULT_255_2_778
10
18.4417778
20
50.5346392
40
0.4754878
50
90.0023409
51
92.3231329
0
ARC
8
DEFAULT_255_2_778
10
18.4167555
20
50.6399604
40
0.3698206
50
89.1093915
51
149.6400816
0
ARC
8
DEFAULT_255_2_778
10
18.338761
20
50.7123917
40
0.2669122
50
154.6001925
51
180.486137
0
ARC
8
DEFAULT_255_2_778
10
18.3537607
20
50.7110152
40
0.2819037
50
180.1805176
51
255.132702
0
ARC
8
DEFAULT_255_2_778
10
18.4982264
20
51.0342784
40
0.6339516
50
250.0026216
51
260.4967164
0
ARC
8
DEFAULT_255_2_778
10
16.008917
20
49.2414283
40
0.2519711
50
190.2626864
51
267.3480013
0
ARC
8
DEFAULT_255_2_778
10
16.2443543
20
49.3327548
40
0.5022041
50
179.6723028
51
195.7380858
0
ARC
8
DEFAULT_255_2_778
10
16.1790511
20
49.3482671
40
0.4370755
50
148.7005643
51
181.6572045
0
ARC
8
DEFAULT_255_2_778
10
15.9957576
20
49.4583723
40
0.2232598
50
89.6148479
51
148.4074796
0
ARC
8
DEFAULT_255_2_778
10
16.0060936
20
49.480449
40
0.201372
50
41.9769772
51
92.5146611
0
ARC
8
DEFAULT_255_2_778
10
15.9522078
20
49.4427523
40
0.2667646
50
15.1848537
51
40.2549591
0
ARC
8
DEFAULT_255_2_778
10
16.028123
20
49.4530326
40
0.3935735
50
8.7091682
51
82.0550801
0
ARC
8
DEFAULT_255_2_778
10
15.9931241
20
49.3065871
40
0.543642
50
80.5350289
51
90.1544743
0
ARC
8
DEFAULT_255_2_778
10
15.9818804
20
49.3952192
40
0.4551129
50
88.7689246
51
119.6437418
0
ARC
8
DEFAULT_255_2_778
10
16.0077717
20
49.3989647
40
0.4653013
50
122.644121
51
173.3997839
0
ARC
8
DEFAULT_255_2_778
10
16.2711934
20
49.3346568
40
0.7351371
50
170.7798304
51
180.1348114
0
ARC
8
DEFAULT_255_2_778
10
16.1377257
20
49.3192615
40
0.6018225
50
178.6988735
51
210.5289552
0
ARC
8
DEFAULT_255_2_778
10
15.970325
20
49.2284953
40
0.4115783
50
211.4828222
51
265.8686737
0
ARC
8
DEFAULT_255_2_778
10
15.9909864
20
49.3532011
40
0.5375742
50
264.6297133
51
270.0503073
0
ARC
8
DEFAULT_255_2_778
10
16.0020995
20
49.2850749
40
0.4695684
50
268.7014824
51
300.1403067
0
ARC
8
DEFAULT_255_2_778
10
16.0350333
20
49.2066852
40
0.385394
50
301.7580058
51
353.77968
0
ARC
8
DEFAULT_255_2_778
10
16.0012256
20
49.2010219
40
0.2113379
50
268.8430278
51
350.1661143
0
ARC
8
DEFAULT_255_2_778
10
18.6896799
20
49.2413824
40
0.2519281
50
190.2538303
51
267.3332171
0
ARC
8
DEFAULT_255_2_778
10
18.9252249
20
49.3327581
40
0.5022746
50
179.672724
51
195.7362088
0
ARC
8
DEFAULT_255_2_778
10
18.8600432
20
49.3482917
40
0.4372682
50
148.7196987
51
181.6596982
0
ARC
8
DEFAULT_255_2_778
10
18.676443
20
49.4584906
40
0.2231415
50
89.6108896
51
148.4244661
0
ARC
8
DEFAULT_255_2_778
10
18.686876
20
49.480467
40
0.2013576
50
42.5913083
51
92.5383066
0
ARC
8
DEFAULT_255_2_778
10
18.6345542
20
49.4440973
40
0.2646316
50
15.0085433
51
40.7215892
0
ARC
8
DEFAULT_255_2_778
10
18.708623
20
49.4530326
40
0.3935735
50
8.7091682
51
82.0550801
0
ARC
8
DEFAULT_255_2_778
10
18.6736241
20
49.3065871
40
0.543642
50
80.5350289
51
90.1544743
0
ARC
8
DEFAULT_255_2_778
10
18.6623804
20
49.3952192
40
0.4551129
50
88.7689246
51
119.6437418
0
ARC
8
DEFAULT_255_2_778
10
18.6882717
20
49.3989647
40
0.4653013
50
122.644121
51
173.3997839
0
ARC
8
DEFAULT_255_2_778
10
18.9516934
20
49.3346568
40
0.7351371
50
170.7798304
51
180.1348114
0
ARC
8
DEFAULT_255_2_778
10
18.8177822
20
49.31932
40
0.6013778
50
178.7034849
51
210.5604279
0
ARC
8
DEFAULT_255_2_778
10
18.6511312
20
49.2288377
40
0.4119265
50
211.5090145
51
265.8592607
0
ARC
8
DEFAULT_255_2_778
10
18.6716883
20
49.3529521
40
0.5373252
50
264.628472
51
270.0501277
0
ARC
8
DEFAULT_255_2_778
10
18.682837
20
49.2848685
40
0.4693629
50
268.6963312
51
300.2191972
0
ARC
8
DEFAULT_255_2_778
10
18.7155684
20
49.2069124
40
0.3856821
50
301.8465101
51
353.7503927
0
ARC
8
DEFAULT_255_2_778
10
18.6820648
20
49.2008604
40
0.2111733
50
268.8857714
51
350.2028431
0
LINE
8
DEFAULT_255_2_778
10
15.4577584
20
50.2949271
11
15.2656584
21
50.2949271
0
LINE
8
DEFAULT_255_2_778
10
15.8405584
20
50.6934271
11
16.0342584
21
50.6934271
0
LINE
8
DEFAULT_255_2_778
10
18.2459584
20
50.2949271
11
18.0540584
21
50.2949271
0
LINE
8
DEFAULT_255_2_778
10
18.6292584
20
50.6934271
11
18.8229584
21
50.6934271
0
LINE
8
DEFAULT_255_2_778
10
16.2096584
20
49.5126271
11
16.4171584
21
49.5126271
0
LINE
8
DEFAULT_255_2_778
10
16.4181584
20
49.1649271
11
16.2094584
21
49.1649271
0
LINE
8
DEFAULT_255_2_778
10
18.8901584
20
49.5126271
11
19.0976584
21
49.5126271
0
LINE
8
DEFAULT_255_2_778
10
19.0989584
20
49.1649271
11
18.8901584
21
49.1649271
0
LINE
8
DEFAULT_255_1_388
10
4.8809318
20
44.4758382
11
4.8809318
21
44.3394
0
LINE
8
DEFAULT_255_1_388
10
4.8809318
20
44.3394
11
4.0189313
21
44.3394
0
LINE
8
DEFAULT_255_1_388
10
4.0189313
20
44.3394
11
4.0189313
21
44.4595741
0
LINE
8
DEFAULT_255_1_388
10
4.0189313
20
44.4595741
11
4.4743278
21
44.9655702
0
LINE
8
DEFAULT_255_1_388
10
4.1607909
20
45.2673607
11
3.9936315
21
45.2673607
0
LINE
8
DEFAULT_255_1_388
10
4.5728163
20
44.858046
11
4.2204262
21
44.4758382
0
LINE
8
DEFAULT_255_1_388
10
4.2204262
20
44.4758382
11
4.8809318
21
44.4758382
0
ARC
8
DEFAULT_255_1_388
10
2.9567337
20
46.3075983
40
2.0258655
50
318.5132526
51
320.7829045
0
ARC
8
DEFAULT_255_1_388
10
3.5515294
20
45.8234929
40
1.2589638
50
320.7372878
51
323.9739031
0
ARC
8
DEFAULT_255_1_388
10
3.9924226
20
45.5040554
40
0.7145141
50
323.8962701
51
328.64194
0
ARC
8
DEFAULT_255_1_388
10
4.2226484
20
45.3620545
40
0.4440242
50
328.8294576
51
331.7891185
0
ARC
8
DEFAULT_255_1_388
10
4.3348804
20
45.3041374
40
0.3177517
50
331.4254512
51
352.9365785
0
ARC
8
DEFAULT_255_1_388
10
4.3501804
20
45.300705
40
0.3021496
50
353.2257659
51
0.0166158
0
ARC
8
DEFAULT_255_1_388
10
4.3738564
20
45.3032894
40
0.2784847
50
359.486299
51
15.9343185
0
ARC
8
DEFAULT_255_1_388
10
4.4308831
20
45.3186269
40
0.2194403
50
16.1712913
51
43.5286088
0
ARC
8
DEFAULT_255_1_388
10
4.4395776
20
45.3273191
40
0.2071504
50
43.4417391
51
83.1661095
0
ARC
8
DEFAULT_255_1_388
10
4.4244937
20
45.2444316
40
0.2912888
50
82.160179
51
90.1505708
0
ARC
8
DEFAULT_255_1_388
10
4.4209418
20
45.1840279
40
0.3517025
50
89.5460741
51
102.5418361
0
ARC
8
DEFAULT_255_1_388
10
4.3936138
20
45.2999933
40
0.2325748
50
102.1738499
51
129.206123
0
ARC
8
DEFAULT_255_1_388
10
4.3847592
20
45.3139664
40
0.2161591
50
129.72865
51
135.753947
0
ARC
8
DEFAULT_255_1_388
10
4.3984074
20
45.3030728
40
0.2335433
50
136.1757367
51
166.3673339
0
ARC
8
DEFAULT_255_1_388
10
4.5116762
20
45.2727148
40
0.3507873
50
165.9090694
51
178.8684636
0
ARC
8
DEFAULT_255_1_388
10
4.6092534
20
45.2674263
40
0.4484624
50
178.4391136
51
180.0083808
0
ARC
8
DEFAULT_255_1_388
10
4.4513235
20
45.2718197
40
0.4577138
50
163.2878482
51
180.5581842
0
ARC
8
DEFAULT_255_1_388
10
4.3611276
20
45.2966393
40
0.3641968
50
133.4540601
51
162.947111
0
ARC
8
DEFAULT_255_1_388
10
4.3812158
20
45.2752789
40
0.3935189
50
100.7869829
51
133.4382499
0
ARC
8
DEFAULT_255_1_388
10
4.4203403
20
45.1010399
40
0.5720313
50
89.660664
51
101.3702276
0
ARC
8
DEFAULT_255_1_388
10
4.4278012
20
45.1079263
40
0.5651495
50
78.2172678
51
90.412935
0
ARC
8
DEFAULT_255_1_388
10
4.4677478
20
45.2906511
40
0.378122
50
55.9269121
51
78.4888449
0
ARC
8
DEFAULT_255_1_388
10
4.4898193
20
45.3287187
40
0.3342379
50
47.929771
51
55.4049217
0
ARC
8
DEFAULT_255_1_388
10
4.5012723
20
45.3403618
40
0.3179217
50
4.334829
51
48.0560205
0
ARC
8
DEFAULT_255_1_388
10
4.3780525
20
45.3212487
40
0.442341
50
359.9251713
51
5.5971671
0
ARC
8
DEFAULT_255_1_388
10
4.426268
20
45.3275728
40
0.3941854
50
337.8914027
51
358.9967534
0
ARC
8
DEFAULT_255_1_388
10
4.121025
20
45.4453295
40
0.7213271
50
326.9132501
51
338.3508308
0
ARC
8
DEFAULT_255_1_388
10
3.6726362
20
45.7327105
40
1.2538973
50
319.6471833
51
327.0959558
0
ARC
8
DEFAULT_255_1_388
10
3.241302
20
46.088505
40
1.8129975
50
317.2588228
51
319.9045804
0
LINE
8
DEFAULT_255_1_388
10
5.7637143
20
45.6549898
11
5.7637143
21
44.781243
0
LINE
8
DEFAULT_255_1_388
10
5.7637143
20
44.781243
11
5.9462343
21
44.781243
0
LINE
8
DEFAULT_255_1_388
10
5.9462343
20
44.781243
11
5.9462343
21
44.6448048
0
LINE
8
DEFAULT_255_1_388
10
5.9462343
20
44.6448048
11
5.7637143
21
44.6448048
0
LINE
8
DEFAULT_255_1_388
10
5.7637143
20
44.6448048
11
5.7637143
21
44.3394
0
LINE
8
DEFAULT_255_1_388
10
5.7637143
20
44.3394
11
5.5956513
21
44.3394
0
LINE
8
DEFAULT_255_1_388
10
5.5956513
20
44.3394
11
5.5956513
21
44.6448048
0
LINE
8
DEFAULT_255_1_388
10
5.5956513
20
44.6448048
11
4.996588
21
44.6448048
0
LINE
8
DEFAULT_255_1_388
10
4.996588
20
44.6448048
11
4.996588
21
44.7432933
0
LINE
8
DEFAULT_255_1_388
10
4.996588
20
44.7432933
11
5.5857121
21
45.6549898
0
LINE
8
DEFAULT_255_1_388
10
5.5857121
20
45.6549898
11
5.7637143
21
45.6549898
0
LINE
8
DEFAULT_255_1_388
10
5.5757729
20
45.3902455
11
5.1863366
21
44.781243
0
LINE
8
DEFAULT_255_1_388
10
5.1863366
20
44.781243
11
5.5956513
21
44.781243
0
LINE
8
DEFAULT_255_1_388
10
5.5956513
20
44.781243
11
5.5956513
21
45.426388
0
LINE
8
DEFAULT_255_1_388
10
5.5956513
20
45.426388
11
5.5757729
21
45.3902455
0
LINE
8
DEFAULT_255_1_388
10
6.201943
20
45.6549898
11
6.5760187
21
44.5698089
0
LINE
8
DEFAULT_255_1_388
10
6.5760187
20
44.5698089
11
6.9519015
21
45.6549898
0
LINE
8
DEFAULT_255_1_388
10
6.9519015
20
45.6549898
11
7.14165
21
45.6549898
0
LINE
8
DEFAULT_255_1_388
10
7.14165
20
45.6549898
11
6.6537252
21
44.3394
0
LINE
8
DEFAULT_255_1_388
10
6.6537252
20
44.3394
11
6.5001193
21
44.3394
0
LINE
8
DEFAULT_255_1_388
10
6.5001193
20
44.3394
11
6.013098
21
45.6549898
0
LINE
8
DEFAULT_255_1_388
10
6.013098
20
45.6549898
11
6.201943
21
45.6549898
0
LINE
8
DEFAULT_255_1_388
10
4.1939903
20
5.9674898
11
4.1939903
21
4.7937596
0
LINE
8
DEFAULT_255_1_388
10
4.1939903
20
4.7937596
11
4.8174498
21
4.7937596
0
LINE
8
DEFAULT_255_1_388
10
4.8174498
20
4.7937596
11
4.8174498
21
4.6519
0
LINE
8
DEFAULT_255_1_388
10
4.8174498
20
4.6519
11
4.0196024
21
4.6519
0
LINE
8
DEFAULT_255_1_388
10
4.0196024
20
4.6519
11
4.0196024
21
5.9674898
0
LINE
8
DEFAULT_255_1_388
10
4.0196024
20
5.9674898
11
4.1939903
21
5.9674898
0
LINE
8
DEFAULT_255_1_388
10
5.9279305
20
5.3069842
11
5.9279305
21
4.8244808
0
LINE
8
DEFAULT_255_1_388
10
4.9141312
20
5.2464454
11
4.9141312
21
5.3611981
0
LINE
8
DEFAULT_255_1_388
10
5.9279305
20
5.5816678
11
5.7544461
21
5.5816678
0
LINE
8
DEFAULT_255_1_388
10
5.0885191
20
5.3657159
11
5.0885191
21
5.2581917
0
LINE
8
DEFAULT_255_1_388
10
5.7553497
20
4.8705626
11
5.7553497
21
5.1660282
0
LINE
8
DEFAULT_255_1_388
10
5.7553497
20
5.1660282
11
5.4508485
21
5.1660282
0
LINE
8
DEFAULT_255_1_388
10
5.4508485
20
5.1660282
11
5.4508485
21
5.3069842
0
LINE
8
DEFAULT_255_1_388
10
5.4508485
20
5.3069842
11
5.9279305
21
5.3069842
0
ARC
8
DEFAULT_255_1_388
10
5.6093906
20
5.0487284
40
0.3895571
50
295.8437277
51
324.8549962
0
ARC
8
DEFAULT_255_1_388
10
5.5626288
20
5.1333619
40
0.4861381
50
291.5691164
51
296.4556269
0
ARC
8
DEFAULT_255_1_388
10
5.505129
20
5.2869801
40
0.6501442
50
278.6622213
51
291.3047061
0
ARC
8
DEFAULT_255_1_388
10
5.4669323
20
5.5286557
40
0.8948168
50
270.0200506
51
278.7494673
0
ARC
8
DEFAULT_255_1_388
10
5.4625527
20
5.7132453
40
1.0794166
50
270.0022372
51
270.2490917
0
ARC
8
DEFAULT_255_1_388
10
5.4583419
20
5.2173827
40
0.5835695
50
253.5785313
51
270.4175629
0
ARC
8
DEFAULT_255_1_388
10
5.4388415
20
5.1418625
40
0.5056241
50
238.8203954
51
253.2788387
0
ARC
8
DEFAULT_255_1_388
10
5.4366331
20
5.1361224
40
0.4995712
50
206.7883476
51
238.696262
0
ARC
8
DEFAULT_255_1_388
10
5.5241727
20
5.1885847
40
0.6014056
50
206.1137778
51
207.4912776
0
ARC
8
DEFAULT_255_1_388
10
5.5908562
20
5.2169284
40
0.6737692
50
188.6922336
51
205.782076
0
ARC
8
DEFAULT_255_1_388
10
5.7996922
20
5.2524455
40
0.8855812
50
180.3881972
51
188.9218085
0
ARC
8
DEFAULT_255_1_388
10
5.9378079
20
5.3675622
40
1.0236965
50
170.2024645
51
180.3561986
0
ARC
8
DEFAULT_255_1_388
10
5.5819229
20
5.4312101
40
0.6621746
50
154.2856519
51
170.3893388
0
ARC
8
DEFAULT_255_1_388
10
5.4377193
20
5.4972192
40
0.5036209
50
139.8400879
51
153.9334639
0
ARC
8
DEFAULT_255_1_388
10
5.3973097
20
5.5295716
40
0.4518751
50
98.4190017
51
139.6707015
0
ARC
8
DEFAULT_255_1_388
10
5.4400064
20
5.3219755
40
0.6635912
50
89.7660128
51
99.4415389
0
ARC
8
DEFAULT_255_1_388
10
5.4473461
20
5.3293517
40
0.6562258
50
78.0552044
51
90.4042252
0
ARC
8
DEFAULT_255_1_388
10
5.4928524
20
5.5339661
40
0.4466287
50
54.6380186
51
78.3338577
0
ARC
8
DEFAULT_255_1_388
10
5.5142823
20
5.5700444
40
0.4048184
50
50.0313964
51
54.1562739
0
ARC
8
DEFAULT_255_1_388
10
5.5021716
20
5.5591798
40
0.4209308
50
18.1092229
51
49.7179911
0
ARC
8
DEFAULT_255_1_388
10
5.3382797
20
5.4991399
40
0.5953982
50
7.967396
51
18.698492
0
ARC
8
DEFAULT_255_1_388
10
5.3552058
20
5.5130236
40
0.4050986
50
9.7558763
51
27.3214087
0
ARC
8
DEFAULT_255_1_388
10
5.4820522
20
5.5764087
40
0.2633168
50
27.736147
51
84.5257861
0
ARC
8
DEFAULT_255_1_388
10
5.4451932
20
5.3914988
40
0.4513019
50
82.1064239
51
90.1997295
0
ARC
8
DEFAULT_255_1_388
10
5.4395948
20
5.4486501
40
0.3941684
50
89.4148952
51
105.5824837
0
ARC
8
DEFAULT_255_1_388
10
5.4106829
20
5.5539043
40
0.2850167
50
105.6678541
51
144.2649156
0
ARC
8
DEFAULT_255_1_388
10
5.5111721
20
5.4824024
40
0.4083468
50
144.3560675
51
162.8564185
0
ARC
8
DEFAULT_255_1_388
10
5.7456164
20
5.4071083
40
0.6545749
50
162.6076338
51
173.6779811
0
ARC
8
DEFAULT_255_1_388
10
6.0900279
20
5.3652422
40
1.0015089
50
173.4670996
51
179.9729015
0
ARC
8
DEFAULT_255_1_388
10
5.8753149
20
5.2534636
40
0.78681
50
179.6556955
51
190.007958
0
ARC
8
DEFAULT_255_1_388
10
5.6147431
20
5.205666
40
0.5218997
50
189.8117884
51
206.6795375
0
ARC
8
DEFAULT_255_1_388
10
5.5196877
20
5.1613514
40
0.4170788
50
207.1031171
51
217.7074698
0
ARC
8
DEFAULT_255_1_388
10
5.4483308
20
5.0992596
40
0.3226945
50
216.7345117
51
265.6812141
0
ARC
8
DEFAULT_255_1_388
10
5.463045
20
5.201003
40
0.4253149
50
264.7367524
51
270.0610826
0
ARC
8
DEFAULT_255_1_388
10
5.4656635
20
5.5205173
40
0.7448321
50
269.8334494
51
276.0538364
0
ARC
8
DEFAULT_255_1_388
10
5.4889498
20
5.3065924
40
0.5296446
50
275.9894423
51
284.4615914
0
ARC
8
DEFAULT_255_1_388
10
5.5111011
20
5.213357
40
0.4338353
50
284.7038488
51
286.4938196
0
ARC
8
DEFAULT_255_1_388
10
5.557016
20
5.0654371
40
0.2789738
50
286.0770429
51
304.2629628
0
ARC
8
DEFAULT_255_1_388
10
5.5720318
20
5.040868
40
0.2502188
50
304.5886247
51
317.1074126
0
LINE
8
DEFAULT_255_1_388
10
4.3545389
20
12.5894
11
3.9904024
21
12.5894
0
LINE
8
DEFAULT_255_1_388
10
3.9904024
20
12.5894
11
3.9904024
21
13.9049898
0
LINE
8
DEFAULT_255_1_388
10
3.9904024
20
13.9049898
11
4.3617674
21
13.9049898
0
LINE
8
DEFAULT_255_1_388
10
4.9418558
20
13.2914696
11
4.9418558
21
13.2074381
0
LINE
8
DEFAULT_255_1_388
10
4.3662852
20
13.7622267
11
4.1638868
21
13.7622267
0
LINE
8
DEFAULT_255_1_388
10
4.1638868
20
13.7622267
11
4.1638868
21
12.7312596
0
LINE
8
DEFAULT_255_1_388
10
4.1638868
20
12.7312596
11
4.3464068
21
12.7312596
0
LINE
8
DEFAULT_255_1_388
10
4.7701785
20
13.2110523
11
4.7701785
21
13.2878553
0
ARC
8
DEFAULT_255_1_388
10
4.3661469
20
13.2451436
40
0.6598608
50
75.4100343
51
90.3802731
0
ARC
8
DEFAULT_255_1_388
10
4.3919714
20
13.3527691
40
0.5492049
50
60.1455157
51
75.1889627
0
ARC
8
DEFAULT_255_1_388
10
4.4098306
20
13.3838914
40
0.5133226
50
26.525419
51
60.1451222
0
ARC
8
DEFAULT_255_1_388
10
4.2838092
20
13.3170642
40
0.6559324
50
7.4029944
51
26.832209
0
ARC
8
DEFAULT_255_1_388
10
4.1044489
20
13.2891229
40
0.8374103
50
0.1605597
51
7.7176135
0
ARC
8
DEFAULT_255_1_388
10
4.1228889
20
13.2031321
40
0.8189782
50
348.7289744
51
0.30125
0
ARC
8
DEFAULT_255_1_388
10
4.3092353
20
13.1661156
40
0.628991
50
333.0706936
51
348.7181455
0
ARC
8
DEFAULT_255_1_388
10
4.4179981
20
13.1070449
40
0.5052808
50
299.2531435
51
333.4571133
0
ARC
8
DEFAULT_255_1_388
10
4.3774012
20
13.1841629
40
0.5924066
50
278.1072193
51
299.0340218
0
ARC
8
DEFAULT_255_1_388
10
4.3486061
20
13.3537979
40
0.7644209
50
270.4446841
51
278.4508355
0
ARC
8
DEFAULT_255_1_388
10
4.3509545
20
13.24923
40
0.5179903
50
269.4969684
51
284.0204874
0
ARC
8
DEFAULT_255_1_388
10
4.3909263
20
13.0956415
40
0.3592968
50
283.7699076
51
318.1557121
0
ARC
8
DEFAULT_255_1_388
10
4.3529808
20
13.1240399
40
0.4065308
50
318.7417595
51
343.687252
0
ARC
8
DEFAULT_255_1_388
10
4.1500387
20
13.1874275
40
0.6191194
50
343.3324891
51
355.8548594
0
ARC
8
DEFAULT_255_1_388
10
3.9139424
20
13.2098719
40
0.856237
50
355.4988754
51
0.0789913
0
ARC
8
DEFAULT_255_1_388
10
4.0020224
20
13.292608
40
0.7681709
50
359.6455047
51
9.8607559
0
ARC
8
DEFAULT_255_1_388
10
4.2675947
20
13.3405664
40
0.498312
50
9.6573037
51
26.1931522
0
ARC
8
DEFAULT_255_1_388
10
4.3720022
20
13.3890587
40
0.3832303
50
26.5777895
51
40.1533752
0
ARC
8
DEFAULT_255_1_388
10
4.4007687
20
13.411502
40
0.3467742
50
40.3839958
51
80.1430923
0
ARC
8
DEFAULT_255_1_388
10
4.3639942
20
13.2484486
40
0.5137832
50
79.2153636
51
89.7445174
0
LINE
8
DEFAULT_255_1_388
10
6.2149781
20
13.9049898
11
6.2149781
21
12.5894
0
LINE
8
DEFAULT_255_1_388
10
6.2149781
20
12.5894
11
6.0405901
21
12.5894
0
LINE
8
DEFAULT_255_1_388
10
6.0405901
20
12.5894
11
5.3782774
21
13.6031993
0
LINE
8
DEFAULT_255_1_388
10
5.3782774
20
13.6031993
11
5.3782774
21
12.5894
0
LINE
8
DEFAULT_255_1_388
10
5.3782774
20
12.5894
11
5.2038895
21
12.5894
0
LINE
8
DEFAULT_255_1_388
10
5.2038895
20
12.5894
11
5.2038895
21
13.9049898
0
LINE
8
DEFAULT_255_1_388
10
5.2038895
20
13.9049898
11
5.3782774
21
13.9049898
0
LINE
8
DEFAULT_255_1_388
10
5.3782774
20
13.9049898
11
6.0423973
21
12.8866727
0
LINE
8
DEFAULT_255_1_388
10
6.0423973
20
12.8866727
11
6.0423973
21
13.9049898
0
LINE
8
DEFAULT_255_1_388
10
6.0423973
20
13.9049898
11
6.2149781
21
13.9049898
0
LINE
8
DEFAULT_255_1_388
10
4.4303389
20
20.5269
11
4.0662024
21
20.5269
0
LINE
8
DEFAULT_255_1_388
10
4.0662024
20
20.5269
11
4.0662024
21
21.8424898
0
LINE
8
DEFAULT_255_1_388
10
4.0662024
20
21.8424898
11
4.4375674
21
21.8424898
0
LINE
8
DEFAULT_255_1_388
10
5.0176558
20
21.2289696
11
5.0176558
21
21.1449381
0
LINE
8
DEFAULT_255_1_388
10
4.4420852
20
21.6997267
11
4.2396868
21
21.6997267
0
LINE
8
DEFAULT_255_1_388
10
4.2396868
20
21.6997267
11
4.2396868
21
20.6687596
0
LINE
8
DEFAULT_255_1_388
10
4.2396868
20
20.6687596
11
4.4222068
21
20.6687596
0
LINE
8
DEFAULT_255_1_388
10
4.8459785
20
21.1485523
11
4.8459785
21
21.2253553
0
ARC
8
DEFAULT_255_1_388
10
4.4419469
20
21.1826436
40
0.6598608
50
75.4100343
51
90.3802731
0
ARC
8
DEFAULT_255_1_388
10
4.4677714
20
21.2902691
40
0.5492049
50
60.1455157
51
75.1889627
0
ARC
8
DEFAULT_255_1_388
10
4.4856306
20
21.3213914
40
0.5133226
50
26.525419
51
60.1451222
0
ARC
8
DEFAULT_255_1_388
10
4.3596092
20
21.2545642
40
0.6559324
50
7.4029944
51
26.832209
0
ARC
8
DEFAULT_255_1_388
10
4.1802489
20
21.2266229
40
0.8374103
50
0.1605597
51
7.7176135
0
ARC
8
DEFAULT_255_1_388
10
4.1986889
20
21.1406321
40
0.8189782
50
348.7289744
51
0.30125
0
ARC
8
DEFAULT_255_1_388
10
4.3850353
20
21.1036156
40
0.628991
50
333.0706936
51
348.7181455
0
ARC
8
DEFAULT_255_1_388
10
4.4937981
20
21.0445449
40
0.5052808
50
299.2531435
51
333.4571133
0
ARC
8
DEFAULT_255_1_388
10
4.4532012
20
21.1216629
40
0.5924066
50
278.1072193
51
299.0340218
0
ARC
8
DEFAULT_255_1_388
10
4.4244061
20
21.2912979
40
0.7644209
50
270.4446841
51
278.4508355
0
ARC
8
DEFAULT_255_1_388
10
4.4267545
20
21.18673
40
0.5179903
50
269.4969684
51
284.0204874
0
ARC
8
DEFAULT_255_1_388
10
4.4667263
20
21.0331415
40
0.3592968
50
283.7699076
51
318.1557121
0
ARC
8
DEFAULT_255_1_388
10
4.4287808
20
21.0615399
40
0.4065308
50
318.7417595
51
343.687252
0
ARC
8
DEFAULT_255_1_388
10
4.2258387
20
21.1249275
40
0.6191194
50
343.3324891
51
355.8548594
0
ARC
8
DEFAULT_255_1_388
10
3.9897424
20
21.1473719
40
0.856237
50
355.4988754
51
0.0789913
0
ARC
8
DEFAULT_255_1_388
10
4.0778224
20
21.230108
40
0.7681709
50
359.6455047
51
9.8607559
0
ARC
8
DEFAULT_255_1_388
10
4.3433947
20
21.2780664
40
0.498312
50
9.6573037
51
26.1931522
0
ARC
8
DEFAULT_255_1_388
10
4.4478022
20
21.3265587
40
0.3832303
50
26.5777895
51
40.1533752
0
ARC
8
DEFAULT_255_1_388
10
4.4765687
20
21.349002
40
0.3467742
50
40.3839958
51
80.1430923
0
ARC
8
DEFAULT_255_1_388
10
4.4397942
20
21.1859486
40
0.5137832
50
79.2153636
51
89.7445174
0
LINE
8
DEFAULT_255_1_388
10
5.7630964
20
21.0419317
11
5.4531738
21
21.0419317
0
LINE
8
DEFAULT_255_1_388
10
5.4531738
20
21.0419317
11
5.4531738
21
20.5269
0
LINE
8
DEFAULT_255_1_388
10
5.4531738
20
20.5269
11
5.2796895
21
20.5269
0
LINE
8
DEFAULT_255_1_388
10
5.2796895
20
20.5269
11
5.2796895
21
21.8424898
0
LINE
8
DEFAULT_255_1_388
10
5.2796895
20
21.8424898
11
5.7649036
21
21.8424898
0
LINE
8
DEFAULT_255_1_388
10
5.4531738
20
21.6997267
11
5.4531738
21
21.1837914
0
LINE
8
DEFAULT_255_1_388
10
5.4531738
20
21.1837914
11
5.7649036
21
21.1837914
0
LINE
8
DEFAULT_255_1_388
10
5.7748428
20
21.6997267
11
5.4531738
21
21.6997267
0
ARC
8
DEFAULT_255_1_388
10
5.7696409
20
21.1608334
40
0.6816729
50
78.8380084
51
90.398184
0
ARC
8
DEFAULT_255_1_388
10
5.8164439
20
21.3881796
40
0.449571
50
58.9633273
51
79.0810717
0
ARC
8
DEFAULT_255_1_388
10
5.8503824
20
21.4511823
40
0.3781049
50
48.0194715
51
58.4475592
0
ARC
8
DEFAULT_255_1_388
10
5.8603644
20
21.4607818
40
0.3642936
50
3.3374546
51
48.1766642
0
ARC
8
DEFAULT_255_1_388
10
5.7218451
20
21.4408581
40
0.5038766
50
359.9483251
51
4.6822857
0
ARC
8
DEFAULT_255_1_388
10
5.7358374
20
21.4360779
40
0.4899031
50
346.1879032
51
0.5059221
0
ARC
8
DEFAULT_255_1_388
10
5.8887165
20
21.3963763
40
0.3319729
50
310.8832219
51
346.5426612
0
ARC
8
DEFAULT_255_1_388
10
5.8540014
20
21.4432853
40
0.3901853
50
286.6925305
51
310.228778
0
ARC
8
DEFAULT_255_1_388
10
5.7899744
20
21.6446585
40
0.6014737
50
274.6848219
51
287.0247342
0
ARC
8
DEFAULT_255_1_388
10
5.7646292
20
21.8931088
40
0.8511785
50
269.8968222
51
275.0192639
0
ARC
8
DEFAULT_255_1_388
10
5.7677286
20
21.6593144
40
0.4755314
50
269.6596206
51
279.4150542
0
ARC
8
DEFAULT_255_1_388
10
5.7966744
20
21.4915945
40
0.3053379
50
279.2050006
51
294.9901776
0
ARC
8
DEFAULT_255_1_388
10
5.8293378
20
21.4187353
40
0.2255036
50
295.2886769
51
311.2912669
0
ARC
8
DEFAULT_255_1_388
10
5.8373119
20
21.4068938
40
0.2113522
50
311.7853512
51
347.2860549
0
ARC
8
DEFAULT_255_1_388
10
5.7266281
20
21.435343
40
0.3256011
50
346.6891629
51
0.1057086
0
ARC
8
DEFAULT_255_1_388
10
5.6343741
20
21.4386247
40
0.417863
50
359.63239
51
359.9961329
0
ARC
8
DEFAULT_255_1_388
10
5.7508346
20
21.4413987
40
0.3014155
50
359.4673371
51
15.5931159
0
ARC
8
DEFAULT_255_1_388
10
5.8211408
20
21.4603937
40
0.2285918
50
15.7441779
51
46.620186
0
ARC
8
DEFAULT_255_1_388
10
5.8045168
20
21.4412361
40
0.2539359
50
46.8628482
51
75.6676625
0
ARC
8
DEFAULT_255_1_388
10
5.7714225
20
21.3221243
40
0.3775415
50
75.2763152
51
88.2916439
0
ARC
8
DEFAULT_255_1_388
10
5.7648224
20
21.2219097
40
0.4779221
50
87.8589087
51
88.7986197
0
LINE
8
DEFAULT_255_1_388
10
4.2477367
20
29.7799898
11
4.2477367
21
28.4644
0
LINE
8
DEFAULT_255_1_388
10
4.2477367
20
28.4644
11
4.0742523
21
28.4644
0
LINE
8
DEFAULT_255_1_388
10
4.0742523
20
28.4644
11
4.0742523
21
29.7799898
0
LINE
8
DEFAULT_255_1_388
10
4.0742523
20
29.7799898
11
4.2477367
21
29.7799898
0
LINE
8
DEFAULT_255_1_388
10
5.5759764
20
29.7799898
11
5.5759764
21
28.4644
0
LINE
8
DEFAULT_255_1_388
10
5.5759764
20
28.4644
11
5.4015885
21
28.4644
0
LINE
8
DEFAULT_255_1_388
10
5.4015885
20
28.4644
11
4.7392757
21
29.4781993
0
LINE
8
DEFAULT_255_1_388
10
4.7392757
20
29.4781993
11
4.7392757
21
28.4644
0
LINE
8
DEFAULT_255_1_388
10
4.7392757
20
28.4644
11
4.5648878
21
28.4644
0
LINE
8
DEFAULT_255_1_388
10
4.5648878
20
28.4644
11
4.5648878
21
29.7799898
0
LINE
8
DEFAULT_255_1_388
10
4.5648878
20
29.7799898
11
4.7392757
21
29.7799898
0
LINE
8
DEFAULT_255_1_388
10
4.7392757
20
29.7799898
11
5.4033956
21
28.7616727
0
LINE
8
DEFAULT_255_1_388
10
5.4033956
20
28.7616727
11
5.4033956
21
29.7799898
0
LINE
8
DEFAULT_255_1_388
10
5.4033956
20
29.7799898
11
5.5759764
21
29.7799898
0
LINE
8
DEFAULT_255_1_388
10
6.6656751
20
29.242369
11
6.6656751
21
29.0255135
0
LINE
8
DEFAULT_255_1_388
10
5.8352994
20
29.0029244
11
5.8352994
21
29.2261048
0
LINE
8
DEFAULT_255_1_388
10
6.4985157
20
28.9803353
11
6.4985157
21
29.2541153
0
LINE
8
DEFAULT_255_1_388
10
6.0024588
20
29.2667652
11
6.0024588
21
28.9993102
0
ARC
8
DEFAULT_255_1_388
10
5.2879085
20
29.0200118
40
1.3777776
50
353.8440855
51
0.2287917
0
ARC
8
DEFAULT_255_1_388
10
5.8098103
20
28.9617414
40
0.852639
50
344.4934746
51
353.9763743
0
ARC
8
DEFAULT_255_1_388
10
6.146491
20
28.8660191
40
0.5026273
50
329.2803599
51
344.7473406
0
ARC
8
DEFAULT_255_1_388
10
6.2580406
20
28.8048038
40
0.3754848
50
324.9361395
51
328.6153007
0
ARC
8
DEFAULT_255_1_388
10
6.3006056
20
28.7750586
40
0.3235566
50
280.5801797
51
324.9173226
0
ARC
8
DEFAULT_255_1_388
10
6.2554684
20
28.9630236
40
0.5167077
50
269.5979457
51
281.6732777
0
ARC
8
DEFAULT_255_1_388
10
6.2473588
20
28.9495113
40
0.5032026
50
256.6228565
51
270.5105488
0
ARC
8
DEFAULT_255_1_388
10
6.202133
20
28.7753345
40
0.3233092
50
215.8618351
51
257.2787793
0
ARC
8
DEFAULT_255_1_388
10
6.3170037
20
28.8524106
40
0.4615831
50
197.9695203
51
215.2622745
0
ARC
8
DEFAULT_255_1_388
10
6.5965713
20
28.9467641
40
0.7566307
50
187.8816486
51
198.2346584
0
ARC
8
DEFAULT_255_1_388
10
7.0418951
20
29.0110453
40
1.2065653
50
180.8977266
51
188.0054894
0
ARC
8
DEFAULT_255_1_388
10
7.3469165
20
29.02254
40
1.5117443
50
180.7434591
51
181.152202
0
ARC
8
DEFAULT_255_1_388
10
7.1794161
20
29.2315371
40
1.3441277
50
173.7674302
51
180.2315596
0
ARC
8
DEFAULT_255_1_388
10
6.671203
20
29.2889779
40
0.8326847
50
164.3058537
51
173.9000553
0
ARC
8
DEFAULT_255_1_388
10
6.343603
20
29.3833652
40
0.4917711
50
148.7922028
51
164.5682288
0
ARC
8
DEFAULT_255_1_388
10
6.2366767
20
29.4430457
40
0.3694204
50
144.5883979
51
148.1161588
0
ARC
8
DEFAULT_255_1_388
10
6.1979513
20
29.4700667
40
0.322202
50
101.6440149
51
144.5142619
0
ARC
8
DEFAULT_255_1_388
10
6.2457705
20
29.2800337
40
0.5180451
50
89.528284
51
102.5820197
0
ARC
8
DEFAULT_255_1_388
10
6.2546697
20
29.2756376
40
0.5224441
50
77.0437914
51
90.508231
0
ARC
8
DEFAULT_255_1_388
10
6.299895
20
29.4604272
40
0.3322297
50
48.2777708
51
77.4996087
0
ARC
8
DEFAULT_255_1_388
10
6.308069
20
29.4749557
40
0.315966
50
36.3141586
51
47.6307332
0
ARC
8
DEFAULT_255_1_388
10
6.2103413
20
29.4091159
40
0.4337313
50
18.2931065
51
35.6770203
0
ARC
8
DEFAULT_255_1_388
10
5.9242253
20
29.3109107
40
0.7362203
50
8.0246996
51
18.5605636
0
ARC
8
DEFAULT_255_1_388
10
5.4558609
20
29.2417432
40
1.2096583
50
1.127539
51
8.1718423
0
ARC
8
DEFAULT_255_1_388
10
5.0909742
20
29.2274374
40
1.5747719
50
0.5432713
51
1.38669
0
ARC
8
DEFAULT_255_1_388
10
5.2967121
20
29.2581163
40
1.2018103
50
359.8092569
51
4.9408001
0
ARC
8
DEFAULT_255_1_388
10
5.7703702
20
29.30039
40
0.7262727
50
4.8364937
51
12.2906017
0
ARC
8
DEFAULT_255_1_388
10
6.0803167
20
29.3694485
40
0.4087324
50
12.0806994
51
23.8171225
0
ARC
8
DEFAULT_255_1_388
10
6.2123563
20
29.4253508
40
0.2653719
50
24.2874621
51
31.3934353
0
ARC
8
DEFAULT_255_1_388
10
6.2713999
20
29.4639822
40
0.1948607
50
30.7407708
51
82.4658033
0
ARC
8
DEFAULT_255_1_388
10
6.251166
20
29.3646017
40
0.2961198
50
81.1057101
51
90.2187368
0
ARC
8
DEFAULT_255_1_388
10
6.2471472
20
29.3936421
40
0.2670929
50
89.380395
51
105.6763916
0
ARC
8
DEFAULT_255_1_388
10
6.2265194
20
29.468632
40
0.1893189
50
105.7980655
51
149.7387869
0
ARC
8
DEFAULT_255_1_388
10
6.3462334
20
29.3966719
40
0.3289892
50
149.4208441
51
163.628295
0
ARC
8
DEFAULT_255_1_388
10
6.5814563
20
29.3249345
40
0.5749004
50
163.3764549
51
172.141138
0
ARC
8
DEFAULT_255_1_388
10
6.9527285
20
29.2717582
40
0.9499585
50
172.0258462
51
178.0705453
0
ARC
8
DEFAULT_255_1_388
10
7.2948838
20
29.2555682
40
1.2924734
50
177.8639301
51
179.5036263
0
ARC
8
DEFAULT_255_1_388
10
7.1729856
20
28.9952151
40
1.170534
50
179.7995545
51
185.246089
0
ARC
8
DEFAULT_255_1_388
10
6.7181449
20
28.9521404
40
0.7136613
50
185.1411911
51
193.0082205
0
ARC
8
DEFAULT_255_1_388
10
6.420771
20
28.8818441
40
0.4080987
50
192.7897338
51
205.2507384
0
ARC
8
DEFAULT_255_1_388
10
6.302992
20
28.8292538
40
0.2791522
50
205.8001921
51
211.2545876
0
ARC
8
DEFAULT_255_1_388
10
6.2441459
20
28.7898132
40
0.2084074
50
210.3789935
51
238.4007996
0
ARC
8
DEFAULT_255_1_388
10
6.2419545
20
28.7950786
40
0.2117943
50
239.6521916
51
265.9793852
0
ARC
8
DEFAULT_255_1_388
10
6.2515394
20
28.8707358
40
0.2879689
50
265.1324455
51
270.0603288
0
ARC
8
DEFAULT_255_1_388
10
6.2547771
20
28.8342418
40
0.2514919
50
269.3314378
51
287.2180039
0
ARC
8
DEFAULT_255_1_388
10
6.2702853
20
28.7776291
40
0.1928357
50
287.7957942
51
329.0808983
0
ARC
8
DEFAULT_255_1_388
10
6.162561
20
28.8448651
40
0.319808
50
328.6635261
51
343.3325043
0
ARC
8
DEFAULT_255_1_388
10
5.9181069
20
28.9210195
40
0.5758408
50
343.0498092
51
351.9392499
0
ARC
8
DEFAULT_255_1_388
10
5.5280391
20
28.9785205
40
0.9701202
50
351.8071632
51
357.7957897
0
ARC
8
DEFAULT_255_1_388
10
5.1645868
20
28.9973724
40
1.3340376
50
357.5870923
51
359.2682493
0
LINE
8
DEFAULT_255_1_388
10
6.9846334
20
29.7799898
11
7.3587091
21
28.6948089
0
LINE
8
DEFAULT_255_1_388
10
7.3587091
20
28.6948089
11
7.7345919
21
29.7799898
0
LINE
8
DEFAULT_255_1_388
10
7.7345919
20
29.7799898
11
7.9243404
21
29.7799898
0
LINE
8
DEFAULT_255_1_388
10
7.9243404
20
29.7799898
11
7.4364156
21
28.4644
0
LINE
8
DEFAULT_255_1_388
10
7.4364156
20
28.4644
11
7.2828097
21
28.4644
0
LINE
8
DEFAULT_255_1_388
10
7.2828097
20
28.4644
11
6.7957884
21
29.7799898
0
LINE
8
DEFAULT_255_1_388
10
6.7957884
20
29.7799898
11
6.9846334
21
29.7799898
0
LINE
8
DEFAULT_255_1_388
10
4.2483367
20
37.7174898
11
4.2483367
21
36.4019
0
LINE
8
DEFAULT_255_1_388
10
4.2483367
20
36.4019
11
4.0748523
21
36.4019
0
LINE
8
DEFAULT_255_1_388
10
4.0748523
20
36.4019
11
4.0748523
21
37.7174898
0
LINE
8
DEFAULT_255_1_388
10
4.0748523
20
37.7174898
11
4.2483367
21
37.7174898
0
LINE
8
DEFAULT_255_1_388
10
5.5765764
20
37.7174898
11
5.5765764
21
36.4019
0
LINE
8
DEFAULT_255_1_388
10
5.5765764
20
36.4019
11
5.4021885
21
36.4019
0
LINE
8
DEFAULT_255_1_388
10
5.4021885
20
36.4019
11
4.7398757
21
37.4156993
0
LINE
8
DEFAULT_255_1_388
10
4.7398757
20
37.4156993
11
4.7398757
21
36.4019
0
LINE
8
DEFAULT_255_1_388
10
4.7398757
20
36.4019
11
4.5654878
21
36.4019
0
LINE
8
DEFAULT_255_1_388
10
4.5654878
20
36.4019
11
4.5654878
21
37.7174898
0
LINE
8
DEFAULT_255_1_388
10
4.5654878
20
37.7174898
11
4.7398757
21
37.7174898
0
LINE
8
DEFAULT_255_1_388
10
4.7398757
20
37.7174898
11
5.4039956
21
36.6991727
0
LINE
8
DEFAULT_255_1_388
10
5.4039956
20
36.6991727
11
5.4039956
21
37.7174898
0
LINE
8
DEFAULT_255_1_388
10
5.4039956
20
37.7174898
11
5.5765764
21
37.7174898
0
LINE
8
DEFAULT_255_1_388
10
6.7033213
20
36.5383382
11
6.7033213
21
36.4019
0
LINE
8
DEFAULT_255_1_388
10
6.7033213
20
36.4019
11
5.8413208
21
36.4019
0
LINE
8
DEFAULT_255_1_388
10
5.8413208
20
36.4019
11
5.8413208
21
36.5220741
0
LINE
8
DEFAULT_255_1_388
10
5.8413208
20
36.5220741
11
6.2967173
21
37.0280702
0
LINE
8
DEFAULT_255_1_388
10
5.9831804
20
37.3298607
11
5.816021
21
37.3298607
0
LINE
8
DEFAULT_255_1_388
10
6.3952058
20
36.920546
11
6.0428157
21
36.5383382
0
LINE
8
DEFAULT_255_1_388
10
6.0428157
20
36.5383382
11
6.7033213
21
36.5383382
0
ARC
8
DEFAULT_255_1_388
10
4.7791232
20
38.3700983
40
2.0258655
50
318.5132526
51
320.7829045
0
ARC
8
DEFAULT_255_1_388
10
5.3739189
20
37.8859929
40
1.2589638
50
320.7372878
51
323.9739031
0
ARC
8
DEFAULT_255_1_388
10
5.8148121
20
37.5665554
40
0.7145141
50
323.8962701
51
328.64194
0
ARC
8
DEFAULT_255_1_388
10
6.0450379
20
37.4245545
40
0.4440242
50
328.8294576
51
331.7891185
0
ARC
8
DEFAULT_255_1_388
10
6.1572699
20
37.3666374
40
0.3177517
50
331.4254512
51
352.9365785
0
ARC
8
DEFAULT_255_1_388
10
6.1725699
20
37.363205
40
0.3021496
50
353.2257659
51
0.0166158
0
ARC
8
DEFAULT_255_1_388
10
6.1962459
20
37.3657894
40
0.2784847
50
359.486299
51
15.9343185
0
ARC
8
DEFAULT_255_1_388
10
6.2532726
20
37.3811269
40
0.2194403
50
16.1712913
51
43.5286088
0
ARC
8
DEFAULT_255_1_388
10
6.2619671
20
37.3898191
40
0.2071504
50
43.4417391
51
83.1661095
0
ARC
8
DEFAULT_255_1_388
10
6.2468832
20
37.3069316
40
0.2912888
50
82.160179
51
90.1505708
0
ARC
8
DEFAULT_255_1_388
10
6.2433313
20
37.2465279
40
0.3517025
50
89.5460741
51
102.5418361
0
ARC
8
DEFAULT_255_1_388
10
6.2160033
20
37.3624933
40
0.2325748
50
102.1738499
51
129.206123
0
ARC
8
DEFAULT_255_1_388
10
6.2071487
20
37.3764664
40
0.2161591
50
129.72865
51
135.753947
0
ARC
8
DEFAULT_255_1_388
10
6.2207969
20
37.3655728
40
0.2335433
50
136.1757367
51
166.3673339
0
ARC
8
DEFAULT_255_1_388
10
6.3340657
20
37.3352148
40
0.3507873
50
165.9090694
51
178.8684636
0
ARC
8
DEFAULT_255_1_388
10
6.4316429
20
37.3299263
40
0.4484624
50
178.4391136
51
180.0083808
0
ARC
8
DEFAULT_255_1_388
10
6.273713
20
37.3343197
40
0.4577138
50
163.2878482
51
180.5581842
0
ARC
8
DEFAULT_255_1_388
10
6.1835171
20
37.3591393
40
0.3641968
50
133.4540601
51
162.947111
0
ARC
8
DEFAULT_255_1_388
10
6.2036053
20
37.3377789
40
0.3935189
50
100.7869829
51
133.4382499
0
ARC
8
DEFAULT_255_1_388
10
6.2427298
20
37.1635399
40
0.5720313
50
89.660664
51
101.3702276
0
ARC
8
DEFAULT_255_1_388
10
6.2501907
20
37.1704263
40
0.5651495
50
78.2172678
51
90.412935
0
ARC
8
DEFAULT_255_1_388
10
6.2901373
20
37.3531511
40
0.378122
50
55.9269121
51
78.4888449
0
ARC
8
DEFAULT_255_1_388
10
6.3122088
20
37.3912187
40
0.3342379
50
47.929771
51
55.4049217
0
ARC
8
DEFAULT_255_1_388
10
6.3236618
20
37.4028618
40
0.3179217
50
4.334829
51
48.0560205
0
ARC
8
DEFAULT_255_1_388
10
6.200442
20
37.3837487
40
0.442341
50
359.9251713
51
5.5971671
0
ARC
8
DEFAULT_255_1_388
10
6.2486575
20
37.3900728
40
0.3941854
50
337.8914027
51
358.9967534
0
ARC
8
DEFAULT_255_1_388
10
5.9434145
20
37.5078295
40
0.7213271
50
326.9132501
51
338.3508308
0
ARC
8
DEFAULT_255_1_388
10
5.4950257
20
37.7952105
40
1.2538973
50
319.6471833
51
327.0959558
0
ARC
8
DEFAULT_255_1_388
10
5.0636915
20
38.151005
40
1.8129975
50
317.2588228
51
319.9045804
0
LINE
8
DEFAULT_255_1_388
10
7.5861038
20
37.7174898
11
7.5861038
21
36.843743
0
LINE
8
DEFAULT_255_1_388
10
7.5861038
20
36.843743
11
7.7686238
21
36.843743
0
LINE
8
DEFAULT_255_1_388
10
7.7686238
20
36.843743
11
7.7686238
21
36.7073048
0
LINE
8
DEFAULT_255_1_388
10
7.7686238
20
36.7073048
11
7.5861038
21
36.7073048
0
LINE
8
DEFAULT_255_1_388
10
7.5861038
20
36.7073048
11
7.5861038
21
36.4019
0
LINE
8
DEFAULT_255_1_388
10
7.5861038
20
36.4019
11
7.4180408
21
36.4019
0
LINE
8
DEFAULT_255_1_388
10
7.4180408
20
36.4019
11
7.4180408
21
36.7073048
0
LINE
8
DEFAULT_255_1_388
10
7.4180408
20
36.7073048
11
6.8189775
21
36.7073048
0
LINE
8
DEFAULT_255_1_388
10
6.8189775
20
36.7073048
11
6.8189775
21
36.8057933
0
LINE
8
DEFAULT_255_1_388
10
6.8189775
20
36.8057933
11
7.4081016
21
37.7174898
0
LINE
8
DEFAULT_255_1_388
10
7.4081016
20
37.7174898
11
7.5861038
21
37.7174898
0
LINE
8
DEFAULT_255_1_388
10
7.3981624
20
37.4527455
11
7.0087261
21
36.843743
0
LINE
8
DEFAULT_255_1_388
10
7.0087261
20
36.843743
11
7.4180408
21
36.843743
0
LINE
8
DEFAULT_255_1_388
10
7.4180408
20
36.843743
11
7.4180408
21
37.488888
0
LINE
8
DEFAULT_255_1_388
10
7.4180408
20
37.488888
11
7.3981624
21
37.4527455
0
LINE
8
DEFAULT_255_1_388
10
8.0243325
20
37.7174898
11
8.3984082
21
36.6323089
0
LINE
8
DEFAULT_255_1_388
10
8.3984082
20
36.6323089
11
8.774291
21
37.7174898
0
LINE
8
DEFAULT_255_1_388
10
8.774291
20
37.7174898
11
8.9640396
21
37.7174898
0
LINE
8
DEFAULT_255_1_388
10
8.9640396
20
37.7174898
11
8.4761147
21
36.4019
0
LINE
8
DEFAULT_255_1_388
10
8.4761147
20
36.4019
11
8.3225088
21
36.4019
0
LINE
8
DEFAULT_255_1_388
10
8.3225088
20
36.4019
11
7.8354875
21
37.7174898
0
LINE
8
DEFAULT_255_1_388
10
7.8354875
20
37.7174898
11
8.0243325
21
37.7174898
0
LINE
8
DEFAULT_255_1_388
10
21.0373946
20
45.0378553
11
21.0373946
21
44.9547274
0
LINE
8
DEFAULT_255_1_388
10
19.9793206
20
44.9429811
11
19.9793206
21
45.0378553
0
LINE
8
DEFAULT_255_1_388
10
20.8648138
20
44.9420775
11
20.8648138
21
45.0396625
0
LINE
8
DEFAULT_255_1_388
10
20.1519014
20
45.0514088
11
20.1519014
21
44.9547274
0
ARC
8
DEFAULT_255_1_388
10
20.0651684
20
44.9502726
40
0.9722364
50
350.4878118
51
0.2625322
0
ARC
8
DEFAULT_255_1_388
10
20.3231644
20
44.9058994
40
0.7104556
50
336.0277991
51
350.5787241
0
ARC
8
DEFAULT_255_1_388
10
20.4744751
20
44.8375243
40
0.544417
50
319.887443
51
336.1331163
0
ARC
8
DEFAULT_255_1_388
10
20.5422563
20
44.7832733
40
0.4576311
50
302.4806296
51
319.6144102
0
ARC
8
DEFAULT_255_1_388
10
20.5293184
20
44.8082067
40
0.4856183
50
275.8196423
51
302.1885521
0
ARC
8
DEFAULT_255_1_388
10
20.5106046
20
44.9367466
40
0.6154183
50
269.9169897
51
276.339506
0
ARC
8
DEFAULT_255_1_388
10
20.5055646
20
44.859568
40
0.5382553
50
252.5221437
51
270.441579
0
ARC
8
DEFAULT_255_1_388
10
20.4893897
20
44.7989046
40
0.4755426
50
237.5349961
51
252.1858334
0
ARC
8
DEFAULT_255_1_388
10
20.4994273
20
44.811712
40
0.4917393
50
209.0632754
51
237.3492577
0
ARC
8
DEFAULT_255_1_388
10
20.5973599
20
44.8732104
40
0.6072464
50
205.118533
51
209.6465345
0
ARC
8
DEFAULT_255_1_388
10
20.6869601
20
44.9112174
40
0.7045164
50
188.7216633
51
204.8239753
0
ARC
8
DEFAULT_255_1_388
10
20.9116376
20
44.9490387
40
0.9323368
50
180.3722704
51
188.9253909
0
ARC
8
DEFAULT_255_1_388
10
20.9085938
20
45.0423416
40
0.929284
50
169.5253055
51
180.2766048
0
ARC
8
DEFAULT_255_1_388
10
20.6945737
20
45.0817024
40
0.7116745
50
155.8314601
51
169.5088611
0
ARC
8
DEFAULT_255_1_388
10
20.55052
20
45.1485312
40
0.5528904
50
139.6259579
51
156.0379072
0
ARC
8
DEFAULT_255_1_388
10
20.4841733
20
45.2019143
40
0.4677708
50
122.6414784
51
139.3431662
0
ARC
8
DEFAULT_255_1_388
10
20.4954988
20
45.1812787
40
0.4912586
50
93.0224537
51
122.4556091
0
ARC
8
DEFAULT_255_1_388
10
20.5076509
20
45.0726776
40
0.6003837
50
89.9756766
51
93.6340839
0
ARC
8
DEFAULT_255_1_388
10
20.5120107
20
45.1175879
40
0.5554884
50
73.7463329
51
90.4234008
0
ARC
8
DEFAULT_255_1_388
10
20.531758
20
45.1940772
40
0.4765353
50
57.663051
51
73.4516911
0
ARC
8
DEFAULT_255_1_388
10
20.5308618
20
45.1965108
40
0.4749629
50
29.1441355
51
57.4146687
0
ARC
8
DEFAULT_255_1_388
10
20.4256429
20
45.1308046
40
0.5988917
50
24.0985653
51
29.732054
0
ARC
8
DEFAULT_255_1_388
10
20.3094061
20
45.0826154
40
0.7246823
50
8.6654943
51
23.8241215
0
ARC
8
DEFAULT_255_1_388
10
20.0580479
20
45.0416037
40
0.9793537
50
359.7807044
51
8.8218476
0
ARC
8
DEFAULT_255_1_388
10
19.9290184
20
45.0444731
40
0.9358078
50
359.7054632
51
8.0359751
0
ARC
8
DEFAULT_255_1_388
10
20.2665235
20
45.0936252
40
0.5947474
50
7.8926278
51
20.2962188
0
ARC
8
DEFAULT_255_1_388
10
20.4496085
20
45.1611367
40
0.3996117
50
20.3231056
51
36.4990255
0
ARC
8
DEFAULT_255_1_388
10
20.5267383
20
45.2205399
40
0.3022818
50
36.1436715
51
85.6627846
0
ARC
8
DEFAULT_255_1_388
10
20.5084638
20
45.1035881
40
0.4203853
50
84.3845912
51
90.076054
0
ARC
8
DEFAULT_255_1_388
10
20.5036993
20
45.1778416
40
0.346157
50
89.3037228
51
109.9046209
0
ARC
8
DEFAULT_255_1_388
10
20.4932826
20
45.2208379
40
0.3022217
50
110.8229774
51
143.917961
0
ARC
8
DEFAULT_255_1_388
10
20.5983185
20
45.1406455
40
0.434348
50
143.5289166
51
163.2980252
0
ARC
8
DEFAULT_255_1_388
10
20.8129472
20
45.0731685
40
0.659321
50
163.0418884
51
174.3139873
0
ARC
8
DEFAULT_255_1_388
10
21.0834437
20
45.0419378
40
0.9315905
50
174.050934
51
179.4174954
0
ARC
8
DEFAULT_255_1_388
10
21.0266381
20
44.9500382
40
0.8747493
50
179.6928582
51
188.7908948
0
ARC
8
DEFAULT_255_1_388
10
20.7270181
20
44.9021086
40
0.5713262
50
188.6328449
51
202.5630732
0
ARC
8
DEFAULT_255_1_388
10
20.5859018
20
44.8454142
40
0.4192612
50
202.8078931
51
216.1195888
0
ARC
8
DEFAULT_255_1_388
10
20.4948535
20
44.7721479
40
0.3025752
50
215.0755613
51
264.6379773
0
ARC
8
DEFAULT_255_1_388
10
20.5091372
20
44.8656376
40
0.3970284
50
263.8464302
51
270.0830805
0
ARC
8
DEFAULT_255_1_388
10
20.5137917
20
44.8365808
40
0.3679937
50
269.3649295
51
287.5149684
0
ARC
8
DEFAULT_255_1_388
10
20.5338358
20
44.7637714
40
0.2925408
50
288.0629019
51
323.8115617
0
ARC
8
DEFAULT_255_1_388
10
20.4358334
20
44.8368754
40
0.4148018
50
323.6546541
51
342.6591359
0
ARC
8
DEFAULT_255_1_388
10
20.2072992
20
44.911228
40
0.6551163
50
342.4092446
51
353.6451501
0
ARC
8
DEFAULT_255_1_388
10
19.8887785
20
44.9508565
40
0.9760748
50
353.4027553
51
359.4846611
0
LINE
8
DEFAULT_255_1_388
10
22.1162505
20
44.4758382
11
22.1162505
21
44.3394
0
LINE
8
DEFAULT_255_1_388
10
22.1162505
20
44.3394
11
21.25425
21
44.3394
0
LINE
8
DEFAULT_255_1_388
10
21.25425
20
44.3394
11
21.25425
21
44.4595741
0
LINE
8
DEFAULT_255_1_388
10
21.25425
20
44.4595741
11
21.7096465
21
44.9655702
0
LINE
8
DEFAULT_255_1_388
10
21.3961097
20
45.2673607
11
21.2289502
21
45.2673607
0
LINE
8
DEFAULT_255_1_388
10
21.8081351
20
44.858046
11
21.4557449
21
44.4758382
0
LINE
8
DEFAULT_255_1_388
10
21.4557449
20
44.4758382
11
22.1162505
21
44.4758382
0
ARC
8
DEFAULT_255_1_388
10
20.1920525
20
46.3075983
40
2.0258655
50
318.5132526
51
320.7829045
0
ARC
8
DEFAULT_255_1_388
10
20.7868482
20
45.8234929
40
1.2589638
50
320.7372878
51
323.9739031
0
ARC
8
DEFAULT_255_1_388
10
21.2277413
20
45.5040554
40
0.7145141
50
323.8962701
51
328.64194
0
ARC
8
DEFAULT_255_1_388
10
21.4579671
20
45.3620545
40
0.4440242
50
328.8294576
51
331.7891185
0
ARC
8
DEFAULT_255_1_388
10
21.5701991
20
45.3041374
40
0.3177517
50
331.4254512
51
352.9365785
0
ARC
8
DEFAULT_255_1_388
10
21.5854991
20
45.300705
40
0.3021496
50
353.2257659
51
0.0166158
0
ARC
8
DEFAULT_255_1_388
10
21.6091752
20
45.3032894
40
0.2784847
50
359.486299
51
15.9343185
0
ARC
8
DEFAULT_255_1_388
10
21.6662018
20
45.3186269
40
0.2194403
50
16.1712913
51
43.5286088
0
ARC
8
DEFAULT_255_1_388
10
21.6748963
20
45.3273191
40
0.2071504
50
43.4417391
51
83.1661095
0
ARC
8
DEFAULT_255_1_388
10
21.6598124
20
45.2444316
40
0.2912888
50
82.160179
51
90.1505708
0
ARC
8
DEFAULT_255_1_388
10
21.6562606
20
45.1840279
40
0.3517025
50
89.5460741
51
102.5418361
0
ARC
8
DEFAULT_255_1_388
10
21.6289326
20
45.2999933
40
0.2325748
50
102.1738499
51
129.206123
0
ARC
8
DEFAULT_255_1_388
10
21.6200779
20
45.3139664
40
0.2161591
50
129.72865
51
135.753947
0
ARC
8
DEFAULT_255_1_388
10
21.6337261
20
45.3030728
40
0.2335433
50
136.1757367
51
166.3673339
0
ARC
8
DEFAULT_255_1_388
10
21.746995
20
45.2727148
40
0.3507873
50
165.9090694
51
178.8684636
0
ARC
8
DEFAULT_255_1_388
10
21.8445721
20
45.2674263
40
0.4484624
50
178.4391136
51
180.0083808
0
ARC
8
DEFAULT_255_1_388
10
21.6866423
20
45.2718197
40
0.4577138
50
163.2878482
51
180.5581842
0
ARC
8
DEFAULT_255_1_388
10
21.5964464
20
45.2966393
40
0.3641968
50
133.4540601
51
162.947111
0
ARC
8
DEFAULT_255_1_388
10
21.6165346
20
45.2752789
40
0.3935189
50
100.7869829
51
133.4382499
0
ARC
8
DEFAULT_255_1_388
10
21.6556591
20
45.1010399
40
0.5720313
50
89.660664
51
101.3702276
0
ARC
8
DEFAULT_255_1_388
10
21.66312
20
45.1079263
40
0.5651495
50
78.2172678
51
90.412935
0
ARC
8
DEFAULT_255_1_388
10
21.7030665
20
45.2906511
40
0.378122
50
55.9269121
51
78.4888449
0
ARC
8
DEFAULT_255_1_388
10
21.725138
20
45.3287187
40
0.3342379
50
47.929771
51
55.4049217
0
ARC
8
DEFAULT_255_1_388
10
21.7365911
20
45.3403618
40
0.3179217
50
4.334829
51
48.0560205
0
ARC
8
DEFAULT_255_1_388
10
21.6133713
20
45.3212487
40
0.442341
50
359.9251713
51
5.5971671
0
ARC
8
DEFAULT_255_1_388
10
21.6615867
20
45.3275728
40
0.3941854
50
337.8914027
51
358.9967534
0
ARC
8
DEFAULT_255_1_388
10
21.3563437
20
45.4453295
40
0.7213271
50
326.9132501
51
338.3508308
0
ARC
8
DEFAULT_255_1_388
10
20.9079549
20
45.7327105
40
1.2538973
50
319.6471833
51
327.0959558
0
ARC
8
DEFAULT_255_1_388
10
20.4766207
20
46.088505
40
1.8129975
50
317.2588228
51
319.9045804
0
LINE
8
DEFAULT_255_1_388
10
22.999033
20
45.6549898
11
22.999033
21
44.781243
0
LINE
8
DEFAULT_255_1_388
10
22.999033
20
44.781243
11
23.181553
21
44.781243
0
LINE
8
DEFAULT_255_1_388
10
23.181553
20
44.781243
11
23.181553
21
44.6448048
0
LINE
8
DEFAULT_255_1_388
10
23.181553
20
44.6448048
11
22.999033
21
44.6448048
0
LINE
8
DEFAULT_255_1_388
10
22.999033
20
44.6448048
11
22.999033
21
44.3394
0
LINE
8
DEFAULT_255_1_388
10
22.999033
20
44.3394
11
22.83097
21
44.3394
0
LINE
8
DEFAULT_255_1_388
10
22.83097
20
44.3394
11
22.83097
21
44.6448048
0
LINE
8
DEFAULT_255_1_388
10
22.83097
20
44.6448048
11
22.2319068
21
44.6448048
0
LINE
8
DEFAULT_255_1_388
10
22.2319068
20
44.6448048
11
22.2319068
21
44.7432933
0
LINE
8
DEFAULT_255_1_388
10
22.2319068
20
44.7432933
11
22.8210308
21
45.6549898
0
LINE
8
DEFAULT_255_1_388
10
22.8210308
20
45.6549898
11
22.999033
21
45.6549898
0
LINE
8
DEFAULT_255_1_388
10
22.8110916
20
45.3902455
11
22.4216553
21
44.781243
0
LINE
8
DEFAULT_255_1_388
10
22.4216553
20
44.781243
11
22.83097
21
44.781243
0
LINE
8
DEFAULT_255_1_388
10
22.83097
20
44.781243
11
22.83097
21
45.426388
0
LINE
8
DEFAULT_255_1_388
10
22.83097
20
45.426388
11
22.8110916
21
45.3902455
0
LINE
8
DEFAULT_255_1_388
10
23.4372618
20
45.6549898
11
23.8113375
21
44.5698089
0
LINE
8
DEFAULT_255_1_388
10
23.8113375
20
44.5698089
11
24.1872203
21
45.6549898
0
LINE
8
DEFAULT_255_1_388
10
24.1872203
20
45.6549898
11
24.3769688
21
45.6549898
0
LINE
8
DEFAULT_255_1_388
10
24.3769688
20
45.6549898
11
23.889044
21
44.3394
0
LINE
8
DEFAULT_255_1_388
10
23.889044
20
44.3394
11
23.735438
21
44.3394
0
LINE
8
DEFAULT_255_1_388
10
23.735438
20
44.3394
11
23.2484168
21
45.6549898
0
LINE
8
DEFAULT_255_1_388
10
23.2484168
20
45.6549898
11
23.4372618
21
45.6549898
0
LINE
8
DEFAULT_255_1_388
10
23.1198856
20
29.242369
11
23.1198856
21
29.0255135
0
LINE
8
DEFAULT_255_1_388
10
22.2895099
20
29.0029244
11
22.2895099
21
29.2261048
0
LINE
8
DEFAULT_255_1_388
10
22.9527262
20
28.9803353
11
22.9527262
21
29.2541153
0
LINE
8
DEFAULT_255_1_388
10
22.4566693
20
29.2667652
11
22.4566693
21
28.9993102
0
ARC
8
DEFAULT_255_1_388
10
21.742119
20
29.0200118
40
1.3777776
50
353.8440855
51
0.2287917
0
ARC
8
DEFAULT_255_1_388
10
22.2640208
20
28.9617414
40
0.852639
50
344.4934746
51
353.9763743
0
ARC
8
DEFAULT_255_1_388
10
22.6007015
20
28.8660191
40
0.5026273
50
329.2803599
51
344.7473406
0
ARC
8
DEFAULT_255_1_388
10
22.7122511
20
28.8048038
40
0.3754848
50
324.9361395
51
328.6153007
0
ARC
8
DEFAULT_255_1_388
10
22.7548161
20
28.7750586
40
0.3235566
50
280.5801797
51
324.9173226
0
ARC
8
DEFAULT_255_1_388
10
22.7096789
20
28.9630236
40
0.5167077
50
269.5979457
51
281.6732777
0
ARC
8
DEFAULT_255_1_388
10
22.7015693
20
28.9495113
40
0.5032026
50
256.6228565
51
270.5105488
0
ARC
8
DEFAULT_255_1_388
10
22.6563435
20
28.7753345
40
0.3233092
50
215.8618351
51
257.2787793
0
ARC
8
DEFAULT_255_1_388
10
22.7712142
20
28.8524106
40
0.4615831
50
197.9695203
51
215.2622745
0
ARC
8
DEFAULT_255_1_388
10
23.0507818
20
28.9467641
40
0.7566307
50
187.8816486
51
198.2346584
0
ARC
8
DEFAULT_255_1_388
10
23.4961056
20
29.0110453
40
1.2065653
50
180.8977266
51
188.0054894
0
ARC
8
DEFAULT_255_1_388
10
23.801127
20
29.02254
40
1.5117443
50
180.7434591
51
181.152202
0
ARC
8
DEFAULT_255_1_388
10
23.6336266
20
29.2315371
40
1.3441277
50
173.7674302
51
180.2315596
0
ARC
8
DEFAULT_255_1_388
10
23.1254135
20
29.2889779
40
0.8326847
50
164.3058537
51
173.9000553
0
ARC
8
DEFAULT_255_1_388
10
22.7978135
20
29.3833652
40
0.4917711
50
148.7922028
51
164.5682288
0
ARC
8
DEFAULT_255_1_388
10
22.6908872
20
29.4430457
40
0.3694204
50
144.5883979
51
148.1161588
0
ARC
8
DEFAULT_255_1_388
10
22.6521618
20
29.4700667
40
0.322202
50
101.6440149
51
144.5142619
0
ARC
8
DEFAULT_255_1_388
10
22.699981
20
29.2800337
40
0.5180451
50
89.528284
51
102.5820197
0
ARC
8
DEFAULT_255_1_388
10
22.7088802
20
29.2756376
40
0.5224441
50
77.0437914
51
90.508231
0
ARC
8
DEFAULT_255_1_388
10
22.7541055
20
29.4604272
40
0.3322297
50
48.2777708
51
77.4996087
0
ARC
8
DEFAULT_255_1_388
10
22.7622795
20
29.4749557
40
0.315966
50
36.3141586
51
47.6307332
0
ARC
8
DEFAULT_255_1_388
10
22.6645518
20
29.4091159
40
0.4337313
50
18.2931065
51
35.6770203
0
ARC
8
DEFAULT_255_1_388
10
22.3784358
20
29.3109107
40
0.7362203
50
8.0246996
51
18.5605636
0
ARC
8
DEFAULT_255_1_388
10
21.9100714
20
29.2417432
40
1.2096583
50
1.127539
51
8.1718423
0
ARC
8
DEFAULT_255_1_388
10
21.5451847
20
29.2274374
40
1.5747719
50
0.5432713
51
1.38669
0
ARC
8
DEFAULT_255_1_388
10
21.7509226
20
29.2581163
40
1.2018103
50
359.8092569
51
4.9408001
0
ARC
8
DEFAULT_255_1_388
10
22.2245807
20
29.30039
40
0.7262727
50
4.8364937
51
12.2906017
0
ARC
8
DEFAULT_255_1_388
10
22.5345272
20
29.3694485
40
0.4087324
50
12.0806994
51
23.8171225
0
ARC
8
DEFAULT_255_1_388
10
22.6665668
20
29.4253508
40
0.2653719
50
24.2874621
51
31.3934353
0
ARC
8
DEFAULT_255_1_388
10
22.7256104
20
29.4639822
40
0.1948607
50
30.7407708
51
82.4658033
0
ARC
8
DEFAULT_255_1_388
10
22.7053765
20
29.3646017
40
0.2961198
50
81.1057101
51
90.2187368
0
ARC
8
DEFAULT_255_1_388
10
22.7013577
20
29.3936421
40
0.2670929
50
89.380395
51
105.6763916
0
ARC
8
DEFAULT_255_1_388
10
22.6807299
20
29.468632
40
0.1893189
50
105.7980655
51
149.7387869
0
ARC
8
DEFAULT_255_1_388
10
22.8004439
20
29.3966719
40
0.3289892
50
149.4208441
51
163.628295
0
ARC
8
DEFAULT_255_1_388
10
23.0356668
20
29.3249345
40
0.5749004
50
163.3764549
51
172.141138
0
ARC
8
DEFAULT_255_1_388
10
23.406939
20
29.2717582
40
0.9499585
50
172.0258462
51
178.0705453
0
ARC
8
DEFAULT_255_1_388
10
23.7490943
20
29.2555682
40
1.2924734
50
177.8639301
51
179.5036263
0
ARC
8
DEFAULT_255_1_388
10
23.6271961
20
28.9952151
40
1.170534
50
179.7995545
51
185.246089
0
ARC
8
DEFAULT_255_1_388
10
23.1723554
20
28.9521404
40
0.7136613
50
185.1411911
51
193.0082205
0
ARC
8
DEFAULT_255_1_388
10
22.8749815
20
28.8818441
40
0.4080987
50
192.7897338
51
205.2507384
0
ARC
8
DEFAULT_255_1_388
10
22.7572025
20
28.8292538
40
0.2791522
50
205.8001921
51
211.2545876
0
ARC
8
DEFAULT_255_1_388
10
22.6983564
20
28.7898132
40
0.2084074
50
210.3789935
51
238.4007996
0
ARC
8
DEFAULT_255_1_388
10
22.696165
20
28.7950786
40
0.2117943
50
239.6521916
51
265.9793852
0
ARC
8
DEFAULT_255_1_388
10
22.7057499
20
28.8707358
40
0.2879689
50
265.1324455
51
270.0603288
0
ARC
8
DEFAULT_255_1_388
10
22.7089876
20
28.8342418
40
0.2514919
50
269.3314378
51
287.2180039
0
ARC
8
DEFAULT_255_1_388
10
22.7244958
20
28.7776291
40
0.1928357
50
287.7957942
51
329.0808983
0
ARC
8
DEFAULT_255_1_388
10
22.6167715
20
28.8448651
40
0.319808
50
328.6635261
51
343.3325043
0
ARC
8
DEFAULT_255_1_388
10
22.3723174
20
28.9210195
40
0.5758408
50
343.0498092
51
351.9392499
0
ARC
8
DEFAULT_255_1_388
10
21.9822496
20
28.9785205
40
0.9701202
50
351.8071632
51
357.7957897
0
ARC
8
DEFAULT_255_1_388
10
21.6187973
20
28.9973724
40
1.3340376
50
357.5870923
51
359.2682493
0
LINE
8
DEFAULT_255_1_388
10
23.4388439
20
29.7799898
11
23.8129196
21
28.6948089
0
LINE
8
DEFAULT_255_1_388
10
23.8129196
20
28.6948089
11
24.1888024
21
29.7799898
0
LINE
8
DEFAULT_255_1_388
10
24.1888024
20
29.7799898
11
24.3785509
21
29.7799898
0
LINE
8
DEFAULT_255_1_388
10
24.3785509
20
29.7799898
11
23.8906261
21
28.4644
0
LINE
8
DEFAULT_255_1_388
10
23.8906261
20
28.4644
11
23.7370202
21
28.4644
0
LINE
8
DEFAULT_255_1_388
10
23.7370202
20
28.4644
11
23.2499989
21
29.7799898
0
LINE
8
DEFAULT_255_1_388
10
23.2499989
20
29.7799898
11
23.4388439
21
29.7799898
0
LINE
8
DEFAULT_255_1_388
10
22.0767946
20
37.1003553
11
22.0767946
21
37.0172274
0
LINE
8
DEFAULT_255_1_388
10
21.0187206
20
37.0054811
11
21.0187206
21
37.1003553
0
LINE
8
DEFAULT_255_1_388
10
21.9042138
20
37.0045775
11
21.9042138
21
37.1021625
0
LINE
8
DEFAULT_255_1_388
10
21.1913014
20
37.1139088
11
21.1913014
21
37.0172274
0
ARC
8
DEFAULT_255_1_388
10
21.1045684
20
37.0127726
40
0.9722364
50
350.4878118
51
0.2625322
0
ARC
8
DEFAULT_255_1_388
10
21.3625644
20
36.9683994
40
0.7104556
50
336.0277991
51
350.5787241
0
ARC
8
DEFAULT_255_1_388
10
21.5138751
20
36.9000243
40
0.544417
50
319.887443
51
336.1331163
0
ARC
8
DEFAULT_255_1_388
10
21.5816563
20
36.8457733
40
0.4576311
50
302.4806296
51
319.6144102
0
ARC
8
DEFAULT_255_1_388
10
21.5687184
20
36.8707067
40
0.4856183
50
275.8196423
51
302.1885521
0
ARC
8
DEFAULT_255_1_388
10
21.5500046
20
36.9992466
40
0.6154183
50
269.9169897
51
276.339506
0
ARC
8
DEFAULT_255_1_388
10
21.5449646
20
36.922068
40
0.5382553
50
252.5221437
51
270.441579
0
ARC
8
DEFAULT_255_1_388
10
21.5287897
20
36.8614046
40
0.4755426
50
237.5349961
51
252.1858334
0
ARC
8
DEFAULT_255_1_388
10
21.5388273
20
36.874212
40
0.4917393
50
209.0632754
51
237.3492577
0
ARC
8
DEFAULT_255_1_388
10
21.6367599
20
36.9357104
40
0.6072464
50
205.118533
51
209.6465345
0
ARC
8
DEFAULT_255_1_388
10
21.7263601
20
36.9737174
40
0.7045164
50
188.7216633
51
204.8239753
0
ARC
8
DEFAULT_255_1_388
10
21.9510376
20
37.0115387
40
0.9323368
50
180.3722704
51
188.9253909
0
ARC
8
DEFAULT_255_1_388
10
21.9479938
20
37.1048416
40
0.929284
50
169.5253055
51
180.2766048
0
ARC
8
DEFAULT_255_1_388
10
21.7339737
20
37.1442024
40
0.7116745
50
155.8314601
51
169.5088611
0
ARC
8
DEFAULT_255_1_388
10
21.58992
20
37.2110312
40
0.5528904
50
139.6259579
51
156.0379072
0
ARC
8
DEFAULT_255_1_388
10
21.5235733
20
37.2644143
40
0.4677708
50
122.6414784
51
139.3431662
0
ARC
8
DEFAULT_255_1_388
10
21.5348988
20
37.2437787
40
0.4912586
50
93.0224537
51
122.4556091
0
ARC
8
DEFAULT_255_1_388
10
21.5470509
20
37.1351776
40
0.6003837
50
89.9756766
51
93.6340839
0
ARC
8
DEFAULT_255_1_388
10
21.5514107
20
37.1800879
40
0.5554884
50
73.7463329
51
90.4234008
0
ARC
8
DEFAULT_255_1_388
10
21.571158
20
37.2565772
40
0.4765353
50
57.663051
51
73.4516911
0
ARC
8
DEFAULT_255_1_388
10
21.5702618
20
37.2590108
40
0.4749629
50
29.1441355
51
57.4146687
0
ARC
8
DEFAULT_255_1_388
10
21.4650429
20
37.1933046
40
0.5988917
50
24.0985653
51
29.732054
0
ARC
8
DEFAULT_255_1_388
10
21.3488061
20
37.1451154
40
0.7246823
50
8.6654943
51
23.8241215
0
ARC
8
DEFAULT_255_1_388
10
21.0974479
20
37.1041037
40
0.9793537
50
359.7807044
51
8.8218476
0
ARC
8
DEFAULT_255_1_388
10
20.9684184
20
37.1069731
40
0.9358078
50
359.7054632
51
8.0359751
0
ARC
8
DEFAULT_255_1_388
10
21.3059235
20
37.1561252
40
0.5947474
50
7.8926278
51
20.2962188
0
ARC
8
DEFAULT_255_1_388
10
21.4890085
20
37.2236367
40
0.3996117
50
20.3231056
51
36.4990255
0
ARC
8
DEFAULT_255_1_388
10
21.5661383
20
37.2830399
40
0.3022818
50
36.1436715
51
85.6627846
0
ARC
8
DEFAULT_255_1_388
10
21.5478638
20
37.1660881
40
0.4203853
50
84.3845912
51
90.076054
0
ARC
8
DEFAULT_255_1_388
10
21.5430993
20
37.2403416
40
0.346157
50
89.3037228
51
109.9046209
0
ARC
8
DEFAULT_255_1_388
10
21.5326826
20
37.2833379
40
0.3022217
50
110.8229774
51
143.917961
0
ARC
8
DEFAULT_255_1_388
10
21.6377185
20
37.2031455
40
0.434348
50
143.5289166
51
163.2980252
0
ARC
8
DEFAULT_255_1_388
10
21.8523472
20
37.1356685
40
0.659321
50
163.0418884
51
174.3139873
0
ARC
8
DEFAULT_255_1_388
10
22.1228437
20
37.1044378
40
0.9315905
50
174.050934
51
179.4174954
0
ARC
8
DEFAULT_255_1_388
10
22.0660381
20
37.0125382
40
0.8747493
50
179.6928582
51
188.7908948
0
ARC
8
DEFAULT_255_1_388
10
21.7664181
20
36.9646086
40
0.5713262
50
188.6328449
51
202.5630732
0
ARC
8
DEFAULT_255_1_388
10
21.6253018
20
36.9079142
40
0.4192612
50
202.8078931
51
216.1195888
0
ARC
8
DEFAULT_255_1_388
10
21.5342535
20
36.8346479
40
0.3025752
50
215.0755613
51
264.6379773
0
ARC
8
DEFAULT_255_1_388
10
21.5485372
20
36.9281376
40
0.3970284
50
263.8464302
51
270.0830805
0
ARC
8
DEFAULT_255_1_388
10
21.5531917
20
36.8990808
40
0.3679937
50
269.3649295
51
287.5149684
0
ARC
8
DEFAULT_255_1_388
10
21.5732358
20
36.8262714
40
0.2925408
50
288.0629019
51
323.8115617
0
ARC
8
DEFAULT_255_1_388
10
21.4752334
20
36.8993754
40
0.4148018
50
323.6546541
51
342.6591359
0
ARC
8
DEFAULT_255_1_388
10
21.2466992
20
36.973728
40
0.6551163
50
342.4092446
51
353.6451501
0
ARC
8
DEFAULT_255_1_388
10
20.9281785
20
37.0133565
40
0.9760748
50
353.4027553
51
359.4846611
0
LINE
8
DEFAULT_255_1_388
10
23.1186044
20
37.179869
11
23.1186044
21
36.9630135
0
LINE
8
DEFAULT_255_1_388
10
22.2882287
20
36.9404244
11
22.2882287
21
37.1636048
0
LINE
8
DEFAULT_255_1_388
10
22.951445
20
36.9178353
11
22.951445
21
37.1916153
0
LINE
8
DEFAULT_255_1_388
10
22.4553881
20
37.2042652
11
22.4553881
21
36.9368102
0
ARC
8
DEFAULT_255_1_388
10
21.7408378
20
36.9575118
40
1.3777776
50
353.8440855
51
0.2287917
0
ARC
8
DEFAULT_255_1_388
10
22.2627395
20
36.8992414
40
0.852639
50
344.4934746
51
353.9763743
0
ARC
8
DEFAULT_255_1_388
10
22.5994202
20
36.8035191
40
0.5026273
50
329.2803599
51
344.7473406
0
ARC
8
DEFAULT_255_1_388
10
22.7109698
20
36.7423038
40
0.3754848
50
324.9361395
51
328.6153007
0
ARC
8
DEFAULT_255_1_388
10
22.7535348
20
36.7125586
40
0.3235566
50
280.5801797
51
324.9173226
0
ARC
8
DEFAULT_255_1_388
10
22.7083977
20
36.9005236
40
0.5167077
50
269.5979457
51
281.6732777
0
ARC
8
DEFAULT_255_1_388
10
22.700288
20
36.8870113
40
0.5032026
50
256.6228565
51
270.5105488
0
ARC
8
DEFAULT_255_1_388
10
22.6550623
20
36.7128345
40
0.3233092
50
215.8618351
51
257.2787793
0
ARC
8
DEFAULT_255_1_388
10
22.769933
20
36.7899106
40
0.4615831
50
197.9695203
51
215.2622745
0
ARC
8
DEFAULT_255_1_388
10
23.0495006
20
36.8842641
40
0.7566307
50
187.8816486
51
198.2346584
0
ARC
8
DEFAULT_255_1_388
10
23.4948244
20
36.9485453
40
1.2065653
50
180.8977266
51
188.0054894
0
ARC
8
DEFAULT_255_1_388
10
23.7998458
20
36.96004
40
1.5117443
50
180.7434591
51
181.152202
0
ARC
8
DEFAULT_255_1_388
10
23.6323453
20
37.1690371
40
1.3441277
50
173.7674302
51
180.2315596
0
ARC
8
DEFAULT_255_1_388
10
23.1241322
20
37.2264779
40
0.8326847
50
164.3058537
51
173.9000553
0
ARC
8
DEFAULT_255_1_388
10
22.7965322
20
37.3208652
40
0.4917711
50
148.7922028
51
164.5682288
0
ARC
8
DEFAULT_255_1_388
10
22.689606
20
37.3805457
40
0.3694204
50
144.5883979
51
148.1161588
0
ARC
8
DEFAULT_255_1_388
10
22.6508805
20
37.4075667
40
0.322202
50
101.6440149
51
144.5142619
0
ARC
8
DEFAULT_255_1_388
10
22.6986997
20
37.2175337
40
0.5180451
50
89.528284
51
102.5820197
0
ARC
8
DEFAULT_255_1_388
10
22.7075989
20
37.2131376
40
0.5224441
50
77.0437914
51
90.508231
0
ARC
8
DEFAULT_255_1_388
10
22.7528243
20
37.3979272
40
0.3322297
50
48.2777708
51
77.4996087
0
ARC
8
DEFAULT_255_1_388
10
22.7609983
20
37.4124557
40
0.315966
50
36.3141586
51
47.6307332
0
ARC
8
DEFAULT_255_1_388
10
22.6632705
20
37.3466159
40
0.4337313
50
18.2931065
51
35.6770203
0
ARC
8
DEFAULT_255_1_388
10
22.3771546
20
37.2484107
40
0.7362203
50
8.0246996
51
18.5605636
0
ARC
8
DEFAULT_255_1_388
10
21.9087901
20
37.1792432
40
1.2096583
50
1.127539
51
8.1718423
0
ARC
8
DEFAULT_255_1_388
10
21.5439035
20
37.1649374
40
1.5747719
50
0.5432713
51
1.38669
0
ARC
8
DEFAULT_255_1_388
10
21.7496414
20
37.1956163
40
1.2018103
50
359.8092569
51
4.9408001
0
ARC
8
DEFAULT_255_1_388
10
22.2232995
20
37.23789
40
0.7262727
50
4.8364937
51
12.2906017
0
ARC
8
DEFAULT_255_1_388
10
22.533246
20
37.3069485
40
0.4087324
50
12.0806994
51
23.8171225
0
ARC
8
DEFAULT_255_1_388
10
22.6652856
20
37.3628508
40
0.2653719
50
24.2874621
51
31.3934353
0
ARC
8
DEFAULT_255_1_388
10
22.7243291
20
37.4014822
40
0.1948607
50
30.7407708
51
82.4658033
0
ARC
8
DEFAULT_255_1_388
10
22.7040952
20
37.3021017
40
0.2961198
50
81.1057101
51
90.2187368
0
ARC
8
DEFAULT_255_1_388
10
22.7000764
20
37.3311421
40
0.2670929
50
89.380395
51
105.6763916
0
ARC
8
DEFAULT_255_1_388
10
22.6794486
20
37.406132
40
0.1893189
50
105.7980655
51
149.7387869
0
ARC
8
DEFAULT_255_1_388
10
22.7991626
20
37.3341719
40
0.3289892
50
149.4208441
51
163.628295
0
ARC
8
DEFAULT_255_1_388
10
23.0343856
20
37.2624345
40
0.5749004
50
163.3764549
51
172.141138
0
ARC
8
DEFAULT_255_1_388
10
23.4056577
20
37.2092582
40
0.9499585
50
172.0258462
51
178.0705453
0
ARC
8
DEFAULT_255_1_388
10
23.747813
20
37.1930682
40
1.2924734
50
177.8639301
51
179.5036263
0
ARC
8
DEFAULT_255_1_388
10
23.6259149
20
36.9327151
40
1.170534
50
179.7995545
51
185.246089
0
ARC
8
DEFAULT_255_1_388
10
23.1710742
20
36.8896404
40
0.7136613
50
185.1411911
51
193.0082205
0
ARC
8
DEFAULT_255_1_388
10
22.8737003
20
36.8193441
40
0.4080987
50
192.7897338
51
205.2507384
0
ARC
8
DEFAULT_255_1_388
10
22.7559213
20
36.7667538
40
0.2791522
50
205.8001921
51
211.2545876
0
ARC
8
DEFAULT_255_1_388
10
22.6970752
20
36.7273132
40
0.2084074
50
210.3789935
51
238.4007996
0
ARC
8
DEFAULT_255_1_388
10
22.6948838
20
36.7325786
40
0.2117943
50
239.6521916
51
265.9793852
0
ARC
8
DEFAULT_255_1_388
10
22.7044687
20
36.8082358
40
0.2879689
50
265.1324455
51
270.0603288
0
ARC
8
DEFAULT_255_1_388
10
22.7077064
20
36.7717418
40
0.2514919
50
269.3314378
51
287.2180039
0
ARC
8
DEFAULT_255_1_388
10
22.7232146
20
36.7151291
40
0.1928357
50
287.7957942
51
329.0808983
0
ARC
8
DEFAULT_255_1_388
10
22.6154903
20
36.7823651
40
0.319808
50
328.6635261
51
343.3325043
0
ARC
8
DEFAULT_255_1_388
10
22.3710362
20
36.8585195
40
0.5758408
50
343.0498092
51
351.9392499
0
ARC
8
DEFAULT_255_1_388
10
21.9809683
20
36.9160205
40
0.9701202
50
351.8071632
51
357.7957897
0
ARC
8
DEFAULT_255_1_388
10
21.617516
20
36.9348724
40
1.3340376
50
357.5870923
51
359.2682493
0
LINE
8
DEFAULT_255_1_388
10
23.4375626
20
37.7174898
11
23.8116383
21
36.6323089
0
LINE
8
DEFAULT_255_1_388
10
23.8116383
20
36.6323089
11
24.1875211
21
37.7174898
0
LINE
8
DEFAULT_255_1_388
10
24.1875211
20
37.7174898
11
24.3772697
21
37.7174898
0
LINE
8
DEFAULT_255_1_388
10
24.3772697
20
37.7174898
11
23.8893449
21
36.4019
0
LINE
8
DEFAULT_255_1_388
10
23.8893449
20
36.4019
11
23.7357389
21
36.4019
0
LINE
8
DEFAULT_255_1_388
10
23.7357389
20
36.4019
11
23.2487177
21
37.7174898
0
LINE
8
DEFAULT_255_1_388
10
23.2487177
20
37.7174898
11
23.4375626
21
37.7174898
0
ENDSEC
0
EOF