0
SECTION
2
HEADER
9
$MEASUREMENT
70
1
0
ENDSEC
0
SECTION
2
TABLES
0
TABLE
2
LTYPE
0
LTYPE
72
65
70
64
2
CONTINUOUS
3
______
73
0
40
0
0
ENDTAB
0
TABLE
2
LAYER
0
LAYER
2
DEFAULT_255_2_778
70
0
62
255
6
CONTINUOUS
0
LAYER
2
DEFAULT_255_1_234
70
0
62
255
6
CONTINUOUS
0
ENDTAB
0
ENDSEC
0
SECTION
2
ENTITIES
0
ARC
8
DEFAULT_255_2_778
10
3.5700693
20
36.1176536
40
0.7914215
50
129.1312896
51
180.1450914
0
ARC
8
DEFAULT_255_2_778
10
3.5703345
20
36.1181407
40
0.7912112
50
89.854026
51
129.1684493
0
ARC
8
DEFAULT_255_2_778
10
25.7993937
20
36.1178272
40
0.7915249
50
39.4792447
51
90.147911
0
ARC
8
DEFAULT_255_2_778
10
25.7999935
20
36.1176739
40
0.7911595
50
359.8533901
51
39.5154338
0
ARC
8
DEFAULT_255_2_778
10
25.7996693
20
-1.9863987
40
0.7914836
50
309.4761667
51
0.1482649
0
ARC
8
DEFAULT_255_2_778
10
25.799398
20
-1.9868298
40
0.7913235
50
269.8517415
51
309.511178
0
ARC
8
DEFAULT_255_2_778
10
3.570342
20
-1.9867716
40
0.7913815
50
219.1282118
51
270.1454017
0
ARC
8
DEFAULT_255_2_778
10
3.5700247
20
-1.9863891
40
0.7913769
50
179.8524075
51
219.1641908
0
LINE
8
DEFAULT_255_2_778
10
3.5723503
20
36.9093494
11
25.7973503
21
36.9093494
0
LINE
8
DEFAULT_255_2_778
10
26.5911503
20
36.1156494
11
26.5911503
21
-1.9843506
0
LINE
8
DEFAULT_255_2_778
10
25.7973503
20
-2.7781506
11
3.5723503
21
-2.7781506
0
LINE
8
DEFAULT_255_2_778
10
2.7786503
20
-1.9843506
11
2.7786503
21
36.1156494
0
LINE
8
DEFAULT_255_1_234
10
8.946785
20
-0.0087609
11
8.946785
21
-0.1348592
0
LINE
8
DEFAULT_255_1_234
10
8.946785
20
-0.1348592
11
8.4560458
21
-0.1348592
0
LINE
8
DEFAULT_255_1_234
10
8.4560458
20
-0.1348592
11
8.4560458
21
-0.6513
0
LINE
8
DEFAULT_255_1_234
10
8.4560458
20
-0.6513
11
8.3018364
21
-0.6513
0
LINE
8
DEFAULT_255_1_234
10
8.3018364
20
-0.6513
11
8.3018364
21
0.5181211
0
LINE
8
DEFAULT_255_1_234
10
8.3018364
20
0.5181211
11
9.0262992
21
0.5181211
0
LINE
8
DEFAULT_255_1_234
10
9.0262992
20
0.5181211
11
9.0262992
21
0.3912196
0
LINE
8
DEFAULT_255_1_234
10
9.0262992
20
0.3912196
11
8.4560458
21
0.3912196
0
LINE
8
DEFAULT_255_1_234
10
8.4560458
20
0.3912196
11
8.4560458
21
-0.0087609
0
LINE
8
DEFAULT_255_1_234
10
8.4560458
20
-0.0087609
11
8.946785
21
-0.0087609
0
LINE
8
DEFAULT_255_1_234
10
9.3106227
20
0.5181211
11
9.5925367
21
0.0699501
0
LINE
8
DEFAULT_255_1_234
10
9.5925367
20
0.0699501
11
9.8728444
21
0.5181211
0
LINE
8
DEFAULT_255_1_234
10
9.8728444
20
0.5181211
11
10.0543617
21
0.5181211
0
LINE
8
DEFAULT_255_1_234
10
10.0543617
20
0.5181211
11
9.6849017
21
-0.0617704
0
LINE
8
DEFAULT_255_1_234
10
9.6849017
20
-0.0617704
11
10.0631966
21
-0.6513
0
LINE
8
DEFAULT_255_1_234
10
10.0631966
20
-0.6513
11
9.8800729
21
-0.6513
0
LINE
8
DEFAULT_255_1_234
10
9.8800729
20
-0.6513
11
9.5925367
21
-0.1950973
0
LINE
8
DEFAULT_255_1_234
10
9.5925367
20
-0.1950973
11
9.3033941
21
-0.6513
0
LINE
8
DEFAULT_255_1_234
10
9.3033941
20
-0.6513
11
9.1210737
21
-0.6513
0
LINE
8
DEFAULT_255_1_234
10
9.1210737
20
-0.6513
11
9.5001717
21
-0.0617704
0
LINE
8
DEFAULT_255_1_234
10
9.5001717
20
-0.0617704
11
9.1299086
21
0.5181211
0
LINE
8
DEFAULT_255_1_234
10
9.1299086
20
0.5181211
11
9.3106227
21
0.5181211
0
LINE
8
DEFAULT_255_1_234
10
10.4198058
20
-0.1155831
11
10.4198058
21
0.0056962
0
LINE
8
DEFAULT_255_1_234
10
10.4198058
20
0.0056962
11
10.5314469
21
0.0056962
0
LINE
8
DEFAULT_255_1_234
10
10.3410947
20
0.2113087
11
10.1925076
21
0.2113087
0
LINE
8
DEFAULT_255_1_234
10
10.1820663
20
-0.3428812
11
10.3314566
21
-0.3428812
0
LINE
8
DEFAULT_255_1_234
10
10.5314469
20
-0.1155831
11
10.4198058
21
-0.1155831
0
ARC
8
DEFAULT_255_1_234
10
10.5285336
20
0.3449713
40
0.3392876
50
270.4919872
51
281.8951556
0
ARC
8
DEFAULT_255_1_234
10
10.5526597
20
0.2347702
40
0.2264817
50
281.6691735
51
301.2943132
0
ARC
8
DEFAULT_255_1_234
10
10.5696808
20
0.2036304
40
0.1910381
50
301.7833094
51
311.7545298
0
ARC
8
DEFAULT_255_1_234
10
10.5788383
20
0.1934748
40
0.1773635
50
311.7323931
51
354.2802411
0
ARC
8
DEFAULT_255_1_234
10
10.5062009
20
0.2059722
40
0.2509385
50
353.0937916
51
0.1181479
0
ARC
8
DEFAULT_255_1_234
10
10.4600793
20
0.2107386
40
0.2970898
50
359.1805295
51
15.0453146
0
ARC
8
DEFAULT_255_1_234
10
10.594663
20
0.2499992
40
0.1569564
50
13.9577229
51
77.6713066
0
ARC
8
DEFAULT_255_1_234
10
10.556016
20
0.1114949
40
0.3006298
50
76.1116566
51
90.7026153
0
ARC
8
DEFAULT_255_1_234
10
10.5500998
20
0.1388545
40
0.2732568
50
89.5324876
51
103.531937
0
ARC
8
DEFAULT_255_1_234
10
10.5300442
20
0.2187884
40
0.1908508
50
103.2931773
51
133.5619022
0
ARC
8
DEFAULT_255_1_234
10
10.525593
20
0.2247375
40
0.1834746
50
133.8349307
51
173.5344437
0
ARC
8
DEFAULT_255_1_234
10
10.5978973
20
0.2119213
40
0.2568033
50
172.5096846
51
180.1366907
0
ARC
8
DEFAULT_255_1_234
10
10.5027867
20
0.2153622
40
0.3103056
50
155.3484492
51
180.7484736
0
ARC
8
DEFAULT_255_1_234
10
10.4978956
20
0.2124846
40
0.3070957
50
131.5744599
51
154.4798489
0
ARC
8
DEFAULT_255_1_234
10
10.5292104
20
0.180831
40
0.3515643
50
96.9875458
51
131.9690667
0
ARC
8
DEFAULT_255_1_234
10
10.5511584
20
0.0562636
40
0.4779224
50
89.8596053
51
97.7825159
0
ARC
8
DEFAULT_255_1_234
10
10.5559647
20
0.0300616
40
0.5041361
50
78.3655447
51
90.4131539
0
ARC
8
DEFAULT_255_1_234
10
10.5917565
20
0.1959887
40
0.3344039
50
56.6229102
51
78.638727
0
ARC
8
DEFAULT_255_1_234
10
10.6132508
20
0.2335805
40
0.2912001
50
47.0253525
51
56.0854072
0
ARC
8
DEFAULT_255_1_234
10
10.6152288
20
0.2375223
40
0.2869704
50
10.9208013
51
46.7778124
0
ARC
8
DEFAULT_255_1_234
10
10.4788355
20
0.2059857
40
0.426899
50
359.6364486
51
11.6087304
0
ARC
8
DEFAULT_255_1_234
10
10.6623199
20
0.2044752
40
0.243409
50
332.3549906
51
359.7179418
0
ARC
8
DEFAULT_255_1_234
10
10.59728
20
0.2353142
40
0.3153459
50
325.2333722
51
332.8745602
0
ARC
8
DEFAULT_255_1_234
10
10.6125424
20
0.2246828
40
0.2967456
50
292.9802137
51
325.2392345
0
ARC
8
DEFAULT_255_1_234
10
10.5850798
20
0.2780863
40
0.3566604
50
292.5402179
51
293.6924929
0
ARC
8
DEFAULT_255_1_234
10
10.6243394
20
-0.3673909
40
0.3307468
50
57.6435486
51
72.8625112
0
ARC
8
DEFAULT_255_1_234
10
10.6597894
20
-0.3099451
40
0.2632492
50
36.7248896
51
57.4697979
0
ARC
8
DEFAULT_255_1_234
10
10.6586526
20
-0.308678
40
0.2634081
50
8.0545065
51
36.356114
0
ARC
8
DEFAULT_255_1_234
10
10.5723712
20
-0.3241826
40
0.3510261
50
359.8320645
51
8.5869982
0
ARC
8
DEFAULT_255_1_234
10
10.5348488
20
-0.3289899
40
0.3885653
50
343.9829931
51
0.5571613
0
ARC
8
DEFAULT_255_1_234
10
10.6234685
20
-0.3532562
40
0.2966924
50
311.6359546
51
343.7651759
0
ARC
8
DEFAULT_255_1_234
10
10.5856254
20
-0.3105898
40
0.3537231
50
279.7829875
51
311.6255694
0
ARC
8
DEFAULT_255_1_234
10
10.555503
20
-0.166872
40
0.5004971
50
269.7286406
51
280.3856417
0
ARC
8
DEFAULT_255_1_234
10
10.5493103
20
-0.1710004
40
0.4963778
50
256.6828919
51
270.4412052
0
ARC
8
DEFAULT_255_1_234
10
10.5154399
20
-0.3094606
40
0.3538406
50
229.4223008
51
256.8556159
0
ARC
8
DEFAULT_255_1_234
10
10.4739792
20
-0.3561264
40
0.2914296
50
181.818294
51
229.6455059
0
ARC
8
DEFAULT_255_1_234
10
10.5779748
20
-0.3430504
40
0.3959084
50
179.9755256
51
183.2323064
0
ARC
8
DEFAULT_255_1_234
10
10.5607494
20
-0.3450963
40
0.2293034
50
179.4465117
51
196.2869258
0
ARC
8
DEFAULT_255_1_234
10
10.5119902
20
-0.3584349
40
0.1787621
50
196.5661473
51
227.705904
0
ARC
8
DEFAULT_255_1_234
10
10.5283996
20
-0.3400845
40
0.2033784
50
227.7652068
51
257.8762805
0
ARC
8
DEFAULT_255_1_234
10
10.5508967
20
-0.2457844
40
0.3003081
50
257.4584385
51
270.426602
0
ARC
8
DEFAULT_255_1_234
10
10.5554533
20
-0.2168004
40
0.329292
50
269.5962073
51
280.8789248
0
ARC
8
DEFAULT_255_1_234
10
10.5784062
20
-0.3314315
40
0.2123908
50
280.6346389
51
299.8595945
0
ARC
8
DEFAULT_255_1_234
10
10.5974968
20
-0.3676788
40
0.171457
50
300.3576302
51
314.5517981
0
ARC
8
DEFAULT_255_1_234
10
10.5892028
20
-0.3616081
40
0.1816095
50
315.0728369
51
345.0431014
0
ARC
8
DEFAULT_255_1_234
10
10.4968843
20
-0.3347159
40
0.2777492
50
344.5986631
51
357.9269593
0
ARC
8
DEFAULT_255_1_234
10
10.4073169
20
-0.3285724
40
0.3674917
50
357.4748886
51
0.0231117
0
ARC
8
DEFAULT_255_1_234
10
10.5096278
20
-0.3261321
40
0.2651907
50
359.5047933
51
13.4239635
0
ARC
8
DEFAULT_255_1_234
10
10.5962922
20
-0.3039522
40
0.1757509
50
12.9498199
51
48.7551375
0
ARC
8
DEFAULT_255_1_234
10
10.5780656
20
-0.32886
40
0.2065134
50
49.5088623
51
72.1836453
0
ARC
8
DEFAULT_255_1_234
10
10.5422808
20
-0.4350709
40
0.3185836
50
71.9010081
51
84.3554254
0
ARC
8
DEFAULT_255_1_234
10
10.526144
20
-0.5711674
40
0.4556151
50
84.0193428
51
89.333121
0
LINE
8
DEFAULT_255_1_234
10
11.8341949
20
0.5181211
11
11.9892074
21
0.5181211
0
LINE
8
DEFAULT_255_1_234
10
11.9892074
20
0.5181211
11
11.9892074
21
-0.277021
0
LINE
8
DEFAULT_255_1_234
10
11.6052903
20
-0.6657571
11
11.5643285
21
-0.6673635
0
LINE
8
DEFAULT_255_1_234
10
11.1426622
20
-0.2786273
11
11.1426622
21
0.5181211
0
LINE
8
DEFAULT_255_1_234
10
11.1426622
20
0.5181211
11
11.2952652
21
0.5181211
0
LINE
8
DEFAULT_255_1_234
10
11.2952652
20
0.5181211
11
11.2952652
21
-0.2738083
0
LINE
8
DEFAULT_255_1_234
10
11.8341949
20
-0.2746115
11
11.8341949
21
0.5181211
0
ARC
8
DEFAULT_255_1_234
10
11.5538973
20
-0.2790072
40
0.4353147
50
343.0898354
51
0.2614217
0
ARC
8
DEFAULT_255_1_234
10
11.6367374
20
-0.3021163
40
0.3493402
50
315.3345598
51
342.7641223
0
ARC
8
DEFAULT_255_1_234
10
11.6143823
20
-0.2789318
40
0.3815385
50
284.6606969
51
315.2182466
0
ARC
8
DEFAULT_255_1_234
10
11.5688536
20
-0.1243245
40
0.5426573
50
273.8500273
51
285.1797701
0
ARC
8
DEFAULT_255_1_234
10
11.5600586
20
-0.0901525
40
0.5772268
50
257.6317484
51
270.4238298
0
ARC
8
DEFAULT_255_1_234
10
11.5175784
20
-0.2722802
40
0.3902347
50
230.6087562
51
257.9964012
0
ARC
8
DEFAULT_255_1_234
10
11.5043786
20
-0.2929198
40
0.3659186
50
227.7440991
51
230.1551448
0
ARC
8
DEFAULT_255_1_234
10
11.4909618
20
-0.3090529
40
0.3449568
50
189.2524587
51
227.5916061
0
ARC
8
DEFAULT_255_1_234
10
11.6431304
20
-0.2762987
40
0.5004737
50
180.2665968
51
190.1525252
0
ARC
8
DEFAULT_255_1_234
10
11.6653324
20
-0.2766082
40
0.3700778
50
179.5665184
51
191.9952995
0
ARC
8
DEFAULT_255_1_234
10
11.5425431
20
-0.3039957
40
0.2442808
50
191.6974072
51
215.1404042
0
ARC
8
DEFAULT_255_1_234
10
11.5187345
20
-0.3181892
40
0.2166522
50
215.6950207
51
224.8513522
0
ARC
8
DEFAULT_255_1_234
10
11.5243089
20
-0.3102303
40
0.2262237
50
225.2846858
51
255.0111758
0
ARC
8
DEFAULT_255_1_234
10
11.5567049
20
-0.1988545
40
0.3421979
50
254.5944985
51
267.9129803
0
ARC
8
DEFAULT_255_1_234
10
11.564153
20
-0.0904097
40
0.4508556
50
267.4689655
51
270.0223026
0
ARC
8
DEFAULT_255_1_234
10
11.5671675
20
-0.1493151
40
0.3919604
50
269.5849941
51
281.1843768
0
ARC
8
DEFAULT_255_1_234
10
11.595044
20
-0.2845941
40
0.2538457
50
280.9344262
51
300.9743589
0
ARC
8
DEFAULT_255_1_234
10
11.6163045
20
-0.3237312
40
0.2093566
50
301.4980046
51
315.1466847
0
ARC
8
DEFAULT_255_1_234
10
11.6018584
20
-0.3118764
40
0.2279656
50
315.5952539
51
345.6678731
0
ARC
8
DEFAULT_255_1_234
10
11.48991
20
-0.2806991
40
0.3441564
50
345.2524969
51
358.6304371
0
ARC
8
DEFAULT_255_1_234
10
11.3881454
20
-0.2747084
40
0.4460494
50
358.1735671
51
0.0124524
0
LINE
8
DEFAULT_255_1_234
10
12.518499
20
-0.0938974
11
12.518499
21
-0.2151766
0
LINE
8
DEFAULT_255_1_234
10
12.518499
20
-0.2151766
11
12.1265501
21
-0.2151766
0
LINE
8
DEFAULT_255_1_234
10
12.1265501
20
-0.2151766
11
12.1265501
21
-0.0938974
0
LINE
8
DEFAULT_255_1_234
10
12.1265501
20
-0.0938974
11
12.518499
21
-0.0938974
0
LINE
8
DEFAULT_255_1_234
10
13.1361396
20
0.5237433
11
13.1361396
21
-0.6513
0
LINE
8
DEFAULT_255_1_234
10
13.1361396
20
-0.6513
11
12.9867493
21
-0.6513
0
LINE
8
DEFAULT_255_1_234
10
12.9867493
20
-0.6513
11
12.9867493
21
0.3390133
0
LINE
8
DEFAULT_255_1_234
10
12.9867493
20
0.3390133
11
12.6871655
21
0.2289785
0
LINE
8
DEFAULT_255_1_234
10
12.6871655
20
0.2289785
11
12.6871655
21
0.3639117
0
LINE
8
DEFAULT_255_1_234
10
12.6871655
20
0.3639117
11
13.1128476
21
0.5237433
0
LINE
8
DEFAULT_255_1_234
10
13.1128476
20
0.5237433
11
13.1361396
21
0.5237433
0
LINE
8
DEFAULT_255_1_234
10
14.3376877
20
-0.5300208
11
14.3376877
21
-0.6513
0
LINE
8
DEFAULT_255_1_234
10
14.3376877
20
-0.6513
11
13.5714599
21
-0.6513
0
LINE
8
DEFAULT_255_1_234
10
13.5714599
20
-0.6513
11
13.5714599
21
-0.5444779
0
LINE
8
DEFAULT_255_1_234
10
13.5714599
20
-0.5444779
11
13.9762595
21
-0.0947005
0
LINE
8
DEFAULT_255_1_234
10
13.6975582
20
0.1735595
11
13.548971
21
0.1735595
0
LINE
8
DEFAULT_255_1_234
10
14.0638054
20
-0.1902782
11
13.7505676
21
-0.5300208
0
LINE
8
DEFAULT_255_1_234
10
13.7505676
20
-0.5300208
11
14.3376877
21
-0.5300208
0
ARC
8
DEFAULT_255_1_234
10
12.6272428
20
1.0982527
40
1.8008286
50
318.5132453
51
320.7828378
0
ARC
8
DEFAULT_255_1_234
10
13.1559402
20
0.6679426
40
1.1191493
50
320.7372736
51
323.9737074
0
ARC
8
DEFAULT_255_1_234
10
13.5479259
20
0.3839361
40
0.6350923
50
323.8961724
51
328.6421089
0
ARC
8
DEFAULT_255_1_234
10
13.7525854
20
0.2577031
40
0.3946393
50
328.8299013
51
331.789948
0
ARC
8
DEFAULT_255_1_234
10
13.8523033
20
0.2062509
40
0.2824501
50
331.4255242
51
352.9364833
0
ARC
8
DEFAULT_255_1_234
10
13.8659533
20
0.2031976
40
0.2685315
50
353.2248685
51
0.0169286
0
ARC
8
DEFAULT_255_1_234
10
13.886941
20
0.205495
40
0.2475536
50
359.4866256
51
15.9339782
0
ARC
8
DEFAULT_255_1_234
10
13.9376396
20
0.2191286
40
0.1950618
50
16.1714718
51
43.5284424
0
ARC
8
DEFAULT_255_1_234
10
13.9453704
20
0.2268573
40
0.184134
50
43.4415429
51
83.1661404
0
ARC
8
DEFAULT_255_1_234
10
13.9319622
20
0.1531771
40
0.258926
50
82.160215
51
90.1505798
0
ARC
8
DEFAULT_255_1_234
10
13.928805
20
0.0994865
40
0.3126255
50
89.5460705
51
102.5418777
0
ARC
8
DEFAULT_255_1_234
10
13.9045136
20
0.2025665
40
0.2067346
50
102.1739365
51
129.2061916
0
ARC
8
DEFAULT_255_1_234
10
13.8966208
20
0.2150094
40
0.1921118
50
129.7279328
51
135.7542026
0
ARC
8
DEFAULT_255_1_234
10
13.9087735
20
0.2053045
40
0.2075944
50
136.175737
51
166.3674722
0
ARC
8
DEFAULT_255_1_234
10
14.0094654
20
0.1783182
40
0.3118201
50
165.9092917
51
178.8683903
0
ARC
8
DEFAULT_255_1_234
10
14.0959516
20
0.1736179
40
0.3983935
50
178.438168
51
180.0083905
0
ARC
8
DEFAULT_255_1_234
10
13.9558118
20
0.1775231
40
0.4068601
50
163.2878735
51
180.5581814
0
ARC
8
DEFAULT_255_1_234
10
13.8756379
20
0.199584
40
0.3237344
50
133.454115
51
162.9470031
0
ARC
8
DEFAULT_255_1_234
10
13.8934921
20
0.1806
40
0.349795
50
100.7869394
51
133.4384016
0
ARC
8
DEFAULT_255_1_234
10
13.9282692
20
0.0257319
40
0.5084616
50
89.6605301
51
101.3704185
0
ARC
8
DEFAULT_255_1_234
10
13.9349031
20
0.0318496
40
0.502348
50
78.2171172
51
90.4130393
0
ARC
8
DEFAULT_255_1_234
10
13.9704109
20
0.1942637
40
0.3361092
50
55.9268222
51
78.4888551
0
ARC
8
DEFAULT_255_1_234
10
13.9900549
20
0.2281324
40
0.2970617
50
47.9292255
51
55.4054003
0
ARC
8
DEFAULT_255_1_234
10
14.000211
20
0.2384502
40
0.2825983
50
4.3347696
51
48.0560701
0
ARC
8
DEFAULT_255_1_234
10
13.8906504
20
0.2214601
40
0.393225
50
359.925209
51
5.5967654
0
ARC
8
DEFAULT_255_1_234
10
13.9335395
20
0.2270816
40
0.3503892
50
337.8914096
51
358.9967724
0
ARC
8
DEFAULT_255_1_234
10
13.6621807
20
0.3317706
40
0.6412172
50
326.9135351
51
338.3505194
0
ARC
8
DEFAULT_255_1_234
10
13.2636111
20
0.5872284
40
1.1146189
50
319.6472867
51
327.095818
0
ARC
8
DEFAULT_255_1_234
10
12.8803114
20
0.9034
40
1.6114559
50
317.2586784
51
319.9046139
0
ARC
8
DEFAULT_255_1_234
10
14.9220881
20
0.2103703
40
0.2822356
50
338.8763615
51
0.5166041
0
ARC
8
DEFAULT_255_1_234
10
14.9389536
20
0.2058208
40
0.2648703
50
325.8412414
51
338.4795939
0
ARC
8
DEFAULT_255_1_234
10
14.8998903
20
0.2329042
40
0.3124019
50
296.7586019
51
325.753654
0
ARC
8
DEFAULT_255_1_234
10
14.8711012
20
0.2813789
40
0.368668
50
296.0902311
51
297.3618122
0
ARC
8
DEFAULT_255_1_234
10
14.8968469
20
-0.3740959
40
0.3518806
50
47.9009248
51
67.1946869
0
ARC
8
DEFAULT_255_1_234
10
14.9164711
20
-0.3494605
40
0.320451
50
35.236241
51
47.551371
0
ARC
8
DEFAULT_255_1_234
10
14.9426329
20
-0.3320007
40
0.2890103
50
359.2759738
51
35.4014081
0
ARC
8
DEFAULT_255_1_234
10
14.868136
20
-0.3393174
40
0.3635026
50
343.1294516
51
0.5776525
0
ARC
8
DEFAULT_255_1_234
10
14.9405905
20
-0.359267
40
0.2883832
50
310.8497458
51
342.744803
0
ARC
8
DEFAULT_255_1_234
10
14.8988019
20
-0.3115706
40
0.3517954
50
281.5473923
51
310.9169905
0
ARC
8
DEFAULT_255_1_234
10
14.8631468
20
-0.1562916
40
0.5110832
50
269.6192722
51
281.9789957
0
ARC
8
DEFAULT_255_1_234
10
14.8559257
20
-0.1562172
40
0.5111606
50
257.4584469
51
270.4287458
0
ARC
8
DEFAULT_255_1_234
10
14.81784
20
-0.3165656
40
0.3463762
50
228.7553743
51
257.8484423
0
ARC
8
DEFAULT_255_1_234
10
14.7868598
20
-0.3538558
40
0.297916
50
184.0104442
51
228.5071787
0
ARC
8
DEFAULT_255_1_234
10
14.9031542
20
-0.3361488
40
0.4152734
50
179.9315461
51
185.3254504
0
ARC
8
DEFAULT_255_1_234
10
14.7855188
20
-0.3324008
40
0.2976554
50
145.6795913
51
180.6259649
0
ARC
8
DEFAULT_255_1_234
10
14.8018537
20
-0.3438071
40
0.3175776
50
115.5537925
51
145.6416199
0
ARC
8
DEFAULT_255_1_234
10
14.8359468
20
-0.4048972
40
0.3874232
50
113.2437915
51
116.2054627
0
ARC
8
DEFAULT_255_1_234
10
14.820668
20
0.234958
40
0.3154751
50
222.9548379
51
244.1372485
0
ARC
8
DEFAULT_255_1_234
10
14.8084756
20
0.2212834
40
0.2972382
50
213.3439227
51
222.6271327
0
ARC
8
DEFAULT_255_1_234
10
14.789269
20
0.2082308
40
0.274019
50
180.4316517
51
213.2713999
0
ARC
8
DEFAULT_255_1_234
10
14.8467691
20
0.212911
40
0.33158
50
179.9992944
51
181.1655061
0
ARC
8
DEFAULT_255_1_234
10
14.8877108
20
0.2163561
40
0.3725376
50
164.6186108
51
180.5292368
0
ARC
8
DEFAULT_255_1_234
10
14.7978971
20
0.2405101
40
0.2795349
50
132.2454369
51
164.5092287
0
ARC
8
DEFAULT_255_1_234
10
14.8266075
20
0.2080028
40
0.3229019
50
100.7052766
51
132.1387266
0
ARC
8
DEFAULT_255_1_234
10
14.8571048
20
0.0702086
40
0.4639835
50
89.6732617
51
101.2449487
0
ARC
8
DEFAULT_255_1_234
10
14.8633246
20
0.087699
40
0.4464999
50
76.2876631
51
90.4586123
0
ARC
8
DEFAULT_255_1_234
10
14.8939477
20
0.209922
40
0.3205023
50
47.8240157
51
76.4266918
0
ARC
8
DEFAULT_255_1_234
10
14.9162027
20
0.235959
40
0.2862661
50
6.9168658
51
47.6261438
0
ARC
8
DEFAULT_255_1_234
10
14.797543
20
0.214037
40
0.4067708
50
359.8419705
51
7.9694496
0
ARC
8
DEFAULT_255_1_234
10
14.8317327
20
-0.3300075
40
0.2513121
50
359.4454068
51
16.9256425
0
ARC
8
DEFAULT_255_1_234
10
14.8786138
20
-0.3170967
40
0.2027071
50
17.292259
51
45.462717
0
ARC
8
DEFAULT_255_1_234
10
14.8732074
20
-0.3217566
40
0.2098212
50
45.3028762
51
83.1921472
0
ARC
8
DEFAULT_255_1_234
10
14.8588758
20
-0.4019105
40
0.2911472
50
82.2614531
51
90.143954
0
ARC
8
DEFAULT_255_1_234
10
14.8557878
20
-0.378605
40
0.2678513
50
89.4959189
51
104.8579811
0
ARC
8
DEFAULT_255_1_234
10
14.8381137
20
-0.311611
40
0.1985654
50
104.8855873
51
135.2448349
0
ARC
8
DEFAULT_255_1_234
10
14.843091
20
-0.3160664
40
0.2052373
50
135.3398955
51
172.104394
0
ARC
8
DEFAULT_255_1_234
10
14.9237968
20
-0.3315075
40
0.2873299
50
171.2651929
51
180.1859362
0
ARC
8
DEFAULT_255_1_234
10
14.9068669
20
-0.3347267
40
0.2704083
50
179.515471
51
193.6466734
0
ARC
8
DEFAULT_255_1_234
10
14.8252438
20
-0.3555223
40
0.1861855
50
193.3540587
51
225.8256931
0
ARC
8
DEFAULT_255_1_234
10
14.8293196
20
-0.3484476
40
0.1941102
50
226.418029
51
255.8553723
0
ARC
8
DEFAULT_255_1_234
10
14.8549628
20
-0.2548002
40
0.2911917
50
255.4655572
51
268.7985967
0
ARC
8
DEFAULT_255_1_234
10
14.859682
20
-0.1709509
40
0.3751331
50
268.3464808
51
270.0104874
0
ARC
8
DEFAULT_255_1_234
10
14.8620208
20
-0.2393862
40
0.3067064
50
269.575914
51
282.0823146
0
ARC
8
DEFAULT_255_1_234
10
14.8845117
20
-0.3388197
40
0.2047712
50
281.7522535
51
306.6056425
0
ARC
8
DEFAULT_255_1_234
10
14.8943544
20
-0.3549513
40
0.1859604
50
307.1350025
51
314.0277951
0
ARC
8
DEFAULT_255_1_234
10
14.8907628
20
-0.3523234
40
0.1903475
50
314.2553419
51
350.169324
0
ARC
8
DEFAULT_255_1_234
10
14.8056096
20
-0.3338591
40
0.2774269
50
349.4145679
51
0.2930737
0
ARC
8
DEFAULT_255_1_234
10
14.8576529
20
0.1820353
40
0.2300764
50
89.477591
51
105.729794
0
ARC
8
DEFAULT_255_1_234
10
14.8440443
20
0.2325637
40
0.1777519
50
105.922966
51
135.1662921
0
ARC
8
DEFAULT_255_1_234
10
14.8460945
20
0.2311419
40
0.1802087
50
135.3053131
51
168.9882338
0
ARC
8
DEFAULT_255_1_234
10
14.9288518
20
0.2121721
40
0.2650806
50
168.3802067
51
180.3602358
0
ARC
8
DEFAULT_255_1_234
10
14.9060097
20
0.2084041
40
0.2422425
50
179.5029707
51
194.9126783
0
ARC
8
DEFAULT_255_1_234
10
14.8474758
20
0.193011
40
0.1817188
50
194.9722181
51
224.1943972
0
ARC
8
DEFAULT_255_1_234
10
14.8446625
20
0.1907169
40
0.1781027
50
224.2961434
51
262.0157375
0
ARC
8
DEFAULT_255_1_234
10
14.8588868
20
0.2638661
40
0.2525492
50
261.1250369
51
270.1959853
0
ARC
8
DEFAULT_255_1_234
10
14.8618623
20
0.2451339
40
0.233825
50
269.4825617
51
285.0988277
0
ARC
8
DEFAULT_255_1_234
10
14.8772782
20
0.187299
40
0.1739712
50
285.1585659
51
315.9484648
0
ARC
8
DEFAULT_255_1_234
10
14.8683794
20
0.1954886
40
0.1860616
50
316.0412958
51
351.9162715
0
ARC
8
DEFAULT_255_1_234
10
14.7950749
20
0.2096245
40
0.2606517
50
351.1056823
51
0.1936567
0
ARC
8
DEFAULT_255_1_234
10
14.8213578
20
0.2126369
40
0.234377
50
359.4789506
51
16.0679113
0
ARC
8
DEFAULT_255_1_234
10
14.8689537
20
0.225481
40
0.1850875
50
16.3251951
51
44.791304
0
ARC
8
DEFAULT_255_1_234
10
14.8671818
20
0.2255339
40
0.186312
50
44.3958661
51
88.2498933
0
ARC
8
DEFAULT_255_1_234
10
14.8598372
20
0.1644154
40
0.2476868
50
86.9833827
51
90.0200148
0
LINE
8
DEFAULT_255_1_234
10
16.2147049
20
-0.6513
11
16.1030638
21
-0.3460939
0
LINE
8
DEFAULT_255_1_234
10
16.1030638
20
-0.3460939
11
15.6131277
21
-0.3460939
0
LINE
8
DEFAULT_255_1_234
10
15.6131277
20
-0.3460939
11
15.5030929
21
-0.6513
0
LINE
8
DEFAULT_255_1_234
10
15.5030929
20
-0.6513
11
15.3440645
21
-0.6513
0
LINE
8
DEFAULT_255_1_234
10
15.3440645
20
-0.6513
11
15.7906292
21
0.5181211
0
LINE
8
DEFAULT_255_1_234
10
15.7906292
20
0.5181211
11
15.9255624
21
0.5181211
0
LINE
8
DEFAULT_255_1_234
10
15.9255624
20
0.5181211
11
16.3729302
21
-0.6513
0
LINE
8
DEFAULT_255_1_234
10
16.3729302
20
-0.6513
11
16.2147049
21
-0.6513
0
LINE
8
DEFAULT_255_1_234
10
15.8580958
20
0.3277689
11
15.6597118
21
-0.2191925
0
LINE
8
DEFAULT_255_1_234
10
15.6597118
20
-0.2191925
11
16.0572829
21
-0.2191925
0
LINE
8
DEFAULT_255_1_234
10
16.0572829
20
-0.2191925
11
15.8580958
21
0.3277689
0
LINE
8
DEFAULT_255_1_234
10
17.3062182
20
0.1799849
11
17.1512056
21
0.1799849
0
LINE
8
DEFAULT_255_1_234
10
16.4588698
20
-0.3123606
11
16.6138823
21
-0.3123606
0
ARC
8
DEFAULT_255_1_234
10
17.2170869
20
1.0746768
40
1.252368
50
248.9199003
51
254.1439814
0
ARC
8
DEFAULT_255_1_234
10
17.0490364
20
0.6420234
40
0.788226
50
241.633709
51
249.0064503
0
ARC
8
DEFAULT_255_1_234
10
16.8961758
20
0.3619317
40
0.4691427
50
230.498225
51
241.8087113
0
ARC
8
DEFAULT_255_1_234
10
16.8177332
20
0.2619906
40
0.3421437
50
227.4064532
51
229.9881192
0
ARC
8
DEFAULT_255_1_234
10
16.7689853
20
0.2144088
40
0.2741476
50
200.6781896
51
228.1763934
0
ARC
8
DEFAULT_255_1_234
10
16.7762164
20
0.2129077
40
0.2804109
50
179.5061581
51
199.8694617
0
ARC
8
DEFAULT_255_1_234
10
16.7752915
20
0.220321
40
0.2795204
50
132.4834203
51
181.0242172
0
ARC
8
DEFAULT_255_1_234
10
16.8348498
20
0.1640704
40
0.3612768
50
129.2532479
51
133.4242687
0
ARC
8
DEFAULT_255_1_234
10
16.8494947
20
0.1420965
40
0.3875675
50
101.98776
51
128.8742646
0
ARC
8
DEFAULT_255_1_234
10
16.8893558
20
-0.0300259
40
0.5642249
50
89.5906553
51
102.3169264
0
ARC
8
DEFAULT_255_1_234
10
16.896405
20
0.0018148
40
0.5323783
50
77.2360837
51
90.3248275
0
ARC
8
DEFAULT_255_1_234
10
16.9171129
20
0.09854
40
0.4334697
50
63.837784
51
77.0809408
0
ARC
8
DEFAULT_255_1_234
10
16.9448891
20
0.1502911
40
0.3747796
50
45.9864267
51
64.1607727
0
ARC
8
DEFAULT_255_1_234
10
16.9709772
20
0.1800866
40
0.3352302
50
32.2747395
51
45.6547121
0
ARC
8
DEFAULT_255_1_234
10
16.9776213
20
0.181988
40
0.328603
50
359.6507365
51
32.6130309
0
ARC
8
DEFAULT_255_1_234
10
16.8833308
20
0.182466
40
0.2678863
50
359.469343
51
14.9832209
0
ARC
8
DEFAULT_255_1_234
10
16.9538371
20
0.2013539
40
0.1948938
50
14.9781179
51
48.2004265
0
ARC
8
DEFAULT_255_1_234
10
16.9374015
20
0.1806983
40
0.2212521
50
48.5927837
51
74.1241538
0
ARC
8
DEFAULT_255_1_234
10
16.9040504
20
0.0706248
40
0.3362561
50
73.7888341
51
86.6652678
0
ARC
8
DEFAULT_255_1_234
10
16.893807
20
-0.0501119
40
0.4573953
50
86.2640471
51
90.0526343
0
ARC
8
DEFAULT_255_1_234
10
16.8909783
20
-0.0105808
40
0.4178709
50
89.6697524
51
99.2309573
0
ARC
8
DEFAULT_255_1_234
10
16.8667233
20
0.1338964
40
0.2713749
50
99.069534
51
113.7658566
0
ARC
8
DEFAULT_255_1_234
10
16.8393425
20
0.1984677
40
0.2012469
50
114.0401004
51
127.9850673
0
ARC
8
DEFAULT_255_1_234
10
16.8152989
20
0.228073
40
0.1631167
50
127.7287463
51
176.7105154
0
ARC
8
DEFAULT_255_1_234
10
16.8831706
20
0.2179693
40
0.2315392
50
175.1779447
51
180.0581938
0
ARC
8
DEFAULT_255_1_234
10
16.7988553
20
0.2167428
40
0.1472271
50
179.6142195
51
228.1246017
0
ARC
8
DEFAULT_255_1_234
10
16.8430221
20
0.2576308
40
0.2072299
50
226.5779593
51
230.8800004
0
ARC
8
DEFAULT_255_1_234
10
16.89013
20
0.3201636
40
0.2854818
50
231.4635071
51
241.9260842
0
ARC
8
DEFAULT_255_1_234
10
17.0098478
20
0.54048
40
0.53622
50
241.7178533
51
248.3259551
0
ARC
8
DEFAULT_255_1_234
10
17.148385
20
0.8837064
40
0.9063478
50
248.2007737
51
252.4528373
0
ARC
8
DEFAULT_255_1_234
10
17.2687575
20
1.2558441
40
1.2974635
50
252.3391078
51
254.3469452
0
ARC
8
DEFAULT_255_1_234
10
16.5145277
20
-1.4418852
40
1.5037162
50
71.0197183
51
74.4087047
0
ARC
8
DEFAULT_255_1_234
10
16.6839963
20
-0.9526889
40
0.9859993
50
66.1847285
51
71.086374
0
ARC
8
DEFAULT_255_1_234
10
16.8396275
20
-0.60228
40
0.6025855
50
59.3536294
51
66.2691831
0
ARC
8
DEFAULT_255_1_234
10
16.9284927
20
-0.4519391
40
0.4279449
50
49.1020879
51
59.3293958
0
ARC
8
DEFAULT_255_1_234
10
17.0103667
20
-0.3586166
40
0.3038015
50
32.7919921
51
49.2505539
0
ARC
8
DEFAULT_255_1_234
10
17.0424757
20
-0.3357809
40
0.264448
50
31.1181161
51
32.4005348
0
ARC
8
DEFAULT_255_1_234
10
17.0336295
20
-0.3393221
40
0.2738556
50
8.1116974
51
30.7958831
0
ARC
8
DEFAULT_255_1_234
10
16.9525963
20
-0.3531247
40
0.3560327
50
359.8389159
51
8.4706516
0
ARC
8
DEFAULT_255_1_234
10
17.0151755
20
-0.3579863
40
0.2934776
50
337.4731098
51
0.7537279
0
ARC
8
DEFAULT_255_1_234
10
17.0330449
20
-0.3599613
40
0.2762607
50
307.5917067
51
336.4315538
0
ARC
8
DEFAULT_255_1_234
10
16.9870277
20
-0.3086898
40
0.3449979
50
307.6551545
51
308.4529766
0
ARC
8
DEFAULT_255_1_234
10
16.9639996
20
-0.273175
40
0.3871988
50
284.3734338
51
307.1424381
0
ARC
8
DEFAULT_255_1_234
10
16.9144826
20
-0.0910068
40
0.5759636
50
272.4382747
51
284.646547
0
ARC
8
DEFAULT_255_1_234
10
16.9018035
20
0.0889893
40
0.7563528
50
269.9708387
51
272.8178037
0
ARC
8
DEFAULT_255_1_234
10
16.8975075
20
-0.1148284
40
0.5525489
50
248.2707594
51
270.4055579
0
ARC
8
DEFAULT_255_1_234
10
16.8920816
20
-0.1338808
40
0.5328452
50
246.1383403
51
248.0542782
0
ARC
8
DEFAULT_255_1_234
10
16.8502195
20
-0.2218157
40
0.4355005
50
233.1670131
51
246.4950969
0
ARC
8
DEFAULT_255_1_234
10
16.79481
20
-0.2966188
40
0.3424126
50
215.3403242
51
233.0843104
0
ARC
8
DEFAULT_255_1_234
10
16.7675531
20
-0.3164451
40
0.3087104
50
179.2419209
51
215.2648451
0
ARC
8
DEFAULT_255_1_234
10
16.8443125
20
-0.3150334
40
0.2304457
50
179.335461
51
199.1045811
0
ARC
8
DEFAULT_255_1_234
10
16.8110801
20
-0.3237234
40
0.1962176
50
199.8828939
51
232.7063202
0
ARC
8
DEFAULT_255_1_234
10
16.858307
20
-0.2643212
40
0.2720938
50
232.3738199
51
255.5136649
0
ARC
8
DEFAULT_255_1_234
10
16.8923937
20
-0.1399165
40
0.4010747
50
255.2446292
51
267.5320849
0
ARC
8
DEFAULT_255_1_234
10
16.901156
20
-0.0166298
40
0.5246356
50
267.1557994
51
270.0286766
0
ARC
8
DEFAULT_255_1_234
10
16.9039332
20
-0.061005
40
0.4802668
50
269.7000017
51
278.1660162
0
ARC
8
DEFAULT_255_1_234
10
16.9295337
20
-0.2340485
40
0.3053425
50
278.0231263
51
290.625471
0
ARC
8
DEFAULT_255_1_234
10
16.9643024
20
-0.3267975
40
0.206291
50
290.6619762
51
307.0370976
0
ARC
8
DEFAULT_255_1_234
10
16.9943413
20
-0.3636496
40
0.1587906
50
306.3943566
51
355.3030547
0
ARC
8
DEFAULT_255_1_234
10
16.9431345
20
-0.3559887
40
0.2104809
50
354.3660432
51
0.0698737
0
ARC
8
DEFAULT_255_1_234
10
16.957369
20
-0.3537383
40
0.1962563
50
359.417946
51
16.1971788
0
ARC
8
DEFAULT_255_1_234
10
17.0029
20
-0.3412582
40
0.149053
50
16.4723299
51
52.6262157
0
ARC
8
DEFAULT_255_1_234
10
16.9208054
20
-0.4496567
40
0.2850296
50
52.7386432
51
62.4979148
0
ARC
8
DEFAULT_255_1_234
10
16.7823131
20
-0.7102717
40
0.5801521
50
62.2515216
51
68.1220564
0
ARC
8
DEFAULT_255_1_234
10
16.6103042
20
-1.1330128
40
1.0365451
50
68.0062803
51
71.8053402
0
ARC
8
DEFAULT_255_1_234
10
16.4307413
20
-1.6715242
40
1.6042013
50
71.7183119
51
73.9258742
0
LINE
8
DEFAULT_255_1_234
10
17.661221
20
0.5181211
11
17.661221
21
-0.5252017
0
LINE
8
DEFAULT_255_1_234
10
17.661221
20
-0.5252017
11
18.2154109
21
-0.5252017
0
LINE
8
DEFAULT_255_1_234
10
18.2154109
20
-0.5252017
11
18.2154109
21
-0.6513
0
LINE
8
DEFAULT_255_1_234
10
18.2154109
20
-0.6513
11
17.5062084
21
-0.6513
0
LINE
8
DEFAULT_255_1_234
10
17.5062084
20
-0.6513
11
17.5062084
21
0.5181211
0
LINE
8
DEFAULT_255_1_234
10
17.5062084
20
0.5181211
11
17.661221
21
0.5181211
0
LINE
8
DEFAULT_255_1_234
10
18.6772359
20
-0.0938974
11
18.6772359
21
-0.2151766
0
LINE
8
DEFAULT_255_1_234
10
18.6772359
20
-0.2151766
11
18.2852871
21
-0.2151766
0
LINE
8
DEFAULT_255_1_234
10
18.2852871
20
-0.2151766
11
18.2852871
21
-0.0938974
0
LINE
8
DEFAULT_255_1_234
10
18.2852871
20
-0.0938974
11
18.6772359
21
-0.0938974
0
LINE
8
DEFAULT_255_1_234
10
18.8450992
20
0.5181211
11
19.0442863
21
0.5181211
0
LINE
8
DEFAULT_255_1_234
10
19.0442863
20
0.5181211
11
19.4265971
21
-0.4360494
0
LINE
8
DEFAULT_255_1_234
10
19.4265971
20
-0.4360494
11
19.8089078
21
0.5181211
0
LINE
8
DEFAULT_255_1_234
10
19.8089078
20
0.5181211
11
20.0088981
21
0.5181211
0
LINE
8
DEFAULT_255_1_234
10
20.0088981
20
0.5181211
11
20.0088981
21
-0.6513
0
LINE
8
DEFAULT_255_1_234
10
20.0088981
20
-0.6513
11
19.8546887
21
-0.6513
0
LINE
8
DEFAULT_255_1_234
10
19.8546887
20
-0.6513
11
19.8546887
21
-0.1959004
0
LINE
8
DEFAULT_255_1_234
10
19.8546887
20
-0.1959004
11
19.8691458
21
0.2956419
0
LINE
8
DEFAULT_255_1_234
10
19.8691458
20
0.2956419
11
19.4852288
21
-0.6513
0
LINE
8
DEFAULT_255_1_234
10
19.4852288
20
-0.6513
11
19.3671622
21
-0.6513
0
LINE
8
DEFAULT_255_1_234
10
19.3671622
20
-0.6513
11
18.9840483
21
0.2932324
0
LINE
8
DEFAULT_255_1_234
10
18.9840483
20
0.2932324
11
18.9993086
21
-0.1959004
0
LINE
8
DEFAULT_255_1_234
10
18.9993086
20
-0.1959004
11
18.9993086
21
-0.6513
0
LINE
8
DEFAULT_255_1_234
10
18.9993086
20
-0.6513
11
18.8450992
21
-0.6513
0
LINE
8
DEFAULT_255_1_234
10
18.8450992
20
-0.6513
11
18.8450992
21
0.5181211
0
LINE
8
DEFAULT_255_1_234
10
10.5180823
20
31.3062341
11
10.5180823
21
30.4372
0
LINE
8
DEFAULT_255_1_234
10
10.5180823
20
30.4372
11
10.3694951
21
30.4372
0
LINE
8
DEFAULT_255_1_234
10
10.3694951
20
30.4372
11
10.3694951
21
31.3062341
0
LINE
8
DEFAULT_255_1_234
10
10.3694951
20
31.3062341
11
10.5180823
21
31.3062341
0
ARC
8
DEFAULT_255_1_234
10
10.45531
20
31.5376889
40
0.097867
50
161.415052
51
180.5526306
0
ARC
8
DEFAULT_255_1_234
10
10.4428878
20
31.5411077
40
0.0850062
50
138.1827368
51
160.9307106
0
ARC
8
DEFAULT_255_1_234
10
10.4318824
20
31.5506588
40
0.0704362
50
104.6368899
51
138.0039868
0
ARC
8
DEFAULT_255_1_234
10
10.4425978
20
31.5139963
40
0.1086221
50
92.0600725
51
105.2189128
0
ARC
8
DEFAULT_255_1_234
10
10.4449327
20
31.4797117
40
0.1429728
50
89.9756393
51
92.5012496
0
ARC
8
DEFAULT_255_1_234
10
10.4459346
20
31.5022731
40
0.1204151
50
78.0235316
51
90.4478182
0
ARC
8
DEFAULT_255_1_234
10
10.4551438
20
31.5436295
40
0.0780493
50
55.051506
51
78.3369085
0
ARC
8
DEFAULT_255_1_234
10
10.4601712
20
31.5520711
40
0.0682538
50
42.0501187
51
54.4513741
0
ARC
8
DEFAULT_255_1_234
10
10.446658
20
31.5396798
40
0.0865878
50
1.7497075
51
42.1496013
0
ARC
8
DEFAULT_255_1_234
10
10.4211912
20
31.5367738
40
0.1121515
50
359.9852656
51
2.8364544
0
ARC
8
DEFAULT_255_1_234
10
10.4377905
20
31.5358229
40
0.0955566
50
342.1070653
51
0.552888
0
ARC
8
DEFAULT_255_1_234
10
10.4520602
20
31.5318904
40
0.0807713
50
316.7107116
51
341.6516965
0
ARC
8
DEFAULT_255_1_234
10
10.4587639
20
31.5258823
40
0.0717724
50
285.4397031
51
316.5324284
0
ARC
8
DEFAULT_255_1_234
10
10.4477556
20
31.5624554
40
0.1099597
50
272.3547054
51
285.8953117
0
ARC
8
DEFAULT_255_1_234
10
10.4450714
20
31.5990048
40
0.1465932
50
269.9695369
51
272.8160237
0
ARC
8
DEFAULT_255_1_234
10
10.4440896
20
31.5770863
40
0.1246779
50
258.8431134
51
270.4153935
0
ARC
8
DEFAULT_255_1_234
10
10.4350938
20
31.5335414
40
0.0802162
50
238.5431189
51
259.1288175
0
ARC
8
DEFAULT_255_1_234
10
10.4282823
20
31.5211856
40
0.0661247
50
222.5062634
51
237.9906969
0
ARC
8
DEFAULT_255_1_234
10
10.441041
20
31.5327889
40
0.0833707
50
184.1069131
51
222.460413
0
ARC
8
DEFAULT_255_1_234
10
10.4679651
20
31.5366349
40
0.1105176
50
179.9429482
51
185.0960898
0
LINE
8
DEFAULT_255_1_234
10
11.6722431
20
31.0588565
11
11.6722431
21
30.9841614
0
LINE
8
DEFAULT_255_1_234
10
11.4674337
20
30.5006507
11
11.6762589
21
30.3368033
0
LINE
8
DEFAULT_255_1_234
10
11.6762589
20
30.3368033
11
11.5710432
21
30.2396192
0
LINE
8
DEFAULT_255_1_234
10
11.5710432
20
30.2396192
11
11.3244688
21
30.4355937
0
LINE
8
DEFAULT_255_1_234
10
10.7309233
20
30.9737201
11
10.7309233
21
31.0580534
0
LINE
8
DEFAULT_255_1_234
10
11.5180337
20
30.9729169
11
11.5180337
21
31.0596597
0
LINE
8
DEFAULT_255_1_234
10
10.8851327
20
31.070101
11
10.8851327
21
30.9841614
0
ARC
8
DEFAULT_255_1_234
10
10.7768682
20
30.9802707
40
0.8953833
50
351.453011
51
0.2489685
0
ARC
8
DEFAULT_255_1_234
10
11.0353483
20
30.9402933
40
0.6338333
50
338.6861641
51
351.5540711
0
ARC
8
DEFAULT_255_1_234
10
11.1287367
20
30.9072828
40
0.5348431
50
336.2887631
51
338.3442418
0
ARC
8
DEFAULT_255_1_234
10
11.1626989
20
30.8886698
40
0.4962747
50
321.1170344
51
336.6795229
0
ARC
8
DEFAULT_255_1_234
10
11.2258818
20
30.8400206
40
0.4165565
50
305.4419708
51
320.8705636
0
ARC
8
DEFAULT_255_1_234
10
11.2062288
20
30.9147707
40
0.4935497
50
271.6373023
51
283.8611969
0
ARC
8
DEFAULT_255_1_234
10
11.2024541
20
30.9803572
40
0.5592206
50
269.9930596
51
271.8318864
0
ARC
8
DEFAULT_255_1_234
10
11.1986984
20
30.8995681
40
0.4784458
50
252.5219675
51
270.4416499
0
ARC
8
DEFAULT_255_1_234
10
11.1843243
20
30.8456592
40
0.422716
50
237.5352116
51
252.1857531
0
ARC
8
DEFAULT_255_1_234
10
11.1932439
20
30.8570363
40
0.4371052
50
209.063312
51
237.3492538
0
ARC
8
DEFAULT_255_1_234
10
11.2802287
20
30.9116685
40
0.5397041
50
205.1183774
51
209.6470015
0
ARC
8
DEFAULT_255_1_234
10
11.3599324
20
30.945483
40
0.6262326
50
188.7215458
51
204.8240747
0
ARC
8
DEFAULT_255_1_234
10
11.5596852
20
30.9791067
40
0.8287794
50
180.3723947
51
188.9252049
0
ARC
8
DEFAULT_255_1_234
10
11.5569604
20
31.0620402
40
0.8260467
50
169.5253763
51
180.2765336
0
ARC
8
DEFAULT_255_1_234
10
11.3667053
20
31.0970309
40
0.6326007
50
155.8315255
51
169.5089989
0
ARC
8
DEFAULT_255_1_234
10
11.2386554
20
31.1564348
40
0.4914567
50
139.6258461
51
156.0379525
0
ARC
8
DEFAULT_255_1_234
10
11.1796887
20
31.2038799
40
0.4158054
50
122.6416387
51
139.3430715
0
ARC
8
DEFAULT_255_1_234
10
11.1897507
20
31.1855451
40
0.4366739
50
93.0223692
51
122.455762
0
ARC
8
DEFAULT_255_1_234
10
11.2005504
20
31.0890709
40
0.5336137
50
89.975342
51
93.6341897
0
ARC
8
DEFAULT_255_1_234
10
11.204439
20
31.1270375
40
0.4956606
50
73.9665422
51
90.4229648
0
ARC
8
DEFAULT_255_1_234
10
11.2228037
20
31.1985451
40
0.4218674
50
57.5178019
51
73.6813337
0
ARC
8
DEFAULT_255_1_234
10
11.218382
20
31.1949462
40
0.4272816
50
28.7261108
51
57.2767933
0
ARC
8
DEFAULT_255_1_234
10
11.1273152
20
31.1386688
40
0.534218
50
24.2448911
51
29.3248482
0
ARC
8
DEFAULT_255_1_234
10
11.0347253
20
31.1003819
40
0.6343711
50
9.064382
51
23.9639114
0
ARC
8
DEFAULT_255_1_234
10
10.8091581
20
31.0624925
40
0.8630926
50
359.7586264
51
9.1891435
0
ARC
8
DEFAULT_255_1_234
10
10.6837061
20
31.0638343
40
0.834338
50
359.7133237
51
7.96545
0
ARC
8
DEFAULT_255_1_234
10
10.9799278
20
31.1065681
40
0.5350538
50
7.8291991
51
20.0421623
0
ARC
8
DEFAULT_255_1_234
10
11.1423841
20
31.1656606
40
0.3621841
50
20.0677553
51
35.9161685
0
ARC
8
DEFAULT_255_1_234
10
11.2198879
20
31.223267
40
0.2656263
50
35.6594382
51
85.1578074
0
ARC
8
DEFAULT_255_1_234
10
11.2014135
20
31.1117378
40
0.3784238
50
83.7959068
51
90.095906
0
ARC
8
DEFAULT_255_1_234
10
11.1971069
20
31.1850601
40
0.3051229
50
89.3102392
51
109.9889877
0
ARC
8
DEFAULT_255_1_234
10
11.1888552
20
31.2206433
40
0.2688988
50
110.9285147
51
143.9411762
0
ARC
8
DEFAULT_255_1_234
10
11.2819498
20
31.1494236
40
0.3860887
50
143.5289163
51
163.2980757
0
ARC
8
DEFAULT_255_1_234
10
11.4727319
20
31.0894433
40
0.5860659
50
163.0418846
51
174.3140048
0
ARC
8
DEFAULT_255_1_234
10
11.7131431
20
31.0616854
40
0.8280531
50
174.0509143
51
179.4176892
0
ARC
8
DEFAULT_255_1_234
10
11.6617766
20
30.9798634
40
0.7766558
50
179.6829237
51
188.9631324
0
ARC
8
DEFAULT_255_1_234
10
11.3947327
20
30.9363752
40
0.5060992
50
188.8100743
51
202.9300012
0
ARC
8
DEFAULT_255_1_234
10
11.2730956
20
30.8868855
40
0.3747967
50
203.2069261
51
215.7876482
0
ARC
8
DEFAULT_255_1_234
10
11.1882353
20
30.8197671
40
0.2667526
50
214.7521006
51
264.2834488
0
ARC
8
DEFAULT_255_1_234
10
11.2018008
20
30.905278
40
0.3532247
50
263.4755397
51
270.0949833
0
ARC
8
DEFAULT_255_1_234
10
11.2060119
20
30.8791374
40
0.3271036
50
269.3649385
51
287.5152008
0
ARC
8
DEFAULT_255_1_234
10
11.2238277
20
30.8144238
40
0.2600406
50
288.0630309
51
323.8113348
0
ARC
8
DEFAULT_255_1_234
10
11.1367119
20
30.8794049
40
0.3687189
50
323.6547608
51
342.6590488
0
ARC
8
DEFAULT_255_1_234
10
10.9335734
20
30.9454952
40
0.5823286
50
342.4091907
51
353.6451149
0
ARC
8
DEFAULT_255_1_234
10
10.6504244
20
30.980719
40
0.8676442
50
353.4029884
51
359.4847795
0
LINE
8
DEFAULT_255_1_234
10
12.1959124
20
30.9946026
11
12.1959124
21
30.8733234
0
LINE
8
DEFAULT_255_1_234
10
12.1959124
20
30.8733234
11
11.8039636
21
30.8733234
0
LINE
8
DEFAULT_255_1_234
10
11.8039636
20
30.8733234
11
11.8039636
21
30.9946026
0
LINE
8
DEFAULT_255_1_234
10
11.8039636
20
30.9946026
11
12.1959124
21
30.9946026
0
LINE
8
DEFAULT_255_1_234
10
13.0087243
20
31.0797391
11
13.0087243
21
30.9536408
0
LINE
8
DEFAULT_255_1_234
10
13.0087243
20
30.9536408
11
12.5179851
21
30.9536408
0
LINE
8
DEFAULT_255_1_234
10
12.5179851
20
30.9536408
11
12.5179851
21
30.4372
0
LINE
8
DEFAULT_255_1_234
10
12.5179851
20
30.4372
11
12.3637757
21
30.4372
0
LINE
8
DEFAULT_255_1_234
10
12.3637757
20
30.4372
11
12.3637757
21
31.6066211
0
LINE
8
DEFAULT_255_1_234
10
12.3637757
20
31.6066211
11
13.0882385
21
31.6066211
0
LINE
8
DEFAULT_255_1_234
10
13.0882385
20
31.6066211
11
13.0882385
21
31.4797196
0
LINE
8
DEFAULT_255_1_234
10
13.0882385
20
31.4797196
11
12.5179851
21
31.4797196
0
LINE
8
DEFAULT_255_1_234
10
12.5179851
20
31.4797196
11
12.5179851
21
31.0797391
0
LINE
8
DEFAULT_255_1_234
10
12.5179851
20
31.0797391
11
13.0087243
21
31.0797391
0
LINE
8
DEFAULT_255_1_234
10
14.4560436
20
31.2684849
11
14.301031
21
31.2684849
0
LINE
8
DEFAULT_255_1_234
10
13.6086952
20
30.7761394
11
13.7637077
21
30.7761394
0
ARC
8
DEFAULT_255_1_234
10
14.3669123
20
32.1631768
40
1.252368
50
248.9199003
51
254.1439814
0
ARC
8
DEFAULT_255_1_234
10
14.1988618
20
31.7305234
40
0.788226
50
241.633709
51
249.0064503
0
ARC
8
DEFAULT_255_1_234
10
14.0460012
20
31.4504317
40
0.4691427
50
230.498225
51
241.8087113
0
ARC
8
DEFAULT_255_1_234
10
13.9675586
20
31.3504906
40
0.3421437
50
227.4064532
51
229.9881192
0
ARC
8
DEFAULT_255_1_234
10
13.9188107
20
31.3029088
40
0.2741476
50
200.6781896
51
228.1763934
0
ARC
8
DEFAULT_255_1_234
10
13.9260418
20
31.3014077
40
0.2804109
50
179.5061581
51
199.8694617
0
ARC
8
DEFAULT_255_1_234
10
13.9251169
20
31.308821
40
0.2795204
50
132.4834203
51
181.0242172
0
ARC
8
DEFAULT_255_1_234
10
13.9846752
20
31.2525704
40
0.3612768
50
129.2532479
51
133.4242687
0
ARC
8
DEFAULT_255_1_234
10
13.9993201
20
31.2305965
40
0.3875675
50
101.98776
51
128.8742646
0
ARC
8
DEFAULT_255_1_234
10
14.0391812
20
31.0584741
40
0.5642249
50
89.5906553
51
102.3169264
0
ARC
8
DEFAULT_255_1_234
10
14.0462304
20
31.0903148
40
0.5323783
50
77.2360837
51
90.3248275
0
ARC
8
DEFAULT_255_1_234
10
14.0669383
20
31.18704
40
0.4334697
50
63.837784
51
77.0809408
0
ARC
8
DEFAULT_255_1_234
10
14.0947145
20
31.2387911
40
0.3747796
50
45.9864267
51
64.1607727
0
ARC
8
DEFAULT_255_1_234
10
14.1208026
20
31.2685866
40
0.3352302
50
32.2747395
51
45.6547121
0
ARC
8
DEFAULT_255_1_234
10
14.1274467
20
31.270488
40
0.328603
50
359.6507365
51
32.6130309
0
ARC
8
DEFAULT_255_1_234
10
14.0331562
20
31.270966
40
0.2678863
50
359.469343
51
14.9832209
0
ARC
8
DEFAULT_255_1_234
10
14.1036625
20
31.2898539
40
0.1948938
50
14.9781179
51
48.2004265
0
ARC
8
DEFAULT_255_1_234
10
14.0872269
20
31.2691983
40
0.2212521
50
48.5927837
51
74.1241538
0
ARC
8
DEFAULT_255_1_234
10
14.0538758
20
31.1591248
40
0.3362561
50
73.7888341
51
86.6652678
0
ARC
8
DEFAULT_255_1_234
10
14.0436324
20
31.0383881
40
0.4573953
50
86.2640471
51
90.0526343
0
ARC
8
DEFAULT_255_1_234
10
14.0408037
20
31.0779192
40
0.4178709
50
89.6697524
51
99.2309573
0
ARC
8
DEFAULT_255_1_234
10
14.0165487
20
31.2223964
40
0.2713749
50
99.069534
51
113.7658566
0
ARC
8
DEFAULT_255_1_234
10
13.9891679
20
31.2869677
40
0.2012469
50
114.0401004
51
127.9850673
0
ARC
8
DEFAULT_255_1_234
10
13.9651242
20
31.316573
40
0.1631167
50
127.7287463
51
176.7105154
0
ARC
8
DEFAULT_255_1_234
10
14.032996
20
31.3064693
40
0.2315392
50
175.1779447
51
180.0581938
0
ARC
8
DEFAULT_255_1_234
10
13.9486807
20
31.3052428
40
0.1472271
50
179.6142195
51
228.1246017
0
ARC
8
DEFAULT_255_1_234
10
13.9928475
20
31.3461308
40
0.2072299
50
226.5779593
51
230.8800004
0
ARC
8
DEFAULT_255_1_234
10
14.0399554
20
31.4086636
40
0.2854818
50
231.4635071
51
241.9260842
0
ARC
8
DEFAULT_255_1_234
10
14.1596732
20
31.62898
40
0.53622
50
241.7178533
51
248.3259551
0
ARC
8
DEFAULT_255_1_234
10
14.2982104
20
31.9722064
40
0.9063478
50
248.2007737
51
252.4528373
0
ARC
8
DEFAULT_255_1_234
10
14.4185829
20
32.3443441
40
1.2974635
50
252.3391078
51
254.3469452
0
ARC
8
DEFAULT_255_1_234
10
13.6643531
20
29.6466148
40
1.5037162
50
71.0197183
51
74.4087047
0
ARC
8
DEFAULT_255_1_234
10
13.8338217
20
30.1358111
40
0.9859993
50
66.1847285
51
71.086374
0
ARC
8
DEFAULT_255_1_234
10
13.9894529
20
30.48622
40
0.6025855
50
59.3536294
51
66.2691831
0
ARC
8
DEFAULT_255_1_234
10
14.0783181
20
30.6365609
40
0.4279449
50
49.1020879
51
59.3293958
0
ARC
8
DEFAULT_255_1_234
10
14.1601921
20
30.7298834
40
0.3038015
50
32.7919921
51
49.2505539
0
ARC
8
DEFAULT_255_1_234
10
14.1923011
20
30.7527191
40
0.264448
50
31.1181161
51
32.4005348
0
ARC
8
DEFAULT_255_1_234
10
14.1834549
20
30.7491779
40
0.2738556
50
8.1116974
51
30.7958831
0
ARC
8
DEFAULT_255_1_234
10
14.1024217
20
30.7353753
40
0.3560327
50
359.8389159
51
8.4706516
0
ARC
8
DEFAULT_255_1_234
10
14.1650008
20
30.7305137
40
0.2934776
50
337.4731098
51
0.7537279
0
ARC
8
DEFAULT_255_1_234
10
14.1828703
20
30.7285387
40
0.2762607
50
307.5917067
51
336.4315538
0
ARC
8
DEFAULT_255_1_234
10
14.1368531
20
30.7798102
40
0.3449979
50
307.6551545
51
308.4529766
0
ARC
8
DEFAULT_255_1_234
10
14.113825
20
30.815325
40
0.3871988
50
284.3734338
51
307.1424381
0
ARC
8
DEFAULT_255_1_234
10
14.064308
20
30.9974932
40
0.5759636
50
272.4382747
51
284.646547
0
ARC
8
DEFAULT_255_1_234
10
14.0516289
20
31.1774893
40
0.7563528
50
269.9708387
51
272.8178037
0
ARC
8
DEFAULT_255_1_234
10
14.0473329
20
30.9736716
40
0.5525489
50
248.2707594
51
270.4055579
0
ARC
8
DEFAULT_255_1_234
10
14.041907
20
30.9546192
40
0.5328452
50
246.1383403
51
248.0542782
0
ARC
8
DEFAULT_255_1_234
10
14.0000449
20
30.8666843
40
0.4355005
50
233.1670131
51
246.4950969
0
ARC
8
DEFAULT_255_1_234
10
13.9446354
20
30.7918812
40
0.3424126
50
215.3403242
51
233.0843104
0
ARC
8
DEFAULT_255_1_234
10
13.9173785
20
30.7720549
40
0.3087104
50
179.2419209
51
215.2648451
0
ARC
8
DEFAULT_255_1_234
10
13.9941379
20
30.7734666
40
0.2304457
50
179.335461
51
199.1045811
0
ARC
8
DEFAULT_255_1_234
10
13.9609055
20
30.7647766
40
0.1962176
50
199.8828939
51
232.7063202
0
ARC
8
DEFAULT_255_1_234
10
14.0081324
20
30.8241788
40
0.2720938
50
232.3738199
51
255.5136649
0
ARC
8
DEFAULT_255_1_234
10
14.042219
20
30.9485835
40
0.4010747
50
255.2446292
51
267.5320849
0
ARC
8
DEFAULT_255_1_234
10
14.0509814
20
31.0718702
40
0.5246356
50
267.1557994
51
270.0286766
0
ARC
8
DEFAULT_255_1_234
10
14.0537586
20
31.027495
40
0.4802668
50
269.7000017
51
278.1660162
0
ARC
8
DEFAULT_255_1_234
10
14.0793591
20
30.8544515
40
0.3053425
50
278.0231263
51
290.625471
0
ARC
8
DEFAULT_255_1_234
10
14.1141278
20
30.7617025
40
0.206291
50
290.6619762
51
307.0370976
0
ARC
8
DEFAULT_255_1_234
10
14.1441667
20
30.7248504
40
0.1587906
50
306.3943566
51
355.3030547
0
ARC
8
DEFAULT_255_1_234
10
14.0929599
20
30.7325113
40
0.2104809
50
354.3660432
51
0.0698737
0
ARC
8
DEFAULT_255_1_234
10
14.1071944
20
30.7347617
40
0.1962563
50
359.417946
51
16.1971788
0
ARC
8
DEFAULT_255_1_234
10
14.1527254
20
30.7472418
40
0.149053
50
16.4723299
51
52.6262157
0
ARC
8
DEFAULT_255_1_234
10
14.0706308
20
30.6388433
40
0.2850296
50
52.7386432
51
62.4979148
0
ARC
8
DEFAULT_255_1_234
10
13.9321385
20
30.3782283
40
0.5801521
50
62.2515216
51
68.1220564
0
ARC
8
DEFAULT_255_1_234
10
13.7601296
20
29.9554872
40
1.0365451
50
68.0062803
51
71.8053402
0
ARC
8
DEFAULT_255_1_234
10
13.5805667
20
29.4169758
40
1.6042013
50
71.7183119
51
73.9258742
0
LINE
8
DEFAULT_255_1_234
10
14.5949926
20
30.8476218
11
14.5949926
21
30.8749297
0
LINE
8
DEFAULT_255_1_234
10
15.3323062
20
30.8909932
11
15.3323062
21
30.8291488
0
LINE
8
DEFAULT_255_1_234
10
15.3323062
20
30.8291488
11
14.7435798
21
30.8291488
0
LINE
8
DEFAULT_255_1_234
10
15.2303031
20
30.6596792
11
15.3210618
21
30.5889999
0
LINE
8
DEFAULT_255_1_234
10
14.7483988
20
30.9512313
11
15.183719
21
30.9512313
0
LINE
8
DEFAULT_255_1_234
10
15.183719
20
30.9512313
11
15.183719
21
30.9624757
0
ARC
8
DEFAULT_255_1_234
10
14.9889291
20
30.8587332
40
0.4376191
50
252.3266134
51
270.5810217
0
ARC
8
DEFAULT_255_1_234
10
14.9684381
20
30.7846644
40
0.3608374
50
223.3000567
51
251.8561855
0
ARC
8
DEFAULT_255_1_234
10
14.9895741
20
30.8051937
40
0.3902993
50
190.9374509
51
223.3654032
0
ARC
8
DEFAULT_255_1_234
10
15.1620713
20
30.8441885
40
0.5670891
50
179.6531105
51
191.4989439
0
ARC
8
DEFAULT_255_1_234
10
15.1742726
20
30.8781417
40
0.5792888
50
167.4007466
51
180.3176909
0
ARC
8
DEFAULT_255_1_234
10
15.0690787
20
30.9003885
40
0.471777
50
154.1835823
51
167.250763
0
ARC
8
DEFAULT_255_1_234
10
15.0059255
20
30.9336417
40
0.4004528
50
134.3149965
51
154.5315275
0
ARC
8
DEFAULT_255_1_234
10
14.984175
20
30.9527228
40
0.371612
50
122.8616532
51
133.9707695
0
ARC
8
DEFAULT_255_1_234
10
14.9738324
20
30.9749703
40
0.3473289
50
89.8249009
51
123.4199222
0
ARC
8
DEFAULT_255_1_234
10
14.9788365
20
30.9102967
40
0.4120197
50
74.7876118
51
90.5482747
0
ARC
8
DEFAULT_255_1_234
10
15.0082108
20
31.018803
40
0.2996077
50
39.8178249
51
74.7633718
0
ARC
8
DEFAULT_255_1_234
10
14.9569428
20
30.9788351
40
0.3645855
50
16.8990863
51
39.4829761
0
ARC
8
DEFAULT_255_1_234
10
14.7674725
20
30.9181526
40
0.5635218
50
4.9636328
51
17.2026414
0
ARC
8
DEFAULT_255_1_234
10
14.5256795
20
30.892634
40
0.8066286
50
359.8834553
51
5.2834307
0
ARC
8
DEFAULT_255_1_234
10
15.1294319
20
30.8357803
40
0.3859091
50
180.9846213
51
194.9401313
0
ARC
8
DEFAULT_255_1_234
10
15.0244597
20
30.8070849
40
0.2770883
50
194.80314
51
222.0412631
0
ARC
8
DEFAULT_255_1_234
10
14.9940479
20
30.7769116
40
0.2343055
50
221.5417084
51
268.8614402
0
ARC
8
DEFAULT_255_1_234
10
15.0013474
20
30.8445686
40
0.3021528
50
267.732405
51
270.0097136
0
ARC
8
DEFAULT_255_1_234
10
15.0031284
20
30.8647105
40
0.3222994
50
269.6924892
51
280.4117579
0
ARC
8
DEFAULT_255_1_234
10
15.0207691
20
30.7728193
40
0.2287344
50
280.2255091
51
298.6338936
0
ARC
8
DEFAULT_255_1_234
10
15.0324483
20
30.7484223
40
0.2017294
50
299.0430333
51
300.4643464
0
ARC
8
DEFAULT_255_1_234
10
14.9644488
20
30.8618038
40
0.3339357
50
300.6577328
51
322.0378878
0
ARC
8
DEFAULT_255_1_234
10
14.9294027
20
30.8922021
40
0.3802736
50
321.6750233
51
322.3046845
0
ARC
8
DEFAULT_255_1_234
10
15.0224988
20
30.775537
40
0.3520454
50
276.9728461
51
328.0035423
0
ARC
8
DEFAULT_255_1_234
10
14.9948041
20
30.9235841
40
0.5024498
50
269.8361028
51
278.0581756
0
ARC
8
DEFAULT_255_1_234
10
14.9720779
20
30.9980757
40
0.202159
50
89.2018686
51
117.2851756
0
ARC
8
DEFAULT_255_1_234
10
14.9773948
20
30.9938752
40
0.2083484
50
118.0551165
51
137.4540413
0
ARC
8
DEFAULT_255_1_234
10
15.0148688
20
30.9598304
40
0.2589774
50
137.5109581
51
158.8516286
0
ARC
8
DEFAULT_255_1_234
10
15.1286523
20
30.9139074
40
0.38167
50
158.5845963
51
170.1721436
0
ARC
8
DEFAULT_255_1_234
10
15.2455912
20
30.8906823
40
0.5008657
50
169.8376422
51
173.0566086
0
ARC
8
DEFAULT_255_1_234
10
14.7758986
20
30.9417509
40
0.4083467
50
2.9091802
51
12.8847116
0
ARC
8
DEFAULT_255_1_234
10
14.9129663
20
30.9740101
40
0.2675383
50
12.6957781
51
28.6404489
0
ARC
8
DEFAULT_255_1_234
10
14.9671334
20
31.0020458
40
0.2065654
50
29.0169854
51
41.1487595
0
ARC
8
DEFAULT_255_1_234
10
14.9874119
20
31.0197003
40
0.1796786
50
41.1646065
51
85.0013516
0
ARC
8
DEFAULT_255_1_234
10
14.9753216
20
30.9462431
40
0.2539726
50
83.7280015
51
90.0964893
0
LINE
8
DEFAULT_255_1_234
10
15.9242453
20
31.3110531
11
15.9242453
21
31.1729072
0
LINE
8
DEFAULT_255_1_234
10
15.6527726
20
31.0540375
11
15.6527726
21
30.4372
0
LINE
8
DEFAULT_255_1_234
10
15.6527726
20
30.4372
11
15.5041854
21
30.4372
0
LINE
8
DEFAULT_255_1_234
10
15.5041854
20
30.4372
11
15.5041854
21
31.3062341
0
LINE
8
DEFAULT_255_1_234
10
15.5041854
20
31.3062341
11
15.6487567
21
31.3062341
0
LINE
8
DEFAULT_255_1_234
10
15.6487567
20
31.3062341
11
15.6511662
21
31.2058374
0
ARC
8
DEFAULT_255_1_234
10
15.8575859
20
30.7669342
40
0.4114092
50
80.6754243
51
86.8932892
0
ARC
8
DEFAULT_255_1_234
10
15.8515393
20
30.67017
40
0.5083596
50
86.8038578
51
90.0431435
0
ARC
8
DEFAULT_255_1_234
10
15.8478374
20
30.9158866
40
0.2626638
50
89.2759698
51
106.6213787
0
ARC
8
DEFAULT_255_1_234
10
15.8273938
20
30.990183
40
0.1856317
50
107.1346045
51
157.6458115
0
ARC
8
DEFAULT_255_1_234
10
15.8965539
20
30.9518311
40
0.2643398
50
155.6586782
51
157.2539184
0
ARC
8
DEFAULT_255_1_234
10
15.8760741
20
31.0687157
40
0.2634121
50
127.8165941
51
148.6302098
0
ARC
8
DEFAULT_255_1_234
10
15.850721
20
31.0947218
40
0.2273596
50
91.3329982
51
126.7875809
0
ARC
8
DEFAULT_255_1_234
10
15.8583151
20
31.0232195
40
0.299078
50
89.986594
51
92.4688449
0
ARC
8
DEFAULT_255_1_234
10
15.8591546
20
31.0507078
40
0.2715908
50
85.3589899
51
90.1623399
0
ARC
8
DEFAULT_255_1_234
10
15.8676062
20
31.1511164
40
0.1708278
50
78.401942
51
85.4594656
0
ARC
8
DEFAULT_255_1_234
10
15.8820945
20
31.2202236
40
0.1002194
50
67.7858312
51
78.5728455
0
ARC
8
DEFAULT_255_1_234
10
15.8928798
20
31.2481887
40
0.0702548
50
63.4835954
51
67.3062642
0
LINE
8
DEFAULT_255_1_234
10
16.2222228
20
31.3062341
11
16.2222228
21
30.4372
0
LINE
8
DEFAULT_255_1_234
10
16.2222228
20
30.4372
11
16.0736356
21
30.4372
0
LINE
8
DEFAULT_255_1_234
10
16.0736356
20
30.4372
11
16.0736356
21
31.3062341
0
LINE
8
DEFAULT_255_1_234
10
16.0736356
20
31.3062341
11
16.2222228
21
31.3062341
0
ARC
8
DEFAULT_255_1_234
10
16.1594505
20
31.5376889
40
0.097867
50
161.415052
51
180.5526306
0
ARC
8
DEFAULT_255_1_234
10
16.1470283
20
31.5411077
40
0.0850062
50
138.1827368
51
160.9307106
0
ARC
8
DEFAULT_255_1_234
10
16.1360229
20
31.5506588
40
0.0704362
50
104.6368899
51
138.0039868
0
ARC
8
DEFAULT_255_1_234
10
16.1467384
20
31.5139963
40
0.1086221
50
92.0600725
51
105.2189128
0
ARC
8
DEFAULT_255_1_234
10
16.1490732
20
31.4797117
40
0.1429728
50
89.9756393
51
92.5012496
0
ARC
8
DEFAULT_255_1_234
10
16.1500751
20
31.5022731
40
0.1204151
50
78.0235316
51
90.4478182
0
ARC
8
DEFAULT_255_1_234
10
16.1592843
20
31.5436295
40
0.0780493
50
55.051506
51
78.3369085
0
ARC
8
DEFAULT_255_1_234
10
16.1643118
20
31.5520711
40
0.0682538
50
42.0501187
51
54.4513741
0
ARC
8
DEFAULT_255_1_234
10
16.1507985
20
31.5396798
40
0.0865878
50
1.7497075
51
42.1496013
0
ARC
8
DEFAULT_255_1_234
10
16.1253318
20
31.5367738
40
0.1121515
50
359.9852656
51
2.8364544
0
ARC
8
DEFAULT_255_1_234
10
16.141931
20
31.5358229
40
0.0955566
50
342.1070653
51
0.552888
0
ARC
8
DEFAULT_255_1_234
10
16.1562007
20
31.5318904
40
0.0807713
50
316.7107116
51
341.6516965
0
ARC
8
DEFAULT_255_1_234
10
16.1629044
20
31.5258823
40
0.0717724
50
285.4397031
51
316.5324284
0
ARC
8
DEFAULT_255_1_234
10
16.1518961
20
31.5624554
40
0.1099597
50
272.3547054
51
285.8953117
0
ARC
8
DEFAULT_255_1_234
10
16.1492119
20
31.5990048
40
0.1465932
50
269.9695369
51
272.8160237
0
ARC
8
DEFAULT_255_1_234
10
16.1482301
20
31.5770863
40
0.1246779
50
258.8431134
51
270.4153935
0
ARC
8
DEFAULT_255_1_234
10
16.1392343
20
31.5335414
40
0.0802162
50
238.5431189
51
259.1288175
0
ARC
8
DEFAULT_255_1_234
10
16.1324228
20
31.5211856
40
0.0661247
50
222.5062634
51
237.9906969
0
ARC
8
DEFAULT_255_1_234
10
16.1451815
20
31.5327889
40
0.0833707
50
184.1069131
51
222.460413
0
ARC
8
DEFAULT_255_1_234
10
16.1721056
20
31.5366349
40
0.1105176
50
179.9429482
51
185.0960898
0
LINE
8
DEFAULT_255_1_234
10
16.4222131
20
30.8476218
11
16.4222131
21
30.8749297
0
LINE
8
DEFAULT_255_1_234
10
17.1595267
20
30.8909932
11
17.1595267
21
30.8291488
0
LINE
8
DEFAULT_255_1_234
10
17.1595267
20
30.8291488
11
16.5708002
21
30.8291488
0
LINE
8
DEFAULT_255_1_234
10
17.0575236
20
30.6596792
11
17.1482822
21
30.5889999
0
LINE
8
DEFAULT_255_1_234
10
16.5756193
20
30.9512313
11
17.0109395
21
30.9512313
0
LINE
8
DEFAULT_255_1_234
10
17.0109395
20
30.9512313
11
17.0109395
21
30.9624757
0
ARC
8
DEFAULT_255_1_234
10
16.8161496
20
30.8587332
40
0.4376191
50
252.3266134
51
270.5810217
0
ARC
8
DEFAULT_255_1_234
10
16.7956585
20
30.7846644
40
0.3608374
50
223.3000567
51
251.8561855
0
ARC
8
DEFAULT_255_1_234
10
16.8167946
20
30.8051937
40
0.3902993
50
190.9374509
51
223.3654032
0
ARC
8
DEFAULT_255_1_234
10
16.9892918
20
30.8441885
40
0.5670891
50
179.6531105
51
191.4989439
0
ARC
8
DEFAULT_255_1_234
10
17.001493
20
30.8781417
40
0.5792888
50
167.4007466
51
180.3176909
0
ARC
8
DEFAULT_255_1_234
10
16.8962992
20
30.9003885
40
0.471777
50
154.1835823
51
167.250763
0
ARC
8
DEFAULT_255_1_234
10
16.8331459
20
30.9336417
40
0.4004528
50
134.3149965
51
154.5315275
0
ARC
8
DEFAULT_255_1_234
10
16.8113954
20
30.9527228
40
0.371612
50
122.8616532
51
133.9707695
0
ARC
8
DEFAULT_255_1_234
10
16.8010529
20
30.9749703
40
0.3473289
50
89.8249009
51
123.4199222
0
ARC
8
DEFAULT_255_1_234
10
16.8060569
20
30.9102967
40
0.4120197
50
74.7876118
51
90.5482747
0
ARC
8
DEFAULT_255_1_234
10
16.8354313
20
31.018803
40
0.2996077
50
39.8178249
51
74.7633718
0
ARC
8
DEFAULT_255_1_234
10
16.7841633
20
30.9788351
40
0.3645855
50
16.8990863
51
39.4829761
0
ARC
8
DEFAULT_255_1_234
10
16.5946929
20
30.9181526
40
0.5635218
50
4.9636328
51
17.2026414
0
ARC
8
DEFAULT_255_1_234
10
16.3528999
20
30.892634
40
0.8066286
50
359.8834553
51
5.2834307
0
ARC
8
DEFAULT_255_1_234
10
16.9566524
20
30.8357803
40
0.3859091
50
180.9846213
51
194.9401313
0
ARC
8
DEFAULT_255_1_234
10
16.8516802
20
30.8070849
40
0.2770883
50
194.80314
51
222.0412631
0
ARC
8
DEFAULT_255_1_234
10
16.8212684
20
30.7769116
40
0.2343055
50
221.5417084
51
268.8614402
0
ARC
8
DEFAULT_255_1_234
10
16.8285678
20
30.8445686
40
0.3021528
50
267.732405
51
270.0097136
0
ARC
8
DEFAULT_255_1_234
10
16.8303488
20
30.8647105
40
0.3222994
50
269.6924892
51
280.4117579
0
ARC
8
DEFAULT_255_1_234
10
16.8479895
20
30.7728193
40
0.2287344
50
280.2255091
51
298.6338936
0
ARC
8
DEFAULT_255_1_234
10
16.8596687
20
30.7484223
40
0.2017294
50
299.0430333
51
300.4643464
0
ARC
8
DEFAULT_255_1_234
10
16.7916693
20
30.8618038
40
0.3339357
50
300.6577328
51
322.0378878
0
ARC
8
DEFAULT_255_1_234
10
16.7566232
20
30.8922021
40
0.3802736
50
321.6750233
51
322.3046845
0
ARC
8
DEFAULT_255_1_234
10
16.8497193
20
30.775537
40
0.3520454
50
276.9728461
51
328.0035423
0
ARC
8
DEFAULT_255_1_234
10
16.8220246
20
30.9235841
40
0.5024498
50
269.8361028
51
278.0581756
0
ARC
8
DEFAULT_255_1_234
10
16.7992983
20
30.9980757
40
0.202159
50
89.2018686
51
117.2851756
0
ARC
8
DEFAULT_255_1_234
10
16.8046152
20
30.9938752
40
0.2083484
50
118.0551165
51
137.4540413
0
ARC
8
DEFAULT_255_1_234
10
16.8420892
20
30.9598304
40
0.2589774
50
137.5109581
51
158.8516286
0
ARC
8
DEFAULT_255_1_234
10
16.9558728
20
30.9139074
40
0.38167
50
158.5845963
51
170.1721436
0
ARC
8
DEFAULT_255_1_234
10
17.0728117
20
30.8906823
40
0.5008657
50
169.8376422
51
173.0566086
0
ARC
8
DEFAULT_255_1_234
10
16.6031191
20
30.9417509
40
0.4083467
50
2.9091802
51
12.8847116
0
ARC
8
DEFAULT_255_1_234
10
16.7401867
20
30.9740101
40
0.2675383
50
12.6957781
51
28.6404489
0
ARC
8
DEFAULT_255_1_234
10
16.7943538
20
31.0020458
40
0.2065654
50
29.0169854
51
41.1487595
0
ARC
8
DEFAULT_255_1_234
10
16.8146323
20
31.0197003
40
0.1796786
50
41.1646065
51
85.0013516
0
ARC
8
DEFAULT_255_1_234
10
16.802542
20
30.9462431
40
0.2539726
50
83.7280015
51
90.0964893
0
LINE
8
DEFAULT_255_1_234
10
17.9779608
20
31.0508248
11
17.8285705
21
31.0508248
0
LINE
8
DEFAULT_255_1_234
10
17.295263
20
30.7046569
11
17.4438502
21
30.7046569
0
ARC
8
DEFAULT_255_1_234
10
17.7097523
20
30.6691959
40
0.1276617
50
359.3334982
51
18.5871358
0
ARC
8
DEFAULT_255_1_234
10
17.7306161
20
30.6747133
40
0.1061371
50
19.3540742
51
54.6485071
0
ARC
8
DEFAULT_255_1_234
10
17.6802062
20
30.6051919
40
0.1920087
50
54.3827097
51
65.0622807
0
ARC
8
DEFAULT_255_1_234
10
17.6033459
20
30.44349
40
0.3710447
50
64.8282493
51
71.4200025
0
ARC
8
DEFAULT_255_1_234
10
17.5131334
20
30.1788107
40
0.6506741
50
71.3164301
51
75.8006402
0
ARC
8
DEFAULT_255_1_234
10
17.4290154
20
29.8547561
40
0.9854641
50
75.6809531
51
78.0061883
0
ARC
8
DEFAULT_255_1_234
10
17.8738687
20
31.952677
40
1.1591028
50
254.6901892
51
258.0466452
0
ARC
8
DEFAULT_255_1_234
10
17.7700596
20
31.5767781
40
0.7691345
50
249.9010773
51
254.755261
0
ARC
8
DEFAULT_255_1_234
10
17.6696938
20
31.3041982
40
0.478665
50
243.3097214
51
249.9709442
0
ARC
8
DEFAULT_255_1_234
10
17.6067959
20
31.1787778
40
0.3383568
50
234.4047477
51
243.2862168
0
ARC
8
DEFAULT_255_1_234
10
17.5445483
20
31.0928232
40
0.2322322
50
220.8667099
51
234.5493881
0
ARC
8
DEFAULT_255_1_234
10
17.5103423
20
31.0616817
40
0.1859923
50
214.3062465
51
220.5065136
0
ARC
8
DEFAULT_255_1_234
10
17.5077503
20
31.058588
40
0.1821108
50
186.912965
51
213.9618616
0
ARC
8
DEFAULT_255_1_234
10
17.5609597
20
31.0672009
40
0.2359799
50
179.8808832
51
187.4339886
0
ARC
8
DEFAULT_255_1_234
10
17.5454731
20
31.0692088
40
0.2204978
50
132.005434
51
180.3942919
0
ARC
8
DEFAULT_255_1_234
10
17.6111344
20
31.0086083
40
0.3095791
50
129.2319861
51
133.5302299
0
ARC
8
DEFAULT_255_1_234
10
17.6164852
20
30.9991928
40
0.3202615
50
100.4410011
51
128.9081242
0
ARC
8
DEFAULT_255_1_234
10
17.6438736
20
30.8706455
40
0.4516583
50
89.6985377
51
100.9026564
0
ARC
8
DEFAULT_255_1_234
10
17.6495778
20
30.8546166
40
0.4676928
50
77.6965325
51
90.4076836
0
ARC
8
DEFAULT_255_1_234
10
17.6826762
20
30.9973413
40
0.3211988
50
50.7276602
51
78.0399361
0
ARC
8
DEFAULT_255_1_234
10
17.7271221
20
31.0491296
40
0.2529778
50
25.7545084
51
51.0957453
0
ARC
8
DEFAULT_255_1_234
10
17.7272445
20
31.0541206
40
0.250738
50
359.2468627
51
24.7394243
0
ARC
8
DEFAULT_255_1_234
10
17.6987897
20
31.0512664
40
0.1297815
50
359.8050318
51
45.1544908
0
ARC
8
DEFAULT_255_1_234
10
17.6581039
20
31.0164794
40
0.1831883
50
43.8047702
51
49.6271585
0
ARC
8
DEFAULT_255_1_234
10
17.6588941
20
31.0165678
40
0.18261
50
49.7980766
51
82.1218353
0
ARC
8
DEFAULT_255_1_234
10
17.6469912
20
30.9518998
40
0.2483163
50
81.4465357
51
90.1710293
0
ARC
8
DEFAULT_255_1_234
10
17.6445515
20
30.899288
40
0.300932
50
89.6766211
51
99.1264602
0
ARC
8
DEFAULT_255_1_234
10
17.6273977
20
31.0026537
40
0.1961547
50
98.968313
51
113.4570237
0
ARC
8
DEFAULT_255_1_234
10
17.6078062
20
31.0494965
40
0.1453859
50
113.722589
51
127.4763106
0
ARC
8
DEFAULT_255_1_234
10
17.5909709
20
31.0695124
40
0.1192639
50
126.9083309
51
150.3165862
0
ARC
8
DEFAULT_255_1_234
10
17.5862041
20
31.0745981
40
0.112623
50
151.3635175
51
180.0701457
0
ARC
8
DEFAULT_255_1_234
10
17.6170826
20
31.072499
40
0.1435149
50
179.2169974
51
179.9954013
0
ARC
8
DEFAULT_255_1_234
10
17.5809883
20
31.0712056
40
0.1074286
50
179.3040112
51
198.4225446
0
ARC
8
DEFAULT_255_1_234
10
17.5618017
20
31.0662127
40
0.0876573
50
199.2895851
51
238.6034594
0
ARC
8
DEFAULT_255_1_234
10
17.6220863
20
31.160845
40
0.1998512
50
237.9846301
51
246.8744712
0
ARC
8
DEFAULT_255_1_234
10
17.7078808
20
31.3571205
40
0.4140547
50
246.6234531
51
251.8168941
0
ARC
8
DEFAULT_255_1_234
10
17.8109352
20
31.6665905
40
0.7402308
50
251.713434
51
255.0778414
0
ARC
8
DEFAULT_255_1_234
10
17.9308614
20
32.1132563
40
1.2027155
50
255.0367487
51
257.4705983
0
ARC
8
DEFAULT_255_1_234
10
17.4200624
20
29.8118863
40
1.1546601
50
73.6837552
51
77.5016755
0
ARC
8
DEFAULT_255_1_234
10
17.5289399
20
30.1818581
40
0.7690009
50
68.7044154
51
73.7249639
0
ARC
8
DEFAULT_255_1_234
10
17.619242
20
30.4145654
40
0.5193873
50
63.590599
51
68.6626804
0
ARC
8
DEFAULT_255_1_234
10
17.6963439
20
30.5683123
40
0.3473927
50
54.7106439
51
63.7013633
0
ARC
8
DEFAULT_255_1_234
10
17.7587893
20
30.65554
40
0.2401192
50
41.0622434
51
54.8487496
0
ARC
8
DEFAULT_255_1_234
10
17.792928
20
30.6868592
40
0.1938094
50
34.4950568
51
40.7105546
0
ARC
8
DEFAULT_255_1_234
10
17.7976087
20
30.6917078
40
0.1872106
50
9.3763373
51
34.0833615
0
ARC
8
DEFAULT_255_1_234
10
17.7322957
20
30.6791728
40
0.2536988
50
359.7694872
51
9.7663171
0
ARC
8
DEFAULT_255_1_234
10
17.7520458
20
30.6748764
40
0.2339696
50
335.8654732
51
0.8022045
0
ARC
8
DEFAULT_255_1_234
10
17.7595503
20
30.6762197
40
0.2277108
50
307.7357725
51
334.7849066
0
ARC
8
DEFAULT_255_1_234
10
17.7194678
20
30.7212645
40
0.2878951
50
307.0241536
51
308.5578354
0
ARC
8
DEFAULT_255_1_234
10
17.693701
20
30.7598801
40
0.3342515
50
282.9362969
51
306.5646424
0
ARC
8
DEFAULT_255_1_234
10
17.6575307
20
30.9066108
40
0.4853615
50
271.1026298
51
283.2200835
0
ARC
8
DEFAULT_255_1_234
10
17.6511551
20
31.0307418
40
0.6096052
50
269.9919117
51
271.4772449
0
ARC
8
DEFAULT_255_1_234
10
17.6485306
20
30.9229436
40
0.5018135
50
259.0723564
51
270.289833
0
ARC
8
DEFAULT_255_1_234
10
17.6273038
20
30.8112271
40
0.388099
50
245.4963068
51
259.0227342
0
ARC
8
DEFAULT_255_1_234
10
17.5994995
20
30.7530615
40
0.3236422
50
228.9684658
51
245.7044727
0
ARC
8
DEFAULT_255_1_234
10
17.5729438
20
30.7203575
40
0.2815426
50
214.4011705
51
228.6759915
0
ARC
8
DEFAULT_255_1_234
10
17.5440179
20
30.704529
40
0.2487548
50
179.9705531
51
215.1572795
0
ARC
8
DEFAULT_255_1_234
10
17.6140779
20
30.7118806
40
0.1703809
50
182.4299387
51
203.0329699
0
ARC
8
DEFAULT_255_1_234
10
17.5956437
20
30.7062396
40
0.1512226
50
203.798802
51
232.548466
0
ARC
8
DEFAULT_255_1_234
10
17.6232958
20
30.7413826
40
0.1959374
50
232.3782728
51
256.3934612
0
ARC
8
DEFAULT_255_1_234
10
17.6463319
20
30.8303842
40
0.2878639
50
256.104506
51
268.4626716
0
ARC
8
DEFAULT_255_1_234
10
17.6509804
20
30.9100487
40
0.3676329
50
268.0715632
51
270.0138206
0
ARC
8
DEFAULT_255_1_234
10
17.6528328
20
30.8828083
40
0.3403971
50
269.7031147
51
278.8341955
0
ARC
8
DEFAULT_255_1_234
10
17.6710422
20
30.7697876
40
0.2259217
50
278.6728789
51
292.8232582
0
ARC
8
DEFAULT_255_1_234
10
17.691096
20
30.7196449
40
0.171929
50
293.1452328
51
303.6655899
0
ARC
8
DEFAULT_255_1_234
10
17.7175839
20
30.6820204
40
0.1259367
50
303.1248165
51
321.742847
0
ARC
8
DEFAULT_255_1_234
10
17.7361719
20
30.6657156
40
0.1012531
50
322.4748573
51
1.1291126
0
LINE
8
DEFAULT_255_2_778
10
10.5738396
20
32.9618073
11
9.3932396
21
32.9618073
0
LINE
8
DEFAULT_255_2_778
10
9.3932396
20
32.9618073
11
9.9837396
21
33.9844073
0
LINE
8
DEFAULT_255_2_778
10
9.9837396
20
33.9844073
11
11.1643396
21
33.9844073
0
LINE
8
DEFAULT_255_2_778
10
11.1643396
20
33.9844073
11
10.5738396
21
32.9618073
0
LINE
8
DEFAULT_255_2_778
10
10.5738396
20
32.9618073
11
10.5738396
21
32.9618073
0
LINE
8
DEFAULT_255_2_778
10
11.7546396
20
32.9618073
11
12.9354396
21
32.9618073
0
LINE
8
DEFAULT_255_2_778
10
12.9354396
20
32.9618073
11
12.3451396
21
33.9844073
0
LINE
8
DEFAULT_255_2_778
10
12.3451396
20
33.9844073
11
11.1643396
21
33.9844073
0
LINE
8
DEFAULT_255_2_778
10
11.1643396
20
33.9844073
11
11.7546396
21
32.9618073
0
LINE
8
DEFAULT_255_2_778
10
11.7546396
20
32.9618073
11
11.7546396
21
32.9618073
0
LINE
8
DEFAULT_255_2_778
10
11.7545823
20
35.0070146
11
11.1642823
21
36.0296146
0
LINE
8
DEFAULT_255_2_778
10
11.1642823
20
36.0296146
11
10.5737823
21
35.0070146
0
LINE
8
DEFAULT_255_2_778
10
10.5737823
20
35.0070146
11
11.1642823
21
33.9844146
0
LINE
8
DEFAULT_255_2_778
10
11.1642823
20
33.9844146
11
11.7545823
21
35.0070146
0
LINE
8
DEFAULT_255_2_778
10
11.7545823
20
35.0070146
11
11.7545823
21
35.0070146
0
ARC
8
DEFAULT_255_2_778
10
16.5183731
20
34.6532426
40
0.5650491
50
268.7543645
51
289.1417717
0
ARC
8
DEFAULT_255_2_778
10
16.606208
20
34.3980531
40
0.2951681
50
289.2776255
51
3.7648372
0
ARC
8
DEFAULT_255_2_778
10
16.3901618
20
34.4246085
40
0.5106278
50
359.1949826
51
0.0020862
0
ARC
8
DEFAULT_255_2_778
10
16.547449
20
34.4105832
40
0.1541914
50
280.2616216
51
358.5297855
0
ARC
8
DEFAULT_255_2_778
10
16.5080075
20
34.523155
40
0.2726346
50
269.5969454
51
284.2065679
0
ARC
8
DEFAULT_255_2_778
10
16.4981967
20
34.5075316
40
0.2571258
50
246.5290903
51
271.7590909
0
ARC
8
DEFAULT_255_2_778
10
16.4527148
20
34.3995009
40
0.1399248
50
188.1071678
51
245.9934684
0
ARC
8
DEFAULT_255_2_778
10
16.4829007
20
34.4064617
40
0.1708111
50
179.9445314
51
188.990814
0
ARC
8
DEFAULT_255_2_778
10
16.4924507
20
34.4132849
40
0.3763411
50
178.2272621
51
205.8283807
0
ARC
8
DEFAULT_255_2_778
10
16.4132476
20
34.3955833
40
0.2979176
50
209.4028057
51
263.0375728
0
ARC
8
DEFAULT_255_2_778
10
16.5005111
20
34.7702629
40
0.6816586
50
259.5722942
51
270.4689037
0
ARC
8
DEFAULT_255_2_778
10
17.411252
20
34.8264767
40
0.1217154
50
2.0482843
51
87.015299
0
ARC
8
DEFAULT_255_2_778
10
17.4060617
20
34.8308852
40
0.126828
50
353.0600847
51
359.9737428
0
ARC
8
DEFAULT_255_2_778
10
17.4110442
20
34.8277555
40
0.1215295
50
270.5739762
51
354.2410513
0
ARC
8
DEFAULT_255_2_778
10
17.4065059
20
34.8639297
40
0.1578027
50
269.9941256
51
272.0902921
0
ARC
8
DEFAULT_255_2_778
10
17.414084
20
34.4130295
40
0.1400686
50
358.2807293
51
95.6106825
0
ARC
8
DEFAULT_255_2_778
10
17.4103233
20
34.4091963
40
0.1437669
50
266.9962473
51
359.8528392
0
ARC
8
DEFAULT_255_2_778
10
17.4725249
20
34.4494988
40
0.3335288
50
268.2414507
51
302.0223478
0
ARC
8
DEFAULT_255_2_778
10
17.5091261
20
34.374183
40
0.2504234
50
304.0600275
51
2.0468005
0
ARC
8
DEFAULT_255_2_778
10
17.4832788
20
34.3808521
40
0.2761203
50
0.4720601
51
65.8403529
0
ARC
8
DEFAULT_255_2_778
10
17.5191655
20
34.4456061
40
0.2024466
50
67.606893
51
75.8693222
0
ARC
8
DEFAULT_255_2_778
10
17.5042026
20
34.853222
40
0.2208874
50
286.9473417
51
358.0074963
0
ARC
8
DEFAULT_255_2_778
10
17.4710866
20
34.8620045
40
0.2544031
50
356.2897886
51
0.0050857
0
ARC
8
DEFAULT_255_2_778
10
17.497262
20
34.8670946
40
0.2282839
50
358.7280137
51
81.8073164
0
ARC
8
DEFAULT_255_2_778
10
17.4216369
20
34.6156283
40
0.4895182
50
77.2355086
51
90.5088275
0
ARC
8
DEFAULT_255_2_778
10
17.5842747
20
33.6510989
40
0.1302704
50
89.9972707
51
92.6773048
0
ARC
8
DEFAULT_255_2_778
10
17.5844071
20
33.65187
40
0.1294993
50
45.0546048
51
90.0558451
0
ARC
8
DEFAULT_255_2_778
10
17.5844118
20
33.651719
40
0.1296029
50
0.001866
51
45.1031959
0
ARC
8
DEFAULT_255_2_778
10
17.5845123
20
33.6517202
40
0.1295026
50
357.4803735
51
0.0013544
0
ARC
8
DEFAULT_255_2_778
10
17.5901979
20
33.6478512
40
0.1237052
50
339.8672523
51
359.1550732
0
ARC
8
DEFAULT_255_2_778
10
17.5794513
20
33.6450079
40
0.1329691
50
272.0853006
51
342.6124646
0
ARC
8
DEFAULT_255_2_778
10
17.6596145
20
33.6832661
40
0.2575135
50
286.787355
51
290.6121696
0
ARC
8
DEFAULT_255_2_778
10
17.6689461
20
33.6689533
40
0.24086
50
289.7330405
51
342.3216972
0
ARC
8
DEFAULT_255_2_778
10
17.641261
20
33.6737954
40
0.268735
50
343.130572
51
0.3905272
0
ARC
8
DEFAULT_255_2_778
10
17.6578783
20
33.6911767
40
0.2525904
50
356.4706028
51
80.1788963
0
ARC
8
DEFAULT_255_2_778
10
17.5921649
20
33.4642163
40
0.4881286
50
77.1212301
51
90.4900821
0
ARC
8
DEFAULT_255_2_778
10
17.5166337
20
33.166536
40
0.1865405
50
50.1507009
51
92.9634648
0
ARC
8
DEFAULT_255_2_778
10
17.5301354
20
33.1948678
40
0.1563319
50
12.621233
51
47.2950617
0
ARC
8
DEFAULT_255_2_778
10
16.8485884
20
33.0619726
40
0.8506657
50
2.8173892
51
11.3253986
0
ARC
8
DEFAULT_255_2_778
10
-29.2295733
20
29.5656175
40
47.060992
50
4.3048394
51
4.3117143
0
ARC
8
DEFAULT_255_2_778
10
18.5500859
20
33.138084
40
0.8523717
50
182.6850102
51
191.2954256
0
ARC
8
DEFAULT_255_2_778
10
17.9656837
20
33.0317399
40
0.2586603
50
193.5512904
51
195.3825538
0
ARC
8
DEFAULT_255_2_778
10
19.3507425
20
33.2906408
40
1.4700994
50
182.6283124
51
192.8725697
0
ARC
8
DEFAULT_255_2_778
10
17.6207606
20
33.2177215
40
0.261487
50
1.2064311
51
30.4123358
0
ARC
8
DEFAULT_255_2_778
10
17.6663626
20
33.232776
40
0.2147766
50
33.1081154
51
71.7312197
0
LINE
8
DEFAULT_255_2_778
10
13.4657897
20
33.3973271
11
13.9385897
21
33.3973271
0
LINE
8
DEFAULT_255_2_778
10
13.9385897
20
33.3973271
11
13.9385897
21
33.5687271
0
LINE
8
DEFAULT_255_2_778
10
13.9385897
20
33.5687271
11
13.4657897
21
33.5687271
0
LINE
8
DEFAULT_255_2_778
10
13.4657897
20
33.5687271
11
13.4657897
21
33.7796271
0
LINE
8
DEFAULT_255_2_778
10
13.4657897
20
33.7796271
11
13.9977897
21
33.7796271
0
LINE
8
DEFAULT_255_2_778
10
13.9977897
20
33.7796271
11
13.9977897
21
33.9510271
0
LINE
8
DEFAULT_255_2_778
10
13.9977897
20
33.9510271
11
13.4657897
21
33.9510271
0
LINE
8
DEFAULT_255_2_778
10
13.4657897
20
33.9510271
11
13.2651897
21
33.9510271
0
LINE
8
DEFAULT_255_2_778
10
13.2651897
20
33.9510271
11
13.2651897
21
33.7796271
0
LINE
8
DEFAULT_255_2_778
10
13.2651897
20
33.7796271
11
13.2651897
21
33.1332271
0
LINE
8
DEFAULT_255_2_778
10
13.2651897
20
33.1332271
11
13.2651897
21
32.9617271
0
LINE
8
DEFAULT_255_2_778
10
13.2651897
20
32.9617271
11
13.4657897
21
32.9617271
0
LINE
8
DEFAULT_255_2_778
10
13.4657897
20
32.9617271
11
14.0118897
21
32.9617271
0
LINE
8
DEFAULT_255_2_778
10
14.0118897
20
32.9617271
11
14.0118897
21
33.1332271
0
LINE
8
DEFAULT_255_2_778
10
14.0118897
20
33.1332271
11
13.4657897
21
33.1332271
0
LINE
8
DEFAULT_255_2_778
10
13.4657897
20
33.1332271
11
13.4657897
21
33.3970271
0
LINE
8
DEFAULT_255_2_778
10
13.4657897
20
33.3970271
11
13.4657897
21
33.3973271
0
LINE
8
DEFAULT_255_2_778
10
13.4519897
20
34.8514271
11
13.6620897
21
34.1161271
0
LINE
8
DEFAULT_255_2_778
10
13.6620897
20
34.1161271
11
13.6704897
21
34.1161271
0
LINE
8
DEFAULT_255_2_778
10
13.6704897
20
34.1161271
11
13.8464897
21
34.1161271
0
LINE
8
DEFAULT_255_2_778
10
13.8464897
20
34.1161271
11
13.8546897
21
34.1161271
0
LINE
8
DEFAULT_255_2_778
10
13.8546897
20
34.1161271
11
14.0647897
21
34.8514271
0
LINE
8
DEFAULT_255_2_778
10
14.0647897
20
34.8514271
11
14.0647897
21
34.1161271
0
LINE
8
DEFAULT_255_2_778
10
14.0647897
20
34.1161271
11
14.2515897
21
34.1161271
0
LINE
8
DEFAULT_255_2_778
10
14.2515897
20
34.1161271
11
14.2515897
21
35.1054271
0
LINE
8
DEFAULT_255_2_778
10
14.2515897
20
35.1054271
11
14.1496897
21
35.1054271
0
LINE
8
DEFAULT_255_2_778
10
14.1496897
20
35.1054271
11
14.0615897
21
35.1054271
0
LINE
8
DEFAULT_255_2_778
10
14.0615897
20
35.1054271
11
13.9655897
21
35.1054271
0
LINE
8
DEFAULT_255_2_778
10
13.9655897
20
35.1054271
11
13.7583897
21
34.4111271
0
LINE
8
DEFAULT_255_2_778
10
13.7583897
20
34.4111271
11
13.5511897
21
35.1054271
0
LINE
8
DEFAULT_255_2_778
10
13.5511897
20
35.1054271
11
13.4551897
21
35.1054271
0
LINE
8
DEFAULT_255_2_778
10
13.4551897
20
35.1054271
11
13.3670897
21
35.1054271
0
LINE
8
DEFAULT_255_2_778
10
13.3670897
20
35.1054271
11
13.2651897
21
35.1054271
0
LINE
8
DEFAULT_255_2_778
10
13.2651897
20
35.1054271
11
13.2651897
21
34.1161271
0
LINE
8
DEFAULT_255_2_778
10
13.2651897
20
34.1161271
11
13.4519897
21
34.1161271
0
LINE
8
DEFAULT_255_2_778
10
13.4519897
20
34.1161271
11
13.4519897
21
34.8514271
0
LINE
8
DEFAULT_255_2_778
10
13.4519897
20
34.8514271
11
13.4519897
21
34.8514271
0
LINE
8
DEFAULT_255_2_778
10
18.0056897
20
35.1054271
11
17.8064897
21
35.1054271
0
LINE
8
DEFAULT_255_2_778
10
17.8064897
20
35.1054271
11
17.8064897
21
34.1161271
0
LINE
8
DEFAULT_255_2_778
10
17.8064897
20
34.1161271
11
18.0056897
21
34.1161271
0
LINE
8
DEFAULT_255_2_778
10
18.0056897
20
34.1161271
11
18.0056897
21
35.1054271
0
LINE
8
DEFAULT_255_2_778
10
18.0056897
20
35.1054271
11
18.0056897
21
35.1054271
0
LINE
8
DEFAULT_255_2_778
10
18.1681897
20
33.9513271
11
17.9689897
21
33.9513271
0
LINE
8
DEFAULT_255_2_778
10
17.9689897
20
33.9513271
11
17.9689897
21
32.9620271
0
LINE
8
DEFAULT_255_2_778
10
17.9689897
20
32.9620271
11
18.1681897
21
32.9620271
0
LINE
8
DEFAULT_255_2_778
10
18.1681897
20
32.9620271
11
18.1681897
21
33.9513271
0
LINE
8
DEFAULT_255_2_778
10
18.1681897
20
33.9513271
11
18.1681897
21
33.9513271
0
LINE
8
DEFAULT_255_2_778
10
19.9765897
20
35.1054271
11
19.7773897
21
35.1054271
0
LINE
8
DEFAULT_255_2_778
10
19.7773897
20
35.1054271
11
19.7773897
21
34.1161271
0
LINE
8
DEFAULT_255_2_778
10
19.7773897
20
34.1161271
11
19.9765897
21
34.1161271
0
LINE
8
DEFAULT_255_2_778
10
19.9765897
20
34.1161271
11
19.9765897
21
35.1054271
0
LINE
8
DEFAULT_255_2_778
10
19.9765897
20
35.1054271
11
19.9765897
21
35.1054271
0
LINE
8
DEFAULT_255_2_778
10
14.5298897
20
35.1054271
11
14.3306897
21
35.1054271
0
LINE
8
DEFAULT_255_2_778
10
14.3306897
20
35.1054271
11
14.3306897
21
34.1161271
0
LINE
8
DEFAULT_255_2_778
10
14.3306897
20
34.1161271
11
14.5298897
21
34.1161271
0
LINE
8
DEFAULT_255_2_778
10
14.5298897
20
34.1161271
11
14.5298897
21
35.1054271
0
LINE
8
DEFAULT_255_2_778
10
14.5298897
20
35.1054271
11
14.5298897
21
35.1054271
0
LINE
8
DEFAULT_255_2_778
10
19.4989897
20
34.7194271
11
19.1029897
21
34.7194271
0
LINE
8
DEFAULT_255_2_778
10
19.1029897
20
34.7194271
11
19.1029897
21
35.1051271
0
LINE
8
DEFAULT_255_2_778
10
19.1029897
20
35.1051271
11
18.9068897
21
35.1051271
0
LINE
8
DEFAULT_255_2_778
10
18.9068897
20
35.1051271
11
18.9068897
21
34.1161271
0
LINE
8
DEFAULT_255_2_778
10
18.9068897
20
34.1161271
11
19.1029897
21
34.1161271
0
LINE
8
DEFAULT_255_2_778
10
19.1029897
20
34.1161271
11
19.1029897
21
34.5479271
0
LINE
8
DEFAULT_255_2_778
10
19.1029897
20
34.5479271
11
19.4989897
21
34.5479271
0
LINE
8
DEFAULT_255_2_778
10
19.4989897
20
34.5479271
11
19.4989897
21
34.1161271
0
LINE
8
DEFAULT_255_2_778
10
19.4989897
20
34.1161271
11
19.6950897
21
34.1161271
0
LINE
8
DEFAULT_255_2_778
10
19.6950897
20
34.1161271
11
19.6950897
21
35.1051271
0
LINE
8
DEFAULT_255_2_778
10
19.6950897
20
35.1051271
11
19.4989897
21
35.1051271
0
LINE
8
DEFAULT_255_2_778
10
19.4989897
20
35.1051271
11
19.4989897
21
34.7194271
0
LINE
8
DEFAULT_255_2_778
10
19.4989897
20
34.7194271
11
19.4989897
21
34.7194271
0
LINE
8
DEFAULT_255_2_778
10
14.8246897
20
34.1161271
11
15.0280897
21
34.1161271
0
LINE
8
DEFAULT_255_2_778
10
15.0280897
20
34.1161271
11
15.0280897
21
34.9340271
0
LINE
8
DEFAULT_255_2_778
10
15.0280897
20
34.9340271
11
15.2696897
21
34.9340271
0
LINE
8
DEFAULT_255_2_778
10
15.2696897
20
34.9340271
11
15.2696897
21
35.1054271
0
LINE
8
DEFAULT_255_2_778
10
15.2696897
20
35.1054271
11
15.0280897
21
35.1054271
0
LINE
8
DEFAULT_255_2_778
10
15.0280897
20
35.1054271
11
14.8246897
21
35.1054271
0
LINE
8
DEFAULT_255_2_778
10
14.8246897
20
35.1054271
11
14.5830897
21
35.1054271
0
LINE
8
DEFAULT_255_2_778
10
14.5830897
20
35.1054271
11
14.5830897
21
34.9340271
0
LINE
8
DEFAULT_255_2_778
10
14.5830897
20
34.9340271
11
14.8246897
21
34.9340271
0
LINE
8
DEFAULT_255_2_778
10
14.8246897
20
34.9340271
11
14.8246897
21
34.1161271
0
LINE
8
DEFAULT_255_2_778
10
14.8246897
20
34.1161271
11
14.8246897
21
34.1161271
0
LINE
8
DEFAULT_255_2_778
10
16.6422897
20
32.9620271
11
16.8454897
21
32.9620271
0
LINE
8
DEFAULT_255_2_778
10
16.8454897
20
32.9620271
11
16.8454897
21
33.7798271
0
LINE
8
DEFAULT_255_2_778
10
16.8454897
20
33.7798271
11
17.0873897
21
33.7798271
0
LINE
8
DEFAULT_255_2_778
10
17.0873897
20
33.7798271
11
17.0873897
21
33.9516271
0
LINE
8
DEFAULT_255_2_778
10
17.0873897
20
33.9516271
11
16.8454897
21
33.9516271
0
LINE
8
DEFAULT_255_2_778
10
16.8454897
20
33.9516271
11
16.6422897
21
33.9516271
0
LINE
8
DEFAULT_255_2_778
10
16.6422897
20
33.9516271
11
16.4004897
21
33.9516271
0
LINE
8
DEFAULT_255_2_778
10
16.4004897
20
33.9516271
11
16.4004897
21
33.7798271
0
LINE
8
DEFAULT_255_2_778
10
16.4004897
20
33.7798271
11
16.6422897
21
33.7798271
0
LINE
8
DEFAULT_255_2_778
10
16.6422897
20
33.7798271
11
16.6422897
21
32.9620271
0
LINE
8
DEFAULT_255_2_778
10
16.6422897
20
32.9620271
11
16.6422897
21
32.9620271
0
LINE
8
DEFAULT_255_2_778
10
16.9007897
20
34.4246271
11
16.9007897
21
35.1051271
0
LINE
8
DEFAULT_255_2_778
10
16.9007897
20
35.1051271
11
16.7015897
21
35.1051271
0
LINE
8
DEFAULT_255_2_778
10
16.7015897
20
35.1051271
11
16.7015897
21
34.4066271
0
LINE
8
DEFAULT_255_2_778
10
16.3120897
20
34.4066271
11
16.3120897
21
35.1051271
0
LINE
8
DEFAULT_255_2_778
10
16.3120897
20
35.1051271
11
16.1162897
21
35.1051271
0
LINE
8
DEFAULT_255_2_778
10
16.1162897
20
35.1051271
11
16.1162897
21
34.4249271
0
LINE
8
DEFAULT_255_2_778
10
15.0000897
20
33.3973271
11
15.4730897
21
33.3973271
0
LINE
8
DEFAULT_255_2_778
10
15.4730897
20
33.3973271
11
15.4730897
21
33.5687271
0
LINE
8
DEFAULT_255_2_778
10
15.4730897
20
33.5687271
11
15.0000897
21
33.5687271
0
LINE
8
DEFAULT_255_2_778
10
15.0000897
20
33.5687271
11
15.0000897
21
33.7796271
0
LINE
8
DEFAULT_255_2_778
10
15.0000897
20
33.7796271
11
15.5320897
21
33.7796271
0
LINE
8
DEFAULT_255_2_778
10
15.5320897
20
33.7796271
11
15.5320897
21
33.9510271
0
LINE
8
DEFAULT_255_2_778
10
15.5320897
20
33.9510271
11
15.0000897
21
33.9510271
0
LINE
8
DEFAULT_255_2_778
10
15.0000897
20
33.9510271
11
14.7997897
21
33.9510271
0
LINE
8
DEFAULT_255_2_778
10
14.7997897
20
33.9510271
11
14.7997897
21
33.7796271
0
LINE
8
DEFAULT_255_2_778
10
14.7997897
20
33.7796271
11
14.7997897
21
33.1332271
0
LINE
8
DEFAULT_255_2_778
10
14.7997897
20
33.1332271
11
14.7997897
21
32.9617271
0
LINE
8
DEFAULT_255_2_778
10
14.7997897
20
32.9617271
11
15.0000897
21
32.9617271
0
LINE
8
DEFAULT_255_2_778
10
15.0000897
20
32.9617271
11
15.5461897
21
32.9617271
0
LINE
8
DEFAULT_255_2_778
10
15.5461897
20
32.9617271
11
15.5461897
21
33.1332271
0
LINE
8
DEFAULT_255_2_778
10
15.5461897
20
33.1332271
11
15.0000897
21
33.1332271
0
LINE
8
DEFAULT_255_2_778
10
15.0000897
20
33.1332271
11
15.0000897
21
33.3970271
0
LINE
8
DEFAULT_255_2_778
10
15.0000897
20
33.3970271
11
15.0000897
21
33.3973271
0
LINE
8
DEFAULT_255_2_778
10
17.4064897
20
34.7061271
11
17.1690897
21
34.7061271
0
LINE
8
DEFAULT_255_2_778
10
17.1690897
20
34.7061271
11
17.1690897
21
34.9477271
0
LINE
8
DEFAULT_255_2_778
10
17.1690897
20
34.9477271
11
17.4175897
21
34.9477271
0
LINE
8
DEFAULT_255_2_778
10
17.4175897
20
34.9477271
11
17.4175897
21
34.9480271
0
LINE
8
DEFAULT_255_2_778
10
17.4027897
20
34.2653271
11
17.1690897
21
34.2653271
0
LINE
8
DEFAULT_255_2_778
10
17.1690897
20
34.2653271
11
17.1690897
21
34.5524271
0
LINE
8
DEFAULT_255_2_778
10
17.1690897
20
34.5524271
11
17.4003897
21
34.5524271
0
LINE
8
DEFAULT_255_2_778
10
17.1767897
20
34.1161271
11
17.4622897
21
34.1161271
0
LINE
8
DEFAULT_255_2_778
10
17.4172897
20
35.1051271
11
17.1770897
21
35.1051271
0
LINE
8
DEFAULT_255_2_778
10
17.1770897
20
35.1051271
11
16.9722897
21
35.1051271
0
LINE
8
DEFAULT_255_2_778
10
16.9722897
20
35.1051271
11
16.9711897
21
35.1051271
0
LINE
8
DEFAULT_255_2_778
10
16.9711897
20
35.1051271
11
16.9711897
21
34.1161271
0
LINE
8
DEFAULT_255_2_778
10
16.9711897
20
34.1161271
11
16.9722897
21
34.1161271
0
LINE
8
DEFAULT_255_2_778
10
16.9722897
20
34.1161271
11
17.1770897
21
34.1161271
0
LINE
8
DEFAULT_255_2_778
10
17.1770897
20
34.1161271
11
17.1767897
21
34.1161271
0
LINE
8
DEFAULT_255_2_778
10
17.3368897
20
33.5118271
11
17.3368897
21
33.7812271
0
LINE
8
DEFAULT_255_2_778
10
17.3368897
20
33.7812271
11
17.5781897
21
33.7812271
0
LINE
8
DEFAULT_255_2_778
10
17.5842897
20
33.5121271
11
17.3370897
21
33.5121271
0
LINE
8
DEFAULT_255_2_778
10
17.3370897
20
33.5121271
11
17.3368897
21
33.5118271
0
LINE
8
DEFAULT_255_2_778
10
17.5879897
20
33.9523271
11
17.3368897
21
33.9523271
0
LINE
8
DEFAULT_255_2_778
10
17.3368897
20
33.9523271
11
17.1383897
21
33.9523271
0
LINE
8
DEFAULT_255_2_778
10
17.1383897
20
33.9523271
11
17.1362897
21
33.9523271
0
LINE
8
DEFAULT_255_2_778
10
17.1362897
20
33.9523271
11
17.1362897
21
32.9631271
0
LINE
8
DEFAULT_255_2_778
10
17.1362897
20
32.9631271
11
17.3368897
21
32.9631271
0
LINE
8
DEFAULT_255_2_778
10
17.3368897
20
32.9631271
11
17.3368897
21
33.3528271
0
LINE
8
DEFAULT_255_2_778
10
17.3368897
20
33.3528271
11
17.5069897
21
33.3528271
0
LINE
8
DEFAULT_255_2_778
10
17.7162897
20
32.9631271
11
17.9175897
21
32.9631271
0
LINE
8
DEFAULT_255_2_778
10
14.2763897
20
33.9513271
11
14.0760897
21
33.9513271
0
LINE
8
DEFAULT_255_2_778
10
14.0760897
20
33.9513271
11
14.0760897
21
33.1335271
0
LINE
8
DEFAULT_255_2_778
10
14.0760897
20
33.1335271
11
14.0760897
21
32.9620271
0
LINE
8
DEFAULT_255_2_778
10
14.0760897
20
32.9620271
11
14.2763897
21
32.9620271
0
LINE
8
DEFAULT_255_2_778
10
14.2763897
20
32.9620271
11
14.7428897
21
32.9620271
0
LINE
8
DEFAULT_255_2_778
10
14.7428897
20
32.9620271
11
14.7428897
21
33.1335271
0
LINE
8
DEFAULT_255_2_778
10
14.7428897
20
33.1335271
11
14.2763897
21
33.1335271
0
LINE
8
DEFAULT_255_2_778
10
14.2763897
20
33.1335271
11
14.2763897
21
33.9513271
0
LINE
8
DEFAULT_255_2_778
10
14.2763897
20
33.9513271
11
14.2763897
21
33.9513271
0
ARC
8
DEFAULT_255_2_778
10
15.4584271
20
33.5771969
40
0.9681224
50
72.4822103
51
81.3184214
0
ARC
8
DEFAULT_255_2_778
10
15.7160297
20
34.3538918
40
0.1503783
50
28.8883513
51
77.0092434
0
ARC
8
DEFAULT_255_2_778
10
15.7432379
20
34.3828196
40
0.113238
50
358.9917455
51
22.7117017
0
ARC
8
DEFAULT_255_2_778
10
15.7394861
20
34.3869918
40
0.1171346
50
289.2958104
51
356.9831562
0
ARC
8
DEFAULT_255_2_778
10
15.6668261
20
34.5444882
40
0.2902651
50
268.4665462
51
292.5613311
0
ARC
8
DEFAULT_255_2_778
10
15.6496856
20
34.4854179
40
0.2312808
50
236.4956947
51
272.3225735
0
ARC
8
DEFAULT_255_2_778
10
15.6106646
20
34.4171839
40
0.1529307
50
178.9722202
51
234.5742435
0
ARC
8
DEFAULT_255_2_778
10
15.5656113
20
34.4076079
40
0.3002058
50
177.6481608
51
245.5596397
0
ARC
8
DEFAULT_255_2_778
10
15.6409971
20
34.5798561
40
0.488217
50
245.8690375
51
267.169035
0
ARC
8
DEFAULT_255_2_778
10
15.6671503
20
34.8308916
40
0.7403648
50
266.1069867
51
270.0547972
0
ARC
8
DEFAULT_255_2_778
10
15.6772894
20
34.6621135
40
0.5716642
50
269.0547216
51
287.7147747
0
ARC
8
DEFAULT_255_2_778
10
15.7598889
20
34.4164091
40
0.3125017
50
286.995984
51
325.1221533
0
ARC
8
DEFAULT_255_2_778
10
15.7678294
20
34.399861
40
0.2966627
50
326.8673922
51
0.8625726
0
ARC
8
DEFAULT_255_2_778
10
15.7898286
20
34.4084409
40
0.2746606
50
359.1417932
51
76.9739731
0
ARC
8
DEFAULT_255_2_778
10
15.6705461
20
34.1275719
40
0.577616
50
71.7185727
51
79.1315439
0
ARC
8
DEFAULT_255_2_778
10
14.2492968
20
26.773967
40
8.0673056
50
79.0662148
51
79.6216572
0
ARC
8
DEFAULT_255_2_778
10
16.4356585
20
38.6516581
40
4.0099443
50
259.1227669
51
259.4665204
0
ARC
8
DEFAULT_255_2_778
10
15.7836732
20
35.3566142
40
0.6513291
50
249.9945768
51
260.7485895
0
ARC
8
DEFAULT_255_2_778
10
15.5880401
20
34.8455999
40
0.1046098
50
178.6705173
51
254.9333545
0
ARC
8
DEFAULT_255_2_778
10
15.6049957
20
34.8421688
40
0.1216785
50
93.288632
51
177.2403935
0
ARC
8
DEFAULT_255_2_778
10
15.6585677
20
34.6551752
40
0.3143588
50
89.6189463
51
101.1057977
0
ARC
8
DEFAULT_255_2_778
10
15.6722733
20
34.767016
40
0.2028439
50
53.5634072
51
93.2825843
0
ARC
8
DEFAULT_255_2_778
10
15.7018505
20
34.8252144
40
0.1388739
50
357.1985816
51
49.1152298
0
ARC
8
DEFAULT_255_2_778
10
15.7254907
20
34.8184274
40
0.3087677
50
359.9999335
51
2.3703878
0
ARC
8
DEFAULT_255_2_778
10
15.7353555
20
34.8199337
40
0.298851
50
2.1600756
51
60.1092229
0
ARC
8
DEFAULT_255_2_778
10
15.6766212
20
34.7133133
40
0.4205645
50
60.4106856
51
86.1444419
0
ARC
8
DEFAULT_255_2_778
10
15.6536151
20
34.5366228
40
0.5985046
50
85.0843314
51
90.0628677
0
ARC
8
DEFAULT_255_2_778
10
15.6529718
20
34.6600466
40
0.4750804
50
90.001616
51
92.2300394
0
ARC
8
DEFAULT_255_2_778
10
15.6281193
20
34.765187
40
0.3696351
50
89.0131319
51
149.6364996
0
ARC
8
DEFAULT_255_2_778
10
15.5505461
20
34.8374055
40
0.2671974
50
154.5962367
51
180.4885883
0
ARC
8
DEFAULT_255_2_778
10
15.5651524
20
34.835884
40
0.281795
50
180.1539064
51
255.1120325
0
ARC
8
DEFAULT_255_2_778
10
15.7094242
20
35.158732
40
0.6333958
50
249.9962237
51
260.4976723
0
ARC
8
DEFAULT_255_2_778
10
18.2470963
20
33.5783351
40
0.967002
50
72.4685023
51
81.3064395
0
ARC
8
DEFAULT_255_2_778
10
18.5045397
20
34.353927
40
0.1503535
50
28.8782248
51
76.9904304
0
ARC
8
DEFAULT_255_2_778
10
18.5317197
20
34.3828189
40
0.1132561
50
358.9922779
51
22.7082666
0
ARC
8
DEFAULT_255_2_778
10
18.5280402
20
34.3869088
40
0.1170763
50
289.2761556
51
357.0223042
0
ARC
8
DEFAULT_255_2_778
10
18.4553612
20
34.5447836
40
0.2905613
50
268.4611814
51
292.5289055
0
ARC
8
DEFAULT_255_2_778
10
18.4381801
20
34.4863175
40
0.2321799
50
236.6698634
51
272.3149402
0
ARC
8
DEFAULT_255_2_778
10
18.39878
20
34.4171762
40
0.1528464
50
178.9687581
51
234.7686008
0
ARC
8
DEFAULT_255_2_778
10
18.3540113
20
34.4076079
40
0.3002058
50
177.6481608
51
245.5596397
0
ARC
8
DEFAULT_255_2_778
10
18.4293971
20
34.5798561
40
0.488217
50
245.8690375
51
267.169035
0
ARC
8
DEFAULT_255_2_778
10
18.4555503
20
34.8308916
40
0.7403648
50
266.1069867
51
270.0547972
0
ARC
8
DEFAULT_255_2_778
10
18.4656836
20
34.6627451
40
0.5722957
50
269.0563423
51
287.7048702
0
ARC
8
DEFAULT_255_2_778
10
18.548344
20
34.4167682
40
0.312856
50
286.9832601
51
325.0871916
0
ARC
8
DEFAULT_255_2_778
10
18.5567708
20
34.3998856
40
0.2964208
50
326.8311942
51
0.8585267
0
ARC
8
DEFAULT_255_2_778
10
18.5785756
20
34.4085282
40
0.2746149
50
359.1234265
51
76.9343785
0
ARC
8
DEFAULT_255_2_778
10
18.4596421
20
34.1286965
40
0.5764934
50
71.6999697
51
79.1198353
0
ARC
8
DEFAULT_255_2_778
10
17.0173657
20
26.6519392
40
8.1910887
50
79.0843627
51
79.6321368
0
ARC
8
DEFAULT_255_2_778
10
19.2200266
20
38.6314177
40
3.9892176
50
259.1314419
51
259.4772924
0
ARC
8
DEFAULT_255_2_778
10
18.5723251
20
35.3560131
40
0.6507003
50
249.9919323
51
260.7592458
0
ARC
8
DEFAULT_255_2_778
10
18.376901
20
34.8455546
40
0.1045718
50
178.6452075
51
254.9151907
0
ARC
8
DEFAULT_255_2_778
10
18.3939581
20
34.8421016
40
0.121744
50
93.2745253
51
177.21023
0
ARC
8
DEFAULT_255_2_778
10
18.4475726
20
34.6550052
40
0.3145287
50
89.6200387
51
101.1027534
0
ARC
8
DEFAULT_255_2_778
10
18.4613489
20
34.7683453
40
0.2015212
50
53.1490002
51
93.3256649
0
ARC
8
DEFAULT_255_2_778
10
18.4902753
20
34.8251519
40
0.1391457
50
357.2298288
51
48.6469881
0
ARC
8
DEFAULT_255_2_778
10
18.5137232
20
34.8184226
40
0.3092351
50
0.0008291
51
2.3676985
0
ARC
8
DEFAULT_255_2_778
10
18.5240744
20
34.8199868
40
0.2988304
50
2.1500394
51
60.0956838
0
ARC
8
DEFAULT_255_2_778
10
18.4654399
20
34.7134909
40
0.4203859
50
60.40452
51
86.1455285
0
ARC
8
DEFAULT_255_2_778
10
18.4424157
20
34.5366686
40
0.5984588
50
85.0841409
51
90.0629301
0
ARC
8
DEFAULT_255_2_778
10
18.4417778
20
34.6596392
40
0.4754878
50
90.0023409
51
92.3231329
0
ARC
8
DEFAULT_255_2_778
10
18.4167555
20
34.7649604
40
0.3698206
50
89.1093915
51
149.6400816
0
ARC
8
DEFAULT_255_2_778
10
18.338761
20
34.8373917
40
0.2669122
50
154.6001925
51
180.486137
0
ARC
8
DEFAULT_255_2_778
10
18.3537607
20
34.8360152
40
0.2819037
50
180.1805176
51
255.132702
0
ARC
8
DEFAULT_255_2_778
10
18.4982264
20
35.1592784
40
0.6339516
50
250.0026216
51
260.4967164
0
ARC
8
DEFAULT_255_2_778
10
16.008917
20
33.3664283
40
0.2519711
50
190.2626864
51
267.3480013
0
ARC
8
DEFAULT_255_2_778
10
16.2443543
20
33.4577548
40
0.5022041
50
179.6723028
51
195.7380858
0
ARC
8
DEFAULT_255_2_778
10
16.1790511
20
33.4732671
40
0.4370755
50
148.7005643
51
181.6572045
0
ARC
8
DEFAULT_255_2_778
10
15.9957576
20
33.5833723
40
0.2232598
50
89.6148479
51
148.4074796
0
ARC
8
DEFAULT_255_2_778
10
16.0060936
20
33.605449
40
0.201372
50
41.9769772
51
92.5146611
0
ARC
8
DEFAULT_255_2_778
10
15.9522078
20
33.5677523
40
0.2667646
50
15.1848537
51
40.2549591
0
ARC
8
DEFAULT_255_2_778
10
16.028123
20
33.5780326
40
0.3935735
50
8.7091682
51
82.0550801
0
ARC
8
DEFAULT_255_2_778
10
15.9931241
20
33.4315871
40
0.543642
50
80.5350289
51
90.1544743
0
ARC
8
DEFAULT_255_2_778
10
15.9818804
20
33.5202192
40
0.4551129
50
88.7689246
51
119.6437418
0
ARC
8
DEFAULT_255_2_778
10
16.0077717
20
33.5239647
40
0.4653013
50
122.644121
51
173.3997839
0
ARC
8
DEFAULT_255_2_778
10
16.2711934
20
33.4596568
40
0.7351371
50
170.7798304
51
180.1348114
0
ARC
8
DEFAULT_255_2_778
10
16.1377257
20
33.4442615
40
0.6018225
50
178.6988735
51
210.5289552
0
ARC
8
DEFAULT_255_2_778
10
15.970325
20
33.3534953
40
0.4115783
50
211.4828222
51
265.8686737
0
ARC
8
DEFAULT_255_2_778
10
15.9909864
20
33.4782011
40
0.5375742
50
264.6297133
51
270.0503073
0
ARC
8
DEFAULT_255_2_778
10
16.0020995
20
33.4100749
40
0.4695684
50
268.7014824
51
300.1403067
0
ARC
8
DEFAULT_255_2_778
10
16.0350333
20
33.3316852
40
0.385394
50
301.7580058
51
353.77968
0
ARC
8
DEFAULT_255_2_778
10
16.0012256
20
33.3260219
40
0.2113379
50
268.8430278
51
350.1661143
0
ARC
8
DEFAULT_255_2_778
10
18.6896799
20
33.3663824
40
0.2519281
50
190.2538303
51
267.3332171
0
ARC
8
DEFAULT_255_2_778
10
18.9252249
20
33.4577581
40
0.5022746
50
179.672724
51
195.7362088
0
ARC
8
DEFAULT_255_2_778
10
18.8600432
20
33.4732917
40
0.4372682
50
148.7196987
51
181.6596982
0
ARC
8
DEFAULT_255_2_778
10
18.676443
20
33.5834906
40
0.2231415
50
89.6108896
51
148.4244661
0
ARC
8
DEFAULT_255_2_778
10
18.686876
20
33.605467
40
0.2013576
50
42.5913083
51
92.5383066
0
ARC
8
DEFAULT_255_2_778
10
18.6345542
20
33.5690973
40
0.2646316
50
15.0085433
51
40.7215892
0
ARC
8
DEFAULT_255_2_778
10
18.708623
20
33.5780326
40
0.3935735
50
8.7091682
51
82.0550801
0
ARC
8
DEFAULT_255_2_778
10
18.6736241
20
33.4315871
40
0.543642
50
80.5350289
51
90.1544743
0
ARC
8
DEFAULT_255_2_778
10
18.6623804
20
33.5202192
40
0.4551129
50
88.7689246
51
119.6437418
0
ARC
8
DEFAULT_255_2_778
10
18.6882717
20
33.5239647
40
0.4653013
50
122.644121
51
173.3997839
0
ARC
8
DEFAULT_255_2_778
10
18.9516934
20
33.4596568
40
0.7351371
50
170.7798304
51
180.1348114
0
ARC
8
DEFAULT_255_2_778
10
18.8177822
20
33.44432
40
0.6013778
50
178.7034849
51
210.5604279
0
ARC
8
DEFAULT_255_2_778
10
18.6511312
20
33.3538377
40
0.4119265
50
211.5090145
51
265.8592607
0
ARC
8
DEFAULT_255_2_778
10
18.6716883
20
33.4779521
40
0.5373252
50
264.628472
51
270.0501277
0
ARC
8
DEFAULT_255_2_778
10
18.682837
20
33.4098685
40
0.4693629
50
268.6963312
51
300.2191972
0
ARC
8
DEFAULT_255_2_778
10
18.7155684
20
33.3319124
40
0.3856821
50
301.8465101
51
353.7503927
0
ARC
8
DEFAULT_255_2_778
10
18.6820648
20
33.3258604
40
0.2111733
50
268.8857714
51
350.2028431
0
LINE
8
DEFAULT_255_2_778
10
15.4577584
20
34.4199271
11
15.2656584
21
34.4199271
0
LINE
8
DEFAULT_255_2_778
10
15.8405584
20
34.8184271
11
16.0342584
21
34.8184271
0
LINE
8
DEFAULT_255_2_778
10
18.2459584
20
34.4199271
11
18.0540584
21
34.4199271
0
LINE
8
DEFAULT_255_2_778
10
18.6292584
20
34.8184271
11
18.8229584
21
34.8184271
0
LINE
8
DEFAULT_255_2_778
10
16.2096584
20
33.6376271
11
16.4171584
21
33.6376271
0
LINE
8
DEFAULT_255_2_778
10
16.4181584
20
33.2899271
11
16.2094584
21
33.2899271
0
LINE
8
DEFAULT_255_2_778
10
18.8901584
20
33.6376271
11
19.0976584
21
33.6376271
0
LINE
8
DEFAULT_255_2_778
10
19.0989584
20
33.2899271
11
18.8901584
21
33.2899271
0
LINE
8
DEFAULT_255_1_234
10
4.9274119
20
28.5741792
11
4.9274119
21
28.4529
0
LINE
8
DEFAULT_255_1_234
10
4.9274119
20
28.4529
11
4.161184
21
28.4529
0
LINE
8
DEFAULT_255_1_234
10
4.161184
20
28.4529
11
4.161184
21
28.5597221
0
LINE
8
DEFAULT_255_1_234
10
4.161184
20
28.5597221
11
4.5659836
21
29.0094995
0
LINE
8
DEFAULT_255_1_234
10
4.2872823
20
29.2777595
11
4.1386952
21
29.2777595
0
LINE
8
DEFAULT_255_1_234
10
4.6535296
20
28.9139218
11
4.3402918
21
28.5741792
0
LINE
8
DEFAULT_255_1_234
10
4.3402918
20
28.5741792
11
4.9274119
21
28.5741792
0
ARC
8
DEFAULT_255_1_234
10
3.216967
20
30.2024527
40
1.8008286
50
318.5132453
51
320.7828378
0
ARC
8
DEFAULT_255_1_234
10
3.7456644
20
29.7721426
40
1.1191493
50
320.7372736
51
323.9737074
0
ARC
8
DEFAULT_255_1_234
10
4.1376501
20
29.4881361
40
0.6350923
50
323.8961724
51
328.6421089
0
ARC
8
DEFAULT_255_1_234
10
4.3423096
20
29.3619031
40
0.3946393
50
328.8299013
51
331.789948
0
ARC
8
DEFAULT_255_1_234
10
4.4420274
20
29.3104509
40
0.2824501
50
331.4255242
51
352.9364833
0
ARC
8
DEFAULT_255_1_234
10
4.4556775
20
29.3073976
40
0.2685315
50
353.2248685
51
0.0169286
0
ARC
8
DEFAULT_255_1_234
10
4.4766652
20
29.309695
40
0.2475536
50
359.4866256
51
15.9339782
0
ARC
8
DEFAULT_255_1_234
10
4.5273637
20
29.3233286
40
0.1950618
50
16.1714718
51
43.5284424
0
ARC
8
DEFAULT_255_1_234
10
4.5350946
20
29.3310573
40
0.184134
50
43.4415429
51
83.1661404
0
ARC
8
DEFAULT_255_1_234
10
4.5216864
20
29.2573771
40
0.258926
50
82.160215
51
90.1505798
0
ARC
8
DEFAULT_255_1_234
10
4.5185291
20
29.2036865
40
0.3126255
50
89.5460705
51
102.5418777
0
ARC
8
DEFAULT_255_1_234
10
4.4942377
20
29.3067665
40
0.2067346
50
102.1739365
51
129.2061916
0
ARC
8
DEFAULT_255_1_234
10
4.4863449
20
29.3192094
40
0.1921118
50
129.7279328
51
135.7542026
0
ARC
8
DEFAULT_255_1_234
10
4.4984977
20
29.3095045
40
0.2075944
50
136.175737
51
166.3674722
0
ARC
8
DEFAULT_255_1_234
10
4.5991896
20
29.2825182
40
0.3118201
50
165.9092917
51
178.8683903
0
ARC
8
DEFAULT_255_1_234
10
4.6856757
20
29.2778179
40
0.3983935
50
178.438168
51
180.0083905
0
ARC
8
DEFAULT_255_1_234
10
4.5455359
20
29.2817231
40
0.4068601
50
163.2878735
51
180.5581814
0
ARC
8
DEFAULT_255_1_234
10
4.4653621
20
29.303784
40
0.3237344
50
133.454115
51
162.9470031
0
ARC
8
DEFAULT_255_1_234
10
4.4832162
20
29.2848
40
0.349795
50
100.7869394
51
133.4384016
0
ARC
8
DEFAULT_255_1_234
10
4.5179934
20
29.1299319
40
0.5084616
50
89.6605301
51
101.3704185
0
ARC
8
DEFAULT_255_1_234
10
4.5246273
20
29.1360496
40
0.502348
50
78.2171172
51
90.4130393
0
ARC
8
DEFAULT_255_1_234
10
4.5601351
20
29.2984637
40
0.3361092
50
55.9268222
51
78.4888551
0
ARC
8
DEFAULT_255_1_234
10
4.5797791
20
29.3323324
40
0.2970617
50
47.9292255
51
55.4054003
0
ARC
8
DEFAULT_255_1_234
10
4.5899352
20
29.3426502
40
0.2825983
50
4.3347696
51
48.0560701
0
ARC
8
DEFAULT_255_1_234
10
4.4803745
20
29.3256601
40
0.393225
50
359.925209
51
5.5967654
0
ARC
8
DEFAULT_255_1_234
10
4.5232637
20
29.3312816
40
0.3503892
50
337.8914096
51
358.9967724
0
ARC
8
DEFAULT_255_1_234
10
4.2519049
20
29.4359706
40
0.6412172
50
326.9135351
51
338.3505194
0
ARC
8
DEFAULT_255_1_234
10
3.8533353
20
29.6914284
40
1.1146189
50
319.6472867
51
327.095818
0
ARC
8
DEFAULT_255_1_234
10
3.4700356
20
30.0076
40
1.6114559
50
317.2586784
51
319.9046139
0
LINE
8
DEFAULT_255_1_234
10
5.7121127
20
29.6223211
11
5.7121127
21
28.845652
0
LINE
8
DEFAULT_255_1_234
10
5.7121127
20
28.845652
11
5.8743538
21
28.845652
0
LINE
8
DEFAULT_255_1_234
10
5.8743538
20
28.845652
11
5.8743538
21
28.7243728
0
LINE
8
DEFAULT_255_1_234
10
5.8743538
20
28.7243728
11
5.7121127
21
28.7243728
0
LINE
8
DEFAULT_255_1_234
10
5.7121127
20
28.7243728
11
5.7121127
21
28.4529
0
LINE
8
DEFAULT_255_1_234
10
5.7121127
20
28.4529
11
5.5627224
21
28.4529
0
LINE
8
DEFAULT_255_1_234
10
5.5627224
20
28.4529
11
5.5627224
21
28.7243728
0
LINE
8
DEFAULT_255_1_234
10
5.5627224
20
28.7243728
11
5.0302181
21
28.7243728
0
LINE
8
DEFAULT_255_1_234
10
5.0302181
20
28.7243728
11
5.0302181
21
28.8119187
0
LINE
8
DEFAULT_255_1_234
10
5.0302181
20
28.8119187
11
5.5538875
21
29.6223211
0
LINE
8
DEFAULT_255_1_234
10
5.5538875
20
29.6223211
11
5.7121127
21
29.6223211
0
LINE
8
DEFAULT_255_1_234
10
5.5450525
20
29.3869912
11
5.1988846
21
28.845652
0
LINE
8
DEFAULT_255_1_234
10
5.1988846
20
28.845652
11
5.5627224
21
28.845652
0
LINE
8
DEFAULT_255_1_234
10
5.5627224
20
28.845652
11
5.5627224
21
29.4191181
0
LINE
8
DEFAULT_255_1_234
10
5.5627224
20
29.4191181
11
5.5450525
21
29.3869912
0
LINE
8
DEFAULT_255_1_234
10
6.101652
20
29.6223211
11
6.434166
21
28.6577093
0
LINE
8
DEFAULT_255_1_234
10
6.434166
20
28.6577093
11
6.7682863
21
29.6223211
0
LINE
8
DEFAULT_255_1_234
10
6.7682863
20
29.6223211
11
6.9369528
21
29.6223211
0
LINE
8
DEFAULT_255_1_234
10
6.9369528
20
29.6223211
11
6.5032389
21
28.4529
0
LINE
8
DEFAULT_255_1_234
10
6.5032389
20
28.4529
11
6.3666994
21
28.4529
0
LINE
8
DEFAULT_255_1_234
10
6.3666994
20
28.4529
11
5.9337887
21
29.6223211
0
LINE
8
DEFAULT_255_1_234
10
5.9337887
20
29.6223211
11
6.101652
21
29.6223211
0
LINE
8
DEFAULT_255_1_234
10
4.2535489
20
5.8098211
11
4.2535489
21
4.7664983
0
LINE
8
DEFAULT_255_1_234
10
4.2535489
20
4.7664983
11
4.8077389
21
4.7664983
0
LINE
8
DEFAULT_255_1_234
10
4.8077389
20
4.7664983
11
4.8077389
21
4.6404
0
LINE
8
DEFAULT_255_1_234
10
4.8077389
20
4.6404
11
4.0985364
21
4.6404
0
LINE
8
DEFAULT_255_1_234
10
4.0985364
20
4.6404
11
4.0985364
21
5.8098211
0
LINE
8
DEFAULT_255_1_234
10
4.0985364
20
5.8098211
11
4.2535489
21
5.8098211
0
LINE
8
DEFAULT_255_1_234
10
5.7948395
20
5.222701
11
5.7948395
21
4.7938062
0
LINE
8
DEFAULT_255_1_234
10
4.8936785
20
5.1688884
11
4.8936785
21
5.2708915
0
LINE
8
DEFAULT_255_1_234
10
5.7948395
20
5.4668659
11
5.6406301
21
5.4668659
0
LINE
8
DEFAULT_255_1_234
10
5.048691
20
5.2749073
11
5.048691
21
5.1793296
0
LINE
8
DEFAULT_255_1_234
10
5.6414333
20
4.8347681
11
5.6414333
21
5.0974059
0
LINE
8
DEFAULT_255_1_234
10
5.6414333
20
5.0974059
11
5.3707637
21
5.0974059
0
LINE
8
DEFAULT_255_1_234
10
5.3707637
20
5.0974059
11
5.3707637
21
5.222701
0
LINE
8
DEFAULT_255_1_234
10
5.3707637
20
5.222701
11
5.7948395
21
5.222701
0
ARC
8
DEFAULT_255_1_234
10
5.5116901
20
4.9931396
40
0.3462765
50
295.8437914
51
324.8549609
0
ARC
8
DEFAULT_255_1_234
10
5.4700868
20
5.0684567
40
0.4322211
50
291.5695085
51
296.4549398
0
ARC
8
DEFAULT_255_1_234
10
5.419012
20
5.2049275
40
0.5779178
50
278.6622409
51
291.3045483
0
ARC
8
DEFAULT_255_1_234
10
5.3850611
20
5.4197408
40
0.7953952
50
270.020006
51
278.7494541
0
ARC
8
DEFAULT_255_1_234
10
5.3812535
20
5.5514036
40
0.927067
50
269.9969998
51
270.2524872
0
ARC
8
DEFAULT_255_1_234
10
5.3774248
20
5.1430589
40
0.5187361
50
253.5786322
51
270.4175299
0
ARC
8
DEFAULT_255_1_234
10
5.3600904
20
5.0759236
40
0.4494451
50
238.8203306
51
253.2788235
0
ARC
8
DEFAULT_255_1_234
10
5.3581278
20
5.0708231
40
0.4440665
50
206.7883783
51
238.6962764
0
ARC
8
DEFAULT_255_1_234
10
5.4355188
20
5.1172405
40
0.5341121
50
206.1129412
51
207.4916643
0
ARC
8
DEFAULT_255_1_234
10
5.4952103
20
5.1426488
40
0.5989041
50
188.6921119
51
205.7821245
0
ARC
8
DEFAULT_255_1_234
10
5.6808465
20
5.174223
40
0.7871862
50
180.3882829
51
188.9219216
0
ARC
8
DEFAULT_255_1_234
10
5.8036279
20
5.2765464
40
0.909967
50
170.2024264
51
180.3560651
0
ARC
8
DEFAULT_255_1_234
10
5.4872797
20
5.3331237
40
0.5886083
50
154.2857445
51
170.3893044
0
ARC
8
DEFAULT_255_1_234
10
5.3591
20
5.391795
40
0.4476743
50
139.8401567
51
153.9332699
0
ARC
8
DEFAULT_255_1_234
10
5.3231736
20
5.4205577
40
0.4016697
50
98.4190291
51
139.6707122
0
ARC
8
DEFAULT_255_1_234
10
5.3611253
20
5.2360328
40
0.5898566
50
89.7659205
51
99.4415478
0
ARC
8
DEFAULT_255_1_234
10
5.3676503
20
5.2425844
40
0.5833147
50
78.0551672
51
90.4042112
0
ARC
8
DEFAULT_255_1_234
10
5.4081013
20
5.4244644
40
0.3970055
50
54.6380464
51
78.3339173
0
ARC
8
DEFAULT_255_1_234
10
5.4271069
20
5.4564795
40
0.3599102
50
50.031736
51
54.1558201
0
ARC
8
DEFAULT_255_1_234
10
5.4163856
20
5.4468766
40
0.3741624
50
18.1092409
51
49.7180913
0
ARC
8
DEFAULT_255_1_234
10
5.2707056
20
5.3935089
40
0.5292424
50
7.9672797
51
18.6984571
0
ARC
8
DEFAULT_255_1_234
10
5.2857534
20
5.4058504
40
0.3600838
50
9.7557294
51
27.3215714
0
ARC
8
DEFAULT_255_1_234
10
5.3985006
20
5.4621912
40
0.2340608
50
27.7361077
51
84.5257964
0
ARC
8
DEFAULT_255_1_234
10
5.3657393
20
5.297864
40
0.4011215
50
82.106034
51
90.2001166
0
ARC
8
DEFAULT_255_1_234
10
5.360761
20
5.3486215
40
0.3503799
50
89.4150119
51
105.5823402
0
ARC
8
DEFAULT_255_1_234
10
5.3350608
20
5.4421867
40
0.2533503
50
105.6678618
51
144.2648758
0
ARC
8
DEFAULT_255_1_234
10
5.4243864
20
5.3786289
40
0.3629787
50
144.3561283
51
162.8564086
0
ARC
8
DEFAULT_255_1_234
10
5.6327773
20
5.3117017
40
0.5818441
50
162.6076014
51
173.6780284
0
ARC
8
DEFAULT_255_1_234
10
5.9388916
20
5.274489
40
0.8902007
50
173.4670142
51
179.9730753
0
ARC
8
DEFAULT_255_1_234
10
5.7480588
20
5.175126
40
0.6993804
50
179.6556203
51
190.0080463
0
ARC
8
DEFAULT_255_1_234
10
5.5164417
20
5.1326375
40
0.4639066
50
189.8116607
51
206.6796816
0
ARC
8
DEFAULT_255_1_234
10
5.4319569
20
5.0932503
40
0.3707421
50
207.1031645
51
217.7074368
0
ARC
8
DEFAULT_255_1_234
10
5.3685257
20
5.0380559
40
0.2868417
50
216.7345547
51
265.6812148
0
ARC
8
DEFAULT_255_1_234
10
5.3816048
20
5.1284855
40
0.3780509
50
264.7366618
51
270.0611241
0
ARC
8
DEFAULT_255_1_234
10
5.3839312
20
5.4125111
40
0.662079
50
269.8335834
51
276.0539546
0
ARC
8
DEFAULT_255_1_234
10
5.4046316
20
5.222356
40
0.4708016
50
275.9894168
51
284.4615085
0
ARC
8
DEFAULT_255_1_234
10
5.4244323
20
5.1390663
40
0.3852094
50
284.7034461
51
286.4953897
0
ARC
8
DEFAULT_255_1_234
10
5.4651337
20
5.0079965
40
0.2479842
50
286.0770838
51
304.2625829
0
ARC
8
DEFAULT_255_1_234
10
5.478475
20
4.9861594
40
0.2224291
50
304.5891602
51
317.1073298
0
LINE
8
DEFAULT_255_1_234
10
4.4378154
20
12.5779
11
4.1141364
21
12.5779
0
LINE
8
DEFAULT_255_1_234
10
4.1141364
20
12.5779
11
4.1141364
21
13.7473211
0
LINE
8
DEFAULT_255_1_234
10
4.1141364
20
13.7473211
11
4.4442408
21
13.7473211
0
LINE
8
DEFAULT_255_1_234
10
4.9598784
20
13.2019661
11
4.9598784
21
13.1272709
0
LINE
8
DEFAULT_255_1_234
10
4.4482567
20
13.6204196
11
4.2683458
21
13.6204196
0
LINE
8
DEFAULT_255_1_234
10
4.2683458
20
13.6204196
11
4.2683458
21
12.7039983
0
LINE
8
DEFAULT_255_1_234
10
4.2683458
20
12.7039983
11
4.4305869
21
12.7039983
0
LINE
8
DEFAULT_255_1_234
10
4.8072754
20
13.1304836
11
4.8072754
21
13.1987534
0
ARC
8
DEFAULT_255_1_234
10
4.4481351
20
13.1607894
40
0.5865446
50
75.4101064
51
90.3804066
0
ARC
8
DEFAULT_255_1_234
10
4.4710864
20
13.2564492
40
0.4881916
50
60.145586
51
75.1888407
0
ARC
8
DEFAULT_255_1_234
10
4.486964
20
13.2841199
40
0.4562893
50
26.5253612
51
60.1450928
0
ARC
8
DEFAULT_255_1_234
10
4.3749389
20
13.2247158
40
0.5830602
50
7.4030428
51
26.8320788
0
ARC
8
DEFAULT_255_1_234
10
4.2155146
20
13.1998804
40
0.7443669
50
0.1605367
51
7.7176192
0
ARC
8
DEFAULT_255_1_234
10
4.231905
20
13.1234434
40
0.7279835
50
348.7289388
51
0.3012466
0
ARC
8
DEFAULT_255_1_234
10
4.3975481
20
13.0905386
40
0.559104
50
333.0706509
51
348.7181832
0
ARC
8
DEFAULT_255_1_234
10
4.4942238
20
13.0380319
40
0.4491417
50
299.2531685
51
333.4571258
0
ARC
8
DEFAULT_255_1_234
10
4.4581378
20
13.1065828
40
0.5265881
50
278.107187
51
299.0339503
0
ARC
8
DEFAULT_255_1_234
10
4.4325457
20
13.2573216
40
0.679442
50
270.4443897
51
278.4511052
0
ARC
8
DEFAULT_255_1_234
10
4.4346287
20
13.1644213
40
0.4604407
50
269.4970433
51
284.0205042
0
ARC
8
DEFAULT_255_1_234
10
4.4701588
20
13.0278978
40
0.3193797
50
283.7700273
51
318.1555492
0
ARC
8
DEFAULT_255_1_234
10
4.4364346
20
13.0531367
40
0.3613588
50
318.7415601
51
343.6873628
0
ARC
8
DEFAULT_255_1_234
10
4.2560369
20
13.1094832
40
0.5503313
50
343.3325091
51
355.8548958
0
ARC
8
DEFAULT_255_1_234
10
4.0462054
20
13.1294319
40
0.7610708
50
355.4988528
51
0.0791727
0
ARC
8
DEFAULT_255_1_234
10
4.1244676
20
13.202978
40
0.6828208
50
359.6455037
51
9.8607896
0
ARC
8
DEFAULT_255_1_234
10
4.3605374
20
13.2456099
40
0.4429406
50
9.6571907
51
26.1932807
0
ARC
8
DEFAULT_255_1_234
10
4.4533363
20
13.2887118
40
0.3406537
50
26.5777228
51
40.1532208
0
ARC
8
DEFAULT_255_1_234
10
4.4789089
20
13.3086619
40
0.308246
50
40.3840491
51
80.1431104
0
ARC
8
DEFAULT_255_1_234
10
4.4462207
20
13.1637333
40
0.4566909
50
79.2152159
51
89.7445637
0
LINE
8
DEFAULT_255_1_234
10
6.0915503
20
13.7473211
11
6.0915503
21
12.5779
0
LINE
8
DEFAULT_255_1_234
10
6.0915503
20
12.5779
11
5.9365378
21
12.5779
0
LINE
8
DEFAULT_255_1_234
10
5.9365378
20
12.5779
11
5.3478114
21
13.479061
0
LINE
8
DEFAULT_255_1_234
10
5.3478114
20
13.479061
11
5.3478114
21
12.5779
0
LINE
8
DEFAULT_255_1_234
10
5.3478114
20
12.5779
11
5.1927988
21
12.5779
0
LINE
8
DEFAULT_255_1_234
10
5.1927988
20
12.5779
11
5.1927988
21
13.7473211
0
LINE
8
DEFAULT_255_1_234
10
5.1927988
20
13.7473211
11
5.3478114
21
13.7473211
0
LINE
8
DEFAULT_255_1_234
10
5.3478114
20
13.7473211
11
5.9381441
21
12.8421442
0
LINE
8
DEFAULT_255_1_234
10
5.9381441
20
12.8421442
11
5.9381441
21
13.7473211
0
LINE
8
DEFAULT_255_1_234
10
5.9381441
20
13.7473211
11
6.0915503
21
13.7473211
0
LINE
8
DEFAULT_255_1_234
10
4.4793154
20
20.5154
11
4.1556364
21
20.5154
0
LINE
8
DEFAULT_255_1_234
10
4.1556364
20
20.5154
11
4.1556364
21
21.6848211
0
LINE
8
DEFAULT_255_1_234
10
4.1556364
20
21.6848211
11
4.4857408
21
21.6848211
0
LINE
8
DEFAULT_255_1_234
10
5.0013784
20
21.1394661
11
5.0013784
21
21.0647709
0
LINE
8
DEFAULT_255_1_234
10
4.4897567
20
21.5579196
11
4.3098458
21
21.5579196
0
LINE
8
DEFAULT_255_1_234
10
4.3098458
20
21.5579196
11
4.3098458
21
20.6414983
0
LINE
8
DEFAULT_255_1_234
10
4.3098458
20
20.6414983
11
4.4720869
21
20.6414983
0
LINE
8
DEFAULT_255_1_234
10
4.8487754
20
21.0679836
11
4.8487754
21
21.1362534
0
ARC
8
DEFAULT_255_1_234
10
4.4896351
20
21.0982894
40
0.5865446
50
75.4101064
51
90.3804066
0
ARC
8
DEFAULT_255_1_234
10
4.5125864
20
21.1939492
40
0.4881916
50
60.145586
51
75.1888407
0
ARC
8
DEFAULT_255_1_234
10
4.528464
20
21.2216199
40
0.4562893
50
26.5253612
51
60.1450928
0
ARC
8
DEFAULT_255_1_234
10
4.4164389
20
21.1622158
40
0.5830602
50
7.4030428
51
26.8320788
0
ARC
8
DEFAULT_255_1_234
10
4.2570146
20
21.1373804
40
0.7443669
50
0.1605367
51
7.7176192
0
ARC
8
DEFAULT_255_1_234
10
4.273405
20
21.0609434
40
0.7279835
50
348.7289388
51
0.3012466
0
ARC
8
DEFAULT_255_1_234
10
4.4390481
20
21.0280386
40
0.559104
50
333.0706509
51
348.7181832
0
ARC
8
DEFAULT_255_1_234
10
4.5357238
20
20.9755319
40
0.4491417
50
299.2531685
51
333.4571258
0
ARC
8
DEFAULT_255_1_234
10
4.4996378
20
21.0440828
40
0.5265881
50
278.107187
51
299.0339503
0
ARC
8
DEFAULT_255_1_234
10
4.4740457
20
21.1948216
40
0.679442
50
270.4443897
51
278.4511052
0
ARC
8
DEFAULT_255_1_234
10
4.4761287
20
21.1019213
40
0.4604407
50
269.4970433
51
284.0205042
0
ARC
8
DEFAULT_255_1_234
10
4.5116588
20
20.9653978
40
0.3193797
50
283.7700273
51
318.1555492
0
ARC
8
DEFAULT_255_1_234
10
4.4779346
20
20.9906367
40
0.3613588
50
318.7415601
51
343.6873628
0
ARC
8
DEFAULT_255_1_234
10
4.2975369
20
21.0469832
40
0.5503313
50
343.3325091
51
355.8548958
0
ARC
8
DEFAULT_255_1_234
10
4.0877054
20
21.0669319
40
0.7610708
50
355.4988528
51
0.0791727
0
ARC
8
DEFAULT_255_1_234
10
4.1659676
20
21.140478
40
0.6828208
50
359.6455037
51
9.8607896
0
ARC
8
DEFAULT_255_1_234
10
4.4020374
20
21.1831099
40
0.4429406
50
9.6571907
51
26.1932807
0
ARC
8
DEFAULT_255_1_234
10
4.4948363
20
21.2262118
40
0.3406537
50
26.5777228
51
40.1532208
0
ARC
8
DEFAULT_255_1_234
10
4.5204089
20
21.2461619
40
0.308246
50
40.3840491
51
80.1431104
0
ARC
8
DEFAULT_255_1_234
10
4.4877207
20
21.1012333
40
0.4566909
50
79.2152159
51
89.7445637
0
LINE
8
DEFAULT_255_1_234
10
5.6639968
20
20.9732091
11
5.3885082
21
20.9732091
0
LINE
8
DEFAULT_255_1_234
10
5.3885082
20
20.9732091
11
5.3885082
21
20.5154
0
LINE
8
DEFAULT_255_1_234
10
5.3885082
20
20.5154
11
5.2342988
21
20.5154
0
LINE
8
DEFAULT_255_1_234
10
5.2342988
20
20.5154
11
5.2342988
21
21.6848211
0
LINE
8
DEFAULT_255_1_234
10
5.2342988
20
21.6848211
11
5.6656032
21
21.6848211
0
LINE
8
DEFAULT_255_1_234
10
5.3885082
20
21.5579196
11
5.3885082
21
21.0993074
0
LINE
8
DEFAULT_255_1_234
10
5.3885082
20
21.0993074
11
5.6656032
21
21.0993074
0
LINE
8
DEFAULT_255_1_234
10
5.6744381
20
21.5579196
11
5.3885082
21
21.5579196
0
ARC
8
DEFAULT_255_1_234
10
5.6698159
20
21.0789195
40
0.6059162
50
78.8378113
51
90.3983573
0
ARC
8
DEFAULT_255_1_234
10
5.7114172
20
21.2809879
40
0.3996205
50
58.9632738
51
79.0810598
0
ARC
8
DEFAULT_255_1_234
10
5.7415714
20
21.3369721
40
0.3361177
50
48.0197965
51
58.447194
0
ARC
8
DEFAULT_255_1_234
10
5.7504575
20
21.3455225
40
0.3238191
50
3.3375044
51
48.1766626
0
ARC
8
DEFAULT_255_1_234
10
5.6274415
20
21.3278171
40
0.4477806
50
359.9477528
51
4.6829065
0
ARC
8
DEFAULT_255_1_234
10
5.6397732
20
21.3235628
40
0.4354656
50
346.1877825
51
0.5060252
0
ARC
8
DEFAULT_255_1_234
10
5.7756599
20
21.2882731
40
0.295089
50
310.8831995
51
346.5426355
0
ARC
8
DEFAULT_255_1_234
10
5.7448019
20
21.3299695
40
0.3468331
50
286.6925341
51
310.2288297
0
ARC
8
DEFAULT_255_1_234
10
5.687885
20
21.5089882
40
0.5346654
50
274.6850312
51
287.0245141
0
ARC
8
DEFAULT_255_1_234
10
5.6653573
20
21.7298932
40
0.7566852
50
269.8969846
51
275.018904
0
ARC
8
DEFAULT_255_1_234
10
5.6681164
20
21.5219707
40
0.4226708
50
269.6593078
51
279.4153575
0
ARC
8
DEFAULT_255_1_234
10
5.693844
20
21.3729133
40
0.2714146
50
279.2049762
51
294.9900808
0
ARC
8
DEFAULT_255_1_234
10
5.7228765
20
21.3081508
40
0.2004525
50
295.2888114
51
311.2911209
0
ARC
8
DEFAULT_255_1_234
10
5.729966
20
21.297622
40
0.1878703
50
311.7854996
51
347.2861051
0
ARC
8
DEFAULT_255_1_234
10
5.6315818
20
21.3229092
40
0.2894234
50
346.6893224
51
0.1059443
0
ARC
8
DEFAULT_255_1_234
10
5.5560713
20
21.3257685
40
0.3649409
50
359.6350983
51
0.0053152
0
ARC
8
DEFAULT_255_1_234
10
5.6531042
20
21.3282937
40
0.2679199
50
359.4672059
51
15.5933957
0
ARC
8
DEFAULT_255_1_234
10
5.715593
20
21.3451779
40
0.2031932
50
15.7442113
51
46.6203375
0
ARC
8
DEFAULT_255_1_234
10
5.7008151
20
21.3281484
40
0.2257226
50
46.8628658
51
75.6676503
0
ARC
8
DEFAULT_255_1_234
10
5.6713972
20
21.2222718
40
0.3355939
50
75.276167
51
88.2915297
0
ARC
8
DEFAULT_255_1_234
10
5.6655678
20
21.1344524
40
0.4235602
50
87.8575022
51
88.8000139
0
LINE
8
DEFAULT_255_1_234
10
23.1656817
20
29.1444327
11
23.1656817
21
28.9516709
0
LINE
8
DEFAULT_255_1_234
10
22.427565
20
28.9315916
11
22.427565
21
29.1299755
0
LINE
8
DEFAULT_255_1_234
10
23.0170946
20
28.9115123
11
23.0170946
21
29.1548739
0
LINE
8
DEFAULT_255_1_234
10
22.5761521
20
29.1661184
11
22.5761521
21
28.9283789
0
ARC
8
DEFAULT_255_1_234
10
21.9409707
20
28.9467805
40
1.2247208
50
353.8441951
51
0.2287902
0
ARC
8
DEFAULT_255_1_234
10
22.4049211
20
28.8949806
40
0.7578929
50
344.4934747
51
353.9765454
0
ARC
8
DEFAULT_255_1_234
10
22.7041801
20
28.8098981
40
0.4467846
50
329.2803592
51
344.7472793
0
ARC
8
DEFAULT_255_1_234
10
22.8034626
20
28.7554018
40
0.3336173
50
324.9352394
51
328.6160465
0
ARC
8
DEFAULT_255_1_234
10
22.8411734
20
28.7290427
40
0.2876076
50
280.580143
51
324.9173126
0
ARC
8
DEFAULT_255_1_234
10
22.8010527
20
28.8961099
40
0.4592847
50
269.5977311
51
281.6734359
0
ARC
8
DEFAULT_255_1_234
10
22.7938433
20
28.8841173
40
0.4472986
50
256.6228859
51
270.51044
0
ARC
8
DEFAULT_255_1_234
10
22.753641
20
28.7292877
40
0.2873874
50
215.8618325
51
257.2788573
0
ARC
8
DEFAULT_255_1_234
10
22.8557442
20
28.7977977
40
0.4102928
50
197.9693508
51
215.2623606
0
ARC
8
DEFAULT_255_1_234
10
23.1042558
20
28.8816709
40
0.6725652
50
187.8816417
51
198.2346507
0
ARC
8
DEFAULT_255_1_234
10
23.5000766
20
28.9388079
40
1.0724845
50
180.8976217
51
188.0055519
0
ARC
8
DEFAULT_255_1_234
10
23.7800954
20
28.9491777
40
1.3526448
50
180.7449369
51
181.1510016
0
ARC
8
DEFAULT_255_1_234
10
23.6223683
20
29.1348042
40
1.1948131
50
173.7675579
51
180.231553
0
ARC
8
DEFAULT_255_1_234
10
23.170583
20
29.1858666
40
0.7401564
50
164.3058563
51
173.9002247
0
ARC
8
DEFAULT_255_1_234
10
22.8793899
20
29.2697656
40
0.4371288
50
148.7922025
51
164.568378
0
ARC
8
DEFAULT_255_1_234
10
22.7842351
20
29.3228929
40
0.3282386
50
144.5883898
51
148.1176286
0
ARC
8
DEFAULT_255_1_234
10
22.7499249
20
29.3468315
40
0.2864044
50
101.6440918
51
144.514236
0
ARC
8
DEFAULT_255_1_234
10
22.7924315
20
29.1779069
40
0.4604934
50
89.5284041
51
102.5819763
0
ARC
8
DEFAULT_255_1_234
10
22.8003403
20
29.1740018
40
0.464401
50
77.0437873
51
90.5081339
0
ARC
8
DEFAULT_255_1_234
10
22.8405405
20
29.3382615
40
0.2953195
50
48.2778575
51
77.4994676
0
ARC
8
DEFAULT_255_1_234
10
22.8478036
20
29.3511746
40
0.2808655
50
36.3142134
51
47.6305865
0
ARC
8
DEFAULT_255_1_234
10
22.7609343
20
29.2926515
40
0.3855453
50
18.2931786
51
35.6769206
0
ARC
8
DEFAULT_255_1_234
10
22.5066102
20
29.2053593
40
0.654423
50
8.024666
51
18.5605216
0
ARC
8
DEFAULT_255_1_234
10
22.0903022
20
29.1438792
40
1.0752407
50
1.1274072
51
8.1718305
0
ARC
8
DEFAULT_255_1_234
10
21.7667213
20
29.1311885
40
1.3990231
50
0.5424119
51
1.3863029
0
ARC
8
DEFAULT_255_1_234
10
21.948859
20
29.1584342
40
1.0682415
50
359.8090433
51
4.9407866
0
ARC
8
DEFAULT_255_1_234
10
22.3698604
20
29.1960113
40
0.6455691
50
4.8362157
51
12.2904523
0
ARC
8
DEFAULT_255_1_234
10
22.6453719
20
29.2573965
40
0.3633074
50
12.0805627
51
23.8173984
0
ARC
8
DEFAULT_255_1_234
10
22.7627425
20
29.3070919
40
0.2358723
50
24.2871213
51
31.3935614
0
ARC
8
DEFAULT_255_1_234
10
22.8152122
20
29.3414233
40
0.1732111
50
30.7407893
51
82.4657128
0
ARC
8
DEFAULT_255_1_234
10
22.7972256
20
29.2530691
40
0.263235
50
81.1060089
51
90.2184952
0
ARC
8
DEFAULT_255_1_234
10
22.7936555
20
29.2788924
40
0.2374236
50
89.3806855
51
105.6762551
0
ARC
8
DEFAULT_255_1_234
10
22.7753186
20
29.3455567
40
0.1682847
50
105.7981136
51
149.7388061
0
ARC
8
DEFAULT_255_1_234
10
22.8817264
20
29.281595
40
0.2924306
50
149.4208916
51
163.6286378
0
ARC
8
DEFAULT_255_1_234
10
23.0908152
20
29.217825
40
0.5110213
50
163.3763315
51
172.1410975
0
ARC
8
DEFAULT_255_1_234
10
23.4208871
20
29.1705518
40
0.8444586
50
172.0259487
51
178.0703232
0
ARC
8
DEFAULT_255_1_234
10
23.723896
20
29.1561906
40
1.1477868
50
177.8631668
51
179.5044149
0
ARC
8
DEFAULT_255_1_234
10
23.6166365
20
28.9247389
40
1.0404907
50
179.7995573
51
185.2460446
0
ARC
8
DEFAULT_255_1_234
10
23.2123404
20
28.8864513
40
0.6343885
50
185.1411642
51
193.0079639
0
ARC
8
DEFAULT_255_1_234
10
22.9479877
20
28.8239641
40
0.3627568
50
192.7897626
51
205.2507664
0
ARC
8
DEFAULT_255_1_234
10
22.8433424
20
28.7772415
40
0.2481908
50
205.8005384
51
211.2537509
0
ARC
8
DEFAULT_255_1_234
10
22.7909864
20
28.742158
40
0.1852521
50
210.3789793
51
238.4008143
0
ARC
8
DEFAULT_255_1_234
10
22.7890386
20
28.7468376
40
0.1882621
50
239.6520629
51
265.9793761
0
ARC
8
DEFAULT_255_1_234
10
22.7975586
20
28.8140427
40
0.2559272
50
265.1315437
51
270.060332
0
ARC
8
DEFAULT_255_1_234
10
22.8004365
20
28.7816534
40
0.2235528
50
269.3314664
51
287.2178029
0
ARC
8
DEFAULT_255_1_234
10
22.8142217
20
28.7313279
40
0.1714108
50
287.7958004
51
329.080874
0
ARC
8
DEFAULT_255_1_234
10
22.7184674
20
28.791093
40
0.2842745
50
328.6634704
51
343.3325132
0
ARC
8
DEFAULT_255_1_234
10
22.5011694
20
28.8587863
40
0.5118644
50
343.0499468
51
351.9393422
0
ARC
8
DEFAULT_255_1_234
10
22.1544994
20
28.9098949
40
0.8622784
50
351.8069023
51
357.7959224
0
ARC
8
DEFAULT_255_1_234
10
21.830955
20
28.9266721
40
1.1862365
50
357.5871873
51
359.2677531
0
LINE
8
DEFAULT_255_1_234
10
23.4492021
20
29.6223211
11
23.7817161
21
28.6577093
0
LINE
8
DEFAULT_255_1_234
10
23.7817161
20
28.6577093
11
24.1158364
21
29.6223211
0
LINE
8
DEFAULT_255_1_234
10
24.1158364
20
29.6223211
11
24.2845029
21
29.6223211
0
LINE
8
DEFAULT_255_1_234
10
24.2845029
20
29.6223211
11
23.850789
21
28.4529
0
LINE
8
DEFAULT_255_1_234
10
23.850789
20
28.4529
11
23.7142495
21
28.4529
0
LINE
8
DEFAULT_255_1_234
10
23.7142495
20
28.4529
11
23.2813388
21
29.6223211
0
LINE
8
DEFAULT_255_1_234
10
23.2813388
20
29.6223211
11
23.4492021
21
29.6223211
0
ENDSEC
0
EOF