0
SECTION
2
HEADER
9
$MEASUREMENT
70
1
0
ENDSEC
0
SECTION
2
TABLES
0
TABLE
2
LTYPE
0
LTYPE
72
65
70
64
2
CONTINUOUS
3
______
73
0
40
0
0
ENDTAB
0
TABLE
2
LAYER
0
LAYER
2
DEFAULT_255_2_778
70
0
62
255
6
CONTINUOUS
0
LAYER
2
DEFAULT_255_1_388
70
0
62
255
6
CONTINUOUS
0
ENDTAB
0
ENDSEC
0
SECTION
2
ENTITIES
0
ARC
8
DEFAULT_255_2_778
10
3.5700693
20
36.1176536
40
0.7914215
50
129.1312896
51
180.1450914
0
ARC
8
DEFAULT_255_2_778
10
3.5703345
20
36.1181407
40
0.7912112
50
89.854026
51
129.1684493
0
ARC
8
DEFAULT_255_2_778
10
25.7993937
20
36.1178272
40
0.7915249
50
39.4792447
51
90.147911
0
ARC
8
DEFAULT_255_2_778
10
25.7999935
20
36.1176739
40
0.7911595
50
359.8533901
51
39.5154338
0
ARC
8
DEFAULT_255_2_778
10
25.7996693
20
-1.9863987
40
0.7914836
50
309.4761667
51
0.1482649
0
ARC
8
DEFAULT_255_2_778
10
25.799398
20
-1.9868298
40
0.7913235
50
269.8517415
51
309.511178
0
ARC
8
DEFAULT_255_2_778
10
3.570342
20
-1.9867716
40
0.7913815
50
219.1282118
51
270.1454017
0
ARC
8
DEFAULT_255_2_778
10
3.5700247
20
-1.9863891
40
0.7913769
50
179.8524075
51
219.1641908
0
LINE
8
DEFAULT_255_2_778
10
3.5723503
20
36.9093494
11
25.7973503
21
36.9093494
0
LINE
8
DEFAULT_255_2_778
10
26.5911503
20
36.1156494
11
26.5911503
21
-1.9843506
0
LINE
8
DEFAULT_255_2_778
10
25.7973503
20
-2.7781506
11
3.5723503
21
-2.7781506
0
LINE
8
DEFAULT_255_2_778
10
2.7786503
20
-1.9843506
11
2.7786503
21
36.1156494
0
LINE
8
DEFAULT_255_1_388
10
8.2971646
20
0.0830516
11
8.2971646
21
-0.0588081
0
LINE
8
DEFAULT_255_1_388
10
8.2971646
20
-0.0588081
11
7.7450868
21
-0.0588081
0
LINE
8
DEFAULT_255_1_388
10
7.7450868
20
-0.0588081
11
7.7450868
21
-0.6398
0
LINE
8
DEFAULT_255_1_388
10
7.7450868
20
-0.6398
11
7.5716024
21
-0.6398
0
LINE
8
DEFAULT_255_1_388
10
7.5716024
20
-0.6398
11
7.5716024
21
0.6757898
0
LINE
8
DEFAULT_255_1_388
10
7.5716024
20
0.6757898
11
8.3866175
21
0.6757898
0
LINE
8
DEFAULT_255_1_388
10
8.3866175
20
0.6757898
11
8.3866175
21
0.5330267
0
LINE
8
DEFAULT_255_1_388
10
8.3866175
20
0.5330267
11
7.7450868
21
0.5330267
0
LINE
8
DEFAULT_255_1_388
10
7.7450868
20
0.5330267
11
7.7450868
21
0.0830516
0
LINE
8
DEFAULT_255_1_388
10
7.7450868
20
0.0830516
11
8.2971646
21
0.0830516
0
LINE
8
DEFAULT_255_1_388
10
8.7064793
20
0.6757898
11
9.0236305
21
0.1716009
0
LINE
8
DEFAULT_255_1_388
10
9.0236305
20
0.1716009
11
9.3389745
21
0.6757898
0
LINE
8
DEFAULT_255_1_388
10
9.3389745
20
0.6757898
11
9.54318
21
0.6757898
0
LINE
8
DEFAULT_255_1_388
10
9.54318
20
0.6757898
11
9.1275404
21
0.0234163
0
LINE
8
DEFAULT_255_1_388
10
9.1275404
20
0.0234163
11
9.5531192
21
-0.6398
0
LINE
8
DEFAULT_255_1_388
10
9.5531192
20
-0.6398
11
9.3471065
21
-0.6398
0
LINE
8
DEFAULT_255_1_388
10
9.3471065
20
-0.6398
11
9.0236305
21
-0.1265754
0
LINE
8
DEFAULT_255_1_388
10
9.0236305
20
-0.1265754
11
8.6983473
21
-0.6398
0
LINE
8
DEFAULT_255_1_388
10
8.6983473
20
-0.6398
11
8.4932381
21
-0.6398
0
LINE
8
DEFAULT_255_1_388
10
8.4932381
20
-0.6398
11
8.9197206
21
0.0234163
0
LINE
8
DEFAULT_255_1_388
10
8.9197206
20
0.0234163
11
8.5031773
21
0.6757898
0
LINE
8
DEFAULT_255_1_388
10
8.5031773
20
0.6757898
11
8.7064793
21
0.6757898
0
LINE
8
DEFAULT_255_1_388
10
9.9543019
20
-0.0371225
11
9.9543019
21
0.0993157
0
LINE
8
DEFAULT_255_1_388
10
9.9543019
20
0.0993157
11
10.0798973
21
0.0993157
0
LINE
8
DEFAULT_255_1_388
10
9.8657525
20
0.3306282
11
9.6985931
21
0.3306282
0
LINE
8
DEFAULT_255_1_388
10
9.6868468
20
-0.2928313
11
9.8549098
21
-0.2928313
0
LINE
8
DEFAULT_255_1_388
10
10.0798973
20
-0.0371225
11
9.9543019
21
-0.0371225
0
ARC
8
DEFAULT_255_1_388
10
10.07662
20
0.4809922
40
0.3816905
50
270.491971
51
281.8953028
0
ARC
8
DEFAULT_255_1_388
10
10.1037627
20
0.3570199
40
0.2547877
50
281.6690378
51
301.2943765
0
ARC
8
DEFAULT_255_1_388
10
10.1229078
20
0.3219926
40
0.2149197
50
301.7834992
51
311.754567
0
ARC
8
DEFAULT_255_1_388
10
10.1332119
20
0.310565
40
0.1995326
50
311.7325027
51
354.2803031
0
ARC
8
DEFAULT_255_1_388
10
10.0514535
20
0.324628
40
0.2823461
50
353.0941646
51
0.1174696
0
ARC
8
DEFAULT_255_1_388
10
9.9996093
20
0.3299874
40
0.3342238
50
359.1804452
51
15.0452323
0
ARC
8
DEFAULT_255_1_388
10
10.1510152
20
0.3741546
40
0.1765747
50
13.957816
51
77.6713812
0
ARC
8
DEFAULT_255_1_388
10
10.1075387
20
0.2183464
40
0.3381982
50
76.111571
51
90.7028736
0
ARC
8
DEFAULT_255_1_388
10
10.1008799
20
0.249125
40
0.3074046
50
89.5321574
51
103.5319393
0
ARC
8
DEFAULT_255_1_388
10
10.0783183
20
0.3390443
40
0.2147041
50
103.2930114
51
133.5619756
0
ARC
8
DEFAULT_255_1_388
10
10.0733125
20
0.3457351
40
0.2064084
50
133.8349761
51
173.5343225
0
ARC
8
DEFAULT_255_1_388
10
10.1546782
20
0.3313144
40
0.2889266
50
172.5097183
51
180.1360699
0
ARC
8
DEFAULT_255_1_388
10
10.0476546
20
0.335188
40
0.3490913
50
155.3483706
51
180.7484035
0
ARC
8
DEFAULT_255_1_388
10
10.0421522
20
0.3319519
40
0.3454798
50
131.5745177
51
154.4799474
0
ARC
8
DEFAULT_255_1_388
10
10.0773804
20
0.2963422
40
0.3955058
50
96.9874487
51
131.9690874
0
ARC
8
DEFAULT_255_1_388
10
10.1020697
20
0.1562407
40
0.537622
50
89.8592909
51
97.7827481
0
ARC
8
DEFAULT_255_1_388
10
10.1074806
20
0.126736
40
0.5671399
50
78.3654493
51
90.4132586
0
ARC
8
DEFAULT_255_1_388
10
10.1477447
20
0.3133918
40
0.3762034
50
56.6229818
51
78.6387103
0
ARC
8
DEFAULT_255_1_388
10
10.1719276
20
0.3556846
40
0.3275964
50
47.0254604
51
56.085558
0
ARC
8
DEFAULT_255_1_388
10
10.1741527
20
0.3601189
40
0.3228382
50
10.9207523
51
46.777927
0
ARC
8
DEFAULT_255_1_388
10
10.0207121
20
0.3246401
40
0.4802559
50
359.6364235
51
11.6087615
0
ARC
8
DEFAULT_255_1_388
10
10.2271287
20
0.3229404
40
0.273833
50
332.3549969
51
359.7179765
0
ARC
8
DEFAULT_255_1_388
10
10.1539687
20
0.3576285
40
0.3547505
50
325.2332381
51
332.8746682
0
ARC
8
DEFAULT_255_1_388
10
10.171127
20
0.3456763
40
0.3338396
50
292.9803892
51
325.2391113
0
ARC
8
DEFAULT_255_1_388
10
10.1400466
20
0.4061679
40
0.4016959
50
292.542178
51
293.6931461
0
ARC
8
DEFAULT_255_1_388
10
10.1844038
20
-0.3203964
40
0.372079
50
57.643292
51
72.8626085
0
ARC
8
DEFAULT_255_1_388
10
10.2242873
20
-0.2557727
40
0.2961455
50
36.7246661
51
57.4701329
0
ARC
8
DEFAULT_255_1_388
10
10.2230029
20
-0.254353
40
0.2963321
50
8.054535
51
36.3561529
0
ARC
8
DEFAULT_255_1_388
10
10.1259702
20
-0.2717927
40
0.3948682
50
359.8316595
51
8.5873361
0
ARC
8
DEFAULT_255_1_388
10
10.0837176
20
-0.277203
40
0.4371398
50
343.9831631
51
0.557075
0
ARC
8
DEFAULT_255_1_388
10
10.1834226
20
-0.3045037
40
0.3337749
50
311.6358204
51
343.7652116
0
ARC
8
DEFAULT_255_1_388
10
10.1408479
20
-0.2565045
40
0.3979351
50
279.7829743
51
311.625622
0
ARC
8
DEFAULT_255_1_388
10
10.1069615
20
-0.0948358
40
0.5630417
50
269.7285092
51
280.3857694
0
ARC
8
DEFAULT_255_1_388
10
10.0999928
20
-0.0994759
40
0.5584119
50
256.6827433
51
270.4412869
0
ARC
8
DEFAULT_255_1_388
10
10.0618914
20
-0.2552302
40
0.3980715
50
229.4223821
51
256.8554507
0
ARC
8
DEFAULT_255_1_388
10
10.0152468
20
-0.3077317
40
0.3278564
50
181.8183354
51
229.6455015
0
ARC
8
DEFAULT_255_1_388
10
10.1322077
20
-0.2930175
40
0.4453611
50
179.9760419
51
183.2330638
0
ARC
8
DEFAULT_255_1_388
10
10.1128629
20
-0.2953219
40
0.2579652
50
179.4467996
51
196.2871626
0
ARC
8
DEFAULT_255_1_388
10
10.0580083
20
-0.3103291
40
0.2011057
50
196.5661293
51
227.7059371
0
ARC
8
DEFAULT_255_1_388
10
10.076469
20
-0.2896845
40
0.2287994
50
227.7653015
51
257.8763321
0
ARC
8
DEFAULT_255_1_388
10
10.1017773
20
-0.1836039
40
0.3378385
50
257.4583525
51
270.4267406
0
ARC
8
DEFAULT_255_1_388
10
10.1069023
20
-0.150977
40
0.3704652
50
269.5965319
51
280.8788143
0
ARC
8
DEFAULT_255_1_388
10
10.1327251
20
-0.2799471
40
0.2389415
50
280.6347277
51
299.8594068
0
ARC
8
DEFAULT_255_1_388
10
10.1542021
20
-0.3207264
40
0.19289
50
300.3575552
51
314.5515667
0
ARC
8
DEFAULT_255_1_388
10
10.1448696
20
-0.3138975
40
0.204312
50
315.0730962
51
345.0429362
0
ARC
8
DEFAULT_255_1_388
10
10.0410204
20
-0.2836461
40
0.31246
50
344.598526
51
357.9270698
0
ARC
8
DEFAULT_255_1_388
10
9.9400509
20
-0.2767295
40
0.4136265
50
357.4755098
51
0.0224936
0
ARC
8
DEFAULT_255_1_388
10
10.0553386
20
-0.2739901
40
0.2983498
50
359.5051035
51
13.4236939
0
ARC
8
DEFAULT_255_1_388
10
10.1528476
20
-0.2490363
40
0.1977186
50
12.9497905
51
48.7550905
0
ARC
8
DEFAULT_255_1_388
10
10.1323398
20
-0.2770627
40
0.2323321
50
49.509109
51
72.1832965
0
ARC
8
DEFAULT_255_1_388
10
10.0920866
20
-0.3965368
40
0.358397
50
71.9008458
51
84.3555134
0
ARC
8
DEFAULT_255_1_388
10
10.0739261
20
-0.5497288
40
0.512641
50
84.019632
51
89.3326067
0
LINE
8
DEFAULT_255_1_388
10
11.5454789
20
0.6757898
11
11.7198668
21
0.6757898
0
LINE
8
DEFAULT_255_1_388
10
11.7198668
20
0.6757898
11
11.7198668
21
-0.218739
0
LINE
8
DEFAULT_255_1_388
10
11.287963
20
-0.6560642
11
11.2418812
21
-0.6578713
0
LINE
8
DEFAULT_255_1_388
10
10.7675099
20
-0.2205461
11
10.7675099
21
0.6757898
0
LINE
8
DEFAULT_255_1_388
10
10.7675099
20
0.6757898
11
10.9391871
21
0.6757898
0
LINE
8
DEFAULT_255_1_388
10
10.9391871
20
0.6757898
11
10.9391871
21
-0.2151247
0
LINE
8
DEFAULT_255_1_388
10
11.5454789
20
-0.2160283
11
11.5454789
21
0.6757898
0
ARC
8
DEFAULT_255_1_388
10
11.2301466
20
-0.220973
40
0.4897252
50
343.0897723
51
0.2613727
0
ARC
8
DEFAULT_255_1_388
10
11.3233438
20
-0.246973
40
0.3930016
50
315.3344451
51
342.7642569
0
ARC
8
DEFAULT_255_1_388
10
11.2981933
20
-0.2208915
40
0.4292244
50
284.6605441
51
315.2183439
0
ARC
8
DEFAULT_255_1_388
10
11.2469713
20
-0.0469492
40
0.6104926
50
273.8500371
51
285.1796441
0
ARC
8
DEFAULT_255_1_388
10
11.2370778
20
-0.0085238
40
0.6493653
50
257.6315393
51
270.4238259
0
ARC
8
DEFAULT_255_1_388
10
11.1892861
20
-0.2134085
40
0.4390079
50
230.6086859
51
257.9965362
0
ARC
8
DEFAULT_255_1_388
10
11.1746919
20
-0.2363357
40
0.4120404
50
227.745033
51
230.1538266
0
ARC
8
DEFAULT_255_1_388
10
11.1593449
20
-0.2547747
40
0.3880742
50
189.2524335
51
227.5915299
0
ARC
8
DEFAULT_255_1_388
10
11.330532
20
-0.2179265
40
0.5630282
50
180.2665782
51
190.1525221
0
ARC
8
DEFAULT_255_1_388
10
11.3555048
20
-0.2182746
40
0.4163296
50
179.566507
51
191.9954402
0
ARC
8
DEFAULT_255_1_388
10
11.2173736
20
-0.2490849
40
0.274815
50
191.6974619
51
215.1403758
0
ARC
8
DEFAULT_255_1_388
10
11.1906129
20
-0.2650311
40
0.2437647
50
215.6958251
51
224.8509274
0
ARC
8
DEFAULT_255_1_388
10
11.1968605
20
-0.2560984
40
0.2545012
50
225.2846515
51
255.0110023
0
ARC
8
DEFAULT_255_1_388
10
11.2333051
20
-0.1307983
40
0.384974
50
254.5945979
51
267.9129427
0
ARC
8
DEFAULT_255_1_388
10
11.2416744
20
-0.0090556
40
0.506956
50
267.4687563
51
270.0233681
0
ARC
8
DEFAULT_255_1_388
10
11.245074
20
-0.0750712
40
0.440952
50
269.5851384
51
281.1845308
0
ARC
8
DEFAULT_255_1_388
10
11.2764344
20
-0.2272531
40
0.2855802
50
280.9345159
51
300.9740496
0
ARC
8
DEFAULT_255_1_388
10
11.3003524
20
-0.2712872
40
0.2355257
50
301.4982546
51
315.1468616
0
ARC
8
DEFAULT_255_1_388
10
11.284102
20
-0.2579512
40
0.2564594
50
315.5952932
51
345.6679188
0
ARC
8
DEFAULT_255_1_388
10
11.1581577
20
-0.2228765
40
0.3871766
50
345.2525685
51
358.6303941
0
ARC
8
DEFAULT_255_1_388
10
11.0437967
20
-0.2161305
40
0.5016822
50
358.1723541
51
0.0116795
0
LINE
8
DEFAULT_255_1_388
10
12.3153158
20
-0.0127263
11
12.3153158
21
-0.1491645
0
LINE
8
DEFAULT_255_1_388
10
12.3153158
20
-0.1491645
11
11.8743763
21
-0.1491645
0
LINE
8
DEFAULT_255_1_388
10
11.8743763
20
-0.1491645
11
11.8743763
21
-0.0127263
0
LINE
8
DEFAULT_255_1_388
10
11.8743763
20
-0.0127263
11
12.3153158
21
-0.0127263
0
LINE
8
DEFAULT_255_1_388
10
13.0101568
20
0.6821148
11
13.0101568
21
-0.6398
0
LINE
8
DEFAULT_255_1_388
10
13.0101568
20
-0.6398
11
12.8420938
21
-0.6398
0
LINE
8
DEFAULT_255_1_388
10
12.8420938
20
-0.6398
11
12.8420938
21
0.474295
0
LINE
8
DEFAULT_255_1_388
10
12.8420938
20
0.474295
11
12.5050643
21
0.3505066
0
LINE
8
DEFAULT_255_1_388
10
12.5050643
20
0.3505066
11
12.5050643
21
0.5023055
0
LINE
8
DEFAULT_255_1_388
10
12.5050643
20
0.5023055
11
12.9839535
21
0.6821148
0
LINE
8
DEFAULT_255_1_388
10
12.9839535
20
0.6821148
11
13.0101568
21
0.6821148
0
LINE
8
DEFAULT_255_1_388
10
14.3618893
20
-0.5033618
11
14.3618893
21
-0.6398
0
LINE
8
DEFAULT_255_1_388
10
14.3618893
20
-0.6398
11
13.4998888
21
-0.6398
0
LINE
8
DEFAULT_255_1_388
10
13.4998888
20
-0.6398
11
13.4998888
21
-0.5196259
0
LINE
8
DEFAULT_255_1_388
10
13.4998888
20
-0.5196259
11
13.9552853
21
-0.0136298
0
LINE
8
DEFAULT_255_1_388
10
13.6417484
20
0.2881607
11
13.474589
21
0.2881607
0
LINE
8
DEFAULT_255_1_388
10
14.0537738
20
-0.121154
11
13.7013836
21
-0.5033618
0
LINE
8
DEFAULT_255_1_388
10
13.7013836
20
-0.5033618
11
14.3618893
21
-0.5033618
0
ARC
8
DEFAULT_255_1_388
10
12.4376912
20
1.3283983
40
2.0258655
50
318.5132526
51
320.7829045
0
ARC
8
DEFAULT_255_1_388
10
13.0324869
20
0.8442929
40
1.2589638
50
320.7372878
51
323.9739031
0
ARC
8
DEFAULT_255_1_388
10
13.4733801
20
0.5248554
40
0.7145141
50
323.8962701
51
328.64194
0
ARC
8
DEFAULT_255_1_388
10
13.7036058
20
0.3828545
40
0.4440242
50
328.8294576
51
331.7891185
0
ARC
8
DEFAULT_255_1_388
10
13.8158378
20
0.3249374
40
0.3177517
50
331.4254512
51
352.9365785
0
ARC
8
DEFAULT_255_1_388
10
13.8311378
20
0.321505
40
0.3021496
50
353.2257659
51
0.0166158
0
ARC
8
DEFAULT_255_1_388
10
13.8548139
20
0.3240894
40
0.2784847
50
359.486299
51
15.9343185
0
ARC
8
DEFAULT_255_1_388
10
13.9118406
20
0.3394269
40
0.2194403
50
16.1712913
51
43.5286088
0
ARC
8
DEFAULT_255_1_388
10
13.920535
20
0.3481191
40
0.2071504
50
43.4417391
51
83.1661095
0
ARC
8
DEFAULT_255_1_388
10
13.9054511
20
0.2652316
40
0.2912888
50
82.160179
51
90.1505708
0
ARC
8
DEFAULT_255_1_388
10
13.9018993
20
0.2048279
40
0.3517025
50
89.5460741
51
102.5418361
0
ARC
8
DEFAULT_255_1_388
10
13.8745713
20
0.3207933
40
0.2325748
50
102.1738499
51
129.206123
0
ARC
8
DEFAULT_255_1_388
10
13.8657166
20
0.3347664
40
0.2161591
50
129.72865
51
135.753947
0
ARC
8
DEFAULT_255_1_388
10
13.8793649
20
0.3238728
40
0.2335433
50
136.1757367
51
166.3673339
0
ARC
8
DEFAULT_255_1_388
10
13.9926337
20
0.2935148
40
0.3507873
50
165.9090694
51
178.8684636
0
ARC
8
DEFAULT_255_1_388
10
14.0902108
20
0.2882263
40
0.4484624
50
178.4391136
51
180.0083808
0
ARC
8
DEFAULT_255_1_388
10
13.932281
20
0.2926197
40
0.4577138
50
163.2878482
51
180.5581842
0
ARC
8
DEFAULT_255_1_388
10
13.8420851
20
0.3174393
40
0.3641968
50
133.4540601
51
162.947111
0
ARC
8
DEFAULT_255_1_388
10
13.8621733
20
0.2960789
40
0.3935189
50
100.7869829
51
133.4382499
0
ARC
8
DEFAULT_255_1_388
10
13.9012978
20
0.1218399
40
0.5720313
50
89.660664
51
101.3702276
0
ARC
8
DEFAULT_255_1_388
10
13.9087587
20
0.1287263
40
0.5651495
50
78.2172678
51
90.412935
0
ARC
8
DEFAULT_255_1_388
10
13.9487053
20
0.3114511
40
0.378122
50
55.9269121
51
78.4888449
0
ARC
8
DEFAULT_255_1_388
10
13.9707768
20
0.3495187
40
0.3342379
50
47.929771
51
55.4049217
0
ARC
8
DEFAULT_255_1_388
10
13.9822298
20
0.3611618
40
0.3179217
50
4.334829
51
48.0560205
0
ARC
8
DEFAULT_255_1_388
10
13.85901
20
0.3420487
40
0.442341
50
359.9251713
51
5.5971671
0
ARC
8
DEFAULT_255_1_388
10
13.9072254
20
0.3483728
40
0.3941854
50
337.8914027
51
358.9967534
0
ARC
8
DEFAULT_255_1_388
10
13.6019825
20
0.4661295
40
0.7213271
50
326.9132501
51
338.3508308
0
ARC
8
DEFAULT_255_1_388
10
13.1535936
20
0.7535105
40
1.2538973
50
319.6471833
51
327.0959558
0
ARC
8
DEFAULT_255_1_388
10
12.7222595
20
1.109305
40
1.8129975
50
317.2588228
51
319.9045804
0
ARC
8
DEFAULT_255_1_388
10
15.0193384
20
0.329572
40
0.3175098
50
338.8762533
51
0.5167111
0
ARC
8
DEFAULT_255_1_388
10
15.0382978
20
0.32446
40
0.2979894
50
325.8415285
51
338.4793574
0
ARC
8
DEFAULT_255_1_388
10
14.9943612
20
0.3549242
40
0.351452
50
296.7587686
51
325.7536481
0
ARC
8
DEFAULT_255_1_388
10
14.9615239
20
0.4103363
40
0.4157374
50
296.0927901
51
297.3613472
0
ARC
8
DEFAULT_255_1_388
10
14.9909435
20
-0.3279407
40
0.395855
50
47.9007294
51
67.1948823
0
ARC
8
DEFAULT_255_1_388
10
15.0130077
20
-0.3002401
40
0.360516
50
35.2363914
51
47.551141
0
ARC
8
DEFAULT_255_1_388
10
15.0424481
20
-0.2805907
40
0.3251343
50
359.2759765
51
35.4014143
0
ARC
8
DEFAULT_255_1_388
10
14.9586407
20
-0.2888213
40
0.4089365
50
343.1293083
51
0.5775513
0
ARC
8
DEFAULT_255_1_388
10
15.0401521
20
-0.3112664
40
0.3244269
50
310.8496669
51
342.7449331
0
ARC
8
DEFAULT_255_1_388
10
14.9931395
20
-0.2576087
40
0.3957651
50
281.5472888
51
310.9170406
0
ARC
8
DEFAULT_255_1_388
10
14.953027
20
-0.0829186
40
0.5749654
50
269.619248
51
281.9789564
0
ARC
8
DEFAULT_255_1_388
10
14.9449047
20
-0.0828224
40
0.5750649
50
257.4585678
51
270.4285689
0
ARC
8
DEFAULT_255_1_388
10
14.9020568
20
-0.2632259
40
0.389671
50
228.7554326
51
257.8484789
0
ARC
8
DEFAULT_255_1_388
10
14.8672053
20
-0.3051772
40
0.335154
50
184.0104975
51
228.5071184
0
ARC
8
DEFAULT_255_1_388
10
14.9980445
20
-0.285257
40
0.4671891
50
179.9315832
51
185.3253753
0
ARC
8
DEFAULT_255_1_388
10
14.8656958
20
-0.2810408
40
0.33486
50
145.6796023
51
180.6259786
0
ARC
8
DEFAULT_255_1_388
10
14.8840724
20
-0.2938729
40
0.3572723
50
115.5537685
51
145.6415986
0
ARC
8
DEFAULT_255_1_388
10
14.9223768
20
-0.3624913
40
0.4357296
50
113.243307
51
116.2057839
0
ARC
8
DEFAULT_255_1_388
10
14.905242
20
0.3572379
40
0.3549126
50
222.9549744
51
244.1370481
0
ARC
8
DEFAULT_255_1_388
10
14.8915063
20
0.3418378
40
0.3343711
50
213.3436887
51
222.6274467
0
ARC
8
DEFAULT_255_1_388
10
14.8699132
20
0.3271653
40
0.3082678
50
180.431584
51
213.271499
0
ARC
8
DEFAULT_255_1_388
10
14.9334131
20
0.3324296
40
0.3718363
50
179.9991191
51
181.1690594
0
ARC
8
DEFAULT_255_1_388
10
14.9806587
20
0.3363072
40
0.4190996
50
164.6186169
51
180.529336
0
ARC
8
DEFAULT_255_1_388
10
14.8796236
20
0.363478
40
0.3144772
50
132.2455553
51
164.5090724
0
ARC
8
DEFAULT_255_1_388
10
14.9119215
20
0.326907
40
0.3632644
50
100.7053914
51
132.1386381
0
ARC
8
DEFAULT_255_1_388
10
14.9462276
20
0.1719118
40
0.5219578
50
89.6730358
51
101.2451698
0
ARC
8
DEFAULT_255_1_388
10
14.9532267
20
0.1915648
40
0.5023124
50
76.287748
51
90.4586006
0
ARC
8
DEFAULT_255_1_388
10
14.9876769
20
0.3290671
40
0.3605639
50
47.8240511
51
76.4266241
0
ARC
8
DEFAULT_255_1_388
10
15.0127153
20
0.3583599
40
0.3220463
50
6.9168387
51
47.6262497
0
ARC
8
DEFAULT_255_1_388
10
14.8792606
20
0.3337004
40
0.4575765
50
359.8415968
51
7.9697453
0
ARC
8
DEFAULT_255_1_388
10
14.9176876
20
-0.2783481
40
0.2827228
50
359.445363
51
16.9256873
0
ARC
8
DEFAULT_255_1_388
10
14.970431
20
-0.2638219
40
0.2280396
50
17.2920767
51
45.4630727
0
ARC
8
DEFAULT_255_1_388
10
14.9643445
20
-0.2690676
40
0.2360485
50
45.30305
51
83.1920945
0
ARC
8
DEFAULT_255_1_388
10
14.948219
20
-0.3592527
40
0.3275527
50
82.2612665
51
90.1434275
0
ARC
8
DEFAULT_255_1_388
10
14.9447466
20
-0.3330131
40
0.3013237
50
89.4956434
51
104.8580688
0
ARC
8
DEFAULT_255_1_388
10
14.9248656
20
-0.2576545
40
0.2233867
50
104.8856641
51
135.244616
0
ARC
8
DEFAULT_255_1_388
10
14.9304645
20
-0.2626648
40
0.2308906
50
135.3399546
51
172.1044062
0
ARC
8
DEFAULT_255_1_388
10
15.0212169
20
-0.2800333
40
0.3232034
50
171.2645637
51
180.186429
0
ARC
8
DEFAULT_255_1_388
10
15.0022174
20
-0.2836574
40
0.304213
50
179.5154935
51
193.6464289
0
ARC
8
DEFAULT_255_1_388
10
14.910385
20
-0.3070527
40
0.209456
50
193.3540274
51
225.8258581
0
ARC
8
DEFAULT_255_1_388
10
14.9149722
20
-0.2990924
40
0.2183738
50
226.4180634
51
255.8552336
0
ARC
8
DEFAULT_255_1_388
10
14.9438188
20
-0.1937479
40
0.3275812
50
255.4654104
51
268.7987425
0
ARC
8
DEFAULT_255_1_388
10
14.9491365
20
-0.0995455
40
0.4218877
50
268.3449238
51
270.0094605
0
ARC
8
DEFAULT_255_1_388
10
14.9517598
20
-0.1763906
40
0.3450519
50
269.5759586
51
282.0820163
0
ARC
8
DEFAULT_255_1_388
10
14.9770635
20
-0.2882637
40
0.2303642
50
281.752014
51
306.6056188
0
ARC
8
DEFAULT_255_1_388
10
14.9881443
20
-0.3064198
40
0.2091906
50
307.1346085
51
314.027845
0
ARC
8
DEFAULT_255_1_388
10
14.9840955
20
-0.3034541
40
0.2141385
50
314.2552483
51
350.1694025
0
ARC
8
DEFAULT_255_1_388
10
14.8883192
20
-0.2826825
40
0.312082
50
349.4140529
51
0.2933014
0
ARC
8
DEFAULT_255_1_388
10
14.9468469
20
0.2976924
40
0.2588377
50
89.477747
51
105.729729
0
ARC
8
DEFAULT_255_1_388
10
14.9315389
20
0.3545367
40
0.1999733
50
105.9233417
51
135.1660906
0
ARC
8
DEFAULT_255_1_388
10
14.933842
20
0.3529412
40
0.2027322
50
135.3052302
51
168.9883645
0
ARC
8
DEFAULT_255_1_388
10
15.0269436
20
0.3315996
40
0.2982129
50
168.3801673
51
180.3602268
0
ARC
8
DEFAULT_255_1_388
10
15.0012553
20
0.3273622
40
0.2725291
50
179.5033122
51
194.9125571
0
ARC
8
DEFAULT_255_1_388
10
14.9353959
20
0.3100427
40
0.204431
50
194.9720816
51
224.194444
0
ARC
8
DEFAULT_255_1_388
10
14.9322325
20
0.3074635
40
0.2003651
50
224.2962453
51
262.015664
0
ARC
8
DEFAULT_255_1_388
10
14.9482329
20
0.3897315
40
0.2840925
50
261.1245923
51
270.1962896
0
ARC
8
DEFAULT_255_1_388
10
14.951581
20
0.3686859
40
0.2630559
50
269.4827276
51
285.0987215
0
ARC
8
DEFAULT_255_1_388
10
14.9689246
20
0.3036175
40
0.1957162
50
285.1585357
51
315.9484501
0
ARC
8
DEFAULT_255_1_388
10
14.958912
20
0.3128315
40
0.2093195
50
316.0413965
51
351.916092
0
ARC
8
DEFAULT_255_1_388
10
14.8764494
20
0.3287323
40
0.2932279
50
351.105835
51
0.1939062
0
ARC
8
DEFAULT_255_1_388
10
14.9060128
20
0.3321224
40
0.2636739
50
359.4789618
51
16.0678224
0
ARC
8
DEFAULT_255_1_388
10
14.95956
20
0.3465721
40
0.2082215
50
16.3252067
51
44.7913869
0
ARC
8
DEFAULT_255_1_388
10
14.9575662
20
0.346632
40
0.2095992
50
44.3957814
51
88.2499162
0
ARC
8
DEFAULT_255_1_388
10
14.9492997
20
0.2778006
40
0.2787189
50
86.9833854
51
90.0192215
0
LINE
8
DEFAULT_255_1_388
10
16.4735194
20
-0.6398
11
16.3479239
21
-0.2964455
0
LINE
8
DEFAULT_255_1_388
10
16.3479239
20
-0.2964455
11
15.7967496
21
-0.2964455
0
LINE
8
DEFAULT_255_1_388
10
15.7967496
20
-0.2964455
11
15.6729613
21
-0.6398
0
LINE
8
DEFAULT_255_1_388
10
15.6729613
20
-0.6398
11
15.4940555
21
-0.6398
0
LINE
8
DEFAULT_255_1_388
10
15.4940555
20
-0.6398
11
15.9964374
21
0.6757898
0
LINE
8
DEFAULT_255_1_388
10
15.9964374
20
0.6757898
11
16.1482362
21
0.6757898
0
LINE
8
DEFAULT_255_1_388
10
16.1482362
20
0.6757898
11
16.6515216
21
-0.6398
0
LINE
8
DEFAULT_255_1_388
10
16.6515216
20
-0.6398
11
16.4735194
21
-0.6398
0
LINE
8
DEFAULT_255_1_388
10
16.0723368
20
0.4616451
11
15.8491563
21
-0.1536823
0
LINE
8
DEFAULT_255_1_388
10
15.8491563
20
-0.1536823
11
16.2964208
21
-0.1536823
0
LINE
8
DEFAULT_255_1_388
10
16.2964208
20
-0.1536823
11
16.0723368
21
0.4616451
0
LINE
8
DEFAULT_255_1_388
10
17.7014635
20
0.2953892
11
17.5270755
21
0.2953892
0
LINE
8
DEFAULT_255_1_388
10
16.748203
20
-0.2584958
11
16.9225909
21
-0.2584958
0
ARC
8
DEFAULT_255_1_388
10
17.6011482
20
1.3017821
40
1.4087688
50
248.9196578
51
254.1442424
0
ARC
8
DEFAULT_255_1_388
10
17.4121363
20
0.8151805
40
0.8867498
50
241.6337352
51
249.0064643
0
ARC
8
DEFAULT_255_1_388
10
17.2401676
20
0.5000764
40
0.5277799
50
230.4982261
51
241.8087583
0
ARC
8
DEFAULT_255_1_388
10
17.1519447
20
0.3876686
40
0.3849419
50
227.4062979
51
229.9877433
0
ARC
8
DEFAULT_255_1_388
10
17.0970793
20
0.3341155
40
0.3084129
50
200.6782127
51
228.1765252
0
ARC
8
DEFAULT_255_1_388
10
17.1052162
20
0.3324277
40
0.315461
50
179.506278
51
199.8695278
0
ARC
8
DEFAULT_255_1_388
10
17.1041751
20
0.3407671
40
0.3144584
50
132.4834401
51
181.0242352
0
ARC
8
DEFAULT_255_1_388
10
17.1710955
20
0.2775788
40
0.4063094
50
129.2526113
51
133.4249077
0
ARC
8
DEFAULT_255_1_388
10
17.1876548
20
0.2527619
40
0.436014
50
101.9878945
51
128.8741833
0
ARC
8
DEFAULT_255_1_388
10
17.2324963
20
0.059136
40
0.6347415
50
89.5906376
51
102.3170567
0
ARC
8
DEFAULT_255_1_388
10
17.2404275
20
0.0949586
40
0.5989122
50
77.2359491
51
90.3248968
0
ARC
8
DEFAULT_255_1_388
10
17.2637206
20
0.2037554
40
0.4876594
50
63.8379856
51
77.0808925
0
ARC
8
DEFAULT_255_1_388
10
17.2949739
20
0.2619882
40
0.4216191
50
45.9863127
51
64.1608798
0
ARC
8
DEFAULT_255_1_388
10
17.3243133
20
0.295499
40
0.3771394
50
32.2747934
51
45.6544796
0
ARC
8
DEFAULT_255_1_388
10
17.3317939
20
0.2976426
40
0.3696765
50
359.6507495
51
32.6129943
0
ARC
8
DEFAULT_255_1_388
10
17.2257122
20
0.2981788
40
0.3013762
50
359.469654
51
14.983205
0
ARC
8
DEFAULT_255_1_388
10
17.3050374
20
0.3194288
40
0.2192542
50
14.9781954
51
48.2004799
0
ARC
8
DEFAULT_255_1_388
10
17.2865485
20
0.2961937
40
0.2489048
50
48.5926661
51
74.1242559
0
ARC
8
DEFAULT_255_1_388
10
17.2490288
20
0.1723607
40
0.3782845
50
73.7889321
51
86.6653996
0
ARC
8
DEFAULT_255_1_388
10
17.2375102
20
0.0365955
40
0.5145025
50
86.2642725
51
90.0533288
0
ARC
8
DEFAULT_255_1_388
10
17.2343195
20
0.0810376
40
0.4700681
50
89.669455
51
99.2313411
0
ARC
8
DEFAULT_255_1_388
10
17.2070355
20
0.2435401
40
0.3052945
50
99.0695987
51
113.7659242
0
ARC
8
DEFAULT_255_1_388
10
17.1762349
20
0.3161772
40
0.226407
50
114.0402885
51
127.9848946
0
ARC
8
DEFAULT_255_1_388
10
17.1491825
20
0.3494884
40
0.1835045
50
127.7287217
51
176.7106493
0
ARC
8
DEFAULT_255_1_388
10
17.225549
20
0.338121
40
0.2604907
50
175.1780759
51
180.0581213
0
ARC
8
DEFAULT_255_1_388
10
17.1306834
20
0.3367411
40
0.1656287
50
179.6140658
51
228.124674
0
ARC
8
DEFAULT_255_1_388
10
17.1804191
20
0.382794
40
0.2332038
50
226.5785315
51
230.8792476
0
ARC
8
DEFAULT_255_1_388
10
17.2333678
20
0.4530908
40
0.3211664
50
231.4636401
51
241.9261664
0
ARC
8
DEFAULT_255_1_388
10
17.3680461
20
0.7009349
40
0.6032345
50
241.7177136
51
248.3259138
0
ARC
8
DEFAULT_255_1_388
10
17.5239056
20
1.0870771
40
1.0196417
50
248.2007377
51
252.4527713
0
ARC
8
DEFAULT_255_1_388
10
17.6592583
20
1.5055092
40
1.4594143
50
252.3388938
51
254.347037
0
ARC
8
DEFAULT_255_1_388
10
16.8107883
20
-1.5292905
40
1.6917621
50
71.0197462
51
74.4085467
0
ARC
8
DEFAULT_255_1_388
10
17.0014971
20
-0.9787856
40
1.1091618
50
66.1845203
51
71.086519
0
ARC
8
DEFAULT_255_1_388
10
17.176552
20
-0.5846561
40
0.6779073
50
59.3537334
51
66.269255
0
ARC
8
DEFAULT_255_1_388
10
17.2765246
20
-0.4155223
40
0.4814366
50
49.1021732
51
59.3294421
0
ARC
8
DEFAULT_255_1_388
10
17.3686234
20
-0.3105425
40
0.3417875
50
32.7924183
51
49.2503526
0
ARC
8
DEFAULT_255_1_388
10
17.4035849
20
-0.2855689
40
0.2988789
50
31.121225
51
32.3977355
0
ARC
8
DEFAULT_255_1_388
10
17.3948027
20
-0.2888272
40
0.3080861
50
8.1116803
51
30.7958224
0
ARC
8
DEFAULT_255_1_388
10
17.3036372
20
-0.3043563
40
0.4005385
50
359.8390945
51
8.4707348
0
ARC
8
DEFAULT_255_1_388
10
17.374042
20
-0.3098249
40
0.3301608
50
337.4732479
51
0.7538283
0
ARC
8
DEFAULT_255_1_388
10
17.3941445
20
-0.3120446
40
0.3107929
50
307.5917028
51
336.4313755
0
ARC
8
DEFAULT_255_1_388
10
17.3430503
20
-0.2552491
40
0.3870096
50
307.6560665
51
308.4561779
0
ARC
8
DEFAULT_255_1_388
10
17.3164719
20
-0.2144168
40
0.435591
50
284.3733666
51
307.1426212
0
ARC
8
DEFAULT_255_1_388
10
17.2607614
20
-0.0094609
40
0.6479685
50
272.4384566
51
284.6464689
0
ARC
8
DEFAULT_255_1_388
10
17.2464998
20
0.1929434
40
0.8508149
50
269.9708517
51
272.8180721
0
ARC
8
DEFAULT_255_1_388
10
17.2416681
20
-0.0362717
40
0.6216151
50
248.2707343
51
270.4054609
0
ARC
8
DEFAULT_255_1_388
10
17.2355552
20
-0.0577327
40
0.5994203
50
246.1380358
51
248.054058
0
ARC
8
DEFAULT_255_1_388
10
17.1884695
20
-0.1566295
40
0.4899388
50
233.1671897
51
246.4951656
0
ARC
8
DEFAULT_255_1_388
10
17.126133
20
-0.2407863
40
0.3852115
50
215.3403381
51
233.084328
0
ARC
8
DEFAULT_255_1_388
10
17.0954694
20
-0.2630907
40
0.3472969
50
179.2419235
51
215.2648426
0
ARC
8
DEFAULT_255_1_388
10
17.1818245
20
-0.2615021
40
0.259251
50
179.3355796
51
199.1045873
0
ARC
8
DEFAULT_255_1_388
10
17.1444387
20
-0.2712777
40
0.2207454
50
199.8830064
51
232.7061328
0
ARC
8
DEFAULT_255_1_388
10
17.1975661
20
-0.2044544
40
0.306101
50
232.3736206
51
255.5136621
0
ARC
8
DEFAULT_255_1_388
10
17.2359167
20
-0.0644823
40
0.4512213
50
255.2447928
51
267.5318292
0
ARC
8
DEFAULT_255_1_388
10
17.2457634
20
0.0741709
40
0.5901825
50
267.1564563
51
270.0294721
0
ARC
8
DEFAULT_255_1_388
10
17.2488959
20
0.0242623
40
0.5402814
50
269.6999944
51
278.1662446
0
ARC
8
DEFAULT_255_1_388
10
17.2776987
20
-0.1704026
40
0.3435003
50
278.0229022
51
290.6255326
0
ARC
8
DEFAULT_255_1_388
10
17.3168154
20
-0.2747453
40
0.2320666
50
290.6616368
51
307.0374127
0
ARC
8
DEFAULT_255_1_388
10
17.3506053
20
-0.316196
40
0.1786372
50
306.3942078
51
355.303191
0
ARC
8
DEFAULT_255_1_388
10
17.2930347
20
-0.3075814
40
0.2367516
50
354.3662092
51
0.0709489
0
ARC
8
DEFAULT_255_1_388
10
17.3090215
20
-0.3050439
40
0.2207761
50
359.4175379
51
16.1975911
0
ARC
8
DEFAULT_255_1_388
10
17.3602333
20
-0.2910046
40
0.1676828
50
16.4721294
51
52.6261798
0
ARC
8
DEFAULT_255_1_388
10
17.2678841
20
-0.4129394
40
0.3206412
50
52.7381828
51
62.4979144
0
ARC
8
DEFAULT_255_1_388
10
17.1120593
20
-0.7061764
40
0.6527035
50
62.2517425
51
68.1219454
0
ARC
8
DEFAULT_255_1_388
10
16.9186081
20
-1.1816049
40
1.1659797
50
68.006043
51
71.8055127
0
ARC
8
DEFAULT_255_1_388
10
16.7165989
20
-1.7874277
40
1.8045908
50
71.718361
51
73.9260743
0
LINE
8
DEFAULT_255_1_388
10
18.100839
20
0.6757898
11
18.100839
21
-0.4979404
0
LINE
8
DEFAULT_255_1_388
10
18.100839
20
-0.4979404
11
18.7242984
21
-0.4979404
0
LINE
8
DEFAULT_255_1_388
10
18.7242984
20
-0.4979404
11
18.7242984
21
-0.6398
0
LINE
8
DEFAULT_255_1_388
10
18.7242984
20
-0.6398
11
17.926451
21
-0.6398
0
LINE
8
DEFAULT_255_1_388
10
17.926451
20
-0.6398
11
17.926451
21
0.6757898
0
LINE
8
DEFAULT_255_1_388
10
17.926451
20
0.6757898
11
18.100839
21
0.6757898
0
LINE
8
DEFAULT_255_1_388
10
19.243848
20
-0.0127263
11
19.243848
21
-0.1491645
0
LINE
8
DEFAULT_255_1_388
10
19.243848
20
-0.1491645
11
18.8029085
21
-0.1491645
0
LINE
8
DEFAULT_255_1_388
10
18.8029085
20
-0.1491645
11
18.8029085
21
-0.0127263
0
LINE
8
DEFAULT_255_1_388
10
18.8029085
20
-0.0127263
11
19.243848
21
-0.0127263
0
LINE
8
DEFAULT_255_1_388
10
19.432693
20
0.6757898
11
19.656777
21
0.6757898
0
LINE
8
DEFAULT_255_1_388
10
19.656777
20
0.6757898
11
20.0868736
21
-0.3976447
0
LINE
8
DEFAULT_255_1_388
10
20.0868736
20
-0.3976447
11
20.5169703
21
0.6757898
0
LINE
8
DEFAULT_255_1_388
10
20.5169703
20
0.6757898
11
20.7419579
21
0.6757898
0
LINE
8
DEFAULT_255_1_388
10
20.7419579
20
0.6757898
11
20.7419579
21
-0.6398
0
LINE
8
DEFAULT_255_1_388
10
20.7419579
20
-0.6398
11
20.5684735
21
-0.6398
0
LINE
8
DEFAULT_255_1_388
10
20.5684735
20
-0.6398
11
20.5684735
21
-0.127479
0
LINE
8
DEFAULT_255_1_388
10
20.5684735
20
-0.127479
11
20.5847376
21
0.4255025
0
LINE
8
DEFAULT_255_1_388
10
20.5847376
20
0.4255025
11
20.1528338
21
-0.6398
0
LINE
8
DEFAULT_255_1_388
10
20.1528338
20
-0.6398
11
20.0200099
21
-0.6398
0
LINE
8
DEFAULT_255_1_388
10
20.0200099
20
-0.6398
11
19.5890096
21
0.4227918
0
LINE
8
DEFAULT_255_1_388
10
19.5890096
20
0.4227918
11
19.6061773
21
-0.127479
0
LINE
8
DEFAULT_255_1_388
10
19.6061773
20
-0.127479
11
19.6061773
21
-0.6398
0
LINE
8
DEFAULT_255_1_388
10
19.6061773
20
-0.6398
11
19.432693
21
-0.6398
0
LINE
8
DEFAULT_255_1_388
10
19.432693
20
-0.6398
11
19.432693
21
0.6757898
0
LINE
8
DEFAULT_255_1_388
10
10.0644155
20
31.4264567
11
10.0644155
21
30.4488
0
LINE
8
DEFAULT_255_1_388
10
10.0644155
20
30.4488
11
9.8972561
21
30.4488
0
LINE
8
DEFAULT_255_1_388
10
9.8972561
20
30.4488
11
9.8972561
21
31.4264567
0
LINE
8
DEFAULT_255_1_388
10
9.8972561
20
31.4264567
11
10.0644155
21
31.4264567
0
ARC
8
DEFAULT_255_1_388
10
9.9937923
20
31.6868428
40
0.1100948
50
161.4148232
51
180.5532607
0
ARC
8
DEFAULT_255_1_388
10
9.9798233
20
31.6906875
40
0.0956324
50
138.1830164
51
160.9307633
0
ARC
8
DEFAULT_255_1_388
10
9.967442
20
31.7014313
40
0.0792417
50
104.6371663
51
138.0036136
0
ARC
8
DEFAULT_255_1_388
10
9.9794959
20
31.6601963
40
0.1221906
50
92.0601206
51
105.2198859
0
ARC
8
DEFAULT_255_1_388
10
9.9821323
20
31.6213583
40
0.161103
50
89.9790681
51
92.5006086
0
ARC
8
DEFAULT_255_1_388
10
9.9832499
20
31.6469998
40
0.1354654
50
78.0234649
51
90.4478111
0
ARC
8
DEFAULT_255_1_388
10
9.9936083
20
31.6935203
40
0.0878096
50
55.0521508
51
78.336297
0
ARC
8
DEFAULT_255_1_388
10
9.9992618
20
31.7030168
40
0.0767913
50
42.0506198
51
54.4508489
0
ARC
8
DEFAULT_255_1_388
10
9.984065
20
31.6890821
40
0.0974091
50
1.7493657
51
42.1498724
0
ARC
8
DEFAULT_255_1_388
10
9.9554556
20
31.6858166
40
0.1261276
50
359.9832635
51
2.8353994
0
ARC
8
DEFAULT_255_1_388
10
9.9740966
20
31.6847412
40
0.1074916
50
342.1062453
51
0.5535864
0
ARC
8
DEFAULT_255_1_388
10
9.990139
20
31.6803197
40
0.0908695
50
316.7110111
51
341.6513114
0
ARC
8
DEFAULT_255_1_388
10
9.9976822
20
31.6735607
40
0.0807447
50
285.4398289
51
316.5320129
0
ARC
8
DEFAULT_255_1_388
10
9.9852993
20
31.7147023
40
0.1237022
50
272.3543902
51
285.8951677
0
ARC
8
DEFAULT_255_1_388
10
9.9822703
20
31.7562742
40
0.1653687
50
269.9725761
51
272.8112722
0
ARC
8
DEFAULT_255_1_388
10
9.9811755
20
31.7311727
40
0.1402709
50
258.8433431
51
270.4148607
0
ARC
8
DEFAULT_255_1_388
10
9.9710535
20
31.6821739
40
0.0902407
50
238.54281
51
259.1289544
0
ARC
8
DEFAULT_255_1_388
10
9.9633856
20
31.6682694
40
0.0743817
50
222.5056676
51
237.9918132
0
ARC
8
DEFAULT_255_1_388
10
9.977745
20
31.6813295
40
0.0937918
50
184.1070774
51
222.4604165
0
ARC
8
DEFAULT_255_1_388
10
10.0079863
20
31.6856538
40
0.1242838
50
179.9419581
51
185.0970785
0
LINE
8
DEFAULT_255_1_388
10
11.3628376
20
31.1481589
11
11.3628376
21
31.0641274
0
LINE
8
DEFAULT_255_1_388
10
11.1324287
20
30.5201816
11
11.3673554
21
30.3358544
0
LINE
8
DEFAULT_255_1_388
10
11.3673554
20
30.3358544
11
11.2489885
21
30.2265231
0
LINE
8
DEFAULT_255_1_388
10
11.2489885
20
30.2265231
11
10.9715942
21
30.4469929
0
LINE
8
DEFAULT_255_1_388
10
10.3038601
20
31.0523811
11
10.3038601
21
31.1472553
0
LINE
8
DEFAULT_255_1_388
10
11.1893532
20
31.0514775
11
11.1893532
21
31.1490625
0
LINE
8
DEFAULT_255_1_388
10
10.4773444
20
31.1608088
11
10.4773444
21
31.0641274
0
ARC
8
DEFAULT_255_1_388
10
10.3555256
20
31.0597529
40
1.0073215
50
351.4530536
51
0.2488167
0
ARC
8
DEFAULT_255_1_388
10
10.6463424
20
31.0147749
40
0.7130509
50
338.6860608
51
351.554089
0
ARC
8
DEFAULT_255_1_388
10
10.7515881
20
30.9775573
40
0.6014866
50
336.2886209
51
338.3448103
0
ARC
8
DEFAULT_255_1_388
10
10.7896125
20
30.9566952
40
0.5582958
50
321.1168943
51
336.6796496
0
ARC
8
DEFAULT_255_1_388
10
10.8606899
20
30.9019644
40
0.4686152
50
305.4418419
51
320.8706891
0
ARC
8
DEFAULT_255_1_388
10
10.8385763
20
30.9860492
40
0.5552257
50
271.6372169
51
283.8614231
0
ARC
8
DEFAULT_255_1_388
10
10.8343217
20
31.0601271
40
0.6293984
50
269.993693
51
271.8317035
0
ARC
8
DEFAULT_255_1_388
10
10.8301041
20
30.968968
40
0.5382553
50
252.5221437
51
270.441579
0
ARC
8
DEFAULT_255_1_388
10
10.8139292
20
30.9083046
40
0.4755426
50
237.5349961
51
252.1858334
0
ARC
8
DEFAULT_255_1_388
10
10.8239668
20
30.921112
40
0.4917393
50
209.0632754
51
237.3492577
0
ARC
8
DEFAULT_255_1_388
10
10.9218993
20
30.9826104
40
0.6072464
50
205.118533
51
209.6465345
0
ARC
8
DEFAULT_255_1_388
10
11.0114995
20
31.0206174
40
0.7045164
50
188.7216633
51
204.8239753
0
ARC
8
DEFAULT_255_1_388
10
11.2361771
20
31.0584387
40
0.9323368
50
180.3722704
51
188.9253909
0
ARC
8
DEFAULT_255_1_388
10
11.2331332
20
31.1517416
40
0.929284
50
169.5253055
51
180.2766048
0
ARC
8
DEFAULT_255_1_388
10
11.0191131
20
31.1911024
40
0.7116745
50
155.8314601
51
169.5088611
0
ARC
8
DEFAULT_255_1_388
10
10.8750594
20
31.2579312
40
0.5528904
50
139.6259579
51
156.0379072
0
ARC
8
DEFAULT_255_1_388
10
10.8087128
20
31.3113143
40
0.4677708
50
122.6414784
51
139.3431662
0
ARC
8
DEFAULT_255_1_388
10
10.8200383
20
31.2906787
40
0.4912586
50
93.0224537
51
122.4556091
0
ARC
8
DEFAULT_255_1_388
10
10.8321904
20
31.1820776
40
0.6003837
50
89.9756766
51
93.6340839
0
ARC
8
DEFAULT_255_1_388
10
10.8365602
20
31.2248547
40
0.5576216
50
73.9666049
51
90.4228101
0
ARC
8
DEFAULT_255_1_388
10
10.8572251
20
31.3053139
40
0.4745905
50
57.5177173
51
73.6814962
0
ARC
8
DEFAULT_255_1_388
10
10.8522474
20
31.3012592
40
0.4806881
50
28.7260666
51
57.2767723
0
ARC
8
DEFAULT_255_1_388
10
10.7497881
20
31.2379397
40
0.6010032
50
24.2451459
51
29.3250018
0
ARC
8
DEFAULT_255_1_388
10
10.6456346
20
31.1948744
40
0.713663
50
9.0643887
51
23.9639114
0
ARC
8
DEFAULT_255_1_388
10
10.3918783
20
31.1522505
40
0.9709678
50
359.7585581
51
9.1891216
0
ARC
8
DEFAULT_255_1_388
10
10.2507372
20
31.1537562
40
0.9386278
50
359.7134836
51
7.9655743
0
ARC
8
DEFAULT_255_1_388
10
10.5840071
20
31.2018391
40
0.6019121
50
7.8289718
51
20.0423308
0
ARC
8
DEFAULT_255_1_388
10
10.7667538
20
31.2683145
40
0.4074504
50
20.0676743
51
35.9162425
0
ARC
8
DEFAULT_255_1_388
10
10.8539417
20
31.3331196
40
0.2988273
50
35.659429
51
85.1578517
0
ARC
8
DEFAULT_255_1_388
10
10.8331579
20
31.2076214
40
0.4257521
50
83.7963246
51
90.0959039
0
ARC
8
DEFAULT_255_1_388
10
10.8283124
20
31.2901384
40
0.3432594
50
89.3101324
51
109.9889786
0
ARC
8
DEFAULT_255_1_388
10
10.8190314
20
31.3301665
40
0.3025108
50
110.9286914
51
143.9411475
0
ARC
8
DEFAULT_255_1_388
10
10.9237616
20
31.2500455
40
0.434348
50
143.5289166
51
163.2980252
0
ARC
8
DEFAULT_255_1_388
10
11.1383903
20
31.1825685
40
0.659321
50
163.0418884
51
174.3139873
0
ARC
8
DEFAULT_255_1_388
10
11.4088867
20
31.1513378
40
0.9315905
50
174.050934
51
179.4174954
0
ARC
8
DEFAULT_255_1_388
10
11.3510582
20
31.0592922
40
0.8737271
50
179.6829249
51
188.9631837
0
ARC
8
DEFAULT_255_1_388
10
11.0506313
20
31.0103648
40
0.569348
50
188.8098723
51
202.9300437
0
ARC
8
DEFAULT_255_1_388
10
10.9138044
20
30.9546968
40
0.4216493
50
203.2071737
51
215.7877161
0
ARC
8
DEFAULT_255_1_388
10
10.8183328
20
30.879185
40
0.3000949
50
214.7520738
51
264.283405
0
ARC
8
DEFAULT_255_1_388
10
10.8335919
20
30.9753645
40
0.3973553
50
263.4754673
51
270.0952411
0
ARC
8
DEFAULT_255_1_388
10
10.8383312
20
30.9459808
40
0.3679937
50
269.3649295
51
287.5149684
0
ARC
8
DEFAULT_255_1_388
10
10.8583752
20
30.8731714
40
0.2925408
50
288.0629019
51
323.8115617
0
ARC
8
DEFAULT_255_1_388
10
10.7603729
20
30.9462754
40
0.4148018
50
323.6546541
51
342.6591359
0
ARC
8
DEFAULT_255_1_388
10
10.5318386
20
31.020628
40
0.6551163
50
342.4092446
51
353.6451501
0
ARC
8
DEFAULT_255_1_388
10
10.213318
20
31.0602565
40
0.9760748
50
353.4027553
51
359.4846611
0
LINE
8
DEFAULT_255_1_388
10
11.9519616
20
31.0758737
11
11.9519616
21
30.9394355
0
LINE
8
DEFAULT_255_1_388
10
11.9519616
20
30.9394355
11
11.5110222
21
30.9394355
0
LINE
8
DEFAULT_255_1_388
10
11.5110222
20
30.9394355
11
11.5110222
21
31.0758737
0
LINE
8
DEFAULT_255_1_388
10
11.5110222
20
31.0758737
11
11.9519616
21
31.0758737
0
LINE
8
DEFAULT_255_1_388
10
12.8663688
20
31.1716516
11
12.8663688
21
31.0297919
0
LINE
8
DEFAULT_255_1_388
10
12.8663688
20
31.0297919
11
12.314291
21
31.0297919
0
LINE
8
DEFAULT_255_1_388
10
12.314291
20
31.0297919
11
12.314291
21
30.4488
0
LINE
8
DEFAULT_255_1_388
10
12.314291
20
30.4488
11
12.1408066
21
30.4488
0
LINE
8
DEFAULT_255_1_388
10
12.1408066
20
30.4488
11
12.1408066
21
31.7643898
0
LINE
8
DEFAULT_255_1_388
10
12.1408066
20
31.7643898
11
12.9558217
21
31.7643898
0
LINE
8
DEFAULT_255_1_388
10
12.9558217
20
31.7643898
11
12.9558217
21
31.6216267
0
LINE
8
DEFAULT_255_1_388
10
12.9558217
20
31.6216267
11
12.314291
21
31.6216267
0
LINE
8
DEFAULT_255_1_388
10
12.314291
20
31.6216267
11
12.314291
21
31.1716516
0
LINE
8
DEFAULT_255_1_388
10
12.314291
20
31.1716516
11
12.8663688
21
31.1716516
0
LINE
8
DEFAULT_255_1_388
10
14.494592
20
31.3839892
11
14.3202041
21
31.3839892
0
LINE
8
DEFAULT_255_1_388
10
13.5413315
20
30.8301042
11
13.7157194
21
30.8301042
0
ARC
8
DEFAULT_255_1_388
10
14.3942768
20
32.3903821
40
1.4087688
50
248.9196578
51
254.1442424
0
ARC
8
DEFAULT_255_1_388
10
14.2052648
20
31.9037805
40
0.8867498
50
241.6337352
51
249.0064643
0
ARC
8
DEFAULT_255_1_388
10
14.0332961
20
31.5886764
40
0.5277799
50
230.4982261
51
241.8087583
0
ARC
8
DEFAULT_255_1_388
10
13.9450732
20
31.4762686
40
0.3849419
50
227.4062979
51
229.9877433
0
ARC
8
DEFAULT_255_1_388
10
13.8902079
20
31.4227155
40
0.3084129
50
200.6782127
51
228.1765252
0
ARC
8
DEFAULT_255_1_388
10
13.8983447
20
31.4210277
40
0.315461
50
179.506278
51
199.8695278
0
ARC
8
DEFAULT_255_1_388
10
13.8973036
20
31.4293671
40
0.3144584
50
132.4834401
51
181.0242352
0
ARC
8
DEFAULT_255_1_388
10
13.9642241
20
31.3661788
40
0.4063094
50
129.2526113
51
133.4249077
0
ARC
8
DEFAULT_255_1_388
10
13.9807833
20
31.3413619
40
0.436014
50
101.9878945
51
128.8741833
0
ARC
8
DEFAULT_255_1_388
10
14.0256249
20
31.147736
40
0.6347415
50
89.5906376
51
102.3170567
0
ARC
8
DEFAULT_255_1_388
10
14.033556
20
31.1835586
40
0.5989122
50
77.2359491
51
90.3248968
0
ARC
8
DEFAULT_255_1_388
10
14.0568491
20
31.2923554
40
0.4876594
50
63.8379856
51
77.0808925
0
ARC
8
DEFAULT_255_1_388
10
14.0881025
20
31.3505882
40
0.4216191
50
45.9863127
51
64.1608798
0
ARC
8
DEFAULT_255_1_388
10
14.1174418
20
31.384099
40
0.3771394
50
32.2747934
51
45.6544796
0
ARC
8
DEFAULT_255_1_388
10
14.1249225
20
31.3862426
40
0.3696765
50
359.6507495
51
32.6129943
0
ARC
8
DEFAULT_255_1_388
10
14.0188407
20
31.3867788
40
0.3013762
50
359.469654
51
14.983205
0
ARC
8
DEFAULT_255_1_388
10
14.0981659
20
31.4080288
40
0.2192542
50
14.9781954
51
48.2004799
0
ARC
8
DEFAULT_255_1_388
10
14.079677
20
31.3847937
40
0.2489048
50
48.5926661
51
74.1242559
0
ARC
8
DEFAULT_255_1_388
10
14.0421573
20
31.2609607
40
0.3782845
50
73.7889321
51
86.6653996
0
ARC
8
DEFAULT_255_1_388
10
14.0306387
20
31.1251955
40
0.5145025
50
86.2642725
51
90.0533288
0
ARC
8
DEFAULT_255_1_388
10
14.027448
20
31.1696376
40
0.4700681
50
89.669455
51
99.2313411
0
ARC
8
DEFAULT_255_1_388
10
14.000164
20
31.3321401
40
0.3052945
50
99.0695987
51
113.7659242
0
ARC
8
DEFAULT_255_1_388
10
13.9693634
20
31.4047772
40
0.226407
50
114.0402885
51
127.9848946
0
ARC
8
DEFAULT_255_1_388
10
13.942311
20
31.4380884
40
0.1835045
50
127.7287217
51
176.7106493
0
ARC
8
DEFAULT_255_1_388
10
14.0186776
20
31.426721
40
0.2604907
50
175.1780759
51
180.0581213
0
ARC
8
DEFAULT_255_1_388
10
13.9238119
20
31.4253411
40
0.1656287
50
179.6140658
51
228.124674
0
ARC
8
DEFAULT_255_1_388
10
13.9735477
20
31.471394
40
0.2332038
50
226.5785315
51
230.8792476
0
ARC
8
DEFAULT_255_1_388
10
14.0264963
20
31.5416908
40
0.3211664
50
231.4636401
51
241.9261664
0
ARC
8
DEFAULT_255_1_388
10
14.1611747
20
31.7895349
40
0.6032345
50
241.7177136
51
248.3259138
0
ARC
8
DEFAULT_255_1_388
10
14.3170341
20
32.1756771
40
1.0196417
50
248.2007377
51
252.4527713
0
ARC
8
DEFAULT_255_1_388
10
14.4523868
20
32.5941092
40
1.4594143
50
252.3388938
51
254.347037
0
ARC
8
DEFAULT_255_1_388
10
13.6039169
20
29.5593095
40
1.6917621
50
71.0197462
51
74.4085467
0
ARC
8
DEFAULT_255_1_388
10
13.7946256
20
30.1098144
40
1.1091618
50
66.1845203
51
71.086519
0
ARC
8
DEFAULT_255_1_388
10
13.9696805
20
30.5039439
40
0.6779073
50
59.3537334
51
66.269255
0
ARC
8
DEFAULT_255_1_388
10
14.0696531
20
30.6730777
40
0.4814366
50
49.1021732
51
59.3294421
0
ARC
8
DEFAULT_255_1_388
10
14.161752
20
30.7780575
40
0.3417875
50
32.7924183
51
49.2503526
0
ARC
8
DEFAULT_255_1_388
10
14.1967134
20
30.8030311
40
0.2988789
50
31.121225
51
32.3977355
0
ARC
8
DEFAULT_255_1_388
10
14.1879312
20
30.7997728
40
0.3080861
50
8.1116803
51
30.7958224
0
ARC
8
DEFAULT_255_1_388
10
14.0967657
20
30.7842437
40
0.4005385
50
359.8390945
51
8.4707348
0
ARC
8
DEFAULT_255_1_388
10
14.1671705
20
30.7787751
40
0.3301608
50
337.4732479
51
0.7538283
0
ARC
8
DEFAULT_255_1_388
10
14.187273
20
30.7765554
40
0.3107929
50
307.5917028
51
336.4313755
0
ARC
8
DEFAULT_255_1_388
10
14.1361788
20
30.8333509
40
0.3870096
50
307.6560665
51
308.4561779
0
ARC
8
DEFAULT_255_1_388
10
14.1096004
20
30.8741832
40
0.435591
50
284.3733666
51
307.1426212
0
ARC
8
DEFAULT_255_1_388
10
14.0538899
20
31.0791391
40
0.6479685
50
272.4384566
51
284.6464689
0
ARC
8
DEFAULT_255_1_388
10
14.0396283
20
31.2815434
40
0.8508149
50
269.9708517
51
272.8180721
0
ARC
8
DEFAULT_255_1_388
10
14.0347966
20
31.0523283
40
0.6216151
50
248.2707343
51
270.4054609
0
ARC
8
DEFAULT_255_1_388
10
14.0286838
20
31.0308673
40
0.5994203
50
246.1380358
51
248.054058
0
ARC
8
DEFAULT_255_1_388
10
13.981598
20
30.9319705
40
0.4899388
50
233.1671897
51
246.4951656
0
ARC
8
DEFAULT_255_1_388
10
13.9192615
20
30.8478137
40
0.3852115
50
215.3403381
51
233.084328
0
ARC
8
DEFAULT_255_1_388
10
13.8885979
20
30.8255093
40
0.3472969
50
179.2419235
51
215.2648426
0
ARC
8
DEFAULT_255_1_388
10
13.974953
20
30.8270979
40
0.259251
50
179.3355796
51
199.1045873
0
ARC
8
DEFAULT_255_1_388
10
13.9375672
20
30.8173223
40
0.2207454
50
199.8830064
51
232.7061328
0
ARC
8
DEFAULT_255_1_388
10
13.9906946
20
30.8841456
40
0.306101
50
232.3736206
51
255.5136621
0
ARC
8
DEFAULT_255_1_388
10
14.0290452
20
31.0241177
40
0.4512213
50
255.2447928
51
267.5318292
0
ARC
8
DEFAULT_255_1_388
10
14.0388919
20
31.1627709
40
0.5901825
50
267.1564563
51
270.0294721
0
ARC
8
DEFAULT_255_1_388
10
14.0420245
20
31.1128623
40
0.5402814
50
269.6999944
51
278.1662446
0
ARC
8
DEFAULT_255_1_388
10
14.0708272
20
30.9181974
40
0.3435003
50
278.0229022
51
290.6255326
0
ARC
8
DEFAULT_255_1_388
10
14.1099439
20
30.8138547
40
0.2320666
50
290.6616368
51
307.0374127
0
ARC
8
DEFAULT_255_1_388
10
14.1437339
20
30.772404
40
0.1786372
50
306.3942078
51
355.303191
0
ARC
8
DEFAULT_255_1_388
10
14.0861632
20
30.7810186
40
0.2367516
50
354.3662092
51
0.0709489
0
ARC
8
DEFAULT_255_1_388
10
14.10215
20
30.7835561
40
0.2207761
50
359.4175379
51
16.1975911
0
ARC
8
DEFAULT_255_1_388
10
14.1533618
20
30.7975954
40
0.1676828
50
16.4721294
51
52.6261798
0
ARC
8
DEFAULT_255_1_388
10
14.0610126
20
30.6756606
40
0.3206412
50
52.7381828
51
62.4979144
0
ARC
8
DEFAULT_255_1_388
10
13.9051878
20
30.3824236
40
0.6527035
50
62.2517425
51
68.1219454
0
ARC
8
DEFAULT_255_1_388
10
13.7117366
20
29.9069951
40
1.1659797
50
68.006043
51
71.8055127
0
ARC
8
DEFAULT_255_1_388
10
13.5097274
20
29.3011723
40
1.8045908
50
71.718361
51
73.9260743
0
LINE
8
DEFAULT_255_1_388
10
14.6509086
20
30.9105214
11
14.6509086
21
30.9412426
0
LINE
8
DEFAULT_255_1_388
10
15.4803808
20
30.9593139
11
15.4803808
21
30.8897395
0
LINE
8
DEFAULT_255_1_388
10
15.4803808
20
30.8897395
11
14.8180681
21
30.8897395
0
LINE
8
DEFAULT_255_1_388
10
15.3656281
20
30.6990874
11
15.4677309
21
30.6195737
0
LINE
8
DEFAULT_255_1_388
10
14.8234895
20
31.0270813
11
15.3132214
21
31.0270813
0
LINE
8
DEFAULT_255_1_388
10
15.3132214
20
31.0270813
11
15.3132214
21
31.0397312
0
ARC
8
DEFAULT_255_1_388
10
15.0940847
20
30.923021
40
0.4923176
50
252.326534
51
270.5809615
0
ARC
8
DEFAULT_255_1_388
10
15.0710312
20
30.839694
40
0.4059384
50
223.3000488
51
251.8562489
0
ARC
8
DEFAULT_255_1_388
10
15.0948092
20
30.8627898
40
0.4390832
50
190.9374369
51
223.3654369
0
ARC
8
DEFAULT_255_1_388
10
15.288877
20
30.9066598
40
0.63798
50
179.6531919
51
191.4988561
0
ARC
8
DEFAULT_255_1_388
10
15.3025797
20
30.9448571
40
0.6516811
50
167.4005523
51
180.3177836
0
ARC
8
DEFAULT_255_1_388
10
15.1842468
20
30.9698853
40
0.5307402
50
154.1835149
51
167.2508278
0
ARC
8
DEFAULT_255_1_388
10
15.1132059
20
31.0072925
40
0.4505076
50
134.3150225
51
154.5315008
0
ARC
8
DEFAULT_255_1_388
10
15.0887394
20
31.028755
40
0.4180662
50
122.8617482
51
133.9707159
0
ARC
8
DEFAULT_255_1_388
10
15.0771001
20
31.0537882
40
0.3907416
50
89.8248474
51
123.4199325
0
ARC
8
DEFAULT_255_1_388
10
15.0827299
20
30.9810352
40
0.4635141
50
74.7874349
51
90.5482648
0
ARC
8
DEFAULT_255_1_388
10
15.1157763
20
31.1030987
40
0.3370565
50
39.8178888
51
74.7634383
0
ARC
8
DEFAULT_255_1_388
10
15.0581005
20
31.0581356
40
0.4101553
50
16.8990848
51
39.4830125
0
ARC
8
DEFAULT_255_1_388
10
14.844962
20
30.9898711
40
0.6339427
50
4.9634768
51
17.2027767
0
ARC
8
DEFAULT_255_1_388
10
14.5729025
20
30.96116
40
0.9074803
50
359.8834402
51
5.2832409
0
ARC
8
DEFAULT_255_1_388
10
15.2521382
20
30.8971981
40
0.4341343
50
180.9844233
51
194.9402766
0
ARC
8
DEFAULT_255_1_388
10
15.1340548
20
30.864917
40
0.3117211
50
194.8030557
51
222.0412897
0
ARC
8
DEFAULT_255_1_388
10
15.099842
20
30.8309715
40
0.2635903
50
221.541578
51
268.8616004
0
ARC
8
DEFAULT_255_1_388
10
15.1080541
20
30.907028
40
0.3398611
50
267.7321071
51
270.009808
0
ARC
8
DEFAULT_255_1_388
10
15.1100604
20
30.9297178
40
0.3625561
50
269.6921218
51
280.4122297
0
ARC
8
DEFAULT_255_1_388
10
15.1299016
20
30.8263767
40
0.2573323
50
280.2257165
51
298.633539
0
ARC
8
DEFAULT_255_1_388
10
15.142443
20
30.7999578
40
0.2281403
50
299.0485543
51
300.4624141
0
ARC
8
DEFAULT_255_1_388
10
15.066541
20
30.9264796
40
0.3756797
50
300.6578578
51
322.037749
0
ARC
8
DEFAULT_255_1_388
10
15.0294931
20
30.9588266
40
0.4247956
50
321.671786
51
322.3059078
0
ARC
8
DEFAULT_255_1_388
10
15.1318494
20
30.8294267
40
0.3960488
50
276.9729088
51
328.0035579
0
ARC
8
DEFAULT_255_1_388
10
15.1006965
20
30.9959609
40
0.5652345
50
269.8358003
51
278.0581296
0
ARC
8
DEFAULT_255_1_388
10
15.0751264
20
31.079782
40
0.2274263
50
89.2017936
51
117.2852353
0
ARC
8
DEFAULT_255_1_388
10
15.0811014
20
31.0750637
40
0.2343798
50
118.0546404
51
137.4544511
0
ARC
8
DEFAULT_255_1_388
10
15.1232658
20
31.0367556
40
0.2913471
50
137.5109688
51
158.8516701
0
ARC
8
DEFAULT_255_1_388
10
15.2512759
20
30.9850902
40
0.4293804
50
158.5845496
51
170.1719753
0
ARC
8
DEFAULT_255_1_388
10
15.3829094
20
30.9589519
40
0.5635533
50
169.8378964
51
173.0563877
0
ARC
8
DEFAULT_255_1_388
10
14.8544378
20
31.0164187
40
0.4593755
50
2.9089079
51
12.88469
0
ARC
8
DEFAULT_255_1_388
10
15.0086297
20
31.0527082
40
0.3009753
50
12.6957404
51
28.6405841
0
ARC
8
DEFAULT_255_1_388
10
15.0695794
20
31.0842577
40
0.232366
50
29.016559
51
41.1492981
0
ARC
8
DEFAULT_255_1_388
10
15.0923773
20
31.104108
40
0.2021373
50
41.1646967
51
85.001362
0
ARC
8
DEFAULT_255_1_388
10
15.0787777
20
31.0214775
40
0.2857091
50
83.728216
51
90.0968824
0
LINE
8
DEFAULT_255_1_388
10
16.1463078
20
31.4318781
11
16.1463078
21
31.276465
0
LINE
8
DEFAULT_255_1_388
10
15.840903
20
31.1427375
11
15.840903
21
30.4488
0
LINE
8
DEFAULT_255_1_388
10
15.840903
20
30.4488
11
15.6737436
21
30.4488
0
LINE
8
DEFAULT_255_1_388
10
15.6737436
20
30.4488
11
15.6737436
21
31.4264567
0
LINE
8
DEFAULT_255_1_388
10
15.6737436
20
31.4264567
11
15.8363852
21
31.4264567
0
LINE
8
DEFAULT_255_1_388
10
15.8363852
20
31.4264567
11
15.8390959
21
31.3135112
0
ARC
8
DEFAULT_255_1_388
10
16.0713238
20
30.8198068
40
0.4627735
50
80.6751522
51
86.893806
0
ARC
8
DEFAULT_255_1_388
10
16.0645068
20
30.7106103
40
0.5721798
50
86.8046851
51
90.0423898
0
ARC
8
DEFAULT_255_1_388
10
16.0603487
20
30.9873197
40
0.2954939
50
89.2758283
51
106.6212906
0
ARC
8
DEFAULT_255_1_388
10
16.0373512
20
31.0709009
40
0.2088351
50
107.1347109
51
157.6456887
0
ARC
8
DEFAULT_255_1_388
10
16.1141574
20
31.0281908
40
0.296292
50
155.6557383
51
157.256838
0
ARC
8
DEFAULT_255_1_388
10
16.0921188
20
31.1592472
40
0.296341
50
127.8167201
51
148.6300223
0
ARC
8
DEFAULT_255_1_388
10
16.0635936
20
31.1885066
40
0.2557782
50
91.3329934
51
126.7875218
0
ARC
8
DEFAULT_255_1_388
10
16.0721323
20
31.1081718
40
0.3363561
50
89.9858247
51
92.4688453
0
ARC
8
DEFAULT_255_1_388
10
16.0730816
20
31.1390114
40
0.3055179
50
85.3587643
51
90.1624243
0
ARC
8
DEFAULT_255_1_388
10
16.0825881
20
31.2519458
40
0.1921848
50
78.4019195
51
85.4592653
0
ARC
8
DEFAULT_255_1_388
10
16.0988942
20
31.3297142
40
0.1127267
50
67.7849217
51
78.573798
0
ARC
8
DEFAULT_255_1_388
10
16.1110576
20
31.3612374
40
0.0789473
50
63.4805074
51
67.3074739
0
LINE
8
DEFAULT_255_1_388
10
16.4815302
20
31.4264567
11
16.4815302
21
30.4488
0
LINE
8
DEFAULT_255_1_388
10
16.4815302
20
30.4488
11
16.3143708
21
30.4488
0
LINE
8
DEFAULT_255_1_388
10
16.3143708
20
30.4488
11
16.3143708
21
31.4264567
0
LINE
8
DEFAULT_255_1_388
10
16.3143708
20
31.4264567
11
16.4815302
21
31.4264567
0
ARC
8
DEFAULT_255_1_388
10
16.410907
20
31.6868428
40
0.1100948
50
161.4148232
51
180.5532607
0
ARC
8
DEFAULT_255_1_388
10
16.396938
20
31.6906875
40
0.0956324
50
138.1830164
51
160.9307633
0
ARC
8
DEFAULT_255_1_388
10
16.3845567
20
31.7014313
40
0.0792417
50
104.6371663
51
138.0036136
0
ARC
8
DEFAULT_255_1_388
10
16.3966106
20
31.6601963
40
0.1221906
50
92.0601206
51
105.2198859
0
ARC
8
DEFAULT_255_1_388
10
16.399247
20
31.6213583
40
0.161103
50
89.9790681
51
92.5006086
0
ARC
8
DEFAULT_255_1_388
10
16.4003646
20
31.6469998
40
0.1354654
50
78.0234649
51
90.4478111
0
ARC
8
DEFAULT_255_1_388
10
16.410723
20
31.6935203
40
0.0878096
50
55.0521508
51
78.336297
0
ARC
8
DEFAULT_255_1_388
10
16.4163765
20
31.7030168
40
0.0767913
50
42.0506198
51
54.4508489
0
ARC
8
DEFAULT_255_1_388
10
16.4011798
20
31.6890821
40
0.0974091
50
1.7493657
51
42.1498724
0
ARC
8
DEFAULT_255_1_388
10
16.3725703
20
31.6858166
40
0.1261276
50
359.9832635
51
2.8353994
0
ARC
8
DEFAULT_255_1_388
10
16.3912113
20
31.6847412
40
0.1074916
50
342.1062453
51
0.5535864
0
ARC
8
DEFAULT_255_1_388
10
16.4072537
20
31.6803197
40
0.0908695
50
316.7110111
51
341.6513114
0
ARC
8
DEFAULT_255_1_388
10
16.4147969
20
31.6735607
40
0.0807447
50
285.4398289
51
316.5320129
0
ARC
8
DEFAULT_255_1_388
10
16.402414
20
31.7147023
40
0.1237022
50
272.3543902
51
285.8951677
0
ARC
8
DEFAULT_255_1_388
10
16.399385
20
31.7562742
40
0.1653687
50
269.9725761
51
272.8112722
0
ARC
8
DEFAULT_255_1_388
10
16.3982902
20
31.7311727
40
0.1402709
50
258.8433431
51
270.4148607
0
ARC
8
DEFAULT_255_1_388
10
16.3881682
20
31.6821739
40
0.0902407
50
238.54281
51
259.1289544
0
ARC
8
DEFAULT_255_1_388
10
16.3805004
20
31.6682694
40
0.0743817
50
222.5056676
51
237.9918132
0
ARC
8
DEFAULT_255_1_388
10
16.3948597
20
31.6813295
40
0.0937918
50
184.1070774
51
222.4604165
0
ARC
8
DEFAULT_255_1_388
10
16.4251011
20
31.6856538
40
0.1242838
50
179.9419581
51
185.0970785
0
LINE
8
DEFAULT_255_1_388
10
16.7065178
20
30.9105214
11
16.7065178
21
30.9412426
0
LINE
8
DEFAULT_255_1_388
10
17.5359899
20
30.9593139
11
17.5359899
21
30.8897395
0
LINE
8
DEFAULT_255_1_388
10
17.5359899
20
30.8897395
11
16.8736772
21
30.8897395
0
LINE
8
DEFAULT_255_1_388
10
17.4212373
20
30.6990874
11
17.52334
21
30.6195737
0
LINE
8
DEFAULT_255_1_388
10
16.8790986
20
31.0270813
11
17.3688305
21
31.0270813
0
LINE
8
DEFAULT_255_1_388
10
17.3688305
20
31.0270813
11
17.3688305
21
31.0397312
0
ARC
8
DEFAULT_255_1_388
10
17.1496939
20
30.923021
40
0.4923176
50
252.326534
51
270.5809615
0
ARC
8
DEFAULT_255_1_388
10
17.1266403
20
30.839694
40
0.4059384
50
223.3000488
51
251.8562489
0
ARC
8
DEFAULT_255_1_388
10
17.1504183
20
30.8627898
40
0.4390832
50
190.9374369
51
223.3654369
0
ARC
8
DEFAULT_255_1_388
10
17.3444861
20
30.9066598
40
0.63798
50
179.6531919
51
191.4988561
0
ARC
8
DEFAULT_255_1_388
10
17.3581888
20
30.9448571
40
0.6516811
50
167.4005523
51
180.3177836
0
ARC
8
DEFAULT_255_1_388
10
17.2398559
20
30.9698853
40
0.5307402
50
154.1835149
51
167.2508278
0
ARC
8
DEFAULT_255_1_388
10
17.168815
20
31.0072925
40
0.4505076
50
134.3150225
51
154.5315008
0
ARC
8
DEFAULT_255_1_388
10
17.1443485
20
31.028755
40
0.4180662
50
122.8617482
51
133.9707159
0
ARC
8
DEFAULT_255_1_388
10
17.1327093
20
31.0537882
40
0.3907416
50
89.8248474
51
123.4199325
0
ARC
8
DEFAULT_255_1_388
10
17.1383391
20
30.9810352
40
0.4635141
50
74.7874349
51
90.5482648
0
ARC
8
DEFAULT_255_1_388
10
17.1713855
20
31.1030987
40
0.3370565
50
39.8178888
51
74.7634383
0
ARC
8
DEFAULT_255_1_388
10
17.1137097
20
31.0581356
40
0.4101553
50
16.8990848
51
39.4830125
0
ARC
8
DEFAULT_255_1_388
10
16.9005711
20
30.9898711
40
0.6339427
50
4.9634768
51
17.2027767
0
ARC
8
DEFAULT_255_1_388
10
16.6285116
20
30.96116
40
0.9074803
50
359.8834402
51
5.2832409
0
ARC
8
DEFAULT_255_1_388
10
17.3077474
20
30.8971981
40
0.4341343
50
180.9844233
51
194.9402766
0
ARC
8
DEFAULT_255_1_388
10
17.1896639
20
30.864917
40
0.3117211
50
194.8030557
51
222.0412897
0
ARC
8
DEFAULT_255_1_388
10
17.1554512
20
30.8309715
40
0.2635903
50
221.541578
51
268.8616004
0
ARC
8
DEFAULT_255_1_388
10
17.1636632
20
30.907028
40
0.3398611
50
267.7321071
51
270.009808
0
ARC
8
DEFAULT_255_1_388
10
17.1656696
20
30.9297178
40
0.3625561
50
269.6921218
51
280.4122297
0
ARC
8
DEFAULT_255_1_388
10
17.1855107
20
30.8263767
40
0.2573323
50
280.2257165
51
298.633539
0
ARC
8
DEFAULT_255_1_388
10
17.1980521
20
30.7999578
40
0.2281403
50
299.0485543
51
300.4624141
0
ARC
8
DEFAULT_255_1_388
10
17.1221501
20
30.9264796
40
0.3756797
50
300.6578578
51
322.037749
0
ARC
8
DEFAULT_255_1_388
10
17.0851023
20
30.9588266
40
0.4247956
50
321.671786
51
322.3059078
0
ARC
8
DEFAULT_255_1_388
10
17.1874586
20
30.8294267
40
0.3960488
50
276.9729088
51
328.0035579
0
ARC
8
DEFAULT_255_1_388
10
17.1563056
20
30.9959609
40
0.5652345
50
269.8358003
51
278.0581296
0
ARC
8
DEFAULT_255_1_388
10
17.1307355
20
31.079782
40
0.2274263
50
89.2017936
51
117.2852353
0
ARC
8
DEFAULT_255_1_388
10
17.1367106
20
31.0750637
40
0.2343798
50
118.0546404
51
137.4544511
0
ARC
8
DEFAULT_255_1_388
10
17.1788749
20
31.0367556
40
0.2913471
50
137.5109688
51
158.8516701
0
ARC
8
DEFAULT_255_1_388
10
17.306885
20
30.9850902
40
0.4293804
50
158.5845496
51
170.1719753
0
ARC
8
DEFAULT_255_1_388
10
17.4385186
20
30.9589519
40
0.5635533
50
169.8378964
51
173.0563877
0
ARC
8
DEFAULT_255_1_388
10
16.9100469
20
31.0164187
40
0.4593755
50
2.9089079
51
12.88469
0
ARC
8
DEFAULT_255_1_388
10
17.0642389
20
31.0527082
40
0.3009753
50
12.6957404
51
28.6405841
0
ARC
8
DEFAULT_255_1_388
10
17.1251886
20
31.0842577
40
0.232366
50
29.016559
51
41.1492981
0
ARC
8
DEFAULT_255_1_388
10
17.1479865
20
31.104108
40
0.2021373
50
41.1646967
51
85.001362
0
ARC
8
DEFAULT_255_1_388
10
17.1343869
20
31.0214775
40
0.2857091
50
83.728216
51
90.0968824
0
LINE
8
DEFAULT_255_1_388
10
18.4567221
20
31.1391232
11
18.2886591
21
31.1391232
0
LINE
8
DEFAULT_255_1_388
10
17.6886923
20
30.749687
11
17.8558518
21
30.749687
0
ARC
8
DEFAULT_255_1_388
10
18.1549882
20
30.7097935
40
0.1436198
50
359.3335374
51
18.5869869
0
ARC
8
DEFAULT_255_1_388
10
18.1784622
20
30.7160015
40
0.1194022
50
19.3538149
51
54.6486387
0
ARC
8
DEFAULT_255_1_388
10
18.1217609
20
30.6378077
40
0.2159877
50
54.3821575
51
65.0627557
0
ARC
8
DEFAULT_255_1_388
10
18.0352956
20
30.4559032
40
0.4173927
50
64.8282172
51
71.4204388
0
ARC
8
DEFAULT_255_1_388
10
17.9337852
20
30.1580782
40
0.7320403
50
71.3166092
51
75.8005927
0
ARC
8
DEFAULT_255_1_388
10
17.8391737
20
29.7935881
40
1.108605
50
75.6810806
51
78.0063886
0
ARC
8
DEFAULT_255_1_388
10
18.3396326
20
32.153753
40
1.3040363
50
254.69024
51
258.0465557
0
ARC
8
DEFAULT_255_1_388
10
18.2228195
20
31.7307742
40
0.8652254
50
249.9010634
51
254.7555005
0
ARC
8
DEFAULT_255_1_388
10
18.1099247
20
31.424168
40
0.5384962
50
243.3097375
51
249.970939
0
ARC
8
DEFAULT_255_1_388
10
18.0391661
20
31.2830721
40
0.380652
50
234.4047808
51
243.2861752
0
ARC
8
DEFAULT_255_1_388
10
17.9691297
20
31.1863645
40
0.2612502
50
220.8665526
51
234.5497192
0
ARC
8
DEFAULT_255_1_388
10
17.9306296
20
31.1513203
40
0.2092097
50
214.3063391
51
220.5075055
0
ARC
8
DEFAULT_255_1_388
10
17.927741
20
31.1478577
40
0.2048755
50
186.9131438
51
213.9617385
0
ARC
8
DEFAULT_255_1_388
10
17.98758
20
31.1575431
40
0.2654563
50
179.8802037
51
187.4338578
0
ARC
8
DEFAULT_255_1_388
10
17.9701764
20
31.1598049
40
0.2480581
50
132.0053393
51
180.3942351
0
ARC
8
DEFAULT_255_1_388
10
18.0440677
20
31.0915997
40
0.3483116
50
129.2317021
51
133.5294826
0
ARC
8
DEFAULT_255_1_388
10
18.0500646
20
31.0810383
40
0.360291
50
100.440976
51
128.9081567
0
ARC
8
DEFAULT_255_1_388
10
18.0808764
20
30.9364357
40
0.5080996
50
89.6985063
51
100.9029043
0
ARC
8
DEFAULT_255_1_388
10
18.0872918
20
30.9183739
40
0.5261675
50
77.6967144
51
90.4074623
0
ARC
8
DEFAULT_255_1_388
10
18.1245271
20
31.0789503
40
0.3613511
50
50.7278431
51
78.0397473
0
ARC
8
DEFAULT_255_1_388
10
18.1745314
20
31.1372173
40
0.2845966
50
25.754382
51
51.0957456
0
ARC
8
DEFAULT_255_1_388
10
18.1746681
20
31.1428311
40
0.2820785
50
359.2468358
51
24.7393861
0
ARC
8
DEFAULT_255_1_388
10
18.1426568
20
31.1396204
40
0.1460032
50
359.8048924
51
45.1543866
0
ARC
8
DEFAULT_255_1_388
10
18.0968302
20
31.1004291
40
0.2061641
50
43.8053172
51
49.625485
0
ARC
8
DEFAULT_255_1_388
10
18.0977744
20
31.1005849
40
0.2054344
50
49.7979696
51
82.121802
0
ARC
8
DEFAULT_255_1_388
10
18.0843827
20
31.0278473
40
0.2793404
50
81.4458692
51
90.1707936
0
ARC
8
DEFAULT_255_1_388
10
18.0816404
20
30.9686478
40
0.3385438
50
89.6768097
51
99.1267111
0
ARC
8
DEFAULT_255_1_388
10
18.0623386
20
31.0849405
40
0.2206627
50
98.9679878
51
113.4573418
0
ARC
8
DEFAULT_255_1_388
10
18.0403066
20
31.1376193
40
0.1635691
50
113.7230234
51
127.4758155
0
ARC
8
DEFAULT_255_1_388
10
18.0213648
20
31.1601433
40
0.1341757
50
126.9086647
51
150.3160891
0
ARC
8
DEFAULT_255_1_388
10
18.0159979
20
31.165868
40
0.1266992
50
151.363328
51
180.0701537
0
ARC
8
DEFAULT_255_1_388
10
18.04702
20
31.163523
40
0.1577364
50
179.2045432
51
180.0012892
0
ARC
8
DEFAULT_255_1_388
10
18.0101311
20
31.1620515
40
0.1208564
50
179.3040542
51
198.4225767
0
ARC
8
DEFAULT_255_1_388
10
17.9885453
20
31.1564337
40
0.0986126
50
199.2893055
51
238.6036855
0
ARC
8
DEFAULT_255_1_388
10
18.0563546
20
31.2628752
40
0.2248082
50
237.9844191
51
246.8751643
0
ARC
8
DEFAULT_255_1_388
10
18.1528406
20
31.4835861
40
0.4656832
50
246.6226408
51
251.8174794
0
ARC
8
DEFAULT_255_1_388
10
18.2688873
20
31.8320909
40
0.8329993
50
251.7140983
51
255.0775146
0
ARC
8
DEFAULT_255_1_388
10
18.4038397
20
32.3347708
40
1.3534786
50
255.0370864
51
257.4701577
0
ARC
8
DEFAULT_255_1_388
10
17.8290942
20
29.7453535
40
1.298957
50
73.6835762
51
77.5015749
0
ARC
8
DEFAULT_255_1_388
10
17.9515857
20
30.1615699
40
0.8650912
50
68.7042835
51
73.7249997
0
ARC
8
DEFAULT_255_1_388
10
18.0531421
20
30.4232853
40
0.584363
50
63.5907059
51
68.6622978
0
ARC
8
DEFAULT_255_1_388
10
18.1399162
20
30.5963157
40
0.3907955
50
54.7106507
51
63.7018033
0
ARC
8
DEFAULT_255_1_388
10
18.2101549
20
30.6944287
40
0.2701345
50
41.0624597
51
54.8488532
0
ARC
8
DEFAULT_255_1_388
10
18.2485328
20
30.7296439
40
0.2180695
50
34.4952722
51
40.7097584
0
ARC
8
DEFAULT_255_1_388
10
18.2538293
20
30.7351204
40
0.2106083
50
9.3761233
51
34.0834046
0
ARC
8
DEFAULT_255_1_388
10
18.1803422
20
30.7210174
40
0.2854177
50
359.7695264
51
9.7660556
0
ARC
8
DEFAULT_255_1_388
10
18.2025715
20
30.7161841
40
0.2632121
50
335.8653103
51
0.8022272
0
ARC
8
DEFAULT_255_1_388
10
18.211012
20
30.7176951
40
0.2561728
50
307.7357819
51
334.7849324
0
ARC
8
DEFAULT_255_1_388
10
18.1664761
20
30.7676553
40
0.3229737
50
307.0217048
51
308.5596894
0
ARC
8
DEFAULT_255_1_388
10
18.1369346
20
30.8118063
40
0.3760237
50
282.9361285
51
306.5649033
0
ARC
8
DEFAULT_255_1_388
10
18.0962407
20
30.9768871
40
0.5460314
50
271.1026197
51
283.2199962
0
ARC
8
DEFAULT_255_1_388
10
18.0890596
20
31.1169744
40
0.6862456
50
269.9926344
51
271.4770056
0
ARC
8
DEFAULT_255_1_388
10
18.0861166
20
30.9952633
40
0.5645418
50
259.0723633
51
270.2897324
0
ARC
8
DEFAULT_255_1_388
10
18.0622391
20
30.8695887
40
0.4366198
50
245.4965026
51
259.0225745
0
ARC
8
DEFAULT_255_1_388
10
18.0309607
20
30.8041491
40
0.3641037
50
228.9686619
51
245.7042678
0
ARC
8
DEFAULT_255_1_388
10
18.0010882
20
30.7673573
40
0.3167435
50
214.4015391
51
228.6759028
0
ARC
8
DEFAULT_255_1_388
10
17.9685379
20
30.7495429
40
0.2798456
50
179.9704983
51
215.1574389
0
ARC
8
DEFAULT_255_1_388
10
18.0473592
20
30.7578148
40
0.1916798
50
182.430239
51
203.0329751
0
ARC
8
DEFAULT_255_1_388
10
18.0266188
20
30.7514675
40
0.1701248
50
203.7987464
51
232.5483345
0
ARC
8
DEFAULT_255_1_388
10
18.0577272
20
30.7910049
40
0.2204299
50
232.3784541
51
256.3934343
0
ARC
8
DEFAULT_255_1_388
10
18.0836419
20
30.8911359
40
0.3238512
50
256.1048329
51
268.4627478
0
ARC
8
DEFAULT_255_1_388
10
18.0888839
20
30.9815297
40
0.4143627
50
268.0734924
51
270.0121004
0
ARC
8
DEFAULT_255_1_388
10
18.0909557
20
30.9501191
40
0.3829573
50
269.7031202
51
278.8338867
0
ARC
8
DEFAULT_255_1_388
10
18.1114421
20
30.8229553
40
0.2541568
50
278.6727378
51
292.82331
0
ARC
8
DEFAULT_255_1_388
10
18.1339968
20
30.7665546
40
0.1934264
50
293.1457581
51
303.6656964
0
ARC
8
DEFAULT_255_1_388
10
18.1638041
20
30.7242159
40
0.1416713
50
303.1245849
51
321.7434683
0
ARC
8
DEFAULT_255_1_388
10
18.1847122
20
30.705878
40
0.1139081
50
322.4747616
51
1.1293039
0
LINE
8
DEFAULT_255_2_778
10
10.5738396
20
32.9618073
11
9.3932396
21
32.9618073
0
LINE
8
DEFAULT_255_2_778
10
9.3932396
20
32.9618073
11
9.9837396
21
33.9844073
0
LINE
8
DEFAULT_255_2_778
10
9.9837396
20
33.9844073
11
11.1643396
21
33.9844073
0
LINE
8
DEFAULT_255_2_778
10
11.1643396
20
33.9844073
11
10.5738396
21
32.9618073
0
LINE
8
DEFAULT_255_2_778
10
10.5738396
20
32.9618073
11
10.5738396
21
32.9618073
0
LINE
8
DEFAULT_255_2_778
10
11.7546396
20
32.9618073
11
12.9354396
21
32.9618073
0
LINE
8
DEFAULT_255_2_778
10
12.9354396
20
32.9618073
11
12.3451396
21
33.9844073
0
LINE
8
DEFAULT_255_2_778
10
12.3451396
20
33.9844073
11
11.1643396
21
33.9844073
0
LINE
8
DEFAULT_255_2_778
10
11.1643396
20
33.9844073
11
11.7546396
21
32.9618073
0
LINE
8
DEFAULT_255_2_778
10
11.7546396
20
32.9618073
11
11.7546396
21
32.9618073
0
LINE
8
DEFAULT_255_2_778
10
11.7545823
20
35.0070146
11
11.1642823
21
36.0296146
0
LINE
8
DEFAULT_255_2_778
10
11.1642823
20
36.0296146
11
10.5737823
21
35.0070146
0
LINE
8
DEFAULT_255_2_778
10
10.5737823
20
35.0070146
11
11.1642823
21
33.9844146
0
LINE
8
DEFAULT_255_2_778
10
11.1642823
20
33.9844146
11
11.7545823
21
35.0070146
0
LINE
8
DEFAULT_255_2_778
10
11.7545823
20
35.0070146
11
11.7545823
21
35.0070146
0
ARC
8
DEFAULT_255_2_778
10
16.5183731
20
34.6532426
40
0.5650491
50
268.7543645
51
289.1417717
0
ARC
8
DEFAULT_255_2_778
10
16.606208
20
34.3980531
40
0.2951681
50
289.2776255
51
3.7648372
0
ARC
8
DEFAULT_255_2_778
10
16.3901618
20
34.4246085
40
0.5106278
50
359.1949826
51
0.0020862
0
ARC
8
DEFAULT_255_2_778
10
16.547449
20
34.4105832
40
0.1541914
50
280.2616216
51
358.5297855
0
ARC
8
DEFAULT_255_2_778
10
16.5080075
20
34.523155
40
0.2726346
50
269.5969454
51
284.2065679
0
ARC
8
DEFAULT_255_2_778
10
16.4981883
20
34.5073788
40
0.2569732
50
246.5218562
51
271.7619895
0
ARC
8
DEFAULT_255_2_778
10
16.4527498
20
34.3994164
40
0.1398527
50
188.0764216
51
245.9747848
0
ARC
8
DEFAULT_255_2_778
10
16.4833113
20
34.4064608
40
0.1711218
50
179.9443312
51
188.9740498
0
ARC
8
DEFAULT_255_2_778
10
16.4924507
20
34.4132849
40
0.3763411
50
178.2272621
51
205.8283807
0
ARC
8
DEFAULT_255_2_778
10
16.4132476
20
34.3955833
40
0.2979176
50
209.4028057
51
263.0375728
0
ARC
8
DEFAULT_255_2_778
10
16.5005111
20
34.7702629
40
0.6816586
50
259.5722942
51
270.4689037
0
ARC
8
DEFAULT_255_2_778
10
17.411252
20
34.8264767
40
0.1217154
50
2.0482843
51
87.015299
0
ARC
8
DEFAULT_255_2_778
10
17.4057913
20
34.8308868
40
0.1270984
50
353.0742102
51
359.9730821
0
ARC
8
DEFAULT_255_2_778
10
17.4111345
20
34.8276717
40
0.1214332
50
270.7420557
51
354.2761882
0
ARC
8
DEFAULT_255_2_778
10
17.4065072
20
34.8642509
40
0.1581238
50
269.9936646
51
272.2471507
0
ARC
8
DEFAULT_255_2_778
10
17.414084
20
34.4130295
40
0.1400686
50
358.2807293
51
95.6106825
0
ARC
8
DEFAULT_255_2_778
10
17.4103233
20
34.4091963
40
0.1437669
50
266.9962473
51
359.8528392
0
ARC
8
DEFAULT_255_2_778
10
17.4725249
20
34.4494988
40
0.3335288
50
268.2414507
51
302.0223478
0
ARC
8
DEFAULT_255_2_778
10
17.5091261
20
34.374183
40
0.2504234
50
304.0600275
51
2.0468005
0
ARC
8
DEFAULT_255_2_778
10
17.4835388
20
34.380988
40
0.2758592
50
0.4442832
51
66.1293704
0
ARC
8
DEFAULT_255_2_778
10
17.5193244
20
34.445936
40
0.202088
50
67.956084
51
75.8901834
0
ARC
8
DEFAULT_255_2_778
10
17.5042026
20
34.853222
40
0.2208874
50
286.9473417
51
358.0074963
0
ARC
8
DEFAULT_255_2_778
10
17.4710866
20
34.8620045
40
0.2544031
50
356.2897886
51
0.0050857
0
ARC
8
DEFAULT_255_2_778
10
17.497262
20
34.8670946
40
0.2282839
50
358.7280137
51
81.8073164
0
ARC
8
DEFAULT_255_2_778
10
17.4216369
20
34.6156283
40
0.4895182
50
77.2355086
51
90.5088275
0
ARC
8
DEFAULT_255_2_778
10
17.5842747
20
33.6510989
40
0.1302704
50
89.9972707
51
92.6773048
0
ARC
8
DEFAULT_255_2_778
10
17.5844071
20
33.65187
40
0.1294993
50
45.0546048
51
90.0558451
0
ARC
8
DEFAULT_255_2_778
10
17.5844118
20
33.651719
40
0.1296029
50
0.001866
51
45.1031959
0
ARC
8
DEFAULT_255_2_778
10
17.5845123
20
33.6517202
40
0.1295026
50
357.4803735
51
0.0013544
0
ARC
8
DEFAULT_255_2_778
10
17.5901979
20
33.6478512
40
0.1237052
50
339.8672523
51
359.1550732
0
ARC
8
DEFAULT_255_2_778
10
17.5794513
20
33.6450079
40
0.1329691
50
272.0853006
51
342.6124646
0
ARC
8
DEFAULT_255_2_778
10
17.6596145
20
33.6832661
40
0.2575135
50
286.787355
51
290.6121696
0
ARC
8
DEFAULT_255_2_778
10
17.6689461
20
33.6689533
40
0.24086
50
289.7330405
51
342.3216972
0
ARC
8
DEFAULT_255_2_778
10
17.641261
20
33.6737954
40
0.268735
50
343.130572
51
0.3905272
0
ARC
8
DEFAULT_255_2_778
10
17.6578783
20
33.6911767
40
0.2525904
50
356.4706028
51
80.1788963
0
ARC
8
DEFAULT_255_2_778
10
17.5921649
20
33.4642163
40
0.4881286
50
77.1212301
51
90.4900821
0
ARC
8
DEFAULT_255_2_778
10
17.5166337
20
33.166536
40
0.1865405
50
50.1507009
51
92.9634648
0
ARC
8
DEFAULT_255_2_778
10
17.5301354
20
33.1948678
40
0.1563319
50
12.621233
51
47.2950617
0
ARC
8
DEFAULT_255_2_778
10
16.8485884
20
33.0619726
40
0.8506657
50
2.8173892
51
11.3253986
0
ARC
8
DEFAULT_255_2_778
10
-29.2295733
20
29.5656175
40
47.060992
50
4.3048394
51
4.3117143
0
ARC
8
DEFAULT_255_2_778
10
18.5500859
20
33.138084
40
0.8523717
50
182.6850102
51
191.2954256
0
ARC
8
DEFAULT_255_2_778
10
17.9656837
20
33.0317399
40
0.2586603
50
193.5512904
51
195.3825538
0
ARC
8
DEFAULT_255_2_778
10
19.3507425
20
33.2906408
40
1.4700994
50
182.6283124
51
192.8725697
0
ARC
8
DEFAULT_255_2_778
10
17.6207606
20
33.2177215
40
0.261487
50
1.2064311
51
30.4123358
0
ARC
8
DEFAULT_255_2_778
10
17.6663626
20
33.232776
40
0.2147766
50
33.1081154
51
71.7312197
0
LINE
8
DEFAULT_255_2_778
10
13.4657897
20
33.3973271
11
13.9385897
21
33.3973271
0
LINE
8
DEFAULT_255_2_778
10
13.9385897
20
33.3973271
11
13.9385897
21
33.5687271
0
LINE
8
DEFAULT_255_2_778
10
13.9385897
20
33.5687271
11
13.4657897
21
33.5687271
0
LINE
8
DEFAULT_255_2_778
10
13.4657897
20
33.5687271
11
13.4657897
21
33.7796271
0
LINE
8
DEFAULT_255_2_778
10
13.4657897
20
33.7796271
11
13.9977897
21
33.7796271
0
LINE
8
DEFAULT_255_2_778
10
13.9977897
20
33.7796271
11
13.9977897
21
33.9510271
0
LINE
8
DEFAULT_255_2_778
10
13.9977897
20
33.9510271
11
13.4657897
21
33.9510271
0
LINE
8
DEFAULT_255_2_778
10
13.4657897
20
33.9510271
11
13.2651897
21
33.9510271
0
LINE
8
DEFAULT_255_2_778
10
13.2651897
20
33.9510271
11
13.2651897
21
33.7796271
0
LINE
8
DEFAULT_255_2_778
10
13.2651897
20
33.7796271
11
13.2651897
21
33.1332271
0
LINE
8
DEFAULT_255_2_778
10
13.2651897
20
33.1332271
11
13.2651897
21
32.9617271
0
LINE
8
DEFAULT_255_2_778
10
13.2651897
20
32.9617271
11
13.4657897
21
32.9617271
0
LINE
8
DEFAULT_255_2_778
10
13.4657897
20
32.9617271
11
14.0118897
21
32.9617271
0
LINE
8
DEFAULT_255_2_778
10
14.0118897
20
32.9617271
11
14.0118897
21
33.1332271
0
LINE
8
DEFAULT_255_2_778
10
14.0118897
20
33.1332271
11
13.4657897
21
33.1332271
0
LINE
8
DEFAULT_255_2_778
10
13.4657897
20
33.1332271
11
13.4657897
21
33.3970271
0
LINE
8
DEFAULT_255_2_778
10
13.4657897
20
33.3970271
11
13.4657897
21
33.3973271
0
LINE
8
DEFAULT_255_2_778
10
13.4519897
20
34.8514271
11
13.6620897
21
34.1161271
0
LINE
8
DEFAULT_255_2_778
10
13.6620897
20
34.1161271
11
13.6704897
21
34.1161271
0
LINE
8
DEFAULT_255_2_778
10
13.6704897
20
34.1161271
11
13.8464897
21
34.1161271
0
LINE
8
DEFAULT_255_2_778
10
13.8464897
20
34.1161271
11
13.8546897
21
34.1161271
0
LINE
8
DEFAULT_255_2_778
10
13.8546897
20
34.1161271
11
14.0647897
21
34.8514271
0
LINE
8
DEFAULT_255_2_778
10
14.0647897
20
34.8514271
11
14.0647897
21
34.1161271
0
LINE
8
DEFAULT_255_2_778
10
14.0647897
20
34.1161271
11
14.2515897
21
34.1161271
0
LINE
8
DEFAULT_255_2_778
10
14.2515897
20
34.1161271
11
14.2515897
21
35.1054271
0
LINE
8
DEFAULT_255_2_778
10
14.2515897
20
35.1054271
11
14.1496897
21
35.1054271
0
LINE
8
DEFAULT_255_2_778
10
14.1496897
20
35.1054271
11
14.0615897
21
35.1054271
0
LINE
8
DEFAULT_255_2_778
10
14.0615897
20
35.1054271
11
13.9655897
21
35.1054271
0
LINE
8
DEFAULT_255_2_778
10
13.9655897
20
35.1054271
11
13.7583897
21
34.4111271
0
LINE
8
DEFAULT_255_2_778
10
13.7583897
20
34.4111271
11
13.5511897
21
35.1054271
0
LINE
8
DEFAULT_255_2_778
10
13.5511897
20
35.1054271
11
13.4551897
21
35.1054271
0
LINE
8
DEFAULT_255_2_778
10
13.4551897
20
35.1054271
11
13.3670897
21
35.1054271
0
LINE
8
DEFAULT_255_2_778
10
13.3670897
20
35.1054271
11
13.2651897
21
35.1054271
0
LINE
8
DEFAULT_255_2_778
10
13.2651897
20
35.1054271
11
13.2651897
21
34.1161271
0
LINE
8
DEFAULT_255_2_778
10
13.2651897
20
34.1161271
11
13.4519897
21
34.1161271
0
LINE
8
DEFAULT_255_2_778
10
13.4519897
20
34.1161271
11
13.4519897
21
34.8514271
0
LINE
8
DEFAULT_255_2_778
10
13.4519897
20
34.8514271
11
13.4519897
21
34.8514271
0
LINE
8
DEFAULT_255_2_778
10
18.0057897
20
35.1054271
11
17.8064897
21
35.1054271
0
LINE
8
DEFAULT_255_2_778
10
17.8064897
20
35.1054271
11
17.8064897
21
34.1161271
0
LINE
8
DEFAULT_255_2_778
10
17.8064897
20
34.1161271
11
18.0057897
21
34.1161271
0
LINE
8
DEFAULT_255_2_778
10
18.0057897
20
34.1161271
11
18.0057897
21
35.1054271
0
LINE
8
DEFAULT_255_2_778
10
18.0057897
20
35.1054271
11
18.0057897
21
35.1054271
0
LINE
8
DEFAULT_255_2_778
10
18.1681897
20
33.9513271
11
17.9689897
21
33.9513271
0
LINE
8
DEFAULT_255_2_778
10
17.9689897
20
33.9513271
11
17.9689897
21
32.9620271
0
LINE
8
DEFAULT_255_2_778
10
17.9689897
20
32.9620271
11
18.1681897
21
32.9620271
0
LINE
8
DEFAULT_255_2_778
10
18.1681897
20
32.9620271
11
18.1681897
21
33.9513271
0
LINE
8
DEFAULT_255_2_778
10
18.1681897
20
33.9513271
11
18.1681897
21
33.9513271
0
LINE
8
DEFAULT_255_2_778
10
19.9765897
20
35.1054271
11
19.7773897
21
35.1054271
0
LINE
8
DEFAULT_255_2_778
10
19.7773897
20
35.1054271
11
19.7773897
21
34.1161271
0
LINE
8
DEFAULT_255_2_778
10
19.7773897
20
34.1161271
11
19.9765897
21
34.1161271
0
LINE
8
DEFAULT_255_2_778
10
19.9765897
20
34.1161271
11
19.9765897
21
35.1054271
0
LINE
8
DEFAULT_255_2_778
10
19.9765897
20
35.1054271
11
19.9765897
21
35.1054271
0
LINE
8
DEFAULT_255_2_778
10
14.5298897
20
35.1054271
11
14.3306897
21
35.1054271
0
LINE
8
DEFAULT_255_2_778
10
14.3306897
20
35.1054271
11
14.3306897
21
34.1161271
0
LINE
8
DEFAULT_255_2_778
10
14.3306897
20
34.1161271
11
14.5298897
21
34.1161271
0
LINE
8
DEFAULT_255_2_778
10
14.5298897
20
34.1161271
11
14.5298897
21
35.1054271
0
LINE
8
DEFAULT_255_2_778
10
14.5298897
20
35.1054271
11
14.5298897
21
35.1054271
0
LINE
8
DEFAULT_255_2_778
10
19.4989897
20
34.7194271
11
19.1029897
21
34.7194271
0
LINE
8
DEFAULT_255_2_778
10
19.1029897
20
34.7194271
11
19.1029897
21
35.1051271
0
LINE
8
DEFAULT_255_2_778
10
19.1029897
20
35.1051271
11
18.9068897
21
35.1051271
0
LINE
8
DEFAULT_255_2_778
10
18.9068897
20
35.1051271
11
18.9068897
21
34.1161271
0
LINE
8
DEFAULT_255_2_778
10
18.9068897
20
34.1161271
11
19.1029897
21
34.1161271
0
LINE
8
DEFAULT_255_2_778
10
19.1029897
20
34.1161271
11
19.1029897
21
34.5479271
0
LINE
8
DEFAULT_255_2_778
10
19.1029897
20
34.5479271
11
19.4989897
21
34.5479271
0
LINE
8
DEFAULT_255_2_778
10
19.4989897
20
34.5479271
11
19.4989897
21
34.1161271
0
LINE
8
DEFAULT_255_2_778
10
19.4989897
20
34.1161271
11
19.6950897
21
34.1161271
0
LINE
8
DEFAULT_255_2_778
10
19.6950897
20
34.1161271
11
19.6950897
21
35.1051271
0
LINE
8
DEFAULT_255_2_778
10
19.6950897
20
35.1051271
11
19.4989897
21
35.1051271
0
LINE
8
DEFAULT_255_2_778
10
19.4989897
20
35.1051271
11
19.4989897
21
34.7194271
0
LINE
8
DEFAULT_255_2_778
10
19.4989897
20
34.7194271
11
19.4989897
21
34.7194271
0
LINE
8
DEFAULT_255_2_778
10
14.8246897
20
34.1161271
11
15.0280897
21
34.1161271
0
LINE
8
DEFAULT_255_2_778
10
15.0280897
20
34.1161271
11
15.0280897
21
34.9340271
0
LINE
8
DEFAULT_255_2_778
10
15.0280897
20
34.9340271
11
15.2696897
21
34.9340271
0
LINE
8
DEFAULT_255_2_778
10
15.2696897
20
34.9340271
11
15.2696897
21
35.1054271
0
LINE
8
DEFAULT_255_2_778
10
15.2696897
20
35.1054271
11
15.0280897
21
35.1054271
0
LINE
8
DEFAULT_255_2_778
10
15.0280897
20
35.1054271
11
14.8246897
21
35.1054271
0
LINE
8
DEFAULT_255_2_778
10
14.8246897
20
35.1054271
11
14.5830897
21
35.1054271
0
LINE
8
DEFAULT_255_2_778
10
14.5830897
20
35.1054271
11
14.5830897
21
34.9340271
0
LINE
8
DEFAULT_255_2_778
10
14.5830897
20
34.9340271
11
14.8246897
21
34.9340271
0
LINE
8
DEFAULT_255_2_778
10
14.8246897
20
34.9340271
11
14.8246897
21
34.1161271
0
LINE
8
DEFAULT_255_2_778
10
14.8246897
20
34.1161271
11
14.8246897
21
34.1161271
0
LINE
8
DEFAULT_255_2_778
10
16.6422897
20
32.9620271
11
16.8454897
21
32.9620271
0
LINE
8
DEFAULT_255_2_778
10
16.8454897
20
32.9620271
11
16.8454897
21
33.7798271
0
LINE
8
DEFAULT_255_2_778
10
16.8454897
20
33.7798271
11
17.0873897
21
33.7798271
0
LINE
8
DEFAULT_255_2_778
10
17.0873897
20
33.7798271
11
17.0873897
21
33.9516271
0
LINE
8
DEFAULT_255_2_778
10
17.0873897
20
33.9516271
11
16.8454897
21
33.9516271
0
LINE
8
DEFAULT_255_2_778
10
16.8454897
20
33.9516271
11
16.6422897
21
33.9516271
0
LINE
8
DEFAULT_255_2_778
10
16.6422897
20
33.9516271
11
16.4004897
21
33.9516271
0
LINE
8
DEFAULT_255_2_778
10
16.4004897
20
33.9516271
11
16.4004897
21
33.7798271
0
LINE
8
DEFAULT_255_2_778
10
16.4004897
20
33.7798271
11
16.6422897
21
33.7798271
0
LINE
8
DEFAULT_255_2_778
10
16.6422897
20
33.7798271
11
16.6422897
21
32.9620271
0
LINE
8
DEFAULT_255_2_778
10
16.6422897
20
32.9620271
11
16.6422897
21
32.9620271
0
LINE
8
DEFAULT_255_2_778
10
16.9007897
20
34.4246271
11
16.9007897
21
35.1051271
0
LINE
8
DEFAULT_255_2_778
10
16.9007897
20
35.1051271
11
16.7015897
21
35.1051271
0
LINE
8
DEFAULT_255_2_778
10
16.7015897
20
35.1051271
11
16.7015897
21
34.4066271
0
LINE
8
DEFAULT_255_2_778
10
16.3121897
20
34.4066271
11
16.3121897
21
35.1051271
0
LINE
8
DEFAULT_255_2_778
10
16.3121897
20
35.1051271
11
16.1162897
21
35.1051271
0
LINE
8
DEFAULT_255_2_778
10
16.1162897
20
35.1051271
11
16.1162897
21
34.4249271
0
LINE
8
DEFAULT_255_2_778
10
15.0000897
20
33.3973271
11
15.4730897
21
33.3973271
0
LINE
8
DEFAULT_255_2_778
10
15.4730897
20
33.3973271
11
15.4730897
21
33.5687271
0
LINE
8
DEFAULT_255_2_778
10
15.4730897
20
33.5687271
11
15.0000897
21
33.5687271
0
LINE
8
DEFAULT_255_2_778
10
15.0000897
20
33.5687271
11
15.0000897
21
33.7796271
0
LINE
8
DEFAULT_255_2_778
10
15.0000897
20
33.7796271
11
15.5321897
21
33.7796271
0
LINE
8
DEFAULT_255_2_778
10
15.5321897
20
33.7796271
11
15.5321897
21
33.9510271
0
LINE
8
DEFAULT_255_2_778
10
15.5321897
20
33.9510271
11
15.0000897
21
33.9510271
0
LINE
8
DEFAULT_255_2_778
10
15.0000897
20
33.9510271
11
14.7997897
21
33.9510271
0
LINE
8
DEFAULT_255_2_778
10
14.7997897
20
33.9510271
11
14.7997897
21
33.7796271
0
LINE
8
DEFAULT_255_2_778
10
14.7997897
20
33.7796271
11
14.7997897
21
33.1332271
0
LINE
8
DEFAULT_255_2_778
10
14.7997897
20
33.1332271
11
14.7997897
21
32.9617271
0
LINE
8
DEFAULT_255_2_778
10
14.7997897
20
32.9617271
11
15.0000897
21
32.9617271
0
LINE
8
DEFAULT_255_2_778
10
15.0000897
20
32.9617271
11
15.5461897
21
32.9617271
0
LINE
8
DEFAULT_255_2_778
10
15.5461897
20
32.9617271
11
15.5461897
21
33.1332271
0
LINE
8
DEFAULT_255_2_778
10
15.5461897
20
33.1332271
11
15.0000897
21
33.1332271
0
LINE
8
DEFAULT_255_2_778
10
15.0000897
20
33.1332271
11
15.0000897
21
33.3970271
0
LINE
8
DEFAULT_255_2_778
10
15.0000897
20
33.3970271
11
15.0000897
21
33.3973271
0
LINE
8
DEFAULT_255_2_778
10
17.4064897
20
34.7061271
11
17.1690897
21
34.7061271
0
LINE
8
DEFAULT_255_2_778
10
17.1690897
20
34.7061271
11
17.1690897
21
34.9477271
0
LINE
8
DEFAULT_255_2_778
10
17.1690897
20
34.9477271
11
17.4175897
21
34.9477271
0
LINE
8
DEFAULT_255_2_778
10
17.4175897
20
34.9477271
11
17.4175897
21
34.9480271
0
LINE
8
DEFAULT_255_2_778
10
17.4027897
20
34.2653271
11
17.1690897
21
34.2653271
0
LINE
8
DEFAULT_255_2_778
10
17.1690897
20
34.2653271
11
17.1690897
21
34.5524271
0
LINE
8
DEFAULT_255_2_778
10
17.1690897
20
34.5524271
11
17.4003897
21
34.5524271
0
LINE
8
DEFAULT_255_2_778
10
17.1767897
20
34.1161271
11
17.4622897
21
34.1161271
0
LINE
8
DEFAULT_255_2_778
10
17.4172897
20
35.1051271
11
17.1770897
21
35.1051271
0
LINE
8
DEFAULT_255_2_778
10
17.1770897
20
35.1051271
11
16.9722897
21
35.1051271
0
LINE
8
DEFAULT_255_2_778
10
16.9722897
20
35.1051271
11
16.9711897
21
35.1051271
0
LINE
8
DEFAULT_255_2_778
10
16.9711897
20
35.1051271
11
16.9711897
21
34.1161271
0
LINE
8
DEFAULT_255_2_778
10
16.9711897
20
34.1161271
11
16.9722897
21
34.1161271
0
LINE
8
DEFAULT_255_2_778
10
16.9722897
20
34.1161271
11
17.1770897
21
34.1161271
0
LINE
8
DEFAULT_255_2_778
10
17.1770897
20
34.1161271
11
17.1767897
21
34.1161271
0
LINE
8
DEFAULT_255_2_778
10
17.3368897
20
33.5118271
11
17.3368897
21
33.7812271
0
LINE
8
DEFAULT_255_2_778
10
17.3368897
20
33.7812271
11
17.5781897
21
33.7812271
0
LINE
8
DEFAULT_255_2_778
10
17.5842897
20
33.5121271
11
17.3370897
21
33.5121271
0
LINE
8
DEFAULT_255_2_778
10
17.3370897
20
33.5121271
11
17.3368897
21
33.5118271
0
LINE
8
DEFAULT_255_2_778
10
17.5879897
20
33.9523271
11
17.3368897
21
33.9523271
0
LINE
8
DEFAULT_255_2_778
10
17.3368897
20
33.9523271
11
17.1383897
21
33.9523271
0
LINE
8
DEFAULT_255_2_778
10
17.1383897
20
33.9523271
11
17.1362897
21
33.9523271
0
LINE
8
DEFAULT_255_2_778
10
17.1362897
20
33.9523271
11
17.1362897
21
32.9631271
0
LINE
8
DEFAULT_255_2_778
10
17.1362897
20
32.9631271
11
17.3368897
21
32.9631271
0
LINE
8
DEFAULT_255_2_778
10
17.3368897
20
32.9631271
11
17.3368897
21
33.3528271
0
LINE
8
DEFAULT_255_2_778
10
17.3368897
20
33.3528271
11
17.5069897
21
33.3528271
0
LINE
8
DEFAULT_255_2_778
10
17.7162897
20
32.9631271
11
17.9175897
21
32.9631271
0
LINE
8
DEFAULT_255_2_778
10
14.2763897
20
33.9513271
11
14.0760897
21
33.9513271
0
LINE
8
DEFAULT_255_2_778
10
14.0760897
20
33.9513271
11
14.0760897
21
33.1335271
0
LINE
8
DEFAULT_255_2_778
10
14.0760897
20
33.1335271
11
14.0760897
21
32.9620271
0
LINE
8
DEFAULT_255_2_778
10
14.0760897
20
32.9620271
11
14.2763897
21
32.9620271
0
LINE
8
DEFAULT_255_2_778
10
14.2763897
20
32.9620271
11
14.7428897
21
32.9620271
0
LINE
8
DEFAULT_255_2_778
10
14.7428897
20
32.9620271
11
14.7428897
21
33.1335271
0
LINE
8
DEFAULT_255_2_778
10
14.7428897
20
33.1335271
11
14.2763897
21
33.1335271
0
LINE
8
DEFAULT_255_2_778
10
14.2763897
20
33.1335271
11
14.2763897
21
33.9513271
0
LINE
8
DEFAULT_255_2_778
10
14.2763897
20
33.9513271
11
14.2763897
21
33.9513271
0
ARC
8
DEFAULT_255_2_778
10
15.4584271
20
33.5771969
40
0.9681224
50
72.4822103
51
81.3184214
0
ARC
8
DEFAULT_255_2_778
10
15.7160297
20
34.3538918
40
0.1503783
50
28.8883513
51
77.0092434
0
ARC
8
DEFAULT_255_2_778
10
15.7432379
20
34.3828196
40
0.113238
50
358.9917455
51
22.7117017
0
ARC
8
DEFAULT_255_2_778
10
15.7394861
20
34.3869918
40
0.1171346
50
289.2958104
51
356.9831562
0
ARC
8
DEFAULT_255_2_778
10
15.6668261
20
34.5444882
40
0.2902651
50
268.4665462
51
292.5613311
0
ARC
8
DEFAULT_255_2_778
10
15.6496856
20
34.4854179
40
0.2312808
50
236.4956947
51
272.3225735
0
ARC
8
DEFAULT_255_2_778
10
15.6106646
20
34.4171839
40
0.1529307
50
178.9722202
51
234.5742435
0
ARC
8
DEFAULT_255_2_778
10
15.5656113
20
34.4076079
40
0.3002058
50
177.6481608
51
245.5596397
0
ARC
8
DEFAULT_255_2_778
10
15.6409971
20
34.5798561
40
0.488217
50
245.8690375
51
267.169035
0
ARC
8
DEFAULT_255_2_778
10
15.6671503
20
34.8308916
40
0.7403648
50
266.1069867
51
270.0547972
0
ARC
8
DEFAULT_255_2_778
10
15.6772894
20
34.6621135
40
0.5716642
50
269.0547216
51
287.7147747
0
ARC
8
DEFAULT_255_2_778
10
15.7598889
20
34.4164091
40
0.3125017
50
286.995984
51
325.1221533
0
ARC
8
DEFAULT_255_2_778
10
15.7678294
20
34.399861
40
0.2966627
50
326.8673922
51
0.8625726
0
ARC
8
DEFAULT_255_2_778
10
15.7898286
20
34.4084409
40
0.2746606
50
359.1417932
51
76.9739731
0
ARC
8
DEFAULT_255_2_778
10
15.6705461
20
34.1275719
40
0.577616
50
71.7185727
51
79.1315439
0
ARC
8
DEFAULT_255_2_778
10
14.2492968
20
26.773967
40
8.0673056
50
79.0662148
51
79.6216572
0
ARC
8
DEFAULT_255_2_778
10
16.4356585
20
38.6516581
40
4.0099443
50
259.1227669
51
259.4665204
0
ARC
8
DEFAULT_255_2_778
10
15.7836732
20
35.3566142
40
0.6513291
50
249.9945768
51
260.7485895
0
ARC
8
DEFAULT_255_2_778
10
15.5880401
20
34.8455999
40
0.1046098
50
178.6705173
51
254.9333545
0
ARC
8
DEFAULT_255_2_778
10
15.6049957
20
34.8421688
40
0.1216785
50
93.288632
51
177.2403935
0
ARC
8
DEFAULT_255_2_778
10
15.6585677
20
34.6551752
40
0.3143588
50
89.6189463
51
101.1057977
0
ARC
8
DEFAULT_255_2_778
10
15.6722733
20
34.767016
40
0.2028439
50
53.5634072
51
93.2825843
0
ARC
8
DEFAULT_255_2_778
10
15.7018505
20
34.8252144
40
0.1388739
50
357.1985816
51
49.1152298
0
ARC
8
DEFAULT_255_2_778
10
15.7254907
20
34.8184274
40
0.3087677
50
359.9999335
51
2.3703878
0
ARC
8
DEFAULT_255_2_778
10
15.7353555
20
34.8199337
40
0.298851
50
2.1600756
51
60.1092229
0
ARC
8
DEFAULT_255_2_778
10
15.6766212
20
34.7133133
40
0.4205645
50
60.4106856
51
86.1444419
0
ARC
8
DEFAULT_255_2_778
10
15.6536151
20
34.5366228
40
0.5985046
50
85.0843314
51
90.0628677
0
ARC
8
DEFAULT_255_2_778
10
15.6529718
20
34.6600466
40
0.4750804
50
90.001616
51
92.2300394
0
ARC
8
DEFAULT_255_2_778
10
15.6281193
20
34.765187
40
0.3696351
50
89.0131319
51
149.6364996
0
ARC
8
DEFAULT_255_2_778
10
15.5505461
20
34.8374055
40
0.2671974
50
154.5962367
51
180.4885883
0
ARC
8
DEFAULT_255_2_778
10
15.5651524
20
34.835884
40
0.281795
50
180.1539064
51
255.1120325
0
ARC
8
DEFAULT_255_2_778
10
15.7094242
20
35.158732
40
0.6333958
50
249.9962237
51
260.4976723
0
ARC
8
DEFAULT_255_2_778
10
18.2470963
20
33.5783351
40
0.967002
50
72.4685023
51
81.3064395
0
ARC
8
DEFAULT_255_2_778
10
18.5045397
20
34.353927
40
0.1503535
50
28.8782248
51
76.9904304
0
ARC
8
DEFAULT_255_2_778
10
18.5317197
20
34.3828189
40
0.1132561
50
358.9922779
51
22.7082666
0
ARC
8
DEFAULT_255_2_778
10
18.5280402
20
34.3869088
40
0.1170763
50
289.2761556
51
357.0223042
0
ARC
8
DEFAULT_255_2_778
10
18.4553612
20
34.5447836
40
0.2905613
50
268.4611814
51
292.5289055
0
ARC
8
DEFAULT_255_2_778
10
18.4381801
20
34.4863175
40
0.2321799
50
236.6698634
51
272.3149402
0
ARC
8
DEFAULT_255_2_778
10
18.39878
20
34.4171762
40
0.1528464
50
178.9687581
51
234.7686008
0
ARC
8
DEFAULT_255_2_778
10
18.3540113
20
34.4076079
40
0.3002058
50
177.6481608
51
245.5596397
0
ARC
8
DEFAULT_255_2_778
10
18.4293971
20
34.5798561
40
0.488217
50
245.8690375
51
267.169035
0
ARC
8
DEFAULT_255_2_778
10
18.4555503
20
34.8308916
40
0.7403648
50
266.1069867
51
270.0547972
0
ARC
8
DEFAULT_255_2_778
10
18.4656836
20
34.6627451
40
0.5722957
50
269.0563423
51
287.7048702
0
ARC
8
DEFAULT_255_2_778
10
18.548344
20
34.4167682
40
0.312856
50
286.9832601
51
325.0871916
0
ARC
8
DEFAULT_255_2_778
10
18.5567708
20
34.3998856
40
0.2964208
50
326.8311942
51
0.8585267
0
ARC
8
DEFAULT_255_2_778
10
18.5785756
20
34.4085282
40
0.2746149
50
359.1234265
51
76.9343785
0
ARC
8
DEFAULT_255_2_778
10
18.4596421
20
34.1286965
40
0.5764934
50
71.6999697
51
79.1198353
0
ARC
8
DEFAULT_255_2_778
10
17.0173657
20
26.6519392
40
8.1910887
50
79.0843627
51
79.6321368
0
ARC
8
DEFAULT_255_2_778
10
19.2200266
20
38.6314177
40
3.9892176
50
259.1314419
51
259.4772924
0
ARC
8
DEFAULT_255_2_778
10
18.5723251
20
35.3560131
40
0.6507003
50
249.9919323
51
260.7592458
0
ARC
8
DEFAULT_255_2_778
10
18.376901
20
34.8455546
40
0.1045718
50
178.6452075
51
254.9151907
0
ARC
8
DEFAULT_255_2_778
10
18.3939581
20
34.8421016
40
0.121744
50
93.2745253
51
177.21023
0
ARC
8
DEFAULT_255_2_778
10
18.4475726
20
34.6550052
40
0.3145287
50
89.6200387
51
101.1027534
0
ARC
8
DEFAULT_255_2_778
10
18.4613489
20
34.7683453
40
0.2015212
50
53.1490002
51
93.3256649
0
ARC
8
DEFAULT_255_2_778
10
18.4902753
20
34.8251519
40
0.1391457
50
357.2298288
51
48.6469881
0
ARC
8
DEFAULT_255_2_778
10
18.5137232
20
34.8184226
40
0.3092351
50
0.0008291
51
2.3676985
0
ARC
8
DEFAULT_255_2_778
10
18.5240744
20
34.8199868
40
0.2988304
50
2.1500394
51
60.0956838
0
ARC
8
DEFAULT_255_2_778
10
18.4654399
20
34.7134909
40
0.4203859
50
60.40452
51
86.1455285
0
ARC
8
DEFAULT_255_2_778
10
18.4424157
20
34.5366686
40
0.5984588
50
85.0841409
51
90.0629301
0
ARC
8
DEFAULT_255_2_778
10
18.4417778
20
34.6596392
40
0.4754878
50
90.0023409
51
92.3231329
0
ARC
8
DEFAULT_255_2_778
10
18.4167555
20
34.7649604
40
0.3698206
50
89.1093915
51
149.6400816
0
ARC
8
DEFAULT_255_2_778
10
18.338761
20
34.8373917
40
0.2669122
50
154.6001925
51
180.486137
0
ARC
8
DEFAULT_255_2_778
10
18.3537607
20
34.8360152
40
0.2819037
50
180.1805176
51
255.132702
0
ARC
8
DEFAULT_255_2_778
10
18.4982264
20
35.1592784
40
0.6339516
50
250.0026216
51
260.4967164
0
ARC
8
DEFAULT_255_2_778
10
16.008917
20
33.3664283
40
0.2519711
50
190.2626864
51
267.3480013
0
ARC
8
DEFAULT_255_2_778
10
16.2443543
20
33.4577548
40
0.5022041
50
179.6723028
51
195.7380858
0
ARC
8
DEFAULT_255_2_778
10
16.1790511
20
33.4732671
40
0.4370755
50
148.7005643
51
181.6572045
0
ARC
8
DEFAULT_255_2_778
10
15.9957576
20
33.5833723
40
0.2232598
50
89.6148479
51
148.4074796
0
ARC
8
DEFAULT_255_2_778
10
16.0060936
20
33.605449
40
0.201372
50
41.9769772
51
92.5146611
0
ARC
8
DEFAULT_255_2_778
10
15.9522078
20
33.5677523
40
0.2667646
50
15.1848537
51
40.2549591
0
ARC
8
DEFAULT_255_2_778
10
16.028123
20
33.5780326
40
0.3935735
50
8.7091682
51
82.0550801
0
ARC
8
DEFAULT_255_2_778
10
15.9931241
20
33.4315871
40
0.543642
50
80.5350289
51
90.1544743
0
ARC
8
DEFAULT_255_2_778
10
15.9818804
20
33.5202192
40
0.4551129
50
88.7689246
51
119.6437418
0
ARC
8
DEFAULT_255_2_778
10
16.0077717
20
33.5239647
40
0.4653013
50
122.644121
51
173.3997839
0
ARC
8
DEFAULT_255_2_778
10
16.2711934
20
33.4596568
40
0.7351371
50
170.7798304
51
180.1348114
0
ARC
8
DEFAULT_255_2_778
10
16.1377257
20
33.4442615
40
0.6018225
50
178.6988735
51
210.5289552
0
ARC
8
DEFAULT_255_2_778
10
15.970325
20
33.3534953
40
0.4115783
50
211.4828222
51
265.8686737
0
ARC
8
DEFAULT_255_2_778
10
15.9909864
20
33.4782011
40
0.5375742
50
264.6297133
51
270.0503073
0
ARC
8
DEFAULT_255_2_778
10
16.0020995
20
33.4100749
40
0.4695684
50
268.7014824
51
300.1403067
0
ARC
8
DEFAULT_255_2_778
10
16.0350333
20
33.3316852
40
0.385394
50
301.7580058
51
353.77968
0
ARC
8
DEFAULT_255_2_778
10
16.0012256
20
33.3260219
40
0.2113379
50
268.8430278
51
350.1661143
0
ARC
8
DEFAULT_255_2_778
10
18.6896799
20
33.3663824
40
0.2519281
50
190.2538303
51
267.3332171
0
ARC
8
DEFAULT_255_2_778
10
18.9252249
20
33.4577581
40
0.5022746
50
179.672724
51
195.7362088
0
ARC
8
DEFAULT_255_2_778
10
18.8600432
20
33.4732917
40
0.4372682
50
148.7196987
51
181.6596982
0
ARC
8
DEFAULT_255_2_778
10
18.676443
20
33.5834906
40
0.2231415
50
89.6108896
51
148.4244661
0
ARC
8
DEFAULT_255_2_778
10
18.686876
20
33.605467
40
0.2013576
50
42.5913083
51
92.5383066
0
ARC
8
DEFAULT_255_2_778
10
18.6345542
20
33.5690973
40
0.2646316
50
15.0085433
51
40.7215892
0
ARC
8
DEFAULT_255_2_778
10
18.708623
20
33.5780326
40
0.3935735
50
8.7091682
51
82.0550801
0
ARC
8
DEFAULT_255_2_778
10
18.6736241
20
33.4315871
40
0.543642
50
80.5350289
51
90.1544743
0
ARC
8
DEFAULT_255_2_778
10
18.6623804
20
33.5202192
40
0.4551129
50
88.7689246
51
119.6437418
0
ARC
8
DEFAULT_255_2_778
10
18.6882717
20
33.5239647
40
0.4653013
50
122.644121
51
173.3997839
0
ARC
8
DEFAULT_255_2_778
10
18.9516934
20
33.4596568
40
0.7351371
50
170.7798304
51
180.1348114
0
ARC
8
DEFAULT_255_2_778
10
18.8177822
20
33.44432
40
0.6013778
50
178.7034849
51
210.5604279
0
ARC
8
DEFAULT_255_2_778
10
18.6511312
20
33.3538377
40
0.4119265
50
211.5090145
51
265.8592607
0
ARC
8
DEFAULT_255_2_778
10
18.6716883
20
33.4779521
40
0.5373252
50
264.628472
51
270.0501277
0
ARC
8
DEFAULT_255_2_778
10
18.682837
20
33.4098685
40
0.4693629
50
268.6963312
51
300.2191972
0
ARC
8
DEFAULT_255_2_778
10
18.7155684
20
33.3319124
40
0.3856821
50
301.8465101
51
353.7503927
0
ARC
8
DEFAULT_255_2_778
10
18.6820648
20
33.3258604
40
0.2111733
50
268.8857714
51
350.2028431
0
LINE
8
DEFAULT_255_2_778
10
15.4577584
20
34.4199271
11
15.2656584
21
34.4199271
0
LINE
8
DEFAULT_255_2_778
10
15.8405584
20
34.8184271
11
16.0342584
21
34.8184271
0
LINE
8
DEFAULT_255_2_778
10
18.2459584
20
34.4199271
11
18.0540584
21
34.4199271
0
LINE
8
DEFAULT_255_2_778
10
18.6292584
20
34.8184271
11
18.8229584
21
34.8184271
0
LINE
8
DEFAULT_255_2_778
10
16.2096584
20
33.6376271
11
16.4171584
21
33.6376271
0
LINE
8
DEFAULT_255_2_778
10
16.4181584
20
33.2899271
11
16.2094584
21
33.2899271
0
LINE
8
DEFAULT_255_2_778
10
18.8901584
20
33.6376271
11
19.0976584
21
33.6376271
0
LINE
8
DEFAULT_255_2_778
10
19.0989584
20
33.2899271
11
18.8901584
21
33.2899271
0
LINE
8
DEFAULT_255_1_388
10
4.8809318
20
28.6008382
11
4.8809318
21
28.4644
0
LINE
8
DEFAULT_255_1_388
10
4.8809318
20
28.4644
11
4.0189313
21
28.4644
0
LINE
8
DEFAULT_255_1_388
10
4.0189313
20
28.4644
11
4.0189313
21
28.5845741
0
LINE
8
DEFAULT_255_1_388
10
4.0189313
20
28.5845741
11
4.4743278
21
29.0905702
0
LINE
8
DEFAULT_255_1_388
10
4.1607909
20
29.3923607
11
3.9936315
21
29.3923607
0
LINE
8
DEFAULT_255_1_388
10
4.5728163
20
28.983046
11
4.2204262
21
28.6008382
0
LINE
8
DEFAULT_255_1_388
10
4.2204262
20
28.6008382
11
4.8809318
21
28.6008382
0
ARC
8
DEFAULT_255_1_388
10
2.9567337
20
30.4325983
40
2.0258655
50
318.5132526
51
320.7829045
0
ARC
8
DEFAULT_255_1_388
10
3.5515294
20
29.9484929
40
1.2589638
50
320.7372878
51
323.9739031
0
ARC
8
DEFAULT_255_1_388
10
3.9924226
20
29.6290554
40
0.7145141
50
323.8962701
51
328.64194
0
ARC
8
DEFAULT_255_1_388
10
4.2226484
20
29.4870545
40
0.4440242
50
328.8294576
51
331.7891185
0
ARC
8
DEFAULT_255_1_388
10
4.3348804
20
29.4291374
40
0.3177517
50
331.4254512
51
352.9365785
0
ARC
8
DEFAULT_255_1_388
10
4.3501804
20
29.425705
40
0.3021496
50
353.2257659
51
0.0166158
0
ARC
8
DEFAULT_255_1_388
10
4.3738564
20
29.4282894
40
0.2784847
50
359.486299
51
15.9343185
0
ARC
8
DEFAULT_255_1_388
10
4.4308831
20
29.4436269
40
0.2194403
50
16.1712913
51
43.5286088
0
ARC
8
DEFAULT_255_1_388
10
4.4395776
20
29.4523191
40
0.2071504
50
43.4417391
51
83.1661095
0
ARC
8
DEFAULT_255_1_388
10
4.4244937
20
29.3694316
40
0.2912888
50
82.160179
51
90.1505708
0
ARC
8
DEFAULT_255_1_388
10
4.4209418
20
29.3090279
40
0.3517025
50
89.5460741
51
102.5418361
0
ARC
8
DEFAULT_255_1_388
10
4.3936138
20
29.4249933
40
0.2325748
50
102.1738499
51
129.206123
0
ARC
8
DEFAULT_255_1_388
10
4.3847592
20
29.4389664
40
0.2161591
50
129.72865
51
135.753947
0
ARC
8
DEFAULT_255_1_388
10
4.3984074
20
29.4280728
40
0.2335433
50
136.1757367
51
166.3673339
0
ARC
8
DEFAULT_255_1_388
10
4.5116762
20
29.3977148
40
0.3507873
50
165.9090694
51
178.8684636
0
ARC
8
DEFAULT_255_1_388
10
4.6092534
20
29.3924263
40
0.4484624
50
178.4391136
51
180.0083808
0
ARC
8
DEFAULT_255_1_388
10
4.4513235
20
29.3968197
40
0.4577138
50
163.2878482
51
180.5581842
0
ARC
8
DEFAULT_255_1_388
10
4.3611276
20
29.4216393
40
0.3641968
50
133.4540601
51
162.947111
0
ARC
8
DEFAULT_255_1_388
10
4.3812158
20
29.4002789
40
0.3935189
50
100.7869829
51
133.4382499
0
ARC
8
DEFAULT_255_1_388
10
4.4203403
20
29.2260399
40
0.5720313
50
89.660664
51
101.3702276
0
ARC
8
DEFAULT_255_1_388
10
4.4278012
20
29.2329263
40
0.5651495
50
78.2172678
51
90.412935
0
ARC
8
DEFAULT_255_1_388
10
4.4677478
20
29.4156511
40
0.378122
50
55.9269121
51
78.4888449
0
ARC
8
DEFAULT_255_1_388
10
4.4898193
20
29.4537187
40
0.3342379
50
47.929771
51
55.4049217
0
ARC
8
DEFAULT_255_1_388
10
4.5012723
20
29.4653618
40
0.3179217
50
4.334829
51
48.0560205
0
ARC
8
DEFAULT_255_1_388
10
4.3780525
20
29.4462487
40
0.442341
50
359.9251713
51
5.5971671
0
ARC
8
DEFAULT_255_1_388
10
4.426268
20
29.4525728
40
0.3941854
50
337.8914027
51
358.9967534
0
ARC
8
DEFAULT_255_1_388
10
4.121025
20
29.5703295
40
0.7213271
50
326.9132501
51
338.3508308
0
ARC
8
DEFAULT_255_1_388
10
3.6726362
20
29.8577105
40
1.2538973
50
319.6471833
51
327.0959558
0
ARC
8
DEFAULT_255_1_388
10
3.241302
20
30.213505
40
1.8129975
50
317.2588228
51
319.9045804
0
LINE
8
DEFAULT_255_1_388
10
5.7637143
20
29.7799898
11
5.7637143
21
28.906243
0
LINE
8
DEFAULT_255_1_388
10
5.7637143
20
28.906243
11
5.9462343
21
28.906243
0
LINE
8
DEFAULT_255_1_388
10
5.9462343
20
28.906243
11
5.9462343
21
28.7698048
0
LINE
8
DEFAULT_255_1_388
10
5.9462343
20
28.7698048
11
5.7637143
21
28.7698048
0
LINE
8
DEFAULT_255_1_388
10
5.7637143
20
28.7698048
11
5.7637143
21
28.4644
0
LINE
8
DEFAULT_255_1_388
10
5.7637143
20
28.4644
11
5.5956513
21
28.4644
0
LINE
8
DEFAULT_255_1_388
10
5.5956513
20
28.4644
11
5.5956513
21
28.7698048
0
LINE
8
DEFAULT_255_1_388
10
5.5956513
20
28.7698048
11
4.996588
21
28.7698048
0
LINE
8
DEFAULT_255_1_388
10
4.996588
20
28.7698048
11
4.996588
21
28.8682933
0
LINE
8
DEFAULT_255_1_388
10
4.996588
20
28.8682933
11
5.5857121
21
29.7799898
0
LINE
8
DEFAULT_255_1_388
10
5.5857121
20
29.7799898
11
5.7637143
21
29.7799898
0
LINE
8
DEFAULT_255_1_388
10
5.5757729
20
29.5152455
11
5.1863366
21
28.906243
0
LINE
8
DEFAULT_255_1_388
10
5.1863366
20
28.906243
11
5.5956513
21
28.906243
0
LINE
8
DEFAULT_255_1_388
10
5.5956513
20
28.906243
11
5.5956513
21
29.551388
0
LINE
8
DEFAULT_255_1_388
10
5.5956513
20
29.551388
11
5.5757729
21
29.5152455
0
LINE
8
DEFAULT_255_1_388
10
6.201943
20
29.7799898
11
6.5760187
21
28.6948089
0
LINE
8
DEFAULT_255_1_388
10
6.5760187
20
28.6948089
11
6.9519015
21
29.7799898
0
LINE
8
DEFAULT_255_1_388
10
6.9519015
20
29.7799898
11
7.14165
21
29.7799898
0
LINE
8
DEFAULT_255_1_388
10
7.14165
20
29.7799898
11
6.6537252
21
28.4644
0
LINE
8
DEFAULT_255_1_388
10
6.6537252
20
28.4644
11
6.5001193
21
28.4644
0
LINE
8
DEFAULT_255_1_388
10
6.5001193
20
28.4644
11
6.013098
21
29.7799898
0
LINE
8
DEFAULT_255_1_388
10
6.013098
20
29.7799898
11
6.201943
21
29.7799898
0
LINE
8
DEFAULT_255_1_388
10
4.1943903
20
5.9674898
11
4.1943903
21
4.7937596
0
LINE
8
DEFAULT_255_1_388
10
4.1943903
20
4.7937596
11
4.8178498
21
4.7937596
0
LINE
8
DEFAULT_255_1_388
10
4.8178498
20
4.7937596
11
4.8178498
21
4.6519
0
LINE
8
DEFAULT_255_1_388
10
4.8178498
20
4.6519
11
4.0200024
21
4.6519
0
LINE
8
DEFAULT_255_1_388
10
4.0200024
20
4.6519
11
4.0200024
21
5.9674898
0
LINE
8
DEFAULT_255_1_388
10
4.0200024
20
5.9674898
11
4.1943903
21
5.9674898
0
LINE
8
DEFAULT_255_1_388
10
5.9283305
20
5.3069842
11
5.9283305
21
4.8244808
0
LINE
8
DEFAULT_255_1_388
10
4.9145312
20
5.2464454
11
4.9145312
21
5.3611981
0
LINE
8
DEFAULT_255_1_388
10
5.9283305
20
5.5816678
11
5.7548461
21
5.5816678
0
LINE
8
DEFAULT_255_1_388
10
5.0889191
20
5.3657159
11
5.0889191
21
5.2581917
0
LINE
8
DEFAULT_255_1_388
10
5.7557497
20
4.8705626
11
5.7557497
21
5.1660282
0
LINE
8
DEFAULT_255_1_388
10
5.7557497
20
5.1660282
11
5.4512485
21
5.1660282
0
LINE
8
DEFAULT_255_1_388
10
5.4512485
20
5.1660282
11
5.4512485
21
5.3069842
0
LINE
8
DEFAULT_255_1_388
10
5.4512485
20
5.3069842
11
5.9283305
21
5.3069842
0
ARC
8
DEFAULT_255_1_388
10
5.6097906
20
5.0487284
40
0.3895571
50
295.8437277
51
324.8549962
0
ARC
8
DEFAULT_255_1_388
10
5.5630288
20
5.1333619
40
0.4861381
50
291.5691164
51
296.4556269
0
ARC
8
DEFAULT_255_1_388
10
5.505529
20
5.2869801
40
0.6501442
50
278.6622213
51
291.3047061
0
ARC
8
DEFAULT_255_1_388
10
5.4673323
20
5.5286557
40
0.8948168
50
270.0200506
51
278.7494673
0
ARC
8
DEFAULT_255_1_388
10
5.4629527
20
5.7132453
40
1.0794166
50
270.0022372
51
270.2490917
0
ARC
8
DEFAULT_255_1_388
10
5.4587419
20
5.2173827
40
0.5835695
50
253.5785313
51
270.4175629
0
ARC
8
DEFAULT_255_1_388
10
5.4392415
20
5.1418625
40
0.5056241
50
238.8203954
51
253.2788387
0
ARC
8
DEFAULT_255_1_388
10
5.4370331
20
5.1361224
40
0.4995712
50
206.7883476
51
238.696262
0
ARC
8
DEFAULT_255_1_388
10
5.5245727
20
5.1885847
40
0.6014056
50
206.1137778
51
207.4912776
0
ARC
8
DEFAULT_255_1_388
10
5.5912562
20
5.2169284
40
0.6737692
50
188.6922336
51
205.782076
0
ARC
8
DEFAULT_255_1_388
10
5.8000922
20
5.2524455
40
0.8855812
50
180.3881972
51
188.9218085
0
ARC
8
DEFAULT_255_1_388
10
5.9382079
20
5.3675622
40
1.0236965
50
170.2024645
51
180.3561986
0
ARC
8
DEFAULT_255_1_388
10
5.5823229
20
5.4312101
40
0.6621746
50
154.2856519
51
170.3893388
0
ARC
8
DEFAULT_255_1_388
10
5.4381193
20
5.4972192
40
0.5036209
50
139.8400879
51
153.9334639
0
ARC
8
DEFAULT_255_1_388
10
5.3977097
20
5.5295716
40
0.4518751
50
98.4190017
51
139.6707015
0
ARC
8
DEFAULT_255_1_388
10
5.4404064
20
5.3219755
40
0.6635912
50
89.7660128
51
99.4415389
0
ARC
8
DEFAULT_255_1_388
10
5.4477461
20
5.3293517
40
0.6562258
50
78.0552044
51
90.4042252
0
ARC
8
DEFAULT_255_1_388
10
5.4932524
20
5.5339661
40
0.4466287
50
54.6380186
51
78.3338577
0
ARC
8
DEFAULT_255_1_388
10
5.5146823
20
5.5700444
40
0.4048184
50
50.0313964
51
54.1562739
0
ARC
8
DEFAULT_255_1_388
10
5.5025716
20
5.5591798
40
0.4209308
50
18.1092229
51
49.7179911
0
ARC
8
DEFAULT_255_1_388
10
5.3386797
20
5.4991399
40
0.5953982
50
7.967396
51
18.698492
0
ARC
8
DEFAULT_255_1_388
10
5.3556058
20
5.5130236
40
0.4050986
50
9.7558763
51
27.3214087
0
ARC
8
DEFAULT_255_1_388
10
5.4824522
20
5.5764087
40
0.2633168
50
27.736147
51
84.5257861
0
ARC
8
DEFAULT_255_1_388
10
5.4455932
20
5.3914988
40
0.4513019
50
82.1064239
51
90.1997295
0
ARC
8
DEFAULT_255_1_388
10
5.4399948
20
5.4486501
40
0.3941684
50
89.4148952
51
105.5824837
0
ARC
8
DEFAULT_255_1_388
10
5.4110829
20
5.5539043
40
0.2850167
50
105.6678541
51
144.2649156
0
ARC
8
DEFAULT_255_1_388
10
5.5115721
20
5.4824024
40
0.4083468
50
144.3560675
51
162.8564185
0
ARC
8
DEFAULT_255_1_388
10
5.7460164
20
5.4071083
40
0.6545749
50
162.6076338
51
173.6779811
0
ARC
8
DEFAULT_255_1_388
10
6.0904279
20
5.3652422
40
1.0015089
50
173.4670996
51
179.9729015
0
ARC
8
DEFAULT_255_1_388
10
5.8757149
20
5.2534636
40
0.78681
50
179.6556955
51
190.007958
0
ARC
8
DEFAULT_255_1_388
10
5.6151431
20
5.205666
40
0.5218997
50
189.8117884
51
206.6795375
0
ARC
8
DEFAULT_255_1_388
10
5.5200877
20
5.1613514
40
0.4170788
50
207.1031171
51
217.7074698
0
ARC
8
DEFAULT_255_1_388
10
5.4487308
20
5.0992596
40
0.3226945
50
216.7345117
51
265.6812141
0
ARC
8
DEFAULT_255_1_388
10
5.463445
20
5.201003
40
0.4253149
50
264.7367524
51
270.0610826
0
ARC
8
DEFAULT_255_1_388
10
5.4660635
20
5.5205173
40
0.7448321
50
269.8334494
51
276.0538364
0
ARC
8
DEFAULT_255_1_388
10
5.4893498
20
5.3065924
40
0.5296446
50
275.9894423
51
284.4615914
0
ARC
8
DEFAULT_255_1_388
10
5.5115011
20
5.213357
40
0.4338353
50
284.7038488
51
286.4938196
0
ARC
8
DEFAULT_255_1_388
10
5.557416
20
5.0654371
40
0.2789738
50
286.0770429
51
304.2629628
0
ARC
8
DEFAULT_255_1_388
10
5.5724318
20
5.040868
40
0.2502188
50
304.5886247
51
317.1074126
0
LINE
8
DEFAULT_255_1_388
10
4.3558389
20
12.5894
11
3.9917024
21
12.5894
0
LINE
8
DEFAULT_255_1_388
10
3.9917024
20
12.5894
11
3.9917024
21
13.9049898
0
LINE
8
DEFAULT_255_1_388
10
3.9917024
20
13.9049898
11
4.3630674
21
13.9049898
0
LINE
8
DEFAULT_255_1_388
10
4.9431558
20
13.2914696
11
4.9431558
21
13.2074381
0
LINE
8
DEFAULT_255_1_388
10
4.3675852
20
13.7622267
11
4.1651868
21
13.7622267
0
LINE
8
DEFAULT_255_1_388
10
4.1651868
20
13.7622267
11
4.1651868
21
12.7312596
0
LINE
8
DEFAULT_255_1_388
10
4.1651868
20
12.7312596
11
4.3477068
21
12.7312596
0
LINE
8
DEFAULT_255_1_388
10
4.7714785
20
13.2110523
11
4.7714785
21
13.2878553
0
ARC
8
DEFAULT_255_1_388
10
4.3674469
20
13.2451436
40
0.6598608
50
75.4100343
51
90.3802731
0
ARC
8
DEFAULT_255_1_388
10
4.3932714
20
13.3527691
40
0.5492049
50
60.1455157
51
75.1889627
0
ARC
8
DEFAULT_255_1_388
10
4.4111306
20
13.3838914
40
0.5133226
50
26.525419
51
60.1451222
0
ARC
8
DEFAULT_255_1_388
10
4.2851092
20
13.3170642
40
0.6559324
50
7.4029944
51
26.832209
0
ARC
8
DEFAULT_255_1_388
10
4.1057489
20
13.2891229
40
0.8374103
50
0.1605597
51
7.7176135
0
ARC
8
DEFAULT_255_1_388
10
4.1241889
20
13.2031321
40
0.8189782
50
348.7289744
51
0.30125
0
ARC
8
DEFAULT_255_1_388
10
4.3105353
20
13.1661156
40
0.628991
50
333.0706936
51
348.7181455
0
ARC
8
DEFAULT_255_1_388
10
4.4192981
20
13.1070449
40
0.5052808
50
299.2531435
51
333.4571133
0
ARC
8
DEFAULT_255_1_388
10
4.3787012
20
13.1841629
40
0.5924066
50
278.1072193
51
299.0340218
0
ARC
8
DEFAULT_255_1_388
10
4.3499061
20
13.3537979
40
0.7644209
50
270.4446841
51
278.4508355
0
ARC
8
DEFAULT_255_1_388
10
4.3522545
20
13.24923
40
0.5179903
50
269.4969684
51
284.0204874
0
ARC
8
DEFAULT_255_1_388
10
4.3922263
20
13.0956415
40
0.3592968
50
283.7699076
51
318.1557121
0
ARC
8
DEFAULT_255_1_388
10
4.3542808
20
13.1240399
40
0.4065308
50
318.7417595
51
343.687252
0
ARC
8
DEFAULT_255_1_388
10
4.1513387
20
13.1874275
40
0.6191194
50
343.3324891
51
355.8548594
0
ARC
8
DEFAULT_255_1_388
10
3.9152424
20
13.2098719
40
0.856237
50
355.4988754
51
0.0789913
0
ARC
8
DEFAULT_255_1_388
10
4.0033224
20
13.292608
40
0.7681709
50
359.6455047
51
9.8607559
0
ARC
8
DEFAULT_255_1_388
10
4.2688947
20
13.3405664
40
0.498312
50
9.6573037
51
26.1931522
0
ARC
8
DEFAULT_255_1_388
10
4.3733022
20
13.3890587
40
0.3832303
50
26.5777895
51
40.1533752
0
ARC
8
DEFAULT_255_1_388
10
4.4020687
20
13.411502
40
0.3467742
50
40.3839958
51
80.1430923
0
ARC
8
DEFAULT_255_1_388
10
4.3652942
20
13.2484486
40
0.5137832
50
79.2153636
51
89.7445174
0
LINE
8
DEFAULT_255_1_388
10
6.2162781
20
13.9049898
11
6.2162781
21
12.5894
0
LINE
8
DEFAULT_255_1_388
10
6.2162781
20
12.5894
11
6.0418901
21
12.5894
0
LINE
8
DEFAULT_255_1_388
10
6.0418901
20
12.5894
11
5.3795774
21
13.6031993
0
LINE
8
DEFAULT_255_1_388
10
5.3795774
20
13.6031993
11
5.3795774
21
12.5894
0
LINE
8
DEFAULT_255_1_388
10
5.3795774
20
12.5894
11
5.2051895
21
12.5894
0
LINE
8
DEFAULT_255_1_388
10
5.2051895
20
12.5894
11
5.2051895
21
13.9049898
0
LINE
8
DEFAULT_255_1_388
10
5.2051895
20
13.9049898
11
5.3795774
21
13.9049898
0
LINE
8
DEFAULT_255_1_388
10
5.3795774
20
13.9049898
11
6.0436973
21
12.8866727
0
LINE
8
DEFAULT_255_1_388
10
6.0436973
20
12.8866727
11
6.0436973
21
13.9049898
0
LINE
8
DEFAULT_255_1_388
10
6.0436973
20
13.9049898
11
6.2162781
21
13.9049898
0
LINE
8
DEFAULT_255_1_388
10
4.4312389
20
20.5269
11
4.0671024
21
20.5269
0
LINE
8
DEFAULT_255_1_388
10
4.0671024
20
20.5269
11
4.0671024
21
21.8424898
0
LINE
8
DEFAULT_255_1_388
10
4.0671024
20
21.8424898
11
4.4384674
21
21.8424898
0
LINE
8
DEFAULT_255_1_388
10
5.0185558
20
21.2289696
11
5.0185558
21
21.1449381
0
LINE
8
DEFAULT_255_1_388
10
4.4429852
20
21.6997267
11
4.2405868
21
21.6997267
0
LINE
8
DEFAULT_255_1_388
10
4.2405868
20
21.6997267
11
4.2405868
21
20.6687596
0
LINE
8
DEFAULT_255_1_388
10
4.2405868
20
20.6687596
11
4.4231068
21
20.6687596
0
LINE
8
DEFAULT_255_1_388
10
4.8468785
20
21.1485523
11
4.8468785
21
21.2253553
0
ARC
8
DEFAULT_255_1_388
10
4.4428469
20
21.1826436
40
0.6598608
50
75.4100343
51
90.3802731
0
ARC
8
DEFAULT_255_1_388
10
4.4686714
20
21.2902691
40
0.5492049
50
60.1455157
51
75.1889627
0
ARC
8
DEFAULT_255_1_388
10
4.4865306
20
21.3213914
40
0.5133226
50
26.525419
51
60.1451222
0
ARC
8
DEFAULT_255_1_388
10
4.3605092
20
21.2545642
40
0.6559324
50
7.4029944
51
26.832209
0
ARC
8
DEFAULT_255_1_388
10
4.1811489
20
21.2266229
40
0.8374103
50
0.1605597
51
7.7176135
0
ARC
8
DEFAULT_255_1_388
10
4.1995889
20
21.1406321
40
0.8189782
50
348.7289744
51
0.30125
0
ARC
8
DEFAULT_255_1_388
10
4.3859353
20
21.1036156
40
0.628991
50
333.0706936
51
348.7181455
0
ARC
8
DEFAULT_255_1_388
10
4.4946981
20
21.0445449
40
0.5052808
50
299.2531435
51
333.4571133
0
ARC
8
DEFAULT_255_1_388
10
4.4541012
20
21.1216629
40
0.5924066
50
278.1072193
51
299.0340218
0
ARC
8
DEFAULT_255_1_388
10
4.4253061
20
21.2912979
40
0.7644209
50
270.4446841
51
278.4508355
0
ARC
8
DEFAULT_255_1_388
10
4.4276545
20
21.18673
40
0.5179903
50
269.4969684
51
284.0204874
0
ARC
8
DEFAULT_255_1_388
10
4.4676263
20
21.0331415
40
0.3592968
50
283.7699076
51
318.1557121
0
ARC
8
DEFAULT_255_1_388
10
4.4296808
20
21.0615399
40
0.4065308
50
318.7417595
51
343.687252
0
ARC
8
DEFAULT_255_1_388
10
4.2267387
20
21.1249275
40
0.6191194
50
343.3324891
51
355.8548594
0
ARC
8
DEFAULT_255_1_388
10
3.9906424
20
21.1473719
40
0.856237
50
355.4988754
51
0.0789913
0
ARC
8
DEFAULT_255_1_388
10
4.0787224
20
21.230108
40
0.7681709
50
359.6455047
51
9.8607559
0
ARC
8
DEFAULT_255_1_388
10
4.3442947
20
21.2780664
40
0.498312
50
9.6573037
51
26.1931522
0
ARC
8
DEFAULT_255_1_388
10
4.4487022
20
21.3265587
40
0.3832303
50
26.5777895
51
40.1533752
0
ARC
8
DEFAULT_255_1_388
10
4.4774687
20
21.349002
40
0.3467742
50
40.3839958
51
80.1430923
0
ARC
8
DEFAULT_255_1_388
10
4.4406942
20
21.1859486
40
0.5137832
50
79.2153636
51
89.7445174
0
LINE
8
DEFAULT_255_1_388
10
5.7639964
20
21.0419317
11
5.4540738
21
21.0419317
0
LINE
8
DEFAULT_255_1_388
10
5.4540738
20
21.0419317
11
5.4540738
21
20.5269
0
LINE
8
DEFAULT_255_1_388
10
5.4540738
20
20.5269
11
5.2805895
21
20.5269
0
LINE
8
DEFAULT_255_1_388
10
5.2805895
20
20.5269
11
5.2805895
21
21.8424898
0
LINE
8
DEFAULT_255_1_388
10
5.2805895
20
21.8424898
11
5.7658036
21
21.8424898
0
LINE
8
DEFAULT_255_1_388
10
5.4540738
20
21.6997267
11
5.4540738
21
21.1837914
0
LINE
8
DEFAULT_255_1_388
10
5.4540738
20
21.1837914
11
5.7658036
21
21.1837914
0
LINE
8
DEFAULT_255_1_388
10
5.7757428
20
21.6997267
11
5.4540738
21
21.6997267
0
ARC
8
DEFAULT_255_1_388
10
5.7705409
20
21.1608334
40
0.6816729
50
78.8380084
51
90.398184
0
ARC
8
DEFAULT_255_1_388
10
5.8173439
20
21.3881796
40
0.449571
50
58.9633273
51
79.0810717
0
ARC
8
DEFAULT_255_1_388
10
5.8512824
20
21.4511823
40
0.3781049
50
48.0194715
51
58.4475592
0
ARC
8
DEFAULT_255_1_388
10
5.8612644
20
21.4607818
40
0.3642936
50
3.3374546
51
48.1766642
0
ARC
8
DEFAULT_255_1_388
10
5.7227451
20
21.4408581
40
0.5038766
50
359.9483251
51
4.6822857
0
ARC
8
DEFAULT_255_1_388
10
5.7367374
20
21.4360779
40
0.4899031
50
346.1879032
51
0.5059221
0
ARC
8
DEFAULT_255_1_388
10
5.8896165
20
21.3963763
40
0.3319729
50
310.8832219
51
346.5426612
0
ARC
8
DEFAULT_255_1_388
10
5.8549014
20
21.4432853
40
0.3901853
50
286.6925305
51
310.228778
0
ARC
8
DEFAULT_255_1_388
10
5.7908744
20
21.6446585
40
0.6014737
50
274.6848219
51
287.0247342
0
ARC
8
DEFAULT_255_1_388
10
5.7655292
20
21.8931088
40
0.8511785
50
269.8968222
51
275.0192639
0
ARC
8
DEFAULT_255_1_388
10
5.7686286
20
21.6593144
40
0.4755314
50
269.6596206
51
279.4150542
0
ARC
8
DEFAULT_255_1_388
10
5.7975744
20
21.4915945
40
0.3053379
50
279.2050006
51
294.9901776
0
ARC
8
DEFAULT_255_1_388
10
5.8302378
20
21.4187353
40
0.2255036
50
295.2886769
51
311.2912669
0
ARC
8
DEFAULT_255_1_388
10
5.8382119
20
21.4068938
40
0.2113522
50
311.7853512
51
347.2860549
0
ARC
8
DEFAULT_255_1_388
10
5.7275281
20
21.435343
40
0.3256011
50
346.6891629
51
0.1057086
0
ARC
8
DEFAULT_255_1_388
10
5.6352741
20
21.4386247
40
0.417863
50
359.63239
51
359.9961329
0
ARC
8
DEFAULT_255_1_388
10
5.7517346
20
21.4413987
40
0.3014155
50
359.4673371
51
15.5931159
0
ARC
8
DEFAULT_255_1_388
10
5.8220408
20
21.4603937
40
0.2285918
50
15.7441779
51
46.620186
0
ARC
8
DEFAULT_255_1_388
10
5.8054168
20
21.4412361
40
0.2539359
50
46.8628482
51
75.6676625
0
ARC
8
DEFAULT_255_1_388
10
5.7723225
20
21.3221243
40
0.3775415
50
75.2763152
51
88.2916439
0
ARC
8
DEFAULT_255_1_388
10
5.7657224
20
21.2219097
40
0.4779221
50
87.8589087
51
88.7986197
0
LINE
8
DEFAULT_255_1_388
10
23.1198856
20
29.242369
11
23.1198856
21
29.0255135
0
LINE
8
DEFAULT_255_1_388
10
22.2895099
20
29.0029244
11
22.2895099
21
29.2261048
0
LINE
8
DEFAULT_255_1_388
10
22.9527262
20
28.9803353
11
22.9527262
21
29.2541153
0
LINE
8
DEFAULT_255_1_388
10
22.4566693
20
29.2667652
11
22.4566693
21
28.9993102
0
ARC
8
DEFAULT_255_1_388
10
21.742119
20
29.0200118
40
1.3777776
50
353.8440855
51
0.2287917
0
ARC
8
DEFAULT_255_1_388
10
22.2640208
20
28.9617414
40
0.852639
50
344.4934746
51
353.9763743
0
ARC
8
DEFAULT_255_1_388
10
22.6007015
20
28.8660191
40
0.5026273
50
329.2803599
51
344.7473406
0
ARC
8
DEFAULT_255_1_388
10
22.7122511
20
28.8048038
40
0.3754848
50
324.9361395
51
328.6153007
0
ARC
8
DEFAULT_255_1_388
10
22.7548161
20
28.7750586
40
0.3235566
50
280.5801797
51
324.9173226
0
ARC
8
DEFAULT_255_1_388
10
22.7096789
20
28.9630236
40
0.5167077
50
269.5979457
51
281.6732777
0
ARC
8
DEFAULT_255_1_388
10
22.7015693
20
28.9495113
40
0.5032026
50
256.6228565
51
270.5105488
0
ARC
8
DEFAULT_255_1_388
10
22.6563435
20
28.7753345
40
0.3233092
50
215.8618351
51
257.2787793
0
ARC
8
DEFAULT_255_1_388
10
22.7712142
20
28.8524106
40
0.4615831
50
197.9695203
51
215.2622745
0
ARC
8
DEFAULT_255_1_388
10
23.0507818
20
28.9467641
40
0.7566307
50
187.8816486
51
198.2346584
0
ARC
8
DEFAULT_255_1_388
10
23.4961056
20
29.0110453
40
1.2065653
50
180.8977266
51
188.0054894
0
ARC
8
DEFAULT_255_1_388
10
23.801127
20
29.02254
40
1.5117443
50
180.7434591
51
181.152202
0
ARC
8
DEFAULT_255_1_388
10
23.6336266
20
29.2315371
40
1.3441277
50
173.7674302
51
180.2315596
0
ARC
8
DEFAULT_255_1_388
10
23.1254135
20
29.2889779
40
0.8326847
50
164.3058537
51
173.9000553
0
ARC
8
DEFAULT_255_1_388
10
22.7978135
20
29.3833652
40
0.4917711
50
148.7922028
51
164.5682288
0
ARC
8
DEFAULT_255_1_388
10
22.6908872
20
29.4430457
40
0.3694204
50
144.5883979
51
148.1161588
0
ARC
8
DEFAULT_255_1_388
10
22.6521618
20
29.4700667
40
0.322202
50
101.6440149
51
144.5142619
0
ARC
8
DEFAULT_255_1_388
10
22.699981
20
29.2800337
40
0.5180451
50
89.528284
51
102.5820197
0
ARC
8
DEFAULT_255_1_388
10
22.7088802
20
29.2756376
40
0.5224441
50
77.0437914
51
90.508231
0
ARC
8
DEFAULT_255_1_388
10
22.7541055
20
29.4604272
40
0.3322297
50
48.2777708
51
77.4996087
0
ARC
8
DEFAULT_255_1_388
10
22.7622795
20
29.4749557
40
0.315966
50
36.3141586
51
47.6307332
0
ARC
8
DEFAULT_255_1_388
10
22.6645518
20
29.4091159
40
0.4337313
50
18.2931065
51
35.6770203
0
ARC
8
DEFAULT_255_1_388
10
22.3784358
20
29.3109107
40
0.7362203
50
8.0246996
51
18.5605636
0
ARC
8
DEFAULT_255_1_388
10
21.9100714
20
29.2417432
40
1.2096583
50
1.127539
51
8.1718423
0
ARC
8
DEFAULT_255_1_388
10
21.5451847
20
29.2274374
40
1.5747719
50
0.5432713
51
1.38669
0
ARC
8
DEFAULT_255_1_388
10
21.7509226
20
29.2581163
40
1.2018103
50
359.8092569
51
4.9408001
0
ARC
8
DEFAULT_255_1_388
10
22.2245807
20
29.30039
40
0.7262727
50
4.8364937
51
12.2906017
0
ARC
8
DEFAULT_255_1_388
10
22.5345272
20
29.3694485
40
0.4087324
50
12.0806994
51
23.8171225
0
ARC
8
DEFAULT_255_1_388
10
22.6665668
20
29.4253508
40
0.2653719
50
24.2874621
51
31.3934353
0
ARC
8
DEFAULT_255_1_388
10
22.7256104
20
29.4639822
40
0.1948607
50
30.7407708
51
82.4658033
0
ARC
8
DEFAULT_255_1_388
10
22.7053765
20
29.3646017
40
0.2961198
50
81.1057101
51
90.2187368
0
ARC
8
DEFAULT_255_1_388
10
22.7013577
20
29.3936421
40
0.2670929
50
89.380395
51
105.6763916
0
ARC
8
DEFAULT_255_1_388
10
22.6807299
20
29.468632
40
0.1893189
50
105.7980655
51
149.7387869
0
ARC
8
DEFAULT_255_1_388
10
22.8004439
20
29.3966719
40
0.3289892
50
149.4208441
51
163.628295
0
ARC
8
DEFAULT_255_1_388
10
23.0356668
20
29.3249345
40
0.5749004
50
163.3764549
51
172.141138
0
ARC
8
DEFAULT_255_1_388
10
23.406939
20
29.2717582
40
0.9499585
50
172.0258462
51
178.0705453
0
ARC
8
DEFAULT_255_1_388
10
23.7490943
20
29.2555682
40
1.2924734
50
177.8639301
51
179.5036263
0
ARC
8
DEFAULT_255_1_388
10
23.6271961
20
28.9952151
40
1.170534
50
179.7995545
51
185.246089
0
ARC
8
DEFAULT_255_1_388
10
23.1723554
20
28.9521404
40
0.7136613
50
185.1411911
51
193.0082205
0
ARC
8
DEFAULT_255_1_388
10
22.8749815
20
28.8818441
40
0.4080987
50
192.7897338
51
205.2507384
0
ARC
8
DEFAULT_255_1_388
10
22.7572025
20
28.8292538
40
0.2791522
50
205.8001921
51
211.2545876
0
ARC
8
DEFAULT_255_1_388
10
22.6983564
20
28.7898132
40
0.2084074
50
210.3789935
51
238.4007996
0
ARC
8
DEFAULT_255_1_388
10
22.696165
20
28.7950786
40
0.2117943
50
239.6521916
51
265.9793852
0
ARC
8
DEFAULT_255_1_388
10
22.7057499
20
28.8707358
40
0.2879689
50
265.1324455
51
270.0603288
0
ARC
8
DEFAULT_255_1_388
10
22.7089876
20
28.8342418
40
0.2514919
50
269.3314378
51
287.2180039
0
ARC
8
DEFAULT_255_1_388
10
22.7244958
20
28.7776291
40
0.1928357
50
287.7957942
51
329.0808983
0
ARC
8
DEFAULT_255_1_388
10
22.6167715
20
28.8448651
40
0.319808
50
328.6635261
51
343.3325043
0
ARC
8
DEFAULT_255_1_388
10
22.3723174
20
28.9210195
40
0.5758408
50
343.0498092
51
351.9392499
0
ARC
8
DEFAULT_255_1_388
10
21.9822496
20
28.9785205
40
0.9701202
50
351.8071632
51
357.7957897
0
ARC
8
DEFAULT_255_1_388
10
21.6187973
20
28.9973724
40
1.3340376
50
357.5870923
51
359.2682493
0
LINE
8
DEFAULT_255_1_388
10
23.4388439
20
29.7799898
11
23.8129196
21
28.6948089
0
LINE
8
DEFAULT_255_1_388
10
23.8129196
20
28.6948089
11
24.1888024
21
29.7799898
0
LINE
8
DEFAULT_255_1_388
10
24.1888024
20
29.7799898
11
24.3785509
21
29.7799898
0
LINE
8
DEFAULT_255_1_388
10
24.3785509
20
29.7799898
11
23.8906261
21
28.4644
0
LINE
8
DEFAULT_255_1_388
10
23.8906261
20
28.4644
11
23.7370202
21
28.4644
0
LINE
8
DEFAULT_255_1_388
10
23.7370202
20
28.4644
11
23.2499989
21
29.7799898
0
LINE
8
DEFAULT_255_1_388
10
23.2499989
20
29.7799898
11
23.4388439
21
29.7799898
0
ENDSEC
0
EOF