0
SECTION
2
HEADER
9
$MEASUREMENT
70
1
0
ENDSEC
0
SECTION
2
TABLES
0
TABLE
2
LTYPE
0
LTYPE
72
65
70
64
2
CONTINUOUS
3
______
73
0
40
0
0
ENDTAB
0
TABLE
2
LAYER
0
LAYER
2
DEFAULT_255_2_778
70
0
62
255
6
CONTINUOUS
0
ENDTAB
0
ENDSEC
0
SECTION
2
ENTITIES
0
ARC
8
DEFAULT_255_2_778
10
11.1769919
20
54.3462786
40
0.9963191
50
179.916016
51
221.6459452
0
ARC
8
DEFAULT_255_2_778
10
11.1796194
20
54.3452977
40
0.9976339
50
221.5035703
51
268.2692494
0
ARC
8
DEFAULT_255_2_778
10
11.1807641
20
54.3663981
40
1.0187593
50
268.2407389
51
270.0005447
0
ARC
8
DEFAULT_255_2_778
10
72.5822438
20
54.3441496
40
0.9965117
50
269.91548
51
311.6387597
0
ARC
8
DEFAULT_255_2_778
10
72.5834017
20
54.3465596
40
0.9975466
50
311.4970855
51
358.270217
0
ARC
8
DEFAULT_255_2_778
10
72.5618731
20
54.3477292
40
1.0191008
50
358.2410303
51
0.000554
0
ARC
8
DEFAULT_255_2_778
10
11.180901
20
109.3272231
40
1.0005159
50
90.0072863
51
134.9883116
0
ARC
8
DEFAULT_255_2_778
10
11.1811897
20
109.3275118
40
1.0005159
50
135.0116884
51
179.9927137
0
ARC
8
DEFAULT_255_2_778
10
71.6832734
20
55.2403607
40
1.7927236
50
269.9169173
51
296.0608545
0
ARC
8
DEFAULT_255_2_778
10
71.6789689
20
55.2487313
40
1.8021342
50
296.066876
51
350.8471282
0
ARC
8
DEFAULT_255_2_778
10
71.6678575
20
55.2469
40
1.8128165
50
350.9601349
51
0.0201974
0
ARC
8
DEFAULT_255_2_778
10
12.5479728
20
107.235145
40
1.7926959
50
89.9168684
51
116.0612339
0
ARC
8
DEFAULT_255_2_778
10
12.552389
20
107.2266594
40
1.802259
50
116.0688391
51
170.5907706
0
ARC
8
DEFAULT_255_2_778
10
12.5631318
20
107.2285114
40
1.8125581
50
170.7040416
51
180.0212539
0
ARC
8
DEFAULT_255_2_778
10
12.5509844
20
55.2479934
40
1.8004106
50
180.0049138
51
224.9987359
0
ARC
8
DEFAULT_255_2_778
10
12.5507837
20
55.2477004
40
1.8000614
50
224.9966578
51
269.9996853
0
LINE
8
DEFAULT_255_2_778
10
11.1807738
20
53.347639
11
72.5807738
21
53.347639
0
LINE
8
DEFAULT_255_2_778
10
73.5809738
20
54.347739
11
73.5809738
21
107.327639
0
LINE
8
DEFAULT_255_2_778
10
73.5809738
20
107.327639
11
70.5807738
21
110.327739
0
LINE
8
DEFAULT_255_2_778
10
70.5807738
20
110.327739
11
11.1807738
21
110.327739
0
LINE
8
DEFAULT_255_2_778
10
10.1806738
20
109.327639
11
10.1806738
21
54.347739
0
LINE
8
DEFAULT_255_2_778
10
73.4806738
20
55.247539
11
73.4806738
21
106.287839
0
LINE
8
DEFAULT_255_2_778
10
73.4806738
20
106.287839
11
70.7406738
21
109.027839
0
LINE
8
DEFAULT_255_2_778
10
70.7406738
20
109.027839
11
12.5505738
21
109.027839
0
LINE
8
DEFAULT_255_2_778
10
10.7505738
20
107.227839
11
10.7505738
21
55.247839
0
LINE
8
DEFAULT_255_2_778
10
12.5507738
20
53.447639
11
71.6806738
21
53.447639
0
LINE
8
DEFAULT_255_2_778
10
69.5806738
20
21.563239
11
71.5806738
21
21.563239
0
LINE
8
DEFAULT_255_2_778
10
71.5806738
20
21.563239
11
71.5806738
21
25.563139
0
LINE
8
DEFAULT_255_2_778
10
71.5806738
20
25.563139
11
69.5806738
21
25.563139
0
LINE
8
DEFAULT_255_2_778
10
69.5806738
20
25.563139
11
69.5806738
21
21.563239
0
LINE
8
DEFAULT_255_2_778
10
71.5806738
20
22.163239
11
69.6806738
21
22.163239
0
LINE
8
DEFAULT_255_2_778
10
69.6806738
20
22.163239
11
69.6806738
21
25.563139
0
LINE
8
DEFAULT_255_2_778
10
4.6804738
20
20.463039
11
4.6804738
21
18.363039
0
LINE
8
DEFAULT_255_2_778
10
4.6804738
20
18.363039
11
9.6805738
21
18.363039
0
LINE
8
DEFAULT_255_2_778
10
9.6805738
20
18.363039
11
10.1806738
21
17.863039
0
LINE
8
DEFAULT_255_2_778
10
10.1806738
20
17.863039
11
4.1804738
21
17.863039
0
LINE
8
DEFAULT_255_2_778
10
4.1804738
20
17.863039
11
4.1804738
21
20.962839
0
LINE
8
DEFAULT_255_2_778
10
10.1803738
20
17.863039
11
10.1803738
21
20.962839
0
LINE
8
DEFAULT_255_2_778
10
10.1803738
20
20.962839
11
4.1804738
21
20.962839
0
LINE
8
DEFAULT_255_2_778
10
4.1804738
20
20.962839
11
4.6804738
21
20.462839
0
LINE
8
DEFAULT_255_2_778
10
4.6804738
20
20.462839
11
9.6805738
21
20.462839
0
LINE
8
DEFAULT_255_2_778
10
9.6805738
20
20.462839
11
9.6805738
21
18.362839
0
LINE
8
DEFAULT_255_2_778
10
11.1807738
20
11.413239
11
22.5808738
21
11.413239
0
LINE
8
DEFAULT_255_2_778
10
22.5808738
20
11.413239
11
22.5808738
21
40.513239
0
LINE
8
DEFAULT_255_2_778
10
22.5808738
20
40.513239
11
1.6806738
21
40.513239
0
LINE
8
DEFAULT_255_2_778
10
1.6806738
20
40.513239
11
1.6806738
21
23.613239
0
LINE
8
DEFAULT_255_2_778
10
1.6806738
20
23.613239
11
11.1807738
21
23.613239
0
LINE
8
DEFAULT_255_2_778
10
11.1807738
20
23.613239
11
11.1807738
21
11.413239
0
ARC
8
DEFAULT_255_2_778
10
16.8746128
20
13.4149597
40
1.2440936
50
145.9364943
51
180.0920935
0
ARC
8
DEFAULT_255_2_778
10
16.8799864
20
13.4136113
40
1.2493017
50
95.7149683
51
146.0233049
0
ARC
8
DEFAULT_255_2_778
10
16.8802271
20
13.3980054
40
1.2648547
50
89.9912211
51
95.655418
0
ARC
8
DEFAULT_255_2_778
10
16.8824205
20
13.418768
40
1.2440936
50
55.9364943
51
90.0920935
0
ARC
8
DEFAULT_255_2_778
10
16.8810722
20
13.4133944
40
1.2493017
50
5.7149683
51
56.0233049
0
ARC
8
DEFAULT_255_2_778
10
16.8654663
20
13.4131538
40
1.2648547
50
359.9912211
51
5.655418
0
ARC
8
DEFAULT_255_2_778
10
81.1679806
20
12.9683039
40
6.0053458
50
270.4697963
51
283.062068
0
ARC
8
DEFAULT_255_2_778
10
81.1771678
20
12.9152046
40
5.9515448
50
283.0914429
51
301.167468
0
ARC
8
DEFAULT_255_2_778
10
81.1438217
20
12.9721879
40
6.0175612
50
301.1583439
51
339.6544892
0
ARC
8
DEFAULT_255_2_778
10
81.1843087
20
12.9502214
40
5.9719664
50
339.7170383
51
354.2184764
0
ARC
8
DEFAULT_255_2_778
10
81.0802185
20
12.9618888
40
6.0767025
50
354.2078924
51
0.0091567
0
ARC
8
DEFAULT_255_2_778
10
83.1421152
20
26.6248609
40
0.1553721
50
110.2175635
51
121.7653571
0
ARC
8
DEFAULT_255_2_778
10
83.1750956
20
26.5379916
40
0.2482883
50
101.5409781
51
110.4316066
0
ARC
8
DEFAULT_255_2_778
10
83.2216276
20
26.3388255
40
0.4527736
50
96.5320055
51
102.2679043
0
ARC
8
DEFAULT_255_2_778
10
83.241535
20
26.1518505
40
0.6408013
50
94.1177902
51
96.3986204
0
ARC
8
DEFAULT_255_2_778
10
83.2453918
20
26.0986793
40
0.694112
50
92.0203833
51
94.120169
0
ARC
8
DEFAULT_255_2_778
10
83.256004
20
26.0623883
40
0.7302461
50
85.8902086
51
88.4292648
0
ARC
8
DEFAULT_255_2_778
10
83.2495553
20
25.9682205
40
0.8246338
50
84.2187778
51
85.9122106
0
ARC
8
DEFAULT_255_2_778
10
83.2734381
20
26.1523414
40
0.2998188
50
90.0606218
51
173.7157271
0
ARC
8
DEFAULT_255_2_778
10
86.6553376
20
26.954749
40
0.5025921
50
270.2032944
51
314.9350523
0
ARC
8
DEFAULT_255_2_778
10
86.6565292
20
26.9524046
40
0.5000916
50
315.0281144
51
0.006346
0
ARC
8
DEFAULT_255_2_778
10
69.5424462
20
12.6095593
40
1.1482462
50
270.5176848
51
325.8428678
0
ARC
8
DEFAULT_255_2_778
10
81.1714342
20
12.9594864
40
4.5122879
50
345.3457374
51
0.042837
0
ARC
8
DEFAULT_255_2_778
10
81.1959933
20
12.9570019
40
4.4879008
50
321.494947
51
345.2971039
0
ARC
8
DEFAULT_255_2_778
10
81.1821954
20
12.961191
40
4.5013097
50
288.5765337
51
321.5625634
0
ARC
8
DEFAULT_255_2_778
10
81.1957985
20
12.9401505
40
4.4770361
50
272.7397972
51
288.497297
0
ARC
8
DEFAULT_255_2_778
10
81.1888765
20
13.0291138
40
4.5662293
50
270.5024714
51
272.7731935
0
ARC
8
DEFAULT_255_2_778
10
69.5282775
20
12.6083017
40
1.9471217
50
270.5191798
51
325.8427883
0
ARC
8
DEFAULT_255_2_778
10
69.5340989
20
12.6080373
40
1.6467414
50
270.5052748
51
325.8516696
0
ARC
8
DEFAULT_255_2_778
10
77.042969
20
17.8055053
40
1.6470548
50
90.0121117
51
145.8558124
0
ARC
8
DEFAULT_255_2_778
10
80.7133695
20
21.095493
40
1.6429333
50
269.9669179
51
300.6873955
0
ARC
8
DEFAULT_255_2_778
10
80.7119601
20
21.1008097
40
1.6482254
50
300.6352064
51
346.9198719
0
ARC
8
DEFAULT_255_2_778
10
80.6989842
20
21.102411
40
1.6612275
50
346.9673578
51
352.8575649
0
ARC
8
DEFAULT_255_2_778
10
77.0389973
20
17.8045634
40
1.3481967
50
90.024497
51
145.8309471
0
ARC
8
DEFAULT_255_2_778
10
80.7100518
20
21.0914491
40
1.93869
50
269.9458881
51
297.7063332
0
ARC
8
DEFAULT_255_2_778
10
80.7052487
20
21.1018346
40
1.9501181
50
297.6894042
51
344.1720043
0
ARC
8
DEFAULT_255_2_778
10
80.6921162
20
21.1038942
40
1.9633149
50
344.2187084
51
351.5903461
0
ARC
8
DEFAULT_255_2_778
10
85.9503607
20
26.8776792
40
0.7250216
50
270.1470001
51
278.7314019
0
ARC
8
DEFAULT_255_2_778
10
85.9534263
20
26.8509423
40
0.69813
50
278.8158244
51
287.5914816
0
ARC
8
DEFAULT_255_2_778
10
85.9827151
20
26.7596456
40
0.6022509
50
287.5604075
51
297.5447661
0
ARC
8
DEFAULT_255_2_778
10
86.0093455
20
26.7108535
40
0.5466753
50
297.4348883
51
308.3210304
0
ARC
8
DEFAULT_255_2_778
10
86.0059164
20
26.7117277
40
0.5494917
50
308.5450281
51
320.1412408
0
ARC
8
DEFAULT_255_2_778
10
85.9393897
20
26.766503
40
0.6356649
50
320.1943995
51
330.3314026
0
ARC
8
DEFAULT_255_2_778
10
80.7222694
20
21.101092
40
1.1478353
50
310.7594619
51
352.8669043
0
ARC
8
DEFAULT_255_2_778
10
80.7226152
20
21.0977059
40
1.1450463
50
269.9552465
51
310.8569764
0
ARC
8
DEFAULT_255_2_778
10
77.0519262
20
17.8068806
40
2.1457793
50
90.0001426
51
145.8557559
0
LINE
8
DEFAULT_255_2_778
10
11.6805209
20
11.41316
11
11.6805209
21
17.16316
0
LINE
8
DEFAULT_255_2_778
10
11.6805209
20
17.16316
11
15.6305209
21
17.16316
0
LINE
8
DEFAULT_255_2_778
10
15.6305209
20
17.16316
11
15.6305209
21
16.16306
0
LINE
8
DEFAULT_255_2_778
10
15.6305209
20
16.16306
11
13.1804209
21
16.16306
0
LINE
8
DEFAULT_255_2_778
10
13.1804209
20
16.16306
11
13.1804209
21
12.06306
0
LINE
8
DEFAULT_255_2_778
10
13.1804209
20
12.06306
11
15.6305209
21
12.06306
0
LINE
8
DEFAULT_255_2_778
10
15.6305209
20
12.06306
11
15.6305209
21
13.41296
0
LINE
8
DEFAULT_255_2_778
10
18.1303209
20
13.41296
11
18.1303209
21
12.06306
0
LINE
8
DEFAULT_255_2_778
10
18.1303209
20
12.06306
11
20.5803209
21
12.06306
0
LINE
8
DEFAULT_255_2_778
10
20.5803209
20
12.06306
11
20.5803209
21
16.16306
0
LINE
8
DEFAULT_255_2_778
10
20.5803209
20
16.16306
11
18.1303209
21
16.16306
0
LINE
8
DEFAULT_255_2_778
10
18.1303209
20
16.16306
11
18.1303209
21
17.16316
0
LINE
8
DEFAULT_255_2_778
10
18.1303209
20
17.16316
11
22.0802209
21
17.16316
0
LINE
8
DEFAULT_255_2_778
10
22.0802209
20
17.16316
11
22.0802209
21
11.41316
0
LINE
8
DEFAULT_255_2_778
10
68.5818209
20
6.85286
11
81.2172209
21
6.96316
0
LINE
8
DEFAULT_255_2_778
10
83.0349209
20
26.72336
11
83.0373209
21
26.73236
0
LINE
8
DEFAULT_255_2_778
10
83.0373209
20
26.73236
11
83.0423209
21
26.74106
0
LINE
8
DEFAULT_255_2_778
10
83.0423209
20
26.74106
11
83.0500209
21
26.74926
0
LINE
8
DEFAULT_255_2_778
10
83.0500209
20
26.74926
11
83.0603209
21
26.75696
0
LINE
8
DEFAULT_255_2_778
10
83.2209209
20
26.79236
11
83.2760209
21
26.79236
0
LINE
8
DEFAULT_255_2_778
10
83.3326209
20
26.78866
11
83.2733209
21
26.45216
0
LINE
8
DEFAULT_255_2_778
10
83.2733209
20
26.45216
11
83.2680209
21
26.15206
0
LINE
8
DEFAULT_255_2_778
10
83.2680209
20
26.15206
11
82.9754209
21
26.18516
0
LINE
8
DEFAULT_255_2_778
10
83.2731209
20
26.45216
11
86.6571209
21
26.45216
0
LINE
8
DEFAULT_255_2_778
10
87.1566209
20
26.95246
11
83.3598209
21
26.95246
0
LINE
8
DEFAULT_255_2_778
10
83.3598209
20
26.95246
11
83.0624209
21
26.98476
0
LINE
8
DEFAULT_255_2_778
10
81.2167209
20
6.96296
11
81.2172209
21
6.96346
0
LINE
8
DEFAULT_255_2_778
10
81.2172209
20
6.96346
11
81.2178209
21
6.96476
0
LINE
8
DEFAULT_255_2_778
10
81.2178209
20
6.96476
11
81.2183209
21
6.96716
0
LINE
8
DEFAULT_255_2_778
10
81.2183209
20
6.96716
11
81.2188209
21
6.97036
0
LINE
8
DEFAULT_255_2_778
10
81.2188209
20
6.97036
11
81.2199209
21
6.97936
0
LINE
8
DEFAULT_255_2_778
10
81.2199209
20
6.97936
11
81.2209209
21
6.99206
0
LINE
8
DEFAULT_255_2_778
10
81.2209209
20
6.99206
11
81.2220209
21
7.00816
0
LINE
8
DEFAULT_255_2_778
10
81.2220209
20
7.00816
11
81.2230209
21
7.02776
0
LINE
8
DEFAULT_255_2_778
10
81.2230209
20
7.02776
11
81.2241209
21
7.05076
0
LINE
8
DEFAULT_255_2_778
10
81.2241209
20
7.05076
11
81.2252209
21
7.07726
0
LINE
8
DEFAULT_255_2_778
10
81.2252209
20
7.07726
11
81.2260209
21
7.10716
0
LINE
8
DEFAULT_255_2_778
10
81.2260209
20
7.10716
11
81.2268209
21
7.14016
0
LINE
8
DEFAULT_255_2_778
10
81.2268209
20
7.14016
11
81.2283209
21
7.21586
0
LINE
8
DEFAULT_255_2_778
10
81.2283209
20
7.21586
11
81.2297209
21
7.30346
0
LINE
8
DEFAULT_255_2_778
10
81.2297209
20
7.30346
11
81.2307209
21
7.40236
0
LINE
8
DEFAULT_255_2_778
10
81.2307209
20
7.40236
11
81.2315209
21
7.51136
0
LINE
8
DEFAULT_255_2_778
10
81.2315209
20
7.51136
11
81.2321209
21
7.62966
0
LINE
8
DEFAULT_255_2_778
10
81.2321209
20
7.62966
11
81.2321209
21
7.75586
0
LINE
8
DEFAULT_255_2_778
10
81.2321209
20
7.75586
11
81.2321209
21
7.88896
0
LINE
8
DEFAULT_255_2_778
10
81.2321209
20
7.88896
11
81.2310209
21
8.17076
0
LINE
8
DEFAULT_255_2_778
10
81.2310209
20
8.17076
11
81.2289209
21
8.46306
0
LINE
8
DEFAULT_255_2_778
10
82.6391209
20
20.85826
11
81.8604209
21
20.95856
0
LINE
8
DEFAULT_255_2_778
10
83.3315209
20
26.78916
11
83.3588209
21
26.95276
0
LINE
8
DEFAULT_255_2_778
10
83.3588209
20
26.95276
11
83.6215209
21
29.45276
0
LINE
8
DEFAULT_255_2_778
10
81.2289209
20
8.46306
11
68.5805209
21
8.35246
0
LINE
8
DEFAULT_255_2_778
10
68.5805209
20
10.65276
11
69.5459209
21
10.66126
0
LINE
8
DEFAULT_255_2_778
10
68.5805209
20
10.95286
11
69.5486209
21
10.96136
0
LINE
8
DEFAULT_255_2_778
10
70.8969209
20
11.68366
11
75.6798209
21
18.72996
0
LINE
8
DEFAULT_255_2_778
10
77.0426209
20
19.45256
11
80.7124209
21
19.45256
0
LINE
8
DEFAULT_255_2_778
10
82.3473209
20
20.89586
11
83.0336209
21
26.72356
0
LINE
8
DEFAULT_255_2_778
10
83.0336209
20
26.72356
11
83.0614209
21
26.98496
0
LINE
8
DEFAULT_255_2_778
10
83.0614209
20
26.98496
11
83.3209209
21
29.45246
0
LINE
8
DEFAULT_255_2_778
10
68.5797209
20
11.45266
11
69.5520209
21
11.46106
0
LINE
8
DEFAULT_255_2_778
10
69.5520209
20
11.46106
11
69.5528209
21
11.36376
0
LINE
8
DEFAULT_255_2_778
10
69.5528209
20
11.36376
11
69.5531209
21
11.26976
0
LINE
8
DEFAULT_255_2_778
10
69.5531209
20
11.26976
11
69.5531209
21
11.22536
0
LINE
8
DEFAULT_255_2_778
10
69.5531209
20
11.22536
11
69.5531209
21
11.18326
0
LINE
8
DEFAULT_255_2_778
10
69.5531209
20
11.18326
11
69.5528209
21
11.14386
0
LINE
8
DEFAULT_255_2_778
10
69.5528209
20
11.14386
11
69.5525209
21
11.10766
0
LINE
8
DEFAULT_255_2_778
10
69.5525209
20
11.10766
11
69.5523209
21
11.07476
0
LINE
8
DEFAULT_255_2_778
10
69.5523209
20
11.07476
11
69.5518209
21
11.04566
0
LINE
8
DEFAULT_255_2_778
10
69.5518209
20
11.04566
11
69.5512209
21
11.02056
0
LINE
8
DEFAULT_255_2_778
10
69.5512209
20
11.02056
11
69.5507209
21
10.99966
0
LINE
8
DEFAULT_255_2_778
10
69.5507209
20
10.99966
11
69.5504209
21
10.99096
0
LINE
8
DEFAULT_255_2_778
10
69.5504209
20
10.99096
11
69.5502209
21
10.98326
0
LINE
8
DEFAULT_255_2_778
10
69.5502209
20
10.98326
11
69.5499209
21
10.97666
0
LINE
8
DEFAULT_255_2_778
10
69.5499209
20
10.97666
11
69.5496209
21
10.97136
0
LINE
8
DEFAULT_255_2_778
10
69.5496209
20
10.97136
11
69.5494209
21
10.96716
0
LINE
8
DEFAULT_255_2_778
10
69.5494209
20
10.96716
11
69.5491209
21
10.96426
0
LINE
8
DEFAULT_255_2_778
10
69.5491209
20
10.96426
11
69.5488209
21
10.96236
0
LINE
8
DEFAULT_255_2_778
10
69.5488209
20
10.96236
11
69.5486209
21
10.96186
0
LINE
8
DEFAULT_255_2_778
10
69.5486209
20
10.96186
11
69.5486209
21
10.96156
0
LINE
8
DEFAULT_255_2_778
10
69.5486209
20
10.96156
11
69.5459209
21
10.66156
0
LINE
8
DEFAULT_255_2_778
10
70.8980209
20
11.68386
11
71.1406209
21
11.51536
0
LINE
8
DEFAULT_255_2_778
10
71.1406209
20
11.51536
11
75.9235209
21
18.56176
0
LINE
8
DEFAULT_255_2_778
10
75.9235209
20
18.56176
11
75.2765209
21
19.01156
0
LINE
8
DEFAULT_255_2_778
10
75.2765209
20
19.01156
11
70.4937209
21
11.96516
0
LINE
8
DEFAULT_255_2_778
10
70.4937209
20
11.96516
11
70.8980209
21
11.68386
0
LINE
8
DEFAULT_255_2_778
10
77.0384209
20
19.15276
11
80.7082209
21
19.15276
0
LINE
8
DEFAULT_255_2_778
10
82.6343209
20
20.81676
11
82.6402209
21
20.85826
0
LINE
8
DEFAULT_255_2_778
10
82.6402209
20
20.85826
11
83.2678209
21
26.15266
0
LINE
8
DEFAULT_255_2_778
10
83.2678209
20
26.15266
11
85.9522209
21
26.15266
0
LINE
8
DEFAULT_255_2_778
10
82.8293209
20
29.45276
11
81.8612209
21
20.95856
0
LINE
8
DEFAULT_255_2_778
10
80.7217209
20
19.95266
11
77.0519209
21
19.95266
0
LINE
8
DEFAULT_255_2_778
10
68.5810209
20
29.45276
11
87.1561209
21
29.45276
0
LINE
8
DEFAULT_255_2_778
10
87.1561209
20
29.45276
11
87.1561209
21
12.96286
0
LINE
8
DEFAULT_255_2_778
10
87.1561209
20
12.96286
11
85.6842209
21
12.96286
0
LINE
8
DEFAULT_255_2_778
10
85.6842209
20
12.96286
11
85.6842209
21
26.15266
0
ARC
8
DEFAULT_255_2_778
10
0.9067165
20
122.0474506
40
0.4990763
50
359.88235
51
90.11765
0
ARC
8
DEFAULT_255_2_778
10
0.9067802
20
8.8754373
40
0.4990126
50
269.8750122
51
0.1249878
0
ARC
8
DEFAULT_255_2_778
10
83.8558612
20
31.3615777
40
0.2997481
50
22.7981377
51
90.0323997
0
ARC
8
DEFAULT_255_2_778
10
3.9555489
20
46.8615558
40
0.99997
50
90.0032767
51
121.6798853
0
ARC
8
DEFAULT_255_2_778
10
0.4443897
20
43.5687316
40
101.1938416
50
42.3790296
51
48.3497372
0
ARC
8
DEFAULT_255_2_778
10
80.4246857
20
109.463651
40
1.4953172
50
7.0517913
51
40.3375344
0
ARC
8
DEFAULT_255_2_778
10
80.4204937
20
109.4624462
40
1.4992935
50
40.268936
51
85.16225
0
ARC
8
DEFAULT_255_2_778
10
80.4200245
20
109.4473996
40
1.5143262
50
85.1925699
51
89.997457
0
ARC
8
DEFAULT_255_2_778
10
84.4605667
20
29.7932249
40
0.3050797
50
179.6805525
51
253.1612955
0
ARC
8
DEFAULT_255_2_778
10
82.3558589
20
29.6799622
40
0.1787372
50
269.8181853
51
270.0606425
0
ARC
8
DEFAULT_255_2_778
10
82.3561084
20
29.8007906
40
0.2995657
50
269.9884619
51
314.8266893
0
ARC
8
DEFAULT_255_2_778
10
82.3560787
20
29.8002634
40
0.2992131
50
314.9018894
51
359.9545016
0
ARC
8
DEFAULT_255_2_778
10
80.4260022
20
109.4644196
40
1.9936019
50
7.0592846
51
33.7965164
0
ARC
8
DEFAULT_255_2_778
10
80.4193131
20
109.4607567
40
2.0011982
50
33.7771368
51
82.2393727
0
ARC
8
DEFAULT_255_2_778
10
80.4203089
20
109.4502803
40
2.0114455
50
82.3077745
51
90.0118843
0
ARC
8
DEFAULT_255_2_778
10
66.6991382
20
118.0613805
40
2.0001453
50
48.3500012
51
90.0013327
0
ARC
8
DEFAULT_255_2_778
10
0.4339498
20
43.561576
40
101.7061934
50
42.3779727
51
48.3479729
0
ARC
8
DEFAULT_255_2_778
10
77.0431975
20
113.4616039
40
2.000078
50
222.3814086
51
269.9998325
0
ARC
8
DEFAULT_255_2_778
10
4.1820102
20
48.3618587
40
0.50002
50
189.1058847
51
245.4542024
0
ARC
8
DEFAULT_255_2_778
10
77.0432751
20
113.4618309
40
2.5001051
50
222.3807074
51
269.998087
0
ARC
8
DEFAULT_255_2_778
10
66.6991119
20
118.0614801
40
1.5002457
50
48.3577322
51
90.0007719
0
ARC
8
DEFAULT_255_2_778
10
70.1635286
20
99.7825295
40
25.4296559
50
101.999572
51
103.8914598
0
LINE
8
DEFAULT_255_2_778
10
60.6554917
20
8.9264258
11
11.8556917
21
8.9264258
0
LINE
8
DEFAULT_255_2_778
10
11.8556917
20
8.9264258
11
11.8556917
21
10.9114258
0
LINE
8
DEFAULT_255_2_778
10
11.8556917
20
10.9114258
11
8.2555917
21
10.9114258
0
LINE
8
DEFAULT_255_2_778
10
8.2555917
20
10.9114258
11
8.2555917
21
8.9264258
0
LINE
8
DEFAULT_255_2_778
10
8.2555917
20
8.9264258
11
1.4054917
21
8.9264258
0
LINE
8
DEFAULT_255_2_778
10
1.4054917
20
8.9264258
11
1.4054917
21
45.7437258
0
LINE
8
DEFAULT_255_2_778
10
1.4054917
20
45.7437258
11
2.1732917
21
46.5116258
0
LINE
8
DEFAULT_255_2_778
10
2.1732917
20
46.5116258
11
6.0054917
21
46.5116258
0
LINE
8
DEFAULT_255_2_778
10
6.0054917
20
46.5116258
11
6.0054917
21
84.5116258
0
LINE
8
DEFAULT_255_2_778
10
6.0054917
20
84.5116258
11
4.7555917
21
83.2617258
0
LINE
8
DEFAULT_255_2_778
10
4.7555917
20
83.2617258
11
4.7555917
21
47.7617258
0
LINE
8
DEFAULT_255_2_778
10
4.7555917
20
47.7617258
11
1.6554917
21
47.7617258
0
LINE
8
DEFAULT_255_2_778
10
1.6554917
20
47.7617258
11
0.1555917
21
46.2615258
0
LINE
8
DEFAULT_255_2_778
10
0.1555917
20
46.2615258
11
0.1555917
21
-0.1884742
0
LINE
8
DEFAULT_255_2_778
10
0.1555917
20
-0.1884742
11
4.7555917
21
-0.1884742
0
LINE
8
DEFAULT_255_2_778
10
4.7555917
20
-0.1884742
11
4.7555917
21
3.7615258
0
LINE
8
DEFAULT_255_2_778
10
4.7555917
20
3.7615258
11
6.7555917
21
6.5116258
0
LINE
8
DEFAULT_255_2_778
10
6.7555917
20
6.5116258
11
68.5556917
21
6.5116258
0
LINE
8
DEFAULT_255_2_778
10
68.5556917
20
6.5116258
11
68.5556917
21
29.5116258
0
LINE
8
DEFAULT_255_2_778
10
68.5556917
20
29.5116258
11
87.1555917
21
29.5116258
0
LINE
8
DEFAULT_255_2_778
10
87.1555917
20
29.5116258
11
87.1555917
21
124.0115258
0
LINE
8
DEFAULT_255_2_778
10
87.1555917
20
124.0115258
11
84.1554917
21
124.0115258
0
LINE
8
DEFAULT_255_2_778
10
84.1554917
20
124.0115258
11
84.1554917
21
120.1115258
0
LINE
8
DEFAULT_255_2_778
10
0.9056917
20
122.5465258
11
0.9056917
21
122.5465258
0
LINE
8
DEFAULT_255_2_778
10
82.6555917
20
103.1835258
11
83.1556917
21
103.2099258
0
LINE
8
DEFAULT_255_2_778
10
0.1555917
20
1.7615258
11
4.7555917
21
1.7615258
0
LINE
8
DEFAULT_255_2_778
10
84.1554917
20
120.0745258
11
84.1554917
21
29.7949258
0
LINE
8
DEFAULT_255_2_778
10
83.1553917
20
120.0745258
11
83.1553917
21
29.5261258
0
LINE
8
DEFAULT_255_2_778
10
82.6552917
20
29.8000258
11
82.6552917
21
103.2110258
0
LINE
8
DEFAULT_255_2_778
10
82.6552917
20
103.2110258
11
81.9083917
21
109.6472258
0
LINE
8
DEFAULT_255_2_778
10
81.9083917
20
109.6472258
11
82.4044917
21
109.7094258
0
LINE
8
DEFAULT_255_2_778
10
82.4044917
20
109.7094258
11
83.1553917
21
103.2102258
0
LINE
8
DEFAULT_255_2_778
10
83.1553917
20
103.2102258
11
82.4044917
21
109.7094258
0
LINE
8
DEFAULT_255_2_778
10
1.4057917
20
45.6937258
11
0.1555917
21
46.2115258
0
LINE
8
DEFAULT_255_2_778
10
84.1554917
20
31.1615258
11
83.1556917
21
31.1615258
0
LINE
8
DEFAULT_255_2_778
10
83.1556917
20
31.6616258
11
83.8556917
21
31.6616258
0
LINE
8
DEFAULT_255_2_778
10
83.8556917
20
31.6616258
11
83.8556917
21
29.5010258
0
LINE
8
DEFAULT_255_2_778
10
66.6990917
20
119.5614258
11
66.6990917
21
120.0615258
0
LINE
8
DEFAULT_255_2_778
10
68.5553917
20
10.8613258
11
60.6554917
21
10.8613258
0
LINE
8
DEFAULT_255_2_778
10
60.6554917
20
10.8613258
11
60.6554917
21
8.3764258
0
LINE
8
DEFAULT_255_2_778
10
60.6554917
20
8.3764258
11
11.6556917
21
8.3764258
0
LINE
8
DEFAULT_255_2_778
10
74.8487917
20
6.9161258
11
74.4555917
21
6.4126258
0
LINE
8
DEFAULT_255_2_778
10
74.4555917
20
6.4126258
11
74.0086917
21
6.9087258
0
LINE
8
DEFAULT_255_2_778
10
74.0086917
20
6.9087258
11
73.6155917
21
6.4055258
0
LINE
8
DEFAULT_255_2_778
10
73.6155917
20
6.4055258
11
73.1686917
21
6.9016258
0
LINE
8
DEFAULT_255_2_778
10
73.1686917
20
6.9016258
11
72.7754917
21
6.3981258
0
LINE
8
DEFAULT_255_2_778
10
72.7754917
20
6.3981258
11
72.3285917
21
6.8942258
0
LINE
8
DEFAULT_255_2_778
10
72.3285917
20
6.8942258
11
71.9354917
21
6.3907258
0
LINE
8
DEFAULT_255_2_778
10
71.9354917
20
6.3907258
11
71.4885917
21
6.8868258
0
LINE
8
DEFAULT_255_2_778
10
71.4885917
20
6.8868258
11
71.0953917
21
6.3833258
0
LINE
8
DEFAULT_255_2_778
10
71.0953917
20
6.3833258
11
70.6484917
21
6.8794258
0
LINE
8
DEFAULT_255_2_778
10
70.6484917
20
6.8794258
11
70.2553917
21
6.3759258
0
LINE
8
DEFAULT_255_2_778
10
70.2553917
20
6.3759258
11
69.8084917
21
6.8720258
0
LINE
8
DEFAULT_255_2_778
10
69.8084917
20
6.8720258
11
69.4152917
21
6.3685258
0
LINE
8
DEFAULT_255_2_778
10
69.4152917
20
6.3685258
11
68.9683917
21
6.8646258
0
LINE
8
DEFAULT_255_2_778
10
0.1555917
20
84.7116258
11
1.6554917
21
83.2117258
0
LINE
8
DEFAULT_255_2_778
10
2.1732917
20
84.4615258
11
1.4054917
21
85.2294258
0
LINE
8
DEFAULT_255_2_778
10
11.6553917
20
10.8616258
11
11.6553917
21
8.4007258
0
LINE
8
DEFAULT_255_2_778
10
8.4555917
20
10.8616258
11
8.4555917
21
8.3766258
0
LINE
8
DEFAULT_255_2_778
10
8.4555917
20
8.3766258
11
0.1555917
21
8.3766258
0
LINE
8
DEFAULT_255_2_778
10
3.9554917
20
47.9157258
11
3.9554917
21
47.8615258
0
LINE
8
DEFAULT_255_2_778
10
3.9554917
20
47.8615258
11
4.7555917
21
47.8615258
0
LINE
8
DEFAULT_255_2_778
10
6.0054917
20
84.4615258
11
2.1732917
21
84.4615258
0
LINE
8
DEFAULT_255_2_778
10
2.1732917
20
84.4615258
11
1.6554917
21
83.2117258
0
LINE
8
DEFAULT_255_2_778
10
1.6554917
20
83.2117258
11
4.7555917
21
83.2117258
0
LINE
8
DEFAULT_255_2_778
10
3.6882917
20
48.2827258
11
3.3556917
21
50.3618258
0
LINE
8
DEFAULT_255_2_778
10
3.3556917
20
50.3618258
11
2.2555917
21
50.3618258
0
LINE
8
DEFAULT_255_2_778
10
2.2555917
20
50.3618258
11
0.7556917
21
47.3617258
0
LINE
8
DEFAULT_255_2_778
10
0.7556917
20
47.3617258
11
0.7556917
21
46.8116258
0
LINE
8
DEFAULT_255_2_778
10
0.7556917
20
84.1115258
11
0.7556917
21
83.8615258
0
LINE
8
DEFAULT_255_2_778
10
0.7556917
20
83.8615258
11
2.2555917
21
80.8614258
0
LINE
8
DEFAULT_255_2_778
10
2.2555917
20
80.8614258
11
3.3556917
21
80.8614258
0
LINE
8
DEFAULT_255_2_778
10
3.3556917
20
80.8614258
11
3.7316917
21
83.2114258
0
LINE
8
DEFAULT_255_2_778
10
77.0431917
20
110.9617258
11
77.0431917
21
111.4617258
0
LINE
8
DEFAULT_255_2_778
10
77.0431917
20
111.4617258
11
80.4200917
21
111.4617258
0
LINE
8
DEFAULT_255_2_778
10
80.4200917
20
111.4617258
11
80.4200917
21
110.9617258
0
LINE
8
DEFAULT_255_2_778
10
80.4200917
20
110.9617258
11
77.0431917
21
110.9617258
0
LINE
8
DEFAULT_255_2_778
10
75.1964917
20
111.7766258
11
75.5657917
21
112.1137258
0
LINE
8
DEFAULT_255_2_778
10
75.5657917
20
112.1137258
11
68.0283917
21
119.5561258
0
LINE
8
DEFAULT_255_2_778
10
68.0283917
20
119.5561258
11
67.6959917
21
119.1826258
0
LINE
8
DEFAULT_255_2_778
10
66.6990917
20
119.5617258
11
60.6554917
21
119.5617258
0
LINE
8
DEFAULT_255_2_778
10
60.6554917
20
119.5617258
11
60.6554917
21
122.5465258
0
LINE
8
DEFAULT_255_2_778
10
60.6554917
20
122.5465258
11
0.1555917
21
122.5465258
0
LINE
8
DEFAULT_255_2_778
10
83.1556917
20
38.0716258
11
83.2556917
21
38.0716258
0
LINE
8
DEFAULT_255_2_778
10
83.2556917
20
38.0716258
11
83.2556917
21
113.4615258
0
LINE
8
DEFAULT_255_2_778
10
83.2556917
20
113.4615258
11
83.1556917
21
113.4615258
0
LINE
8
DEFAULT_255_2_778
10
60.6556917
20
120.0615258
11
87.1555917
21
120.0615258
0
LINE
8
DEFAULT_255_2_778
10
60.6556917
20
122.0464258
11
1.4057917
21
122.0464258
0
LINE
8
DEFAULT_255_2_778
10
1.4057917
20
122.0464258
11
1.4057917
21
85.2291258
0
LINE
8
DEFAULT_255_2_778
10
1.4057917
20
85.2291258
11
0.1555917
21
84.7116258
0
LINE
8
DEFAULT_255_2_778
10
0.1555917
20
84.7116258
11
0.1555917
21
131.4616258
0
LINE
8
DEFAULT_255_2_778
10
0.1555917
20
131.4616258
11
4.7555917
21
131.4616258
0
LINE
8
DEFAULT_255_2_778
10
4.7555917
20
131.4616258
11
4.7555917
21
127.2116258
0
LINE
8
DEFAULT_255_2_778
10
4.7555917
20
127.2116258
11
6.5055917
21
124.4615258
0
LINE
8
DEFAULT_255_2_778
10
6.5055917
20
124.4615258
11
83.9556917
21
124.4615258
0
LINE
8
DEFAULT_255_2_778
10
83.9556917
20
124.4615258
11
83.9556917
21
120.0615258
0
LINE
8
DEFAULT_255_2_778
10
64.8765917
20
124.6565258
11
65.2210917
21
124.9788258
0
LINE
8
DEFAULT_255_2_778
10
65.2210917
20
124.9788258
11
65.6724917
21
124.8063258
0
LINE
8
DEFAULT_255_2_778
10
65.6724917
20
124.8063258
11
66.0357917
21
125.1248258
0
LINE
8
DEFAULT_255_2_778
10
66.0357917
20
125.1248258
11
66.4812917
21
124.9380258
0
LINE
8
DEFAULT_255_2_778
10
66.4812917
20
124.9380258
11
66.8546917
21
125.2447258
0
LINE
8
DEFAULT_255_2_778
10
66.8546917
20
125.2447258
11
67.2938917
21
125.0436258
0
LINE
8
DEFAULT_255_2_778
10
67.2938917
20
125.0436258
11
67.6769917
21
125.3381258
0
LINE
8
DEFAULT_255_2_778
10
67.6769917
20
125.3381258
11
68.1095917
21
125.1227258
0
LINE
8
DEFAULT_255_2_778
10
68.1095917
20
125.1227258
11
68.5019917
21
125.4048258
0
LINE
8
DEFAULT_255_2_778
10
68.5019917
20
125.4048258
11
68.9273917
21
125.1756258
0
LINE
8
DEFAULT_255_2_778
10
68.9273917
20
125.1756258
11
69.3287917
21
125.4447258
0
LINE
8
DEFAULT_255_2_778
10
69.3287917
20
125.4447258
11
69.7465917
21
125.2021258
0
LINE
8
DEFAULT_255_2_778
10
69.7465917
20
125.2021258
11
70.1560917
21
125.4582258
0
LINE
8
DEFAULT_255_2_778
10
70.1560917
20
125.4582258
11
70.5656917
21
125.2021258
0
LINE
8
DEFAULT_255_2_778
10
70.5656917
20
125.2021258
11
70.9834917
21
125.4447258
0
LINE
8
DEFAULT_255_2_778
10
70.9834917
20
125.4447258
11
71.3848917
21
125.1756258
0
LINE
8
DEFAULT_255_2_778
10
71.3848917
20
125.1756258
11
71.8102917
21
125.4048258
0
LINE
8
DEFAULT_255_2_778
10
71.8102917
20
125.4048258
11
72.2026917
21
125.1227258
0
LINE
8
DEFAULT_255_2_778
10
72.2026917
20
125.1227258
11
72.6352917
21
125.3381258
0
LINE
8
DEFAULT_255_2_778
10
72.6352917
20
125.3381258
11
73.0183917
21
125.0436258
0
LINE
8
DEFAULT_255_2_778
10
73.0183917
20
125.0436258
11
73.4575917
21
125.2447258
0
LINE
8
DEFAULT_255_2_778
10
73.4575917
20
125.2447258
11
73.8308917
21
124.9380258
0
LINE
8
DEFAULT_255_2_778
10
73.8308917
20
124.9380258
11
74.2764917
21
125.1248258
0
LINE
8
DEFAULT_255_2_778
10
74.2764917
20
125.1248258
11
74.6397917
21
124.8063258
0
LINE
8
DEFAULT_255_2_778
10
74.6397917
20
124.8063258
11
75.0911917
21
124.9788258
0
LINE
8
DEFAULT_255_2_778
10
75.0911917
20
124.9788258
11
75.4437917
21
124.6486258
0
LINE
8
DEFAULT_255_2_778
10
75.4437917
20
124.6486258
11
75.9004917
21
124.8063258
0
LINE
8
DEFAULT_255_2_778
10
75.9004917
20
124.8063258
11
76.2370917
21
124.4681258
0
LINE
8
DEFAULT_255_2_778
10
4.7555917
20
129.4616258
11
0.1555917
21
129.4616258
0
ENDSEC
0
EOF